  0
SECTION
  2
HEADER
  9
$ACADVER
  1
AC1024
  9
$DWGCODEPAGE
  3
ANSI_1252
  9
$EXTMAX
 10
297.0
 20
210.0
 30
0.0
  9
$EXTMIN
 10
0.0
 20
0.0
 30
0.0
  9
$LIMMIN
 10
0.0
 20
0.0
  9
$LIMMAX
 10
297.0
 20
210.0
  9
$VIEWCTR
 10
148.5
 20
105.0
  9
$VIEWSIZE
 40
210.0
  9
$CLAYER
  8
0
  9
$LTSCALE
 40
16.335
  9
$CELTYPE
  6
BYLAYER
  9
$DIMSCALE
 40
1.0
  9
$DIMASZ
 40
3.0
  9
$DIMEXO
 40
0.5
  9
$DIMDLI
 40
11.286
  9
$DIMEXE
 40
1.5
  9
$DIMCEN
 40
2.673
  9
$DIMLFAC
 40
1.0
  9
$DIMBLK
  1
_FILLED
  9
$DIMALT
 70
0
  9
$DIMALTF
 40
0.0393700787
  9
$DIMTXT
 40
3.0
  9
$DIMTOL
 70
1
  9
$DIMLIM
 70
0
  9
$DIMTFAC
 40
1.0
  9
$DIMTP
 40
0.01
  9
$DIMTM
 40
0.01
  9
$DIMGAP
 40
0.625
  9
$DIMDSEP
 70
44
  9
$AUNITS
 70
0
  9
$PDMODE
 70
3
  9
$PDSIZE
 40
3.0
  9
$HANDSEED
  5
65B
  9
$TILEMODE
 70
1
  9
$MEASUREMENT
 70
1
  9
$INSUNITS
 70
4
  0
ENDSEC
  0
SECTION
  2
CLASSES
  0
CLASS
  1
ACDBDICTIONARYWDFLT
  2
AcDbDictionaryWithDefault
  3
AutoCAD 2000
 90
0
 91
1
280
0
281
0
  0
CLASS
  1
ACDBPLACEHOLDER
  2
AcDbPlaceHolder
  3
AutoCAD 2000
 90
0
 91
1
280
0
281
0
  0
CLASS
  1
LAYOUT
  2
AcDbLayout
  3
AutoCAD 2000
 90
0
 91
0
280
0
281
0
  0
ENDSEC
  0
SECTION
  2
TABLES
  0
TABLE
  2
VPORT
  5
8
100
AcDbSymbolTable
 70
2
  0
VPORT
  5
1F4
100
AcDbSymbolTableRecord
100
AcDbViewportTableRecord
  2
*ACTIVE
 70
0
 10
0.0
 20
0.0
 11
1.0
 21
1.0
 12
148.5
 22
105.0
 13
0.0
 23
0.0
 14
1.0
 24
1.0
 15
0.0
 25
0.0
 16
0.0
 26
0.0
 36
1.0
 17
0.0
 27
0.0
 37
0.0
 40
210.0
 41
1.4142857143
 42
50.0
 43
0.0
 44
0.0
 50
0.0
 51
0.0
 71
0
 72
100
 73
1
 74
1
 75
0
 76
0
 77
0
 78
0
  0
ENDTAB
  0
TABLE
  2
LTYPE
  5
5
100
AcDbSymbolTable
 70
6
  0
LTYPE
  5
14
100
AcDbSymbolTableRecord
100
AcDbLinetypeTableRecord
  2
BYBLOCK
 70
0
  3

 72
65
 73
0
 40
0.0
  0
LTYPE
  5
15
100
AcDbSymbolTableRecord
100
AcDbLinetypeTableRecord
  2
BYLAYER
 70
0
  3

 72
65
 73
0
 40
0.0
  0
LTYPE
  5
16
100
AcDbSymbolTableRecord
100
AcDbLinetypeTableRecord
  2
CONTINUOUS
 70
64
  3
Solid line
 72
65
 73
0
 40
0.0
  0
LTYPE
  5
1F5
100
AcDbSymbolTableRecord
100
AcDbLinetypeTableRecord
  2
CENTER
 70
64
  3
____ _ ____ _ ____ _ ____ _ ____ _ ____ _ ____
 72
65
 73
4
 40
0.6
 49
0.375
 74
0
 49
-0.075
 74
0
 49
0.075
 74
0
 49
-0.075
 74
0
  0
LTYPE
  5
1F6
100
AcDbSymbolTableRecord
100
AcDbLinetypeTableRecord
  2
HIDDEN
 70
64
  3
- - - - - - - - - - - - - - - - - - - -
 72
65
 73
2
 40
0.2
 49
0.1
 74
0
 49
-0.1
 74
0
  0
LTYPE
  5
1F7
100
AcDbSymbolTableRecord
100
AcDbLinetypeTableRecord
  2
PHANTOM
 70
64
  3
_____ _ _ _____ _ _ _____ _ _ _____
 72
65
 73
6
 40
0.8
 49
0.45
 74
0
 49
-0.05
 74
0
 49
0.1
 74
0
 49
-0.05
 74
0
 49
0.1
 74
0
 49
-0.05
 74
0
  0
LTYPE
  5
1F8
100
AcDbSymbolTableRecord
100
AcDbLinetypeTableRecord
  2
DOT
 70
64
  3
. . . . . . . . . . . . . . . . . . . .
 72
65
 73
2
 40
0.2
 49
0.1
 74
0
 49
-0.1
 74
0
  0
LTYPE
  5
1F9
100
AcDbSymbolTableRecord
100
AcDbLinetypeTableRecord
  2
DASHED
 70
64
  3
- - - - - - - - - - - - - - - - - - - -
 72
65
 73
2
 40
0.2
 49
0.1
 74
0
 49
-0.1
 74
0
  0
ENDTAB
  0
TABLE
  2
LAYER
  5
2
100
AcDbSymbolTable
 70
36
  0
LAYER
  5
10
100
AcDbSymbolTableRecord
100
AcDbLayerTableRecord
  2
0
 70
0
 62
7
  6
CONTINUOUS
370
-3
390
F
  0
LAYER
  5
1FA
100
AcDbSymbolTableRecord
100
AcDbLayerTableRecord
  2
DEFAULT_1
 70
0
 62
7
  6
CENTER
370
-3
390
F
  0
LAYER
  5
1FB
100
AcDbSymbolTableRecord
100
AcDbLayerTableRecord
  2
DEFAULT_2
 70
0
 62
7
  6
HIDDEN
370
-3
390
F
  0
LAYER
  5
1FC
100
AcDbSymbolTableRecord
100
AcDbLayerTableRecord
  2
DEFAULT_3
 70
0
 62
7
  6
PHANTOM
370
-3
390
F
  0
LAYER
  5
1FD
100
AcDbSymbolTableRecord
100
AcDbLayerTableRecord
  2
ASSI
 70
0
 62
7
  6
CONTINUOUS
370
-3
390
F
  0
LAYER
  5
1FE
100
AcDbSymbolTableRecord
100
AcDbLayerTableRecord
  2
COORDINATE
 70
0
 62
7
  6
CONTINUOUS
370
-3
390
F
  0
LAYER
  5
1FF
100
AcDbSymbolTableRecord
100
AcDbLayerTableRecord
  2
COORD_ORIGINE
 70
0
 62
7
  6
CONTINUOUS
370
-3
390
F
  0
LAYER
  5
200
100
AcDbSymbolTableRecord
100
AcDbLayerTableRecord
  2
COPY_PUBLISH
 70
0
 62
7
  6
CONTINUOUS
370
-3
390
F
  0
LAYER
  5
201
100
AcDbSymbolTableRecord
100
AcDbLayerTableRecord
  2
COSMETICI
 70
0
 62
7
  6
CONTINUOUS
370
-3
390
F
  0
LAYER
  5
202
100
AcDbSymbolTableRecord
100
AcDbLayerTableRecord
  2
CURVE
 70
0
 62
7
  6
CONTINUOUS
370
-3
390
F
  0
LAYER
  5
203
100
AcDbSymbolTableRecord
100
AcDbLayerTableRecord
  2
DRAFT
 70
0
 62
7
  6
CONTINUOUS
370
-3
390
F
  0
LAYER
  5
204
100
AcDbSymbolTableRecord
100
AcDbLayerTableRecord
  2
IGES
 70
0
 62
7
  6
CONTINUOUS
370
-3
390
F
  0
LAYER
  5
205
100
AcDbSymbolTableRecord
100
AcDbLayerTableRecord
  2
IMPORT_IGES
 70
0
 62
7
  6
CONTINUOUS
370
-3
390
F
  0
LAYER
  5
206
100
AcDbSymbolTableRecord
100
AcDbLayerTableRecord
  2
INTF_2
 70
0
 62
7
  6
CONTINUOUS
370
-3
390
F
  0
LAYER
  5
207
100
AcDbSymbolTableRecord
100
AcDbLayerTableRecord
  2
INTF_YELLOW
 70
0
 62
7
  6
CONTINUOUS
370
-3
390
F
  0
LAYER
  5
208
100
AcDbSymbolTableRecord
100
AcDbLayerTableRecord
  2
NOTE
 70
0
 62
7
  6
CONTINUOUS
370
-3
390
F
  0
LAYER
  5
209
100
AcDbSymbolTableRecord
100
AcDbLayerTableRecord
  2
PIANI
 70
0
 62
7
  6
CONTINUOUS
370
-3
390
F
  0
LAYER
  5
20A
100
AcDbSymbolTableRecord
100
AcDbLayerTableRecord
  2
PIANI_ORIGINE
 70
0
 62
7
  6
CONTINUOUS
370
-3
390
F
  0
LAYER
  5
20B
100
AcDbSymbolTableRecord
100
AcDbLayerTableRecord
  2
PIANI_RIFERIMENTO
 70
0
 62
7
  6
CONTINUOUS
370
-3
390
F
  0
LAYER
  5
20C
100
AcDbSymbolTableRecord
100
AcDbLayerTableRecord
  2
PUNTI
 70
0
 62
7
  6
CONTINUOUS
370
-3
390
F
  0
LAYER
  5
20D
100
AcDbSymbolTableRecord
100
AcDbLayerTableRecord
  2
RACCORDO
 70
0
 62
7
  6
CONTINUOUS
370
-3
390
F
  0
LAYER
  5
20E
100
AcDbSymbolTableRecord
100
AcDbLayerTableRecord
  2
SIMBOLI
 70
0
 62
7
  6
CONTINUOUS
370
-3
390
F
  0
LAYER
  5
20F
100
AcDbSymbolTableRecord
100
AcDbLayerTableRecord
  2
SMUSSO
 70
0
 62
7
  6
CONTINUOUS
370
-3
390
F
  0
LAYER
  5
210
100
AcDbSymbolTableRecord
100
AcDbLayerTableRecord
  2
SNAPLINE
 70
0
 62
7
  6
CONTINUOUS
370
-3
390
F
  0
LAYER
  5
211
100
AcDbSymbolTableRecord
100
AcDbLayerTableRecord
  2
SUPERFICI
 70
0
 62
7
  6
CONTINUOUS
370
-3
390
F
  0
LAYER
  5
212
100
AcDbSymbolTableRecord
100
AcDbLayerTableRecord
  2
TRASH
 70
0
 62
7
  6
CONTINUOUS
370
-3
390
F
  0
LAYER
  5
213
100
AcDbSymbolTableRecord
100
AcDbLayerTableRecord
  2
XSEC_DATUMS
 70
0
 62
7
  6
CONTINUOUS
370
-3
390
F
  0
ENDTAB
  0
TABLE
  2
STYLE
  5
3
100
AcDbSymbolTable
 70
1
  0
STYLE
  5
11
100
AcDbSymbolTableRecord
100
AcDbTextStyleTableRecord
  2
STANDARD
 70
0
 40
0.0
 41
0.8
 50
0.0
 71
0
 42
0.2
  3
txt
  4

  0
STYLE
  5
214
100
AcDbSymbolTableRecord
100
AcDbTextStyleTableRecord
  2
TEXTSTYLE_1
 70
0
 40
0.0
 41
0.8
 50
0.0
 71
0
 42
0.2
  3
gdt
  4

  0
ENDTAB
  0
TABLE
  2
VIEW
  5
6
100
AcDbSymbolTable
 70
0
  0
ENDTAB
  0
TABLE
  2
UCS
  5
7
100
AcDbSymbolTable
 70
0
  0
ENDTAB
  0
TABLE
  2
APPID
  5
9
100
AcDbSymbolTable
 70
1
  0
APPID
  5
215
100
AcDbSymbolTableRecord
100
AcDbRegAppTableRecord
  2
ACAD
 70
0
  0
ENDTAB
  0
TABLE
  2
BLOCK_RECORD
  5
1
100
AcDbSymbolTable
 70
0
  0
BLOCK_RECORD
  5
216
100
AcDbSymbolTableRecord
100
AcDbBlockTableRecord
  2
*Model_Space
  0
BLOCK_RECORD
  5
217
100
AcDbSymbolTableRecord
100
AcDbBlockTableRecord
  2
*Paper_Space
  0
BLOCK_RECORD
  5
218
100
AcDbSymbolTableRecord
100
AcDbBlockTableRecord
  2
_FILLED
  0
ENDTAB
  0
TABLE
  2
DIMSTYLE
  5
A
100
AcDbSymbolTable
 70
1
100
AcDbDimStyleTable
 71
0
  0
DIMSTYLE
105
219
100
AcDbSymbolTableRecord
100
AcDbDimStyleTableRecord
  2
STANDARD
 70
0
  3

  4

 40
1.0
 41
3.0
 42
0.5
 43
0.38
 44
1.5
 45
0.0
 46
0.0
 47
0.01
 48
0.01
140
3.0
141
0.09
142
0.0
143
25.4
144
1.0
145
0.0
146
1.0
147
0.625
 71
1
 72
0
 73
0
 74
0
 75
0
 76
0
 77
1
 78
8
 79
2
170
0
171
1
172
0
173
0
174
0
175
0
176
0
177
0
178
0
270
2
179
2
271
2
272
2
273
2
274
2
275
0
280
0
281
0
282
0
283
1
284
8
285
0
286
0
287
3
288
0
340
11
278
44
341
218
342
218
343
218
344
218
  0
ENDTAB
  0
ENDSEC
  0
SECTION
  2
BLOCKS
  0
BLOCK
  5
20
100
AcDbEntity
  8
0
100
AcDbBlockBegin
  2
*Model_Space
 70
0
 10
0.0
 20
0.0
 30
0.0
  3
*Model_Space
  1

  0
ENDBLK
  5
21
100
AcDbEntity
  8
0
100
AcDbBlockEnd
  0
BLOCK
  5
1C
100
AcDbEntity
  8
0
100
AcDbBlockBegin
  2
*Paper_Space
 70
0
 10
0.0
 20
0.0
 30
0.0
  3
*Paper_Space
  1

  0
ENDBLK
  5
1D
100
AcDbEntity
  8
0
100
AcDbBlockEnd
  0
BLOCK
  5
21A
100
AcDbEntity
  8
0
100
AcDbBlockBegin
  2
_FILLED
 70
64
 10
0.0
 20
0.0
  3
_FILLED
  1

  0
SOLID
  5
21B
100
AcDbEntity
  8
0
  6
BYBLOCK
 62
0
100
AcDbTrace
 10
0.0
 20
0.0
 11
-1.0
 21
0.3166666667
 12
-1.0
 22
-0.3166666667
 13
-1.0
 23
-0.3166666667
  0
ENDBLK
  5
21C
100
AcDbEntity
  8
0
  6
BYBLOCK
 62
0
100
AcDbBlockEnd
  0
ENDSEC
  0
SECTION
  2
ENTITIES
  0
LINE
  5
21D
100
AcDbEntity
  8
ASSI
100
AcDbLine
 62
7
  6
CONTINUOUS
 10
158.3872024702
 20
79.1011075019
 11
158.7378924363
 21
79.1329406598
  0
LINE
  5
21E
100
AcDbEntity
  8
ASSI
100
AcDbLine
 62
7
  6
CONTINUOUS
 10
165.6321734026
 20
79.1011075019
 11
162.8040524562
 21
79.1011075019
  0
LINE
  5
21F
100
AcDbEntity
  8
ASSI
100
AcDbLine
 62
7
  6
CONTINUOUS
 10
158.3872024702
 20
79.1011075019
 11
151.6040524562
 21
79.1011075019
  0
LINE
  5
220
100
AcDbEntity
  8
ASSI
100
AcDbLine
 62
7
  6
CONTINUOUS
 10
147.1872024702
 20
79.1011075019
 11
144.3590815238
 21
79.1011075019
  0
LINE
  5
221
100
AcDbEntity
  8
ASSI
100
AcDbLine
 62
7
  6
CONTINUOUS
 10
162.2801574094
 20
79.1381814378
 11
158.9110975171
 21
79.1381814378
  0
LINE
  5
222
100
AcDbEntity
  8
ASSI
100
AcDbLine
 62
7
  6
CONTINUOUS
 10
151.0801574094
 20
79.1381814378
 11
147.7110975171
 21
79.1381814378
  0
LINE
  5
223
100
AcDbEntity
  8
ASSI
100
AcDbLine
 62
7
  6
CONTINUOUS
 10
151.6040524562
 20
79.1011075019
 11
151.2533624901
 21
79.1329406598
  0
LINE
  5
224
100
AcDbEntity
  8
ASSI
100
AcDbLine
 62
7
  6
CONTINUOUS
 10
158.7378924363
 20
80.6823185928
 11
158.3119089864
 21
80.5917250768
  0
LINE
  5
225
100
AcDbEntity
  8
ASSI
100
AcDbLine
 62
7
  6
CONTINUOUS
 10
147.1872024702
 20
79.1011075019
 11
147.5378924363
 21
79.1329406598
  0
LWPOLYLINE
  5
226
100
AcDbEntity
  8
ASSI
100
AcDbPolyline
 62
250
  6
CONTINUOUS
 90
13
 70
0
 10
164.7563865606
 20
81.1469695599
 10
164.7676731049
 20
81.1473632327
 10
164.7782223637
 20
81.1477889768
 10
164.7879766433
 20
81.1482444637
 10
164.7968825977
 20
81.1487272036
 10
164.8048915205
 20
81.149234556
 10
164.8119596111
 20
81.1497637444
 10
164.8180482142
 20
81.1503118773
 10
164.8231240316
 20
81.1508759569
 10
164.8271593035
 20
81.151452894
 10
164.8301319613
 20
81.1520395342
 10
164.8320257476
 20
81.1526326744
 10
164.8328303053
 20
81.1532290742
  0
LINE
  5
227
100
AcDbEntity
  8
ASSI
100
AcDbLine
 62
250
  6
CONTINUOUS
 10
164.7318522132
 20
81.1462868557
 11
164.7563865606
 21
81.1469695599
  0
LINE
  5
228
100
AcDbEntity
  8
ASSI
100
AcDbLine
 62
250
  6
CONTINUOUS
 10
164.7051552988
 20
81.1457557761
 11
164.7318522132
 21
81.1462868557
  0
LINE
  5
229
100
AcDbEntity
  8
ASSI
100
AcDbLine
 62
250
  6
CONTINUOUS
 10
164.6768790381
 20
81.1453879244
 11
164.7051552988
 21
81.1457557761
  0
LINE
  5
22A
100
AcDbEntity
  8
ASSI
100
AcDbLine
 62
250
  6
CONTINUOUS
 10
164.6476411543
 20
81.1451913317
 11
164.6768790381
 21
81.1453879244
  0
LINE
  5
22B
100
AcDbEntity
  8
ASSI
100
AcDbLine
 62
7
  6
CONTINUOUS
 10
164.6844641371
 20
80.5917250768
 11
162.87934594
 21
80.5917250768
  0
LINE
  5
22C
100
AcDbEntity
  8
ASSI
100
AcDbLine
 62
7
  6
CONTINUOUS
 10
158.3119089864
 20
80.5917250768
 11
151.67934594
 21
80.5917250768
  0
LINE
  5
22D
100
AcDbEntity
  8
ASSI
100
AcDbLine
 62
7
  6
CONTINUOUS
 10
147.1119089864
 20
80.5917250768
 11
145.3067907894
 21
80.5917250768
  0
LINE
  5
22E
100
AcDbEntity
  8
ASSI
100
AcDbLine
 62
7
  6
CONTINUOUS
 10
162.2801574094
 20
80.6945970489
 11
160.9157598372
 21
80.6945970489
  0
LINE
  5
22F
100
AcDbEntity
  8
ASSI
100
AcDbLine
 62
7
  6
CONTINUOUS
 10
160.2754950892
 20
80.6945970489
 11
158.9110975171
 21
80.6945970489
  0
LINE
  5
230
100
AcDbEntity
  8
ASSI
100
AcDbLine
 62
7
  6
CONTINUOUS
 10
151.0801574094
 20
80.6945970489
 11
149.7157598372
 21
80.6945970489
  0
LINE
  5
231
100
AcDbEntity
  8
ASSI
100
AcDbLine
 62
7
  6
CONTINUOUS
 10
149.0754950892
 20
80.6945970489
 11
147.7110975171
 21
80.6945970489
  0
LINE
  5
232
100
AcDbEntity
  8
ASSI
100
AcDbLine
 62
7
  6
CONTINUOUS
 10
149.4735196925
 20
80.901462595
 11
149.317735234
 21
80.901462595
  0
LINE
  5
233
100
AcDbEntity
  8
ASSI
100
AcDbLine
 62
7
  6
CONTINUOUS
 10
160.517735234
 20
80.901462595
 11
160.6735196925
 21
80.901462595
  0
LINE
  5
234
100
AcDbEntity
  8
ASSI
100
AcDbLine
 62
250
  6
CONTINUOUS
 10
145.3583941602
 20
80.9547198439
 11
149.001514386
 21
80.9547198439
  0
LINE
  5
235
100
AcDbEntity
  8
ASSI
100
AcDbLine
 62
250
  6
CONTINUOUS
 10
149.7897405404
 20
80.9547198439
 11
160.201514386
 21
80.9547198439
  0
LINE
  5
236
100
AcDbEntity
  8
ASSI
100
AcDbLine
 62
250
  6
CONTINUOUS
 10
160.9897405404
 20
80.9547198439
 11
164.6328607663
 21
80.9547198439
  0
LINE
  5
237
100
AcDbEntity
  8
ASSI
100
AcDbLine
 62
250
  6
CONTINUOUS
 10
145.3583941706
 20
81.1451587587
 11
148.9953870747
 21
81.1451587587
  0
LINE
  5
238
100
AcDbEntity
  8
ASSI
100
AcDbLine
 62
250
  6
CONTINUOUS
 10
149.7958678518
 20
81.1451587587
 11
160.1953870747
 21
81.1451587587
  0
LINE
  5
239
100
AcDbEntity
  8
ASSI
100
AcDbLine
 62
250
  6
CONTINUOUS
 10
160.9958678518
 20
81.1451587587
 11
164.6476411543
 21
81.1451913317
  0
LWPOLYLINE
  5
23A
100
AcDbEntity
  8
ASSI
100
AcDbPolyline
 62
250
  6
CONTINUOUS
 90
3
 70
0
 10
145.3143758883
 20
81.1453879244
 10
145.3436475795
 20
81.1452939618
 10
145.3583941602
 20
81.1451587587
  0
LINE
  5
23B
100
AcDbEntity
  8
ASSI
100
AcDbLine
 62
250
  6
CONTINUOUS
 10
145.3000718596
 20
81.1455329276
 11
145.3143758883
 21
81.1453879244
  0
LWPOLYLINE
  5
23C
100
AcDbEntity
  8
ASSI
100
AcDbPolyline
 62
250
  6
CONTINUOUS
 90
3
 70
0
 10
145.2348683658
 20
81.1469695599
 10
145.2593960249
 20
81.1462698654
 10
145.3000718596
 20
81.1455329276
  0
LWPOLYLINE
  5
23D
100
AcDbEntity
  8
ASSI
100
AcDbPolyline
 62
250
  6
CONTINUOUS
 90
25
 70
0
 10
145.3583941602
 20
80.9547198439
 10
145.3453331807
 20
80.9551712943
 10
145.3323279791
 20
80.9564685641
 10
145.3194340949
 20
80.9586061133
 10
145.3067065923
 20
80.9615748133
 10
145.2941998251
 20
80.9653619861
 10
145.2819672043
 20
80.9699514582
 10
145.27006097
 20
80.9753236301
 10
145.2585319687
 20
80.9814555595
 10
145.2474294358
 20
80.9883210595
 10
145.2368007854
 20
80.9958908107
 10
145.226691408
 20
81.0041324857
 10
145.2171444762
 20
81.013010888
 10
145.208200761
 20
81.0224881018
 10
145.1998984571
 20
81.032523654
 10
145.19227302
 20
81.043074687
 10
145.1853570148
 20
81.0540961419
 10
145.1791799766
 20
81.0655409509
 10
145.173768285
 20
81.077360238
 10
145.169145051
 20
81.0895035283
 10
145.1653300183
 20
81.1019189629
 10
145.1623394794
 20
81.1145535208
 10
145.1601862056
 20
81.1273532455
 10
145.1588793926
 20
81.1402634746
 10
145.1584246211
 20
81.1532290742
  0
LWPOLYLINE
  5
23E
100
AcDbEntity
  8
ASSI
100
AcDbPolyline
 62
250
  6
CONTINUOUS
 90
3
 70
0
 10
145.2032782832
 20
81.1482444637
 10
145.2235737246
 20
81.147343573
 10
145.2348683658
 20
81.1469695599
  0
LINE
  5
23F
100
AcDbEntity
  8
ASSI
100
AcDbLine
 62
250
  6
CONTINUOUS
 10
145.1943621428
 20
81.1486998086
 11
145.2032782832
 21
81.1482444637
  0
LINE
  5
240
100
AcDbEntity
  8
ASSI
100
AcDbLine
 62
7
  6
CONTINUOUS
 10
162.8040524562
 20
79.1011075019
 11
162.4533624901
 21
79.1329406598
  0
LINE
  5
241
100
AcDbEntity
  8
ASSI
100
AcDbLine
 62
7
  6
CONTINUOUS
 10
151.2533624901
 20
80.6823185928
 11
151.67934594
 21
80.5917250768
  0
LINE
  5
242
100
AcDbEntity
  8
ASSI
100
AcDbLine
 62
7
  6
CONTINUOUS
 10
147.5378924363
 20
80.6823185928
 11
147.1119089864
 21
80.5917250768
  0
LWPOLYLINE
  5
243
100
AcDbEntity
  8
ASSI
100
AcDbPolyline
 62
250
  6
CONTINUOUS
 90
25
 70
0
 10
160.6360883873
 20
83.2001431278
 10
160.6521086452
 20
83.200574606
 10
160.6680630328
 20
83.2014387086
 10
160.6838859537
 20
83.2027318826
 10
160.6995123528
 20
83.204448811
 10
160.7148779817
 20
83.2065824342
 10
160.7299196628
 20
83.2091239794
 10
160.7445755526
 20
83.2120629965
 10
160.7587853941
 20
83.2153874014
 10
160.772490763
 20
83.2190835251
 10
160.7856353105
 20
83.2231361706
 10
160.7981649939
 20
83.2275286751
 10
160.8100282983
 20
83.2322429784
 10
160.8211764488
 20
83.2372596972
 10
160.8315636112
 20
83.2425582051
 10
160.8411470807
 20
83.2481167173
 10
160.8498874559
 20
83.2539123797
 10
160.8577488026
 20
83.2599213637
 10
160.8646988008
 20
83.2661189637
 10
160.8707088769
 20
83.2724796984
 10
160.8757543218
 20
83.2789774159
 10
160.8798143929
 20
83.285585402
 10
160.8828723983
 20
83.2922764885
 10
160.8849157655
 20
83.2990231652
 10
160.885936094
 20
83.3057976933
  0
LWPOLYLINE
  5
244
100
AcDbEntity
  8
ASSI
100
AcDbPolyline
 62
250
  6
CONTINUOUS
 90
8
 70
0
 10
145.1584246211
 20
81.1532290742
 10
145.1592402883
 20
81.152519859
 10
145.1611384422
 20
81.1519511637
 10
145.1640956229
 20
81.151452894
 10
145.1681151092
 20
81.1508870737
 10
145.1731973699
 20
81.150272865
 10
145.1792953154
 20
81.1497637444
 10
145.1943621428
 20
81.1486998086
  0
LWPOLYLINE
  5
245
100
AcDbEntity
  8
ASSI
100
AcDbPolyline
 62
7
  6
CONTINUOUS
 90
31
 70
0
 10
160.4959648212
 20
84.1603145966
 10
160.4803502333
 20
84.1593681008
 10
160.4650588002
 20
84.1577368391
 10
160.4501437293
 20
84.1554208117
 10
160.435659463
 20
84.1523743406
 10
160.4216394199
 20
84.1486431037
 10
160.4080973679
 20
84.1443641346
 10
160.3950677737
 20
84.1395434602
 10
160.3825729272
 20
84.1341750535
 10
160.3706042994
 20
84.1283778675
 10
160.3591816524
 20
84.1221587121
 10
160.3483200263
 20
84.1155107773
 10
160.3380035184
 20
84.1085325856
 10
160.3282425694
 20
84.1012293633
 10
160.3190471292
 20
84.093595884
 10
160.310402397
 20
84.0857149908
 10
160.3023133551
 20
84.0775901188
 10
160.2947856405
 20
84.0692178328
 10
160.2878078315
 20
84.0606706704
 10
160.2813811805
 20
84.0519505695
 10
160.2755077578
 20
84.0430555921
 10
160.2701793046
 20
84.0340524621
 10
160.2653940522
 20
84.0249421625
 10
160.2611507376
 20
84.0157237102
 10
160.2574427236
 20
84.0064608801
 10
160.2542652355
 20
83.9971539754
 10
160.2516137487
 20
83.9878026929
 10
160.2494813855
 20
83.9784698976
 10
160.2478604403
 20
83.9691765444
 10
160.246742266
 20
83.9599016785
 10
160.2461171145
 20
83.9506452998
  0
LWPOLYLINE
  5
246
100
AcDbEntity
  8
ASSI
100
AcDbPolyline
 62
250
  6
CONTINUOUS
 90
25
 70
0
 10
160.5538872873
 20
83.9043767769
 10
160.5376090651
 20
83.9037564838
 10
160.5214000152
 20
83.9020926616
 10
160.5053290134
 20
83.8993923805
 10
160.4894643479
 20
83.8956671151
 10
160.4738734318
 20
83.8909326953
 10
160.458622516
 20
83.8852092401
 10
160.4437764047
 20
83.8785210707
 10
160.4293981815
 20
83.8708966071
 10
160.4155489432
 20
83.862368249
 10
160.4022875376
 20
83.8529722364
 10
160.389670314
 20
83.8427484955
 10
160.3777508851
 20
83.8317404704
 10
160.3665798979
 20
83.8199949376
 10
160.356204819
 20
83.8075618067
 10
160.3466697326
 20
83.7944939089
 10
160.3380151541
 20
83.780846773
 10
160.330277857
 20
83.7666783885
 10
160.3234907168
 20
83.7520489588
 10
160.3176825723
 20
83.7370206474
 10
160.3128781022
 20
83.7216573123
 10
160.3090977199
 20
83.7060242331
 10
160.3063574884
 20
83.6901878368
 10
160.3046690506
 20
83.6742154155
 10
160.3040395805
 20
83.6581748387
  0
LWPOLYLINE
  5
247
100
AcDbEntity
  8
ASSI
100
AcDbPolyline
 62
250
  6
CONTINUOUS
 90
25
 70
0
 10
149.3538872873
 20
83.9043767769
 10
149.3376090651
 20
83.9037564838
 10
149.3214000152
 20
83.9020926616
 10
149.3053290134
 20
83.8993923805
 10
149.2894643479
 20
83.8956671151
 10
149.2738734318
 20
83.8909326953
 10
149.258622516
 20
83.8852092401
 10
149.2437764047
 20
83.8785210707
 10
149.2293981815
 20
83.8708966071
 10
149.2155489432
 20
83.862368249
 10
149.2022875376
 20
83.8529722364
 10
149.189670314
 20
83.8427484955
 10
149.1777508851
 20
83.8317404704
 10
149.1665798979
 20
83.8199949376
 10
149.156204819
 20
83.8075618067
 10
149.1466697326
 20
83.7944939089
 10
149.1380151541
 20
83.780846773
 10
149.130277857
 20
83.7666783885
 10
149.1234907168
 20
83.7520489588
 10
149.1176825723
 20
83.7370206474
 10
149.1128781022
 20
83.7216573123
 10
149.1090977199
 20
83.7060242331
 10
149.1063574884
 20
83.6901878368
 10
149.1046690506
 20
83.6742154155
 10
149.1040395805
 20
83.6581748387
  0
LWPOLYLINE
  5
248
100
AcDbEntity
  8
ASSI
100
AcDbPolyline
 62
250
  6
CONTINUOUS
 90
25
 70
0
 10
149.4360883873
 20
83.2001431278
 10
149.4521086452
 20
83.200574606
 10
149.4680630328
 20
83.2014387086
 10
149.4838859537
 20
83.2027318826
 10
149.4995123528
 20
83.204448811
 10
149.5148779817
 20
83.2065824342
 10
149.5299196628
 20
83.2091239794
 10
149.5445755526
 20
83.2120629965
 10
149.5587853941
 20
83.2153874014
 10
149.572490763
 20
83.2190835251
 10
149.5856353105
 20
83.2231361706
 10
149.5981649939
 20
83.2275286751
 10
149.6100282983
 20
83.2322429784
 10
149.6211764488
 20
83.2372596972
 10
149.6315636112
 20
83.2425582051
 10
149.6411470807
 20
83.2481167173
 10
149.6498874559
 20
83.2539123797
 10
149.6577488026
 20
83.2599213637
 10
149.6646988008
 20
83.2661189637
 10
149.6707088769
 20
83.2724796984
 10
149.6757543218
 20
83.2789774159
 10
149.6798143929
 20
83.285585402
 10
149.6828723983
 20
83.2922764885
 10
149.6849157655
 20
83.2990231652
 10
149.685936094
 20
83.3057976933
  0
LINE
  5
249
100
AcDbEntity
  8
ASSI
100
AcDbLine
 62
250
  6
CONTINUOUS
 10
160.6360883873
 20
83.2001431278
 11
160.5551665392
 21
83.2001431278
  0
LINE
  5
24A
100
AcDbEntity
  8
ASSI
100
AcDbLine
 62
250
  6
CONTINUOUS
 10
149.4360883873
 20
83.2001431278
 11
149.3551665392
 21
83.2001431278
  0
LINE
  5
24B
100
AcDbEntity
  8
ASSI
100
AcDbLine
 62
250
  6
CONTINUOUS
 10
149.1054824226
 20
83.3269286064
 11
149.6857725038
 21
83.3269286064
  0
LINE
  5
24C
100
AcDbEntity
  8
ASSI
100
AcDbLine
 62
250
  6
CONTINUOUS
 10
160.3054824226
 20
83.3269286064
 11
160.8857725038
 21
83.3269286064
  0
LINE
  5
24D
100
AcDbEntity
  8
ASSI
100
AcDbLine
 62
250
  6
CONTINUOUS
 10
149.1054824226
 20
83.608934451
 11
149.6857725038
 21
83.608934451
  0
LINE
  5
24E
100
AcDbEntity
  8
ASSI
100
AcDbLine
 62
250
  6
CONTINUOUS
 10
160.3054824226
 20
83.608934451
 11
160.8857725038
 21
83.608934451
  0
LINE
  5
24F
100
AcDbEntity
  8
ASSI
100
AcDbLine
 62
250
  6
CONTINUOUS
 10
160.6373676391
 20
83.9043767769
 11
160.5538872873
 21
83.9043767769
  0
LINE
  5
250
100
AcDbEntity
  8
ASSI
100
AcDbLine
 62
250
  6
CONTINUOUS
 10
149.4373676391
 20
83.9043767769
 11
149.3538872873
 21
83.9043767769
  0
LINE
  5
251
100
AcDbEntity
  8
ASSI
100
AcDbLine
 62
7
  6
CONTINUOUS
 10
160.6880758948
 20
84.1604202076
 11
160.5031790316
 21
84.1604202076
  0
LINE
  5
252
100
AcDbEntity
  8
ASSI
100
AcDbLine
 62
7
  6
CONTINUOUS
 10
149.3031790316
 20
84.1604202076
 11
149.4880758948
 21
84.1604202076
  0
LWPOLYLINE
  5
253
100
AcDbEntity
  8
ASSI
100
AcDbPolyline
 62
250
  6
CONTINUOUS
 90
25
 70
0
 10
149.3551665392
 20
83.2001431278
 10
149.3391463408
 20
83.2005746026
 10
149.323192009
 20
83.2014386987
 10
149.3073691394
 20
83.2027318636
 10
149.2917427874
 20
83.2044487804
 10
149.2763772001
 20
83.2065823901
 10
149.2613355527
 20
83.2091239204
 10
149.2466796884
 20
83.2120629218
 10
149.2324698644
 20
83.2153873109
 10
149.218764504
 20
83.2190834193
 10
149.2056199562
 20
83.2231360508
 10
149.1930902644
 20
83.227528543
 10
149.1812269442
 20
83.2322428363
 10
149.1700787711
 20
83.2372595482
 10
149.1596915806
 20
83.2425580524
 10
149.1501080792
 20
83.2481165645
 10
149.1413676692
 20
83.2539122307
 10
149.1335062865
 20
83.2599212223
 10
149.126556253
 20
83.2661188336
 10
149.1205461435
 20
83.2724795833
 10
149.1155006683
 20
83.2789773193
 10
149.1114405718
 20
83.2855853265
 10
149.108382547
 20
83.2922764361
 10
149.1063391667
 20
83.299023138
 10
149.1053188324
 20
83.3057976933
  0
LWPOLYLINE
  5
254
100
AcDbEntity
  8
ASSI
100
AcDbPolyline
 62
250
  6
CONTINUOUS
 90
25
 70
0
 10
160.5551665392
 20
83.2001431278
 10
160.5391463408
 20
83.2005746026
 10
160.523192009
 20
83.2014386987
 10
160.5073691394
 20
83.2027318636
 10
160.4917427874
 20
83.2044487804
 10
160.4763772001
 20
83.2065823901
 10
160.4613355527
 20
83.2091239204
 10
160.4466796884
 20
83.2120629218
 10
160.4324698644
 20
83.2153873109
 10
160.418764504
 20
83.2190834193
 10
160.4056199562
 20
83.2231360508
 10
160.3930902644
 20
83.227528543
 10
160.3812269442
 20
83.2322428363
 10
160.3700787711
 20
83.2372595482
 10
160.3596915806
 20
83.2425580524
 10
160.3501080792
 20
83.2481165645
 10
160.3413676692
 20
83.2539122307
 10
160.3335062865
 20
83.2599212223
 10
160.326556253
 20
83.2661188336
 10
160.3205461435
 20
83.2724795833
 10
160.3155006683
 20
83.2789773193
 10
160.3114405718
 20
83.2855853265
 10
160.308382547
 20
83.2922764361
 10
160.3063391667
 20
83.299023138
 10
160.3053188324
 20
83.3057976933
  0
LWPOLYLINE
  5
255
100
AcDbEntity
  8
ASSI
100
AcDbPolyline
 62
250
  6
CONTINUOUS
 90
25
 70
0
 10
149.4373676391
 20
83.9043767769
 10
149.4536458051
 20
83.9037564879
 10
149.4698548021
 20
83.9020926765
 10
149.4859257551
 20
83.8993924125
 10
149.5017903755
 20
83.89566717
 10
149.5173812517
 20
83.890932778
 10
149.532632135
 20
83.8852093541
 10
149.5474782218
 20
83.878521218
 10
149.561856428
 20
83.870896789
 10
149.5757056581
 20
83.8623684646
 10
149.588967064
 20
83.8529724832
 10
149.6015842957
 20
83.8427487702
 10
149.61350374
 20
83.8317407681
 10
149.6246747491
 20
83.8199952518
 10
149.6350498553
 20
83.8075621304
 10
149.6445849727
 20
83.7944942344
 10
149.6532395849
 20
83.7808470917
 10
149.6609769168
 20
83.7666786917
 10
149.6677640911
 20
83.7520492386
 10
149.6735722677
 20
83.7370208955
 10
149.6783767667
 20
83.7216575208
 10
149.6821571728
 20
83.7060243964
 10
149.6848974223
 20
83.6901879501
 10
149.6865858716
 20
83.6742154742
 10
149.6872153459
 20
83.6581748387
  0
LWPOLYLINE
  5
256
100
AcDbEntity
  8
ASSI
100
AcDbPolyline
 62
250
  6
CONTINUOUS
 90
25
 70
0
 10
160.6373676391
 20
83.9043767769
 10
160.6536458051
 20
83.9037564879
 10
160.6698548021
 20
83.9020926765
 10
160.6859257551
 20
83.8993924125
 10
160.7017903755
 20
83.89566717
 10
160.7173812517
 20
83.890932778
 10
160.732632135
 20
83.8852093541
 10
160.7474782218
 20
83.878521218
 10
160.761856428
 20
83.870896789
 10
160.7757056581
 20
83.8623684646
 10
160.788967064
 20
83.8529724832
 10
160.8015842957
 20
83.8427487702
 10
160.81350374
 20
83.8317407681
 10
160.8246747491
 20
83.8199952518
 10
160.8350498553
 20
83.8075621304
 10
160.8445849727
 20
83.7944942344
 10
160.8532395849
 20
83.7808470917
 10
160.8609769168
 20
83.7666786917
 10
160.8677640911
 20
83.7520492386
 10
160.8735722677
 20
83.7370208955
 10
160.8783767667
 20
83.7216575208
 10
160.8821571728
 20
83.7060243964
 10
160.8848974223
 20
83.6901879501
 10
160.8865858716
 20
83.6742154742
 10
160.8872153459
 20
83.6581748387
  0
LINE
  5
257
100
AcDbEntity
  8
ASSI
100
AcDbLine
 62
7
  6
CONTINUOUS
 10
162.4533624901
 20
80.6823185928
 11
162.87934594
 21
80.5917250768
  0
LWPOLYLINE
  5
258
100
AcDbEntity
  8
ASSI
100
AcDbPolyline
 62
250
  6
CONTINUOUS
 90
25
 70
0
 10
160.4942492553
 20
85.6361167301
 10
160.4779147293
 20
85.6355720018
 10
160.4616500982
 20
85.6339600552
 10
160.4455249559
 20
85.6312877879
 10
160.4296082993
 20
85.6275666344
 10
160.4139682333
 20
85.6228125175
 10
160.3986716795
 20
85.6170457798
 10
160.3837840894
 20
85.6102910967
 10
160.3693691645
 20
85.6025773708
 10
160.3554885839
 20
85.5939376086
 10
160.3422017402
 20
85.5844087787
 10
160.3295654853
 20
85.5740316537
 10
160.3176338874
 20
85.5628506363
 10
160.3064579997
 20
85.5509135686
 10
160.2960856413
 20
85.5382715277
 10
160.2865611935
 20
85.5249786073
 10
160.2779254094
 20
85.5110916858
 10
160.2702152394
 20
85.4966701834
 10
160.2634636737
 20
85.4817758073
 10
160.2576996004
 20
85.4664722882
 10
160.2529476824
 20
85.4508251076
 10
160.2492282518
 20
85.4349012168
 10
160.2465572229
 20
85.4187687514
 10
160.244946024
 20
85.4024967396
 10
160.2444015486
 20
85.3861548064
  0
LWPOLYLINE
  5
259
100
AcDbEntity
  8
ASSI
100
AcDbPolyline
 62
250
  6
CONTINUOUS
 90
25
 70
0
 10
149.2942492553
 20
85.6361167301
 10
149.2779147293
 20
85.6355720018
 10
149.2616500982
 20
85.6339600552
 10
149.2455249559
 20
85.6312877879
 10
149.2296082993
 20
85.6275666344
 10
149.2139682333
 20
85.6228125175
 10
149.1986716795
 20
85.6170457798
 10
149.1837840894
 20
85.6102910967
 10
149.1693691645
 20
85.6025773708
 10
149.1554885839
 20
85.5939376086
 10
149.1422017402
 20
85.5844087787
 10
149.1295654853
 20
85.5740316537
 10
149.1176338874
 20
85.5628506363
 10
149.1064579997
 20
85.5509135686
 10
149.0960856413
 20
85.5382715277
 10
149.0865611935
 20
85.5249786073
 10
149.0779254094
 20
85.5110916858
 10
149.0702152394
 20
85.4966701834
 10
149.0634636737
 20
85.4817758073
 10
149.0576996004
 20
85.4664722882
 10
149.0529476824
 20
85.4508251076
 10
149.0492282518
 20
85.4349012168
 10
149.0465572229
 20
85.4187687514
 10
149.044946024
 20
85.4024967396
 10
149.0444015486
 20
85.3861548064
  0
LINE
  5
25A
100
AcDbEntity
  8
ASSI
100
AcDbLine
 62
250
  6
CONTINUOUS
 10
149.0461171145
 20
85.3361624216
 11
149.7451378119
 21
85.3361624216
  0
LINE
  5
25B
100
AcDbEntity
  8
ASSI
100
AcDbLine
 62
250
  6
CONTINUOUS
 10
160.2461171145
 20
85.3361624216
 11
160.9451378119
 21
85.3361624216
  0
LINE
  5
25C
100
AcDbEntity
  8
ASSI
100
AcDbLine
 62
250
  6
CONTINUOUS
 10
160.6970061295
 20
85.6361169593
 11
160.4942487969
 21
85.6361169593
  0
LINE
  5
25D
100
AcDbEntity
  8
ASSI
100
AcDbLine
 62
250
  6
CONTINUOUS
 10
149.4970061295
 20
85.6361169593
 11
149.2942487969
 21
85.6361169593
  0
LINE
  5
25E
100
AcDbEntity
  8
ASSI
100
AcDbLine
 62
7
  6
CONTINUOUS
 10
160.7515231353
 20
85.6633671571
 11
160.4397317911
 21
85.6633671571
  0
LINE
  5
25F
100
AcDbEntity
  8
ASSI
100
AcDbLine
 62
7
  6
CONTINUOUS
 10
149.5515231353
 20
85.6633671571
 11
149.2397317911
 21
85.6633671571
  0
LWPOLYLINE
  5
260
100
AcDbEntity
  8
ASSI
100
AcDbPolyline
 62
7
  6
CONTINUOUS
 90
28
 70
0
 10
149.5515231353
 20
85.6633671571
 10
149.5659817976
 20
85.6629489307
 10
149.5804209895
 20
85.6616919601
 10
149.5947918147
 20
85.6595951979
 10
149.6090646668
 20
85.6566558654
 10
149.6231700618
 20
85.6528810357
 10
149.6370018354
 20
85.6482989742
 10
149.6504840567
 20
85.6429433467
 10
149.6636051864
 20
85.6368274407
 10
149.6763577547
 20
85.62995658
 10
149.6886996676
 20
85.6223512882
 10
149.7005868515
 20
85.6140364872
 10
149.7120044041
 20
85.6050167938
 10
149.7229385469
 20
85.5952886631
 10
149.7333138762
 20
85.5849040432
 10
149.7430323722
 20
85.5739610846
 10
149.7520417252
 20
85.5625357428
 10
149.7603458933
 20
85.5506413099
 10
149.7679412772
 20
85.5382910831
 10
149.7748029048
 20
85.5255285205
 10
149.7809096558
 20
85.5123960449
 10
149.7862560689
 20
85.4989007738
 10
149.7908288436
 20
85.4850528191
 10
149.7945933843
 20
85.4709294315
 10
149.7975205286
 20
85.456640773
 10
149.7996034038
 20
85.4422578579
 10
149.800845328
 20
85.4278091485
 10
149.8012476562
 20
85.4133436591
  0
LWPOLYLINE
  5
261
100
AcDbEntity
  8
ASSI
100
AcDbPolyline
 62
7
  6
CONTINUOUS
 90
28
 70
0
 10
160.7515231353
 20
85.6633671571
 10
160.7659817976
 20
85.6629489307
 10
160.7804209895
 20
85.6616919601
 10
160.7947918147
 20
85.6595951979
 10
160.8090646668
 20
85.6566558654
 10
160.8231700618
 20
85.6528810357
 10
160.8370018354
 20
85.6482989742
 10
160.8504840567
 20
85.6429433467
 10
160.8636051864
 20
85.6368274407
 10
160.8763577547
 20
85.62995658
 10
160.8886996676
 20
85.6223512882
 10
160.9005868515
 20
85.6140364872
 10
160.9120044041
 20
85.6050167938
 10
160.9229385469
 20
85.5952886631
 10
160.9333138762
 20
85.5849040432
 10
160.9430323722
 20
85.5739610846
 10
160.9520417252
 20
85.5625357428
 10
160.9603458933
 20
85.5506413099
 10
160.9679412772
 20
85.5382910831
 10
160.9748029048
 20
85.5255285205
 10
160.9809096558
 20
85.5123960449
 10
160.9862560689
 20
85.4989007738
 10
160.9908288436
 20
85.4850528191
 10
160.9945933843
 20
85.4709294315
 10
160.9975205286
 20
85.456640773
 10
160.9996034038
 20
85.4422578579
 10
161.000845328
 20
85.4278091485
 10
161.0012476562
 20
85.4133436591
  0
LWPOLYLINE
  5
262
100
AcDbEntity
  8
ASSI
100
AcDbPolyline
 62
250
  6
CONTINUOUS
 90
25
 70
0
 10
149.4970056711
 20
85.6361167301
 10
149.5133401688
 20
85.6355720037
 10
149.5296047739
 20
85.6339600624
 10
149.5457298929
 20
85.6312878034
 10
149.561646529
 20
85.6275666608
 10
149.5772865775
 20
85.6228125569
 10
149.5925831173
 20
85.6170458336
 10
149.6074706971
 20
85.6102911658
 10
149.6218856153
 20
85.6025774557
 10
149.6357661928
 20
85.5939377088
 10
149.6490530371
 20
85.5844088933
 10
149.6616892958
 20
85.5740317813
 10
149.6736209006
 20
85.5628507749
 10
149.684796798
 20
85.5509137156
 10
149.6951691682
 20
85.5382716803
 10
149.7046936297
 20
85.524978762
 10
149.7133294287
 20
85.511091839
 10
149.7210396142
 20
85.496670331
 10
149.7277911955
 20
85.4817759455
 10
149.7335552838
 20
85.4664724129
 10
149.7383072154
 20
85.4508252146
 10
149.7420266576
 20
85.4349013023
 10
149.7446976956
 20
85.4187688118
 10
149.7463089003
 20
85.4024967713
 10
149.7468533778
 20
85.3861548064
  0
LWPOLYLINE
  5
263
100
AcDbEntity
  8
ASSI
100
AcDbPolyline
 62
250
  6
CONTINUOUS
 90
25
 70
0
 10
160.6970056711
 20
85.6361167301
 10
160.7133401688
 20
85.6355720037
 10
160.7296047739
 20
85.6339600624
 10
160.7457298929
 20
85.6312878034
 10
160.761646529
 20
85.6275666608
 10
160.7772865775
 20
85.6228125569
 10
160.7925831173
 20
85.6170458336
 10
160.8074706971
 20
85.6102911658
 10
160.8218856153
 20
85.6025774557
 10
160.8357661928
 20
85.5939377088
 10
160.8490530371
 20
85.5844088933
 10
160.8616892958
 20
85.5740317813
 10
160.8736209006
 20
85.5628507749
 10
160.884796798
 20
85.5509137156
 10
160.8951691682
 20
85.5382716803
 10
160.9046936297
 20
85.524978762
 10
160.9133294287
 20
85.511091839
 10
160.9210396142
 20
85.496670331
 10
160.9277911955
 20
85.4817759455
 10
160.9335552838
 20
85.4664724129
 10
160.9383072154
 20
85.4508252146
 10
160.9420266576
 20
85.4349013023
 10
160.9446976956
 20
85.4187688118
 10
160.9463089003
 20
85.4024967713
 10
160.9468533778
 20
85.3861548064
  0
LINE
  5
264
100
AcDbEntity
  8
ASSI
100
AcDbLine
 62
250
  6
CONTINUOUS
 10
148.9900072702
 20
85.4133436591
 11
149.0444015486
 21
85.3861548064
  0
LINE
  5
265
100
AcDbEntity
  8
ASSI
100
AcDbLine
 62
250
  6
CONTINUOUS
 10
149.2397317911
 20
85.6633671571
 11
149.2942487969
 21
85.6361169593
  0
LINE
  5
266
100
AcDbEntity
  8
ASSI
100
AcDbLine
 62
7
  6
CONTINUOUS
 10
145.1125043623
 20
87.1604202076
 11
145.4956274632
 21
87.1604202076
  0
LINE
  5
267
100
AcDbEntity
  8
ASSI
100
AcDbLine
 62
7
  6
CONTINUOUS
 10
164.4956274632
 20
87.1604202076
 11
164.8787505642
 21
87.1604202076
  0
LINE
  5
268
100
AcDbEntity
  8
ASSI
100
AcDbLine
 62
7
  6
CONTINUOUS
 10
166.1456274632
 20
88.1604202076
 11
164.8956274632
 21
88.1604202076
  0
LINE
  5
269
100
AcDbEntity
  8
ASSI
100
AcDbLine
 62
7
  6
CONTINUOUS
 10
145.0956274632
 20
88.1604202076
 11
143.8456274632
 21
88.1604202076
  0
LINE
  5
26A
100
AcDbEntity
  8
ASSI
100
AcDbLine
 62
250
  6
CONTINUOUS
 10
149.0444015486
 20
117.1346856088
 11
148.9900072702
 21
117.107496756
  0
LINE
  5
26B
100
AcDbEntity
  8
ASSI
100
AcDbLine
 62
250
  6
CONTINUOUS
 10
149.2942487969
 20
116.8847234559
 11
149.2397317911
 21
116.8574732581
  0
LWPOLYLINE
  5
26C
100
AcDbEntity
  8
ASSI
100
AcDbPolyline
 62
250
  6
CONTINUOUS
 90
13
 70
0
 10
149.0444015486
 20
85.3861548064
 10
149.0445022929
 20
85.3860199934
 10
149.044601986
 20
85.3857229842
 10
149.0447006279
 20
85.3852637786
 10
149.0447985486
 20
85.384639792
 10
149.044895418
 20
85.3838536092
 10
149.0449902462
 20
85.3829129837
 10
149.0450830021
 20
85.381816403
 10
149.0451737168
 20
85.3805653797
 10
149.0452614926
 20
85.3791722052
 10
149.0453463005
 20
85.3776354517
 10
149.0454281696
 20
85.375956547
 10
149.0455062894
 20
85.3741520654
  0
LINE
  5
26D
100
AcDbEntity
  8
ASSI
100
AcDbLine
 62
7
  6
CONTINUOUS
 10
145.1125043623
 20
90.9604202076
 11
145.4956274632
 21
90.9604202076
  0
LINE
  5
26E
100
AcDbEntity
  8
ASSI
100
AcDbLine
 62
7
  6
CONTINUOUS
 10
164.4956274632
 20
90.9604202076
 11
164.8787505642
 21
90.9604202076
  0
LINE
  5
26F
100
AcDbEntity
  8
ASSI
100
AcDbLine
 62
250
  6
CONTINUOUS
 10
160.1900072702
 20
85.4133436591
 11
160.2444015486
 21
85.3861548064
  0
LINE
  5
270
100
AcDbEntity
  8
ASSI
100
AcDbLine
 62
250
  6
CONTINUOUS
 10
160.4397317911
 20
85.6633671571
 11
160.4942487969
 21
85.6361169593
  0
LINE
  5
271
100
AcDbEntity
  8
ASSI
100
AcDbLine
 62
7
  6
CONTINUOUS
 10
149.0754950892
 20
80.6945970489
 11
149.001514386
 21
80.9547198439
  0
LINE
  5
272
100
AcDbEntity
  8
ASSI
100
AcDbLine
 62
7
  6
CONTINUOUS
 10
143.8456274632
 20
88.1604202076
 11
143.8587017005
 21
79.5990532297
  0
LINE
  5
273
100
AcDbEntity
  8
ASSI
100
AcDbLine
 62
7
  6
CONTINUOUS
 10
145.1068819715
 20
80.7906614392
 11
145.0956274632
 21
88.1604202076
  0
LINE
  5
274
100
AcDbEntity
  8
ASSI
100
AcDbLine
 62
7
  6
CONTINUOUS
 10
143.8456274632
 20
100.9604430529
 11
143.8456274632
 21
88.1604202076
  0
LINE
  5
275
100
AcDbEntity
  8
ASSI
100
AcDbLine
 62
7
  6
CONTINUOUS
 10
143.8456274632
 20
101.5603973623
 11
143.8456274632
 21
114.3604202076
  0
LINE
  5
276
100
AcDbEntity
  8
ASSI
100
AcDbLine
 62
7
  6
CONTINUOUS
 10
145.0956274632
 20
101.1604202076
 11
145.0956274632
 21
88.1604202076
  0
LINE
  5
277
100
AcDbEntity
  8
ASSI
100
AcDbLine
 62
7
  6
CONTINUOUS
 10
145.0956274632
 20
101.3604202076
 11
145.0956274632
 21
114.3604202076
  0
LINE
  5
278
100
AcDbEntity
  8
ASSI
100
AcDbLine
 62
7
  6
CONTINUOUS
 10
143.8456274632
 20
114.3604202076
 11
143.8587017005
 21
122.9217871855
  0
LINE
  5
279
100
AcDbEntity
  8
ASSI
100
AcDbLine
 62
7
  6
CONTINUOUS
 10
145.1068819715
 20
121.730178976
 11
145.0956274632
 21
114.3604202076
  0
LWPOLYLINE
  5
27A
100
AcDbEntity
  8
ASSI
100
AcDbPolyline
 62
250
  6
CONTINUOUS
 90
25
 70
0
 10
145.1584246211
 20
121.367611341
 10
145.1588741891
 20
121.3805002869
 10
145.1601681817
 20
121.3933528956
 10
145.1623046799
 20
121.406114428
 10
145.1652793294
 20
121.4187345141
 10
145.1690823533
 20
121.4311541213
 10
145.1736957109
 20
121.4433066449
 10
145.179099364
 20
121.4551374514
 10
145.1852719051
 20
121.4665980912
 10
145.1921845876
 20
121.4776344244
 10
145.1998059916
 20
121.4881971559
 10
145.2081047649
 20
121.4982436203
 10
145.2170471596
 20
121.5077328548
 10
145.226596384
 20
121.5166251137
 10
145.2367107557
 20
121.5248809223
 10
145.2473454113
 20
121.5324635107
 10
145.258453952
 20
121.5393400269
 10
145.2699895802
 20
121.5454817231
 10
145.2819036127
 20
121.5508627012
 10
145.2941454616
 20
121.5554600132
 10
145.3066624412
 20
121.5592537761
 10
145.3194006683
 20
121.5622276371
 10
145.3323055257
 20
121.5643688719
 10
145.3453219181
 20
121.565668365
 10
145.3583941602
 20
121.5661205713
  0
LINE
  5
27B
100
AcDbEntity
  8
ASSI
100
AcDbLine
 62
7
  6
CONTINUOUS
 10
149.001514386
 20
121.5661205713
 11
149.0754950892
 21
121.8262433662
  0
LINE
  5
27C
100
AcDbEntity
  8
ASSI
100
AcDbLine
 62
250
  6
CONTINUOUS
 10
160.2444015486
 20
117.1346856088
 11
160.1900072702
 21
117.107496756
  0
LINE
  5
27D
100
AcDbEntity
  8
ASSI
100
AcDbLine
 62
250
  6
CONTINUOUS
 10
160.4942487969
 20
116.8847234559
 11
160.4397317911
 21
116.8574732581
  0
LWPOLYLINE
  5
27E
100
AcDbEntity
  8
ASSI
100
AcDbPolyline
 62
250
  6
CONTINUOUS
 90
25
 70
0
 10
162.2037460769
 20
95.1024843458
 10
162.2233399113
 20
95.1031491487
 10
162.2428499707
 20
95.1050929852
 10
162.2621928396
 20
95.1083075442
 10
162.2812858172
 20
95.1127790817
 10
162.3000472708
 20
95.1184884793
 10
162.3183969853
 20
95.125411326
 10
162.3362565059
 20
95.1335180228
 10
162.3535494742
 20
95.1427739091
 10
162.3702019535
 20
95.1531394107
 10
162.386142746
 20
95.1645702096
 10
162.4013036965
 20
95.1770174327
 10
162.4156199844
 20
95.1904278615
 10
162.4290304001
 20
95.204744159
 10
162.4414776075
 20
95.2199051154
 10
162.4529083886
 20
95.2358459095
 10
162.4632738712
 20
95.2524983859
 10
162.4725297377
 20
95.2697913465
 10
162.480636415
 20
95.2876508547
 10
162.4875592432
 20
95.3060005518
 10
162.4932686239
 20
95.3247619832
 10
162.4977401472
 20
95.3438549342
 10
162.5009546952
 20
95.3631977725
 10
162.5028985246
 20
95.3827077975
 10
162.503563325
 20
95.4023015939
  0
LWPOLYLINE
  5
27F
100
AcDbEntity
  8
ASSI
100
AcDbPolyline
 62
250
  6
CONTINUOUS
 90
25
 70
0
 10
147.9037460769
 20
95.1024843458
 10
147.9233399113
 20
95.1031491487
 10
147.9428499707
 20
95.1050929852
 10
147.9621928396
 20
95.1083075442
 10
147.9812858172
 20
95.1127790817
 10
148.0000472708
 20
95.1184884793
 10
148.0183969853
 20
95.125411326
 10
148.0362565059
 20
95.1335180228
 10
148.0535494742
 20
95.1427739091
 10
148.0702019535
 20
95.1531394107
 10
148.086142746
 20
95.1645702096
 10
148.1013036965
 20
95.1770174327
 10
148.1156199844
 20
95.1904278615
 10
148.1290304001
 20
95.204744159
 10
148.1414776075
 20
95.2199051154
 10
148.1529083886
 20
95.2358459095
 10
148.1632738712
 20
95.2524983859
 10
148.1725297377
 20
95.2697913465
 10
148.180636415
 20
95.2876508547
 10
148.1875592432
 20
95.3060005518
 10
148.1932686239
 20
95.3247619832
 10
148.1977401472
 20
95.3438549342
 10
148.2009546952
 20
95.3631977725
 10
148.2028985246
 20
95.3827077975
 10
148.203563325
 20
95.4023015939
  0
LINE
  5
280
100
AcDbEntity
  8
ASSI
100
AcDbLine
 62
7
  6
CONTINUOUS
 10
162.2588765397
 20
95.047353883
 11
162.0323783867
 21
95.047353883
  0
LINE
  5
281
100
AcDbEntity
  8
ASSI
100
AcDbLine
 62
7
  6
CONTINUOUS
 10
147.9588765397
 20
95.047353883
 11
147.7323783867
 21
95.047353883
  0
LINE
  5
282
100
AcDbEntity
  8
ASSI
100
AcDbLine
 62
250
  6
CONTINUOUS
 10
147.787508322
 20
95.1024838182
 11
147.9037466044
 21
95.1024838182
  0
LINE
  5
283
100
AcDbEntity
  8
ASSI
100
AcDbLine
 62
250
  6
CONTINUOUS
 10
162.087508322
 20
95.1024838182
 11
162.2037466044
 21
95.1024838182
  0
LINE
  5
284
100
AcDbEntity
  8
ASSI
100
AcDbLine
 62
250
  6
CONTINUOUS
 10
147.4944320119
 20
95.6021797593
 11
148.1968229146
 21
95.6021797593
  0
LINE
  5
285
100
AcDbEntity
  8
ASSI
100
AcDbLine
 62
250
  6
CONTINUOUS
 10
161.7944320119
 20
95.6021797593
 11
162.4968229146
 21
95.6021797593
  0
LWPOLYLINE
  5
286
100
AcDbEntity
  8
ASSI
100
AcDbPolyline
 62
7
  6
CONTINUOUS
 90
28
 70
0
 10
147.7323783867
 20
95.047353883
 10
147.7150333125
 20
95.0478550956
 10
147.6977073768
 20
95.0493620567
 10
147.6804592788
 20
95.0518765539
 10
147.6633226933
 20
95.0554028652
 10
147.6463831589
 20
95.0599328277
 10
147.6297739415
 20
95.0654311127
 10
147.6135880323
 20
95.0718559985
 10
147.5978370804
 20
95.0791916857
 10
147.5825294969
 20
95.0874316749
 10
147.5677154887
 20
95.096551056
 10
147.553447803
 20
95.1065195557
 10
147.5397440075
 20
95.1173315099
 10
147.5266208604
 20
95.1289903752
 10
147.514167922
 20
95.1414340833
 10
147.5025010637
 20
95.1545467231
 10
147.4916826955
 20
95.168237838
 10
147.4817084452
 20
95.1824911667
 10
147.4725824125
 20
95.1972915088
 10
147.4643345977
 20
95.2125870726
 10
147.4569905616
 20
95.2283270022
 10
147.4505570421
 20
95.2445030944
 10
147.4450496335
 20
95.2611049878
 10
147.4405107725
 20
95.2780385739
 10
147.4369767777
 20
95.2951669854
 10
147.4344555418
 20
95.312403368
 10
147.4329419812
 20
95.3297152088
 10
147.4324338392
 20
95.3470438317
  0
LWPOLYLINE
  5
287
100
AcDbEntity
  8
ASSI
100
AcDbPolyline
 62
7
  6
CONTINUOUS
 90
28
 70
0
 10
162.0323783867
 20
95.047353883
 10
162.0150333125
 20
95.0478550956
 10
161.9977073768
 20
95.0493620567
 10
161.9804592788
 20
95.0518765539
 10
161.9633226933
 20
95.0554028652
 10
161.9463831589
 20
95.0599328277
 10
161.9297739415
 20
95.0654311127
 10
161.9135880323
 20
95.0718559985
 10
161.8978370804
 20
95.0791916857
 10
161.8825294969
 20
95.0874316749
 10
161.8677154887
 20
95.096551056
 10
161.853447803
 20
95.1065195557
 10
161.8397440075
 20
95.1173315099
 10
161.8266208604
 20
95.1289903752
 10
161.814167922
 20
95.1414340833
 10
161.8025010637
 20
95.1545467231
 10
161.7916826955
 20
95.168237838
 10
161.7817084452
 20
95.1824911667
 10
161.7725824125
 20
95.1972915088
 10
161.7643345977
 20
95.2125870726
 10
161.7569905616
 20
95.2283270022
 10
161.7505570421
 20
95.2445030944
 10
161.7450496335
 20
95.2611049878
 10
161.7405107725
 20
95.2780385739
 10
161.7369767777
 20
95.2951669854
 10
161.7344555418
 20
95.312403368
 10
161.7329419812
 20
95.3297152088
 10
161.7324338392
 20
95.3470438317
  0
LWPOLYLINE
  5
288
100
AcDbEntity
  8
ASSI
100
AcDbPolyline
 62
250
  6
CONTINUOUS
 90
25
 70
0
 10
147.7875088495
 20
95.1024843458
 10
147.7679150316
 20
95.1031491476
 10
147.7484049875
 20
95.1050929809
 10
147.7290621326
 20
95.108307535
 10
147.7099691676
 20
95.112779066
 10
147.691207725
 20
95.1184884556
 10
147.6728580195
 20
95.1254112934
 10
147.6549985057
 20
95.1335179806
 10
147.6377055422
 20
95.142773857
 10
147.6210530654
 20
95.1531393487
 10
147.6051122734
 20
95.1645701381
 10
147.5899513211
 20
95.1770173526
 10
147.5756350295
 20
95.1904277739
 10
147.5622246083
 20
95.2047440654
 10
147.5497773938
 20
95.2199050177
 10
147.5383466044
 20
95.2358458098
 10
147.5279811126
 20
95.2524982866
 10
147.5187252363
 20
95.26979125
 10
147.5106185491
 20
95.2876507639
 10
147.5036957113
 20
95.3060004693
 10
147.4979863216
 20
95.324761912
 10
147.4935147907
 20
95.3438548769
 10
147.4903002366
 20
95.3631977318
 10
147.4883564032
 20
95.382707776
 10
147.4876916014
 20
95.4023015939
  0
LWPOLYLINE
  5
289
100
AcDbEntity
  8
ASSI
100
AcDbPolyline
 62
250
  6
CONTINUOUS
 90
25
 70
0
 10
162.0875088495
 20
95.1024843458
 10
162.0679150316
 20
95.1031491476
 10
162.0484049875
 20
95.1050929809
 10
162.0290621326
 20
95.108307535
 10
162.0099691676
 20
95.112779066
 10
161.991207725
 20
95.1184884556
 10
161.9728580195
 20
95.1254112934
 10
161.9549985057
 20
95.1335179806
 10
161.9377055422
 20
95.142773857
 10
161.9210530654
 20
95.1531393487
 10
161.9051122734
 20
95.1645701381
 10
161.8899513211
 20
95.1770173526
 10
161.8756350295
 20
95.1904277739
 10
161.8622246083
 20
95.2047440654
 10
161.8497773938
 20
95.2199050177
 10
161.8383466044
 20
95.2358458098
 10
161.8279811126
 20
95.2524982866
 10
161.8187252363
 20
95.26979125
 10
161.8106185491
 20
95.2876507639
 10
161.8036957113
 20
95.3060004693
 10
161.7979863216
 20
95.324761912
 10
161.7935147907
 20
95.3438548769
 10
161.7903002366
 20
95.3631977318
 10
161.7883564032
 20
95.382707776
 10
161.7876916014
 20
95.4023015939
  0
LINE
  5
28A
100
AcDbEntity
  8
ASSI
100
AcDbLine
 62
250
  6
CONTINUOUS
 10
147.9588765397
 20
95.047353883
 11
147.9037466044
 21
95.1024838182
  0
LINE
  5
28B
100
AcDbEntity
  8
ASSI
100
AcDbLine
 62
250
  6
CONTINUOUS
 10
148.2588210872
 20
95.3470438317
 11
148.203563325
 21
95.4023015939
  0
LWPOLYLINE
  5
28C
100
AcDbEntity
  8
ASSI
100
AcDbPolyline
 62
250
  6
CONTINUOUS
 90
13
 70
0
 10
148.203563325
 20
95.4023015939
 10
148.2032052077
 20
95.4029265261
 10
148.2028504298
 20
95.4040656054
 10
148.2024989913
 20
95.4057188318
 10
148.2021499667
 20
95.4078932047
 10
148.2018042814
 20
95.4105817247
 10
148.2014647123
 20
95.4137633936
 10
148.2011313258
 20
95.4174421177
 10
148.2008040553
 20
95.4216139906
 10
148.2004854785
 20
95.4262462955
 10
148.2001756697
 20
95.4313426068
 10
148.1998745544
 20
95.43689935
 10
148.1995844873
 20
95.4428730853
  0
LINE
  5
28D
100
AcDbEntity
  8
ASSI
100
AcDbLine
 62
7
  6
CONTINUOUS
 10
145.1497381645
 20
99.9844146024
 11
145.1654787074
 21
99.952923922
  0
LINE
  5
28E
100
AcDbEntity
  8
ASSI
100
AcDbLine
 62
7
  6
CONTINUOUS
 10
147.1872024702
 20
79.1011075019
 11
147.1119089864
 21
80.5917250768
  0
LINE
  5
28F
100
AcDbEntity
  8
ASSI
100
AcDbLine
 62
250
  6
CONTINUOUS
 10
145.1584246203
 20
121.3676113468
 11
145.1620258717
 21
115.3604202076
  0
LINE
  5
290
100
AcDbEntity
  8
ASSI
100
AcDbLine
 62
7
  6
CONTINUOUS
 10
145.1125043623
 20
115.3604202076
 11
145.1125043623
 21
111.5604202076
  0
LINE
  5
291
100
AcDbEntity
  8
ASSI
100
AcDbLine
 62
7
  6
CONTINUOUS
 10
145.1125043623
 20
87.1604202076
 11
145.1125043623
 21
90.9604202076
  0
LINE
  5
292
100
AcDbEntity
  8
ASSI
100
AcDbLine
 62
7
  6
CONTINUOUS
 10
145.1497381645
 20
101.1333669174
 11
145.1497381645
 21
99.9844146024
  0
LINE
  5
293
100
AcDbEntity
  8
ASSI
100
AcDbLine
 62
7
  6
CONTINUOUS
 10
145.1497381645
 20
101.3874734977
 11
145.1497381645
 21
102.5364258127
  0
LINE
  5
294
100
AcDbEntity
  8
ASSI
100
AcDbLine
 62
250
  6
CONTINUOUS
 10
145.1636503255
 20
111.5604202076
 11
145.1654787074
 21
102.5679164931
  0
LINE
  5
295
100
AcDbEntity
  8
ASSI
100
AcDbLine
 62
250
  6
CONTINUOUS
 10
145.3583941602
 20
121.5661205713
 11
145.3619982053
 21
115.3604202076
  0
LINE
  5
296
100
AcDbEntity
  8
ASSI
100
AcDbLine
 62
250
  6
CONTINUOUS
 10
145.3636213555
 20
111.5604202076
 11
145.3654479556
 21
102.5747781506
  0
LINE
  5
297
100
AcDbEntity
  8
ASSI
100
AcDbLine
 62
7
  6
CONTINUOUS
 10
145.4956274632
 20
115.3604202076
 11
145.4956274632
 21
111.5604202076
  0
LINE
  5
298
100
AcDbEntity
  8
ASSI
100
AcDbLine
 62
7
  6
CONTINUOUS
 10
145.4956274632
 20
87.1604202076
 11
145.4956274632
 21
90.9604202076
  0
LINE
  5
299
100
AcDbEntity
  8
ASSI
100
AcDbLine
 62
250
  6
CONTINUOUS
 10
145.1654787074
 20
99.952923922
 11
145.1636503255
 21
90.9604202076
  0
LINE
  5
29A
100
AcDbEntity
  8
ASSI
100
AcDbLine
 62
250
  6
CONTINUOUS
 10
145.3654479556
 20
99.9460622645
 11
145.3636213555
 21
90.9604202076
  0
LINE
  5
29B
100
AcDbEntity
  8
ASSI
100
AcDbLine
 62
250
  6
CONTINUOUS
 10
145.1620258717
 20
87.1604202076
 11
145.1584246203
 21
81.1532290684
  0
LINE
  5
29C
100
AcDbEntity
  8
ASSI
100
AcDbLine
 62
250
  6
CONTINUOUS
 10
145.3619982053
 20
87.1604202076
 11
145.3583941602
 21
80.9547198439
  0
LINE
  5
29D
100
AcDbEntity
  8
ASSI
100
AcDbLine
 62
7
  6
CONTINUOUS
 10
147.1872024702
 20
123.4197329133
 11
147.1119089864
 21
121.9291153383
  0
LINE
  5
29E
100
AcDbEntity
  8
ASSI
100
AcDbLine
 62
250
  6
CONTINUOUS
 10
149.1040395805
 20
118.8626655765
 11
149.0461171145
 21
118.5701951154
  0
LINE
  5
29F
100
AcDbEntity
  8
ASSI
100
AcDbLine
 62
250
  6
CONTINUOUS
 10
149.3538872873
 20
118.6164636382
 11
149.3031790316
 21
118.3604202076
  0
LINE
  5
2A0
100
AcDbEntity
  8
ASSI
100
AcDbLine
 62
7
  6
CONTINUOUS
 10
145.1654787074
 20
102.5679164931
 11
145.1497381645
 21
102.5364258127
  0
LINE
  5
2A1
100
AcDbEntity
  8
ASSI
100
AcDbLine
 62
250
  6
CONTINUOUS
 10
147.9037466045
 20
107.4183565969
 11
147.9588765397
 21
107.4734865322
  0
LINE
  5
2A2
100
AcDbEntity
  8
ASSI
100
AcDbLine
 62
250
  6
CONTINUOUS
 10
148.203563325
 20
107.1185388213
 11
148.2588210872
 21
107.1737965835
  0
LWPOLYLINE
  5
2A3
100
AcDbEntity
  8
ASSI
100
AcDbPolyline
 62
250
  6
CONTINUOUS
 90
25
 70
0
 10
162.0922036487
 20
97.306866817
 10
162.0728964349
 20
97.3060896693
 10
162.0536693216
 20
97.3044356736
 10
162.0346020765
 20
97.3019116918
 10
162.0157738037
 20
97.2985281954
 10
161.997262616
 20
97.2942992214
 10
161.9791453111
 20
97.2892423149
 10
161.961497052
 20
97.2833784555
 10
161.9443910561
 20
97.2767319707
 10
161.9278982909
 20
97.269330435
 10
161.91208718
 20
97.2612045553
 10
161.8970233186
 20
97.2523880434
 10
161.8827692021
 20
97.2429174767
 10
161.8693839664
 20
97.2328321458
 10
161.8569231425
 20
97.2221738917
 10
161.8454384265
 20
97.2109869324
 10
161.8349774646
 20
97.1993176794
 10
161.8255836561
 20
97.1872145449
 10
161.8172959727
 20
97.1747277412
 10
161.8101487971
 20
97.1619090724
 10
161.8041717807
 20
97.1488117191
 10
161.7993897198
 20
97.1354900183
 10
161.7958224536
 20
97.1219992377
 10
161.7934847812
 20
97.1083953464
 10
161.7923864006
 20
97.0947347826
  0
LWPOLYLINE
  5
2A4
100
AcDbEntity
  8
ASSI
100
AcDbPolyline
 62
250
  6
CONTINUOUS
 90
25
 70
0
 10
147.7922036487
 20
97.306866817
 10
147.7728964349
 20
97.3060896693
 10
147.7536693216
 20
97.3044356736
 10
147.7346020765
 20
97.3019116918
 10
147.7157738037
 20
97.2985281954
 10
147.697262616
 20
97.2942992214
 10
147.6791453111
 20
97.2892423149
 10
147.661497052
 20
97.2833784555
 10
147.6443910561
 20
97.2767319707
 10
147.6278982909
 20
97.269330435
 10
147.61208718
 20
97.2612045553
 10
147.5970233186
 20
97.2523880434
 10
147.5827692021
 20
97.2429174767
 10
147.5693839664
 20
97.2328321458
 10
147.5569231425
 20
97.2221738917
 10
147.5454384265
 20
97.2109869324
 10
147.5349774646
 20
97.1993176794
 10
147.5255836561
 20
97.1872145449
 10
147.5172959727
 20
97.1747277412
 10
147.5101487971
 20
97.1619090724
 10
147.5041717807
 20
97.1488117191
 10
147.4993897198
 20
97.1354900183
 10
147.4958224536
 20
97.1219992377
 10
147.4934847812
 20
97.1083953464
 10
147.4923864006
 20
97.0947347826
  0
LWPOLYLINE
  5
2A5
100
AcDbEntity
  8
ASSI
100
AcDbPolyline
 62
250
  6
CONTINUOUS
 90
25
 70
0
 10
162.0675109358
 20
98.0139735982
 10
162.0482037342
 20
98.0131964514
 10
162.0289766323
 20
98.0115424576
 10
162.0099093975
 20
98.0090184787
 10
161.9910811339
 20
98.0056349858
 10
161.9725699543
 20
98.0014060162
 10
161.954452656
 20
97.9963491144
 10
161.9368044019
 20
97.99048526
 10
161.9196984095
 20
97.9838387804
 10
161.9032056462
 20
97.9764372498
 10
161.8873945355
 20
97.9683113749
 10
161.8723306729
 20
97.9594948675
 10
161.8580765537
 20
97.9500243045
 10
161.844691314
 20
97.9399389764
 10
161.832230485
 20
97.9292807243
 10
161.820745763
 20
97.9180937659
 10
161.8102847944
 20
97.9064245126
 10
161.8008909788
 20
97.8943213764
 10
161.7926032882
 20
97.8818345697
 10
161.7854561056
 20
97.8690158964
 10
161.7794790826
 20
97.8559185372
 10
161.774697016
 20
97.8425968291
 10
161.7711297452
 20
97.8291060399
 10
161.7687920696
 20
97.8155021386
 10
161.7676936876
 20
97.8018415638
  0
LINE
  5
2A6
100
AcDbEntity
  8
ASSI
100
AcDbLine
 62
250
  6
CONTINUOUS
 10
147.4944320119
 20
96.9533134264
 11
148.1968229146
 21
96.9533134264
  0
LINE
  5
2A7
100
AcDbEntity
  8
ASSI
100
AcDbLine
 62
250
  6
CONTINUOUS
 10
161.7944320119
 20
96.9533134264
 11
162.4968229146
 21
96.9533134264
  0
LINE
  5
2A8
100
AcDbEntity
  8
ASSI
100
AcDbLine
 62
250
  6
CONTINUOUS
 10
162.1990512778
 20
97.306866817
 11
162.0922036487
 21
97.306866817
  0
LINE
  5
2A9
100
AcDbEntity
  8
ASSI
100
AcDbLine
 62
250
  6
CONTINUOUS
 10
147.8990512778
 20
97.306866817
 11
147.7922036487
 21
97.306866817
  0
LWPOLYLINE
  5
2AA
100
AcDbEntity
  8
ASSI
100
AcDbPolyline
 62
250
  6
CONTINUOUS
 90
25
 70
0
 10
147.8990512778
 20
97.306866817
 10
147.9183584793
 20
97.3060896702
 10
147.9375855812
 20
97.3044356764
 10
147.956652816
 20
97.3019116975
 10
147.9754810796
 20
97.2985282046
 10
147.9939922592
 20
97.294299235
 10
148.0121095576
 20
97.2892423332
 10
148.0297578116
 20
97.2833784788
 10
148.046863804
 20
97.2767319992
 10
148.0633565673
 20
97.2693304686
 10
148.079167678
 20
97.2612045937
 10
148.0942315406
 20
97.2523880863
 10
148.1084856598
 20
97.2429175233
 10
148.1218708995
 20
97.2328321953
 10
148.1343317285
 20
97.2221739431
 10
148.1458164505
 20
97.2109869847
 10
148.1562774191
 20
97.1993177314
 10
148.1656712347
 20
97.1872145952
 10
148.1739589254
 20
97.1747277885
 10
148.1811061079
 20
97.1619091152
 10
148.1870831309
 20
97.148811756
 10
148.1918651975
 20
97.1354900479
 10
148.1954324683
 20
97.1219992587
 10
148.1977701439
 20
97.1083953574
 10
148.1988685259
 20
97.0947347826
  0
LWPOLYLINE
  5
2AB
100
AcDbEntity
  8
ASSI
100
AcDbPolyline
 62
250
  6
CONTINUOUS
 90
25
 70
0
 10
162.1990512778
 20
97.306866817
 10
162.2183584793
 20
97.3060896702
 10
162.2375855812
 20
97.3044356764
 10
162.256652816
 20
97.3019116975
 10
162.2754810796
 20
97.2985282046
 10
162.2939922592
 20
97.294299235
 10
162.3121095576
 20
97.2892423332
 10
162.3297578116
 20
97.2833784788
 10
162.346863804
 20
97.2767319992
 10
162.3633565673
 20
97.2693304686
 10
162.379167678
 20
97.2612045937
 10
162.3942315406
 20
97.2523880863
 10
162.4084856598
 20
97.2429175233
 10
162.4218708995
 20
97.2328321953
 10
162.4343317285
 20
97.2221739431
 10
162.4458164505
 20
97.2109869847
 10
162.4562774191
 20
97.1993177314
 10
162.4656712347
 20
97.1872145952
 10
162.4739589254
 20
97.1747277885
 10
162.4811061079
 20
97.1619091152
 10
162.4870831309
 20
97.148811756
 10
162.4918651975
 20
97.1354900479
 10
162.4954324683
 20
97.1219992587
 10
162.4977701439
 20
97.1083953574
 10
162.4988685259
 20
97.0947347826
  0
LWPOLYLINE
  5
2AC
100
AcDbEntity
  8
ASSI
100
AcDbPolyline
 62
250
  6
CONTINUOUS
 90
25
 70
0
 10
147.9237439907
 20
98.0139735982
 10
147.9430511622
 20
98.0131964533
 10
147.9622782358
 20
98.0115424639
 10
147.9813454444
 20
98.0090184918
 10
148.0001736839
 20
98.0056350079
 10
148.018684842
 20
98.0014060491
 10
148.0368021225
 20
97.9963491595
 10
148.0544503624
 20
97.9904853183
 10
148.0715563444
 20
97.9838388526
 10
148.0880491015
 20
97.9764373357
 10
148.1038602102
 20
97.9683114741
 10
148.1189240747
 20
97.959494979
 10
148.1331781999
 20
97.9500244267
 10
148.1465634492
 20
97.9399391074
 10
148.1590242909
 20
97.9292808616
 10
148.1705090284
 20
97.9180939065
 10
148.1809700145
 20
97.9064246532
 10
148.190363849
 20
97.8943215135
 10
148.1986515592
 20
97.8818346993
 10
148.205798761
 20
97.8690160144
 10
148.2117758021
 20
97.8559186397
 10
148.2165578847
 20
97.8425969118
 10
148.2201251684
 20
97.8291060987
 10
148.2224628529
 20
97.8155021698
 10
148.2235612388
 20
97.8018415638
  0
LWPOLYLINE
  5
2AD
100
AcDbEntity
  8
ASSI
100
AcDbPolyline
 62
7
  6
CONTINUOUS
 90
15
 70
0
 10
145.1654787074
 20
99.952923922
 10
145.1661171776
 20
99.9524734954
 10
145.1675778186
 20
99.9520278434
 10
145.1698606306
 20
99.9515869659
 10
145.1729876458
 20
99.9511483282
 10
145.1769368319
 20
99.950714465
 10
145.181642092
 20
99.9502929808
 10
145.1870941326
 20
99.9498854755
 10
145.1933022471
 20
99.9494903492
 10
145.2002282188
 20
99.9491104066
 10
145.2079008398
 20
99.9487446092
 10
145.216291318
 20
99.9483939955
 10
145.2252750601
 20
99.9480644858
 10
145.2348679186
 20
99.9477566422
 10
145.2556612773
 20
99.9472085006
  0
LWPOLYLINE
  5
2AE
100
AcDbEntity
  8
ASSI
100
AcDbPolyline
 62
250
  6
CONTINUOUS
 90
8
 70
0
 10
147.9037462865
 20
95.1024838185
 10
147.9033878759
 20
95.1040306945
 10
147.9030329011
 20
95.1068829725
 10
147.902681362
 20
95.111033249
 10
147.9023323773
 20
95.116470697
 10
147.9019868284
 20
95.1231811488
 10
147.9016473592
 20
95.1311471781
 10
147.9013139737
 20
95.1403481865
  0
LINE
  5
2AF
100
AcDbEntity
  8
ASSI
100
AcDbLine
 62
250
  6
CONTINUOUS
 10
149.0461171145
 20
83.9506452998
 11
149.1040395805
 21
83.6581748387
  0
LINE
  5
2B0
100
AcDbEntity
  8
ASSI
100
AcDbLine
 62
250
  6
CONTINUOUS
 10
149.3031790316
 20
84.1604202076
 11
149.3538872873
 21
83.9043767769
  0
LWPOLYLINE
  5
2B1
100
AcDbEntity
  8
ASSI
100
AcDbPolyline
 62
250
  6
CONTINUOUS
 90
10
 70
0
 10
149.1040395805
 20
83.6581748387
 10
149.1041394564
 20
83.6575828344
 10
149.1042373563
 20
83.6568319128
 10
149.1043332804
 20
83.655922074
 10
149.1044275514
 20
83.6548491235
 10
149.1045198465
 20
83.6536172558
 10
149.1046091975
 20
83.6522390538
 10
149.1046955632
 20
83.6507131085
 10
149.1047789848
 20
83.6490408289
 10
149.104858618
 20
83.6472390251
  0
LWPOLYLINE
  5
2B2
100
AcDbEntity
  8
ASSI
100
AcDbPolyline
 62
7
  6
CONTINUOUS
 90
31
 70
0
 10
149.7451378119
 20
83.9506452998
 10
149.7445115301
 20
83.9598630837
 10
149.7433935725
 20
83.9691453474
 10
149.741773541
 20
83.9784698976
 10
149.7396413774
 20
83.9878095094
 10
149.7369894027
 20
83.9971441308
 10
149.7338122028
 20
84.0064608801
 10
149.7301044117
 20
84.0157313193
 10
149.7258605547
 20
84.0249312526
 10
149.7210756218
 20
84.0340524621
 10
149.7157474101
 20
84.0430638354
 10
149.7098733841
 20
84.0519382147
 10
149.7034470949
 20
84.0606706704
 10
149.6964695452
 20
84.0692266864
 10
149.6889411523
 20
84.0775758096
 10
149.6808525294
 20
84.0857149908
 10
149.6722080797
 20
84.0936055295
 10
149.6630118659
 20
84.101212594
 10
149.653251408
 20
84.1085325856
 10
149.642935219
 20
84.1155216652
 10
149.6320727038
 20
84.1221392422
 10
149.620650627
 20
84.1283778675
 10
149.6086823834
 20
84.1341881688
 10
149.596186528
 20
84.1395221317
 10
149.5831575585
 20
84.1443641346
 10
149.5696159952
 20
84.1486597902
 10
149.5555948641
 20
84.1523538798
 10
149.5411111972
 20
84.1554208117
 10
149.5261983348
 20
84.1578122481
 10
149.5109074366
 20
84.1594617768
 10
149.4952901052
 20
84.1603145966
  0
LINE
  5
2B3
100
AcDbEntity
  8
ASSI
100
AcDbLine
 62
250
  6
CONTINUOUS
 10
147.7666874127
 20
98.0292766797
 11
147.7675113192
 21
98.0139662438
  0
LINE
  5
2B4
100
AcDbEntity
  8
ASSI
100
AcDbLine
 62
250
  6
CONTINUOUS
 10
147.9245675138
 20
104.4915637355
 11
147.9237436072
 21
104.5068741714
  0
LINE
  5
2B5
100
AcDbEntity
  8
ASSI
100
AcDbLine
 62
250
  6
CONTINUOUS
 10
147.7651460254
 20
98.0621109953
 11
147.7666874127
 21
98.0292766797
  0
LINE
  5
2B6
100
AcDbEntity
  8
ASSI
100
AcDbLine
 62
250
  6
CONTINUOUS
 10
147.926108901
 20
104.4587294198
 11
147.9245675138
 21
104.4915637355
  0
LINE
  5
2B7
100
AcDbEntity
  8
ASSI
100
AcDbLine
 62
250
  6
CONTINUOUS
 10
147.4916704391
 20
107.0779673299
 11
147.4922172613
 21
107.0647621957
  0
LINE
  5
2B8
100
AcDbEntity
  8
ASSI
100
AcDbLine
 62
250
  6
CONTINUOUS
 10
148.1995844873
 20
95.4428730853
 11
148.1990376651
 21
95.4560782195
  0
LINE
  5
2B9
100
AcDbEntity
  8
ASSI
100
AcDbLine
 62
250
  6
CONTINUOUS
 10
147.7637405575
 20
98.0978368074
 11
147.7651460254
 21
98.0621109953
  0
LINE
  5
2BA
100
AcDbEntity
  8
ASSI
100
AcDbLine
 62
250
  6
CONTINUOUS
 10
147.9275143689
 20
104.4230036078
 11
147.926108901
 21
104.4587294198
  0
LINE
  5
2BB
100
AcDbEntity
  8
ASSI
100
AcDbLine
 62
250
  6
CONTINUOUS
 10
147.7675111926
 20
98.0139662437
 11
147.7922036487
 21
97.306866817
  0
LINE
  5
2BC
100
AcDbEntity
  8
ASSI
100
AcDbLine
 62
250
  6
CONTINUOUS
 10
147.9237437339
 20
104.5068741714
 11
147.8990512778
 21
105.2139735982
  0
LINE
  5
2BD
100
AcDbEntity
  8
ASSI
100
AcDbLine
 62
250
  6
CONTINUOUS
 10
149.104858618
 20
83.6472390251
 11
149.1050064452
 21
83.6432440792
  0
LINE
  5
2BE
100
AcDbEntity
  8
ASSI
100
AcDbLine
 62
250
  6
CONTINUOUS
 10
149.0455062894
 20
85.3741520654
 11
149.0456512082
 21
85.3701637785
  0
LINE
  5
2BF
100
AcDbEntity
  8
ASSI
100
AcDbLine
 62
250
  6
CONTINUOUS
 10
147.4922172613
 20
107.0647621957
 11
147.4927134761
 21
107.0500466566
  0
LINE
  5
2C0
100
AcDbEntity
  8
ASSI
100
AcDbLine
 62
250
  6
CONTINUOUS
 10
148.1990376651
 20
95.4560782195
 11
148.1985414503
 21
95.4707937585
  0
LINE
  5
2C1
100
AcDbEntity
  8
ASSI
100
AcDbLine
 62
250
  6
CONTINUOUS
 10
147.762504813
 20
98.1360104197
 11
147.7637405575
 21
98.0978368074
  0
LINE
  5
2C2
100
AcDbEntity
  8
ASSI
100
AcDbLine
 62
250
  6
CONTINUOUS
 10
147.9287501135
 20
104.3848299954
 11
147.9275143689
 21
104.4230036078
  0
LINE
  5
2C3
100
AcDbEntity
  8
ASSI
100
AcDbLine
 62
250
  6
CONTINUOUS
 10
147.4660821913
 20
97.8520314983
 11
147.4927983153
 21
97.0818606141
  0
LINE
  5
2C4
100
AcDbEntity
  8
ASSI
100
AcDbLine
 62
250
  6
CONTINUOUS
 10
148.2251727351
 20
104.6688089168
 11
148.1984566111
 21
105.438979801
  0
LINE
  5
2C5
100
AcDbEntity
  8
ASSI
100
AcDbLine
 62
250
  6
CONTINUOUS
 10
149.3538872873
 20
83.9043767769
 11
149.3539872134
 21
83.9008501851
  0
LINE
  5
2C6
100
AcDbEntity
  8
ASSI
100
AcDbLine
 62
250
  6
CONTINUOUS
 10
149.1050064452
 20
83.6432440792
 11
149.1051368732
 21
83.6387928169
  0
LINE
  5
2C7
100
AcDbEntity
  8
ASSI
100
AcDbLine
 62
250
  6
CONTINUOUS
 10
147.9013139737
 20
95.1403481865
 11
147.9006680737
 21
95.1623550162
  0
LINE
  5
2C8
100
AcDbEntity
  8
ASSI
100
AcDbLine
 62
250
  6
CONTINUOUS
 10
147.7899409527
 20
107.3804922286
 11
147.7905868528
 21
107.358485399
  0
LINE
  5
2C9
100
AcDbEntity
  8
ASSI
100
AcDbLine
 62
250
  6
CONTINUOUS
 10
149.0456512082
 20
85.3701637785
 11
149.0457789786
 21
85.3657335782
  0
LINE
  5
2CA
100
AcDbEntity
  8
ASSI
100
AcDbLine
 62
250
  6
CONTINUOUS
 10
147.4927134761
 20
107.0500466566
 11
147.4931551918
 21
107.0339362108
  0
LINE
  5
2CB
100
AcDbEntity
  8
ASSI
100
AcDbLine
 62
250
  6
CONTINUOUS
 10
148.1985414503
 20
95.4707937585
 11
148.1980997346
 21
95.4869042044
  0
LINE
  5
2CC
100
AcDbEntity
  8
ASSI
100
AcDbLine
 62
250
  6
CONTINUOUS
 10
147.4646089631
 20
97.9068600876
 11
147.4660821913
 21
97.8520314983
  0
LINE
  5
2CD
100
AcDbEntity
  8
ASSI
100
AcDbLine
 62
250
  6
CONTINUOUS
 10
148.2266459633
 20
104.6139803276
 11
148.2251727351
 21
104.6688089168
  0
LINE
  5
2CE
100
AcDbEntity
  8
ASSI
100
AcDbLine
 62
250
  6
CONTINUOUS
 10
147.4927983153
 20
97.0818606141
 11
147.493168579
 21
97.0680414366
  0
LINE
  5
2CF
100
AcDbEntity
  8
ASSI
100
AcDbLine
 62
250
  6
CONTINUOUS
 10
148.1984566111
 20
105.438979801
 11
148.1980863475
 21
105.4527989786
  0
LINE
  5
2D0
100
AcDbEntity
  8
ASSI
100
AcDbLine
 62
250
  6
CONTINUOUS
 10
147.7614540245
 20
98.176229384
 11
147.762504813
 21
98.1360104197
  0
LINE
  5
2D1
100
AcDbEntity
  8
ASSI
100
AcDbLine
 62
250
  6
CONTINUOUS
 10
147.9298009019
 20
104.3446110311
 11
147.9287501135
 21
104.3848299954
  0
LINE
  5
2D2
100
AcDbEntity
  8
ASSI
100
AcDbLine
 62
250
  6
CONTINUOUS
 10
147.9006680737
 20
95.1623550162
 11
147.9000572206
 21
95.1889690885
  0
LINE
  5
2D3
100
AcDbEntity
  8
ASSI
100
AcDbLine
 62
250
  6
CONTINUOUS
 10
147.7905868528
 20
107.358485399
 11
147.7911977058
 21
107.3318713266
  0
LINE
  5
2D4
100
AcDbEntity
  8
ASSI
100
AcDbLine
 62
250
  6
CONTINUOUS
 10
149.1051368732
 20
83.6387928169
 11
149.1052485786
 21
83.6339304317
  0
LINE
  5
2D5
100
AcDbEntity
  8
ASSI
100
AcDbLine
 62
250
  6
CONTINUOUS
 10
149.0457789786
 20
85.3657335782
 11
149.045888336
 21
85.3609053861
  0
LINE
  5
2D6
100
AcDbEntity
  8
ASSI
100
AcDbLine
 62
250
  6
CONTINUOUS
 10
147.4931551918
 20
107.0339362108
 11
147.493536911
 21
107.0166152093
  0
LINE
  5
2D7
100
AcDbEntity
  8
ASSI
100
AcDbLine
 62
250
  6
CONTINUOUS
 10
148.1980997346
 20
95.4869042044
 11
148.1977180154
 21
95.5042252058
  0
LINE
  5
2D8
100
AcDbEntity
  8
ASSI
100
AcDbLine
 62
250
  6
CONTINUOUS
 10
147.4626878167
 20
97.9970742201
 11
147.4646089631
 21
97.9068600876
  0
LINE
  5
2D9
100
AcDbEntity
  8
ASSI
100
AcDbLine
 62
250
  6
CONTINUOUS
 10
148.2285671097
 20
104.5237661951
 11
148.2266459633
 21
104.6139803276
  0
LINE
  5
2DA
100
AcDbEntity
  8
ASSI
100
AcDbLine
 62
250
  6
CONTINUOUS
 10
147.493168579
 20
97.0680414366
 11
147.4936426857
 21
97.0456711721
  0
LINE
  5
2DB
100
AcDbEntity
  8
ASSI
100
AcDbLine
 62
250
  6
CONTINUOUS
 10
148.1980863475
 20
105.4527989786
 11
148.1976122408
 21
105.4751692431
  0
LINE
  5
2DC
100
AcDbEntity
  8
ASSI
100
AcDbLine
 62
250
  6
CONTINUOUS
 10
147.7606082782
 20
98.2179519242
 11
147.7614540245
 21
98.176229384
  0
LINE
  5
2DD
100
AcDbEntity
  8
ASSI
100
AcDbLine
 62
250
  6
CONTINUOUS
 10
147.9306466482
 20
104.302888491
 11
147.9298009019
 21
104.3446110311
  0
LINE
  5
2DE
100
AcDbEntity
  8
ASSI
100
AcDbLine
 62
250
  6
CONTINUOUS
 10
149.1052485786
 20
83.6339304317
 11
149.1053397307
 21
83.6287290676
  0
LWPOLYLINE
  5
2DF
100
AcDbEntity
  8
ASSI
100
AcDbPolyline
 62
250
  6
CONTINUOUS
 90
3
 70
0
 10
149.045888336
 20
85.3609053861
 10
149.0459775372
 20
85.3557489378
 10
149.0460142033
 20
85.3530741392
  0
LINE
  5
2E0
100
AcDbEntity
  8
ASSI
100
AcDbLine
 62
250
  6
CONTINUOUS
 10
147.9000572206
 20
95.1889690885
 11
147.8992204148
 21
95.2369076754
  0
LINE
  5
2E1
100
AcDbEntity
  8
ASSI
100
AcDbLine
 62
250
  6
CONTINUOUS
 10
147.7911977058
 20
107.3318713266
 11
147.7920345116
 21
107.2839327397
  0
LINE
  5
2E2
100
AcDbEntity
  8
ASSI
100
AcDbLine
 62
250
  6
CONTINUOUS
 10
147.493536911
 20
107.0166152093
 11
147.4939885957
 21
106.9887818867
  0
LINE
  5
2E3
100
AcDbEntity
  8
ASSI
100
AcDbLine
 62
250
  6
CONTINUOUS
 10
148.1977180154
 20
95.5042252058
 11
148.1972663307
 21
95.5320585284
  0
LINE
  5
2E4
100
AcDbEntity
  8
ASSI
100
AcDbLine
 62
250
  6
CONTINUOUS
 10
147.4936426857
 20
97.0456711721
 11
147.4940107751
 21
97.0217173512
  0
LINE
  5
2E5
100
AcDbEntity
  8
ASSI
100
AcDbLine
 62
250
  6
CONTINUOUS
 10
148.1976122408
 20
105.4751692431
 11
148.1972441513
 21
105.4991230639
  0
LINE
  5
2E6
100
AcDbEntity
  8
ASSI
100
AcDbLine
 62
250
  6
CONTINUOUS
 10
147.4611885116
 20
98.0945472245
 11
147.4626878167
 21
97.9970742201
  0
LINE
  5
2E7
100
AcDbEntity
  8
ASSI
100
AcDbLine
 62
250
  6
CONTINUOUS
 10
147.7599753814
 20
98.2605874231
 11
147.7606082782
 21
98.2179519242
  0
LINE
  5
2E8
100
AcDbEntity
  8
ASSI
100
AcDbLine
 62
250
  6
CONTINUOUS
 10
147.931279545
 20
104.2602529921
 11
147.9306466482
 21
104.302888491
  0
LINE
  5
2E9
100
AcDbEntity
  8
ASSI
100
AcDbLine
 62
250
  6
CONTINUOUS
 10
148.2300664148
 20
104.4262931906
 11
148.2285671097
 21
104.5237661951
  0
LINE
  5
2EA
100
AcDbEntity
  8
ASSI
100
AcDbLine
 62
250
  6
CONTINUOUS
 10
147.8992204148
 20
95.2369076754
 11
147.8982825421
 21
95.3139795988
  0
LINE
  5
2EB
100
AcDbEntity
  8
ASSI
100
AcDbLine
 62
250
  6
CONTINUOUS
 10
147.7920345116
 20
107.2839327397
 11
147.7929723844
 21
107.2068608163
  0
LINE
  5
2EC
100
AcDbEntity
  8
ASSI
100
AcDbLine
 62
250
  6
CONTINUOUS
 10
147.7922036487
 20
97.306866817
 11
147.7931554486
 21
97.2219686747
  0
LINE
  5
2ED
100
AcDbEntity
  8
ASSI
100
AcDbLine
 62
250
  6
CONTINUOUS
 10
147.8990512778
 20
105.2139735982
 11
147.8980994778
 21
105.2988717405
  0
LINE
  5
2EE
100
AcDbEntity
  8
ASSI
100
AcDbLine
 62
250
  6
CONTINUOUS
 10
147.4940107751
 20
97.0217173512
 11
147.4942664708
 21
96.9965945296
  0
LINE
  5
2EF
100
AcDbEntity
  8
ASSI
100
AcDbLine
 62
250
  6
CONTINUOUS
 10
148.1972441513
 20
105.4991230639
 11
148.1969884556
 21
105.5242458856
  0
LINE
  5
2F0
100
AcDbEntity
  8
ASSI
100
AcDbLine
 62
250
  6
CONTINUOUS
 10
147.4601579687
 20
98.1964263493
 11
147.4611885116
 21
98.0945472245
  0
LINE
  5
2F1
100
AcDbEntity
  8
ASSI
100
AcDbLine
 62
250
  6
CONTINUOUS
 10
147.7595576816
 20
98.3036106928
 11
147.7599753814
 21
98.2605874231
  0
LINE
  5
2F2
100
AcDbEntity
  8
ASSI
100
AcDbLine
 62
250
  6
CONTINUOUS
 10
147.9316972448
 20
104.2172297223
 11
147.931279545
 21
104.2602529921
  0
LINE
  5
2F3
100
AcDbEntity
  8
ASSI
100
AcDbLine
 62
250
  6
CONTINUOUS
 10
148.2310969578
 20
104.3244140658
 11
148.2300664148
 21
104.4262931906
  0
LINE
  5
2F4
100
AcDbEntity
  8
ASSI
100
AcDbLine
 62
250
  6
CONTINUOUS
 10
147.4939885957
 20
106.9887818867
 11
147.4942862318
 21
106.9592989974
  0
LINE
  5
2F5
100
AcDbEntity
  8
ASSI
100
AcDbLine
 62
250
  6
CONTINUOUS
 10
148.1972663307
 20
95.5320585284
 11
148.1969686947
 21
95.5615414177
  0
LINE
  5
2F6
100
AcDbEntity
  8
ASSI
100
AcDbLine
 62
250
  6
CONTINUOUS
 10
147.7929723844
 20
107.2068608163
 11
147.7938057785
 21
107.0940111175
  0
LINE
  5
2F7
100
AcDbEntity
  8
ASSI
100
AcDbLine
 62
250
  6
CONTINUOUS
 10
147.8982825421
 20
95.3139795988
 11
147.8974491479
 21
95.4268292976
  0
LINE
  5
2F8
100
AcDbEntity
  8
ASSI
100
AcDbLine
 62
250
  6
CONTINUOUS
 10
147.7931554486
 20
97.2219686747
 11
147.7939261002
 21
97.1036575071
  0
LINE
  5
2F9
100
AcDbEntity
  8
ASSI
100
AcDbLine
 62
250
  6
CONTINUOUS
 10
147.8980994778
 20
105.2988717405
 11
147.8973288263
 21
105.4171829081
  0
LINE
  5
2FA
100
AcDbEntity
  8
ASSI
100
AcDbLine
 62
250
  6
CONTINUOUS
 10
147.4942664708
 20
96.9965945296
 11
147.4944053866
 21
96.9707561425
  0
LINE
  5
2FB
100
AcDbEntity
  8
ASSI
100
AcDbLine
 62
250
  6
CONTINUOUS
 10
148.1969884556
 20
105.5242458856
 11
148.1968495399
 21
105.5500842726
  0
LINE
  5
2FC
100
AcDbEntity
  8
ASSI
100
AcDbLine
 62
250
  6
CONTINUOUS
 10
147.4596108747
 20
98.2994642607
 11
147.4601579687
 21
98.1964263493
  0
LINE
  5
2FD
100
AcDbEntity
  8
ASSI
100
AcDbLine
 62
250
  6
CONTINUOUS
 10
148.2316440518
 20
104.2213761545
 11
148.2310969578
 21
104.3244140658
  0
LINE
  5
2FE
100
AcDbEntity
  8
ASSI
100
AcDbLine
 62
250
  6
CONTINUOUS
 10
147.7593518058
 20
98.3463541758
 11
147.7595576816
 21
98.3036106928
  0
LINE
  5
2FF
100
AcDbEntity
  8
ASSI
100
AcDbLine
 62
250
  6
CONTINUOUS
 10
147.9319031206
 20
104.1744862394
 11
147.9316972448
 21
104.2172297223
  0
LINE
  5
300
100
AcDbEntity
  8
ASSI
100
AcDbLine
 62
250
  6
CONTINUOUS
 10
147.4942862318
 20
106.9592989974
 11
147.4944227041
 21
106.9289297849
  0
LINE
  5
301
100
AcDbEntity
  8
ASSI
100
AcDbLine
 62
250
  6
CONTINUOUS
 10
148.1969686947
 20
95.5615414177
 11
148.1968322223
 21
95.5919106303
  0
LINE
  5
302
100
AcDbEntity
  8
ASSI
100
AcDbLine
 62
250
  6
CONTINUOUS
 10
147.7938057785
 20
107.0940111175
 11
147.7942399365
 21
106.9442283342
  0
LINE
  5
303
100
AcDbEntity
  8
ASSI
100
AcDbLine
 62
250
  6
CONTINUOUS
 10
147.8974491479
 20
95.4268292976
 11
147.8970149899
 21
95.5766120809
  0
LINE
  5
304
100
AcDbEntity
  8
ASSI
100
AcDbLine
 62
250
  6
CONTINUOUS
 10
147.4595112424
 20
99.9743039867
 11
147.4596108747
 21
98.2994642607
  0
LINE
  5
305
100
AcDbEntity
  8
ASSI
100
AcDbLine
 62
250
  6
CONTINUOUS
 10
147.5378924363
 20
79.1329406598
 11
147.5378924363
 21
80.6823185928
  0
LINE
  5
306
100
AcDbEntity
  8
ASSI
100
AcDbLine
 62
250
  6
CONTINUOUS
 10
147.5378924363
 20
121.8385218223
 11
147.5378924363
 21
123.3878997553
  0
LINE
  5
307
100
AcDbEntity
  8
ASSI
100
AcDbLine
 62
250
  6
CONTINUOUS
 10
147.7110975171
 20
79.1381814378
 11
147.7110975171
 21
80.6945970489
  0
LINE
  5
308
100
AcDbEntity
  8
ASSI
100
AcDbLine
 62
250
  6
CONTINUOUS
 10
147.7110975171
 20
121.8262433662
 11
147.7110975171
 21
123.3826589774
  0
LINE
  5
309
100
AcDbEntity
  8
ASSI
100
AcDbLine
 62
250
  6
CONTINUOUS
 10
147.7593284905
 20
99.9844146024
 11
147.7593518058
 21
98.3463541758
  0
LINE
  5
30A
100
AcDbEntity
  8
ASSI
100
AcDbLine
 62
250
  6
CONTINUOUS
 10
147.7939261002
 20
97.1036575071
 11
147.79424926
 21
95.6021952198
  0
LINE
  5
30B
100
AcDbEntity
  8
ASSI
100
AcDbLine
 62
250
  6
CONTINUOUS
 10
147.8973288263
 20
105.4171829081
 11
147.8970056664
 21
106.9186451953
  0
LINE
  5
30C
100
AcDbEntity
  8
ASSI
100
AcDbLine
 62
250
  6
CONTINUOUS
 10
147.9319264359
 20
102.5364258127
 11
147.9319031206
 21
104.1744862394
  0
LINE
  5
30D
100
AcDbEntity
  8
ASSI
100
AcDbLine
 62
250
  6
CONTINUOUS
 10
148.231743684
 20
102.5465364284
 11
148.2316440518
 21
104.2213761545
  0
LINE
  5
30E
100
AcDbEntity
  8
ASSI
100
AcDbLine
 62
250
  6
CONTINUOUS
 10
147.4944053866
 20
96.9707561425
 11
147.4944227041
 21
95.5919106302
  0
LINE
  5
30F
100
AcDbEntity
  8
ASSI
100
AcDbLine
 62
250
  6
CONTINUOUS
 10
148.1968495399
 20
105.5500842726
 11
148.1968322223
 21
106.9289297849
  0
LINE
  5
310
100
AcDbEntity
  8
ASSI
100
AcDbLine
 62
250
  6
CONTINUOUS
 10
147.4944227041
 20
106.9289297849
 11
147.4944053866
 21
105.5500842725
  0
LINE
  5
311
100
AcDbEntity
  8
ASSI
100
AcDbLine
 62
250
  6
CONTINUOUS
 10
148.1968322223
 20
95.5919106303
 11
148.1968495399
 21
96.9707561427
  0
LINE
  5
312
100
AcDbEntity
  8
ASSI
100
AcDbLine
 62
250
  6
CONTINUOUS
 10
147.7942399365
 20
106.9442283342
 11
147.794011353
 21
105.4381283235
  0
LINE
  5
313
100
AcDbEntity
  8
ASSI
100
AcDbLine
 62
250
  6
CONTINUOUS
 10
147.8970149899
 20
95.5766120809
 11
147.8972435735
 21
97.0827120916
  0
LINE
  5
314
100
AcDbEntity
  8
ASSI
100
AcDbLine
 62
250
  6
CONTINUOUS
 10
147.7594282158
 20
104.1958087825
 11
147.7593284905
 21
102.5364258127
  0
LINE
  5
315
100
AcDbEntity
  8
ASSI
100
AcDbLine
 62
250
  6
CONTINUOUS
 10
147.9318267106
 20
98.3250316327
 11
147.9319264359
 21
99.9844146024
  0
LINE
  5
316
100
AcDbEntity
  8
ASSI
100
AcDbLine
 62
250
  6
CONTINUOUS
 10
147.4597403004
 20
104.2555491911
 11
147.4595112424
 21
102.5465364284
  0
LINE
  5
317
100
AcDbEntity
  8
ASSI
100
AcDbLine
 62
250
  6
CONTINUOUS
 10
148.231514626
 20
98.2652912241
 11
148.231743684
 21
99.9743039867
  0
LINE
  5
318
100
AcDbEntity
  8
ASSI
100
AcDbLine
 62
250
  6
CONTINUOUS
 10
147.7942492765
 20
95.6021952198
 11
147.7939225168
 21
95.4510219568
  0
LINE
  5
319
100
AcDbEntity
  8
ASSI
100
AcDbLine
 62
250
  6
CONTINUOUS
 10
147.8970056499
 20
106.9186451953
 11
147.8973324096
 21
107.0698184584
  0
LINE
  5
31A
100
AcDbEntity
  8
ASSI
100
AcDbLine
 62
250
  6
CONTINUOUS
 10
147.4944227041
 20
95.5919106302
 11
147.4942862318
 21
95.5615414176
  0
LINE
  5
31B
100
AcDbEntity
  8
ASSI
100
AcDbLine
 62
250
  6
CONTINUOUS
 10
148.1968322223
 20
106.9289297849
 11
148.1969686947
 21
106.9592989976
  0
LINE
  5
31C
100
AcDbEntity
  8
ASSI
100
AcDbLine
 62
250
  6
CONTINUOUS
 10
147.4944053866
 20
105.5500842725
 11
147.4942664708
 21
105.5242458854
  0
LINE
  5
31D
100
AcDbEntity
  8
ASSI
100
AcDbLine
 62
250
  6
CONTINUOUS
 10
148.1968495399
 20
96.9707561427
 11
148.1969884556
 21
96.9965945298
  0
LINE
  5
31E
100
AcDbEntity
  8
ASSI
100
AcDbLine
 62
250
  6
CONTINUOUS
 10
147.794011353
 20
105.4381283235
 11
147.793313458
 21
105.3175227733
  0
LINE
  5
31F
100
AcDbEntity
  8
ASSI
100
AcDbLine
 62
250
  6
CONTINUOUS
 10
147.8972435735
 20
97.0827120916
 11
147.8979414684
 21
97.2033176419
  0
LINE
  5
320
100
AcDbEntity
  8
ASSI
100
AcDbLine
 62
250
  6
CONTINUOUS
 10
147.7939225168
 20
95.4510219568
 11
147.7931706989
 21
95.3352672639
  0
LINE
  5
321
100
AcDbEntity
  8
ASSI
100
AcDbLine
 62
250
  6
CONTINUOUS
 10
147.8973324096
 20
107.0698184584
 11
147.8980842275
 21
107.1855731512
  0
LINE
  5
322
100
AcDbEntity
  8
ASSI
100
AcDbLine
 62
250
  6
CONTINUOUS
 10
147.4604470158
 20
104.3586350637
 11
147.4597403004
 21
104.2555491911
  0
LINE
  5
323
100
AcDbEntity
  8
ASSI
100
AcDbLine
 62
250
  6
CONTINUOUS
 10
147.7597400037
 20
104.2387355025
 11
147.7594282158
 21
104.1958087825
  0
LINE
  5
324
100
AcDbEntity
  8
ASSI
100
AcDbLine
 62
250
  6
CONTINUOUS
 10
147.9315149228
 20
98.2821049126
 11
147.9318267106
 21
98.3250316327
  0
LINE
  5
325
100
AcDbEntity
  8
ASSI
100
AcDbLine
 62
250
  6
CONTINUOUS
 10
148.2308079107
 20
98.1622053515
 11
148.231514626
 21
98.2652912241
  0
LINE
  5
326
100
AcDbEntity
  8
ASSI
100
AcDbLine
 62
250
  6
CONTINUOUS
 10
147.4942664708
 20
105.5242458854
 11
147.4940107751
 21
105.4991230638
  0
LINE
  5
327
100
AcDbEntity
  8
ASSI
100
AcDbLine
 62
250
  6
CONTINUOUS
 10
148.1969884556
 20
96.9965945298
 11
148.1972441513
 21
97.0217173514
  0
LINE
  5
328
100
AcDbEntity
  8
ASSI
100
AcDbLine
 62
250
  6
CONTINUOUS
 10
147.4942862318
 20
95.5615414176
 11
147.4939885957
 21
95.5320585283
  0
LINE
  5
329
100
AcDbEntity
  8
ASSI
100
AcDbLine
 62
250
  6
CONTINUOUS
 10
148.1969686947
 20
106.9592989976
 11
148.1972663307
 21
106.9887818868
  0
LWPOLYLINE
  5
32A
100
AcDbEntity
  8
ASSI
100
AcDbPolyline
 62
250
  6
CONTINUOUS
 90
3
 70
0
 10
147.793313458
 20
105.3175227733
 10
147.7924149415
 20
105.2297293242
 10
147.7922036487
 20
105.2139735982
  0
LWPOLYLINE
  5
32B
100
AcDbEntity
  8
ASSI
100
AcDbPolyline
 62
250
  6
CONTINUOUS
 90
3
 70
0
 10
147.8979414684
 20
97.2033176419
 10
147.898839985
 20
97.2911110909
 10
147.8990512778
 20
97.306866817
  0
LINE
  5
32C
100
AcDbEntity
  8
ASSI
100
AcDbLine
 62
250
  6
CONTINUOUS
 10
147.8980842275
 20
107.1855731512
 11
147.8989656964
 21
107.265980036
  0
LINE
  5
32D
100
AcDbEntity
  8
ASSI
100
AcDbLine
 62
250
  6
CONTINUOUS
 10
147.7931706989
 20
95.3352672639
 11
147.79228923
 21
95.2548603791
  0
LINE
  5
32E
100
AcDbEntity
  8
ASSI
100
AcDbLine
 62
250
  6
CONTINUOUS
 10
147.4616368197
 20
104.4593930374
 11
147.4604470158
 21
104.3586350637
  0
LINE
  5
32F
100
AcDbEntity
  8
ASSI
100
AcDbLine
 62
250
  6
CONTINUOUS
 10
147.7602644126
 20
104.2816519053
 11
147.7597400037
 21
104.2387355025
  0
LINE
  5
330
100
AcDbEntity
  8
ASSI
100
AcDbLine
 62
250
  6
CONTINUOUS
 10
147.9309905139
 20
98.2391885098
 11
147.9315149228
 21
98.2821049126
  0
LINE
  5
331
100
AcDbEntity
  8
ASSI
100
AcDbLine
 62
250
  6
CONTINUOUS
 10
148.2296181067
 20
98.0614473777
 11
148.2308079107
 21
98.1622053515
  0
LINE
  5
332
100
AcDbEntity
  8
ASSI
100
AcDbLine
 62
250
  6
CONTINUOUS
 10
147.4940107751
 20
105.4991230638
 11
147.4936426857
 21
105.4751692429
  0
LINE
  5
333
100
AcDbEntity
  8
ASSI
100
AcDbLine
 62
250
  6
CONTINUOUS
 10
148.1972441513
 20
97.0217173514
 11
148.1976122408
 21
97.0456711722
  0
LINE
  5
334
100
AcDbEntity
  8
ASSI
100
AcDbLine
 62
250
  6
CONTINUOUS
 10
147.8989656964
 20
107.265980036
 11
147.8997671927
 21
107.3169216959
  0
LINE
  5
335
100
AcDbEntity
  8
ASSI
100
AcDbLine
 62
250
  6
CONTINUOUS
 10
147.79228923
 20
95.2548603791
 11
147.7914877338
 21
95.2039187192
  0
LINE
  5
336
100
AcDbEntity
  8
ASSI
100
AcDbLine
 62
250
  6
CONTINUOUS
 10
147.4939885957
 20
95.5320585283
 11
147.493536911
 21
95.5042252057
  0
LINE
  5
337
100
AcDbEntity
  8
ASSI
100
AcDbLine
 62
250
  6
CONTINUOUS
 10
148.1972663307
 20
106.9887818868
 11
148.1977180154
 21
107.0166152094
  0
LINE
  5
338
100
AcDbEntity
  8
ASSI
100
AcDbLine
 62
250
  6
CONTINUOUS
 10
149.0459775372
 20
117.1650914773
 11
149.045888336
 21
117.159935029
  0
LINE
  5
339
100
AcDbEntity
  8
ASSI
100
AcDbLine
 62
250
  6
CONTINUOUS
 10
147.7610057971
 20
104.323917356
 11
147.7602644126
 21
104.2816519053
  0
LINE
  5
33A
100
AcDbEntity
  8
ASSI
100
AcDbLine
 62
250
  6
CONTINUOUS
 10
147.9302491293
 20
98.1969230591
 11
147.9309905139
 21
98.2391885098
  0
LINE
  5
33B
100
AcDbEntity
  8
ASSI
100
AcDbLine
 62
250
  6
CONTINUOUS
 10
147.4632831217
 20
104.5547520755
 11
147.4616368197
 21
104.4593930374
  0
LINE
  5
33C
100
AcDbEntity
  8
ASSI
100
AcDbLine
 62
250
  6
CONTINUOUS
 10
148.2279718047
 20
97.9660883397
 11
148.2296181067
 21
98.0614473777
  0
LINE
  5
33D
100
AcDbEntity
  8
ASSI
100
AcDbLine
 62
250
  6
CONTINUOUS
 10
149.1052967105
 20
118.8894685002
 11
149.1051952817
 21
118.8844366255
  0
LINE
  5
33E
100
AcDbEntity
  8
ASSI
100
AcDbLine
 62
250
  6
CONTINUOUS
 10
147.8997671927
 20
107.3169216959
 11
147.9003582913
 21
107.3457379614
  0
LINE
  5
33F
100
AcDbEntity
  8
ASSI
100
AcDbLine
 62
250
  6
CONTINUOUS
 10
147.7914877338
 20
95.2039187192
 11
147.7908966351
 21
95.1751024537
  0
LINE
  5
340
100
AcDbEntity
  8
ASSI
100
AcDbLine
 62
250
  6
CONTINUOUS
 10
147.4936426857
 20
105.4751692429
 11
147.493168579
 21
105.4527989784
  0
LINE
  5
341
100
AcDbEntity
  8
ASSI
100
AcDbLine
 62
250
  6
CONTINUOUS
 10
147.493536911
 20
95.5042252057
 11
147.4931551918
 21
95.4869042043
  0
LINE
  5
342
100
AcDbEntity
  8
ASSI
100
AcDbLine
 62
250
  6
CONTINUOUS
 10
148.1977180154
 20
107.0166152094
 11
148.1980997346
 21
107.0339362109
  0
LINE
  5
343
100
AcDbEntity
  8
ASSI
100
AcDbLine
 62
250
  6
CONTINUOUS
 10
148.1976122408
 20
97.0456711722
 11
148.1980863475
 21
97.0680414368
  0
LINE
  5
344
100
AcDbEntity
  8
ASSI
100
AcDbLine
 62
250
  6
CONTINUOUS
 10
147.4646089631
 20
104.6139803287
 11
147.4632831217
 21
104.5547520755
  0
LINE
  5
345
100
AcDbEntity
  8
ASSI
100
AcDbLine
 62
250
  6
CONTINUOUS
 10
148.2266459633
 20
97.9068600864
 11
148.2279718047
 21
97.9660883397
  0
LINE
  5
346
100
AcDbEntity
  8
ASSI
100
AcDbLine
 62
250
  6
CONTINUOUS
 10
149.045888336
 20
117.159935029
 11
149.0457789786
 21
117.1551068369
  0
LINE
  5
347
100
AcDbEntity
  8
ASSI
100
AcDbLine
 62
250
  6
CONTINUOUS
 10
147.7619540646
 20
104.3649285898
 11
147.7610057971
 21
104.323917356
  0
LINE
  5
348
100
AcDbEntity
  8
ASSI
100
AcDbLine
 62
250
  6
CONTINUOUS
 10
147.9293008618
 20
98.1559118253
 11
147.9302491293
 21
98.1969230591
  0
LWPOLYLINE
  5
349
100
AcDbEntity
  8
ASSI
100
AcDbPolyline
 62
250
  6
CONTINUOUS
 90
10
 70
0
 10
147.9003582913
 20
107.3457379614
 10
147.9009866679
 20
107.3700803818
 10
147.9013139737
 20
107.3804922287
 10
147.9016473592
 20
107.3896932372
 10
147.9019868284
 20
107.3976592664
 10
147.9023323773
 20
107.4043697183
 10
147.902681362
 20
107.4098071662
 10
147.9030329011
 20
107.4139574427
 10
147.9033878759
 20
107.4168097206
 10
147.9037462865
 20
107.4183565967
  0
LWPOLYLINE
  5
34A
100
AcDbEntity
  8
ASSI
100
AcDbPolyline
 62
250
  6
CONTINUOUS
 90
10
 70
0
 10
147.7908966351
 20
95.1751024537
 10
147.7902682586
 20
95.1507600333
 10
147.7899409527
 20
95.1403481864
 10
147.7896075672
 20
95.131147178
 10
147.789268098
 20
95.1231811487
 10
147.7889225491
 20
95.1164706969
 10
147.7885735644
 20
95.111033249
 10
147.7882220253
 20
95.1068829725
 10
147.7878670505
 20
95.1040306945
 10
147.7875086399
 20
95.1024838185
  0
LINE
  5
34B
100
AcDbEntity
  8
ASSI
100
AcDbLine
 62
250
  6
CONTINUOUS
 10
149.1051952817
 20
118.8844366255
 11
149.1050739434
 21
118.8797671375
  0
LINE
  5
34C
100
AcDbEntity
  8
ASSI
100
AcDbLine
 62
250
  6
CONTINUOUS
 10
147.4660821913
 20
104.6688089189
 11
147.4646089631
 21
104.6139803287
  0
LINE
  5
34D
100
AcDbEntity
  8
ASSI
100
AcDbLine
 62
250
  6
CONTINUOUS
 10
147.493168579
 20
105.4527989784
 11
147.4927983153
 21
105.4389798009
  0
LINE
  5
34E
100
AcDbEntity
  8
ASSI
100
AcDbLine
 62
250
  6
CONTINUOUS
 10
148.1980863475
 20
97.0680414368
 11
148.1984566111
 21
97.0818606142
  0
LINE
  5
34F
100
AcDbEntity
  8
ASSI
100
AcDbLine
 62
250
  6
CONTINUOUS
 10
148.2251727351
 20
97.8520314963
 11
148.2266459633
 21
97.9068600864
  0
LINE
  5
350
100
AcDbEntity
  8
ASSI
100
AcDbLine
 62
250
  6
CONTINUOUS
 10
147.4931551918
 20
95.4869042043
 11
147.4927134761
 21
95.4707937584
  0
LINE
  5
351
100
AcDbEntity
  8
ASSI
100
AcDbLine
 62
250
  6
CONTINUOUS
 10
148.1980997346
 20
107.0339362109
 11
148.1985414504
 21
107.0500466567
  0
LWPOLYLINE
  5
352
100
AcDbEntity
  8
ASSI
100
AcDbPolyline
 62
7
  6
CONTINUOUS
 90
28
 70
0
 10
147.4324338392
 20
107.1737965835
 10
147.4329419812
 20
107.1911252064
 10
147.4344555418
 20
107.2084370471
 10
147.4369767777
 20
107.2256734298
 10
147.4405107725
 20
107.2428018413
 10
147.4450496335
 20
107.2597354274
 10
147.4505570421
 20
107.2763373208
 10
147.4569905616
 20
107.2925134129
 10
147.4643345977
 20
107.3082533425
 10
147.4725824125
 20
107.3235489064
 10
147.4817084452
 20
107.3383492485
 10
147.4916826955
 20
107.3526025772
 10
147.5025010637
 20
107.3662936921
 10
147.514167922
 20
107.3794063318
 10
147.5266208604
 20
107.39185004
 10
147.5397440075
 20
107.4035089052
 10
147.553447803
 20
107.4143208595
 10
147.5677154887
 20
107.4242893591
 10
147.5825294969
 20
107.4334087403
 10
147.5978370804
 20
107.4416487294
 10
147.6135880323
 20
107.4489844166
 10
147.6297739415
 20
107.4554093025
 10
147.6463831589
 20
107.4609075874
 10
147.6633226933
 20
107.46543755
 10
147.6804592788
 20
107.4689638613
 10
147.6977073768
 20
107.4714783585
 10
147.7150333125
 20
107.4729853195
 10
147.7323783867
 20
107.4734865322
  0
LWPOLYLINE
  5
353
100
AcDbEntity
  8
ASSI
100
AcDbPolyline
 62
7
  6
CONTINUOUS
 90
28
 70
0
 10
148.2588210872
 20
95.3470438317
 10
148.2583129452
 20
95.3297152088
 10
148.2567993846
 20
95.312403368
 10
148.2542781487
 20
95.2951669854
 10
148.2507441539
 20
95.2780385739
 10
148.246205293
 20
95.2611049878
 10
148.2406978843
 20
95.2445030944
 10
148.2342643648
 20
95.2283270022
 10
148.2269203287
 20
95.2125870726
 10
148.2186725139
 20
95.1972915088
 10
148.2095464813
 20
95.1824911667
 10
148.199572231
 20
95.168237838
 10
148.1887538628
 20
95.1545467231
 10
148.1770870044
 20
95.1414340833
 10
148.164634066
 20
95.1289903752
 10
148.151510919
 20
95.1173315099
 10
148.1378071234
 20
95.1065195557
 10
148.1235394378
 20
95.096551056
 10
148.1087254295
 20
95.0874316749
 10
148.0934178461
 20
95.0791916857
 10
148.0776668941
 20
95.0718559985
 10
148.0614809849
 20
95.0654311127
 10
148.0448717675
 20
95.0599328277
 10
148.0279322331
 20
95.0554028652
 10
148.0107956476
 20
95.0518765539
 10
147.9935475497
 20
95.0493620567
 10
147.9762216139
 20
95.0478550956
 10
147.9588765397
 20
95.047353883
  0
LINE
  5
354
100
AcDbEntity
  8
ASSI
100
AcDbLine
 62
250
  6
CONTINUOUS
 10
149.0457789786
 20
117.1551068369
 11
149.0456512082
 21
117.1506766367
  0
LINE
  5
355
100
AcDbEntity
  8
ASSI
100
AcDbLine
 62
250
  6
CONTINUOUS
 10
147.7631000095
 20
104.4041991802
 11
147.7619540646
 21
104.3649285898
  0
LINE
  5
356
100
AcDbEntity
  8
ASSI
100
AcDbLine
 62
250
  6
CONTINUOUS
 10
147.928154917
 20
98.1166412349
 11
147.9293008618
 21
98.1559118253
  0
LINE
  5
357
100
AcDbEntity
  8
ASSI
100
AcDbLine
 62
250
  6
CONTINUOUS
 10
147.4676936876
 20
104.7189988513
 11
147.4660821913
 21
104.6688089189
  0
LINE
  5
358
100
AcDbEntity
  8
ASSI
100
AcDbLine
 62
250
  6
CONTINUOUS
 10
148.2235612388
 20
97.8018415638
 11
148.2251727351
 21
97.8520314963
  0
LINE
  5
359
100
AcDbEntity
  8
ASSI
100
AcDbLine
 62
250
  6
CONTINUOUS
 10
147.4927983153
 20
105.4389798009
 11
147.4676936876
 21
104.7189988513
  0
LINE
  5
35A
100
AcDbEntity
  8
ASSI
100
AcDbLine
 62
250
  6
CONTINUOUS
 10
147.7922036487
 20
105.2139735982
 11
147.7675111927
 21
104.5068741749
  0
LINE
  5
35B
100
AcDbEntity
  8
ASSI
100
AcDbLine
 62
250
  6
CONTINUOUS
 10
147.8990512778
 20
97.306866817
 11
147.9237437337
 21
98.0139662403
  0
LINE
  5
35C
100
AcDbEntity
  8
ASSI
100
AcDbLine
 62
250
  6
CONTINUOUS
 10
148.1984566111
 20
97.0818606142
 11
148.2235612388
 21
97.8018415638
  0
LWPOLYLINE
  5
35D
100
AcDbEntity
  8
ASSI
100
AcDbPolyline
 62
250
  6
CONTINUOUS
 90
12
 70
0
 10
149.1050739434
 20
118.8797671375
 10
149.1049344258
 20
118.8755341009
 10
149.104858618
 20
118.8736013901
 10
149.1047789848
 20
118.8717995862
 10
149.1046955632
 20
118.8701273067
 10
149.1046091975
 20
118.8686013614
 10
149.1045198465
 20
118.8672231594
 10
149.1044275514
 20
118.8659912916
 10
149.1043332804
 20
118.8649183411
 10
149.1042373563
 20
118.8640085023
 10
149.1041394564
 20
118.8632575807
 10
149.1040395805
 20
118.8626655765
  0
LINE
  5
35E
100
AcDbEntity
  8
ASSI
100
AcDbLine
 62
250
  6
CONTINUOUS
 10
147.4927134761
 20
95.4707937584
 11
147.4922172613
 21
95.4560782194
  0
LINE
  5
35F
100
AcDbEntity
  8
ASSI
100
AcDbLine
 62
250
  6
CONTINUOUS
 10
148.1985414504
 20
107.0500466567
 11
148.1990376651
 21
107.0647621958
  0
LINE
  5
360
100
AcDbEntity
  8
ASSI
100
AcDbLine
 62
250
  6
CONTINUOUS
 10
147.7644255536
 20
104.4412130758
 11
147.7631000095
 21
104.4041991802
  0
LINE
  5
361
100
AcDbEntity
  8
ASSI
100
AcDbLine
 62
250
  6
CONTINUOUS
 10
147.9268293728
 20
98.0796273393
 11
147.928154917
 21
98.1166412349
  0
LWPOLYLINE
  5
362
100
AcDbEntity
  8
ASSI
100
AcDbPolyline
 62
250
  6
CONTINUOUS
 90
14
 70
0
 10
149.0456512082
 20
117.1506766367
 10
149.0455062894
 20
117.1466883497
 10
149.0454281696
 20
117.1448838681
 10
149.0453463005
 20
117.1432049634
 10
149.0452614926
 20
117.1416682099
 10
149.0451737168
 20
117.1402750354
 10
149.0450830021
 20
117.1390240121
 10
149.0449902462
 20
117.1379274315
 10
149.044895418
 20
117.136986806
 10
149.0447985486
 20
117.1362006231
 10
149.0447006279
 20
117.1355766366
 10
149.044601986
 20
117.135117431
 10
149.0445022929
 20
117.1348204217
 10
149.0444015486
 20
117.1346856088
  0
LWPOLYLINE
  5
363
100
AcDbEntity
  8
ASSI
100
AcDbPolyline
 62
250
  6
CONTINUOUS
 90
14
 70
0
 10
147.4922172613
 20
95.4560782194
 10
147.4916704391
 20
95.4428730852
 10
147.491380372
 20
95.43689935
 10
147.4910792568
 20
95.4313426067
 10
147.4907694479
 20
95.4262462955
 10
147.4904508711
 20
95.4216139906
 10
147.4901236007
 20
95.4174421176
 10
147.4897902141
 20
95.4137633936
 10
147.489450645
 20
95.4105817247
 10
147.4891049598
 20
95.4078932046
 10
147.4887559351
 20
95.4057188317
 10
147.4884044966
 20
95.4040656053
 10
147.4880497187
 20
95.4029265261
 10
147.4876916014
 20
95.4023015939
  0
LWPOLYLINE
  5
364
100
AcDbEntity
  8
ASSI
100
AcDbPolyline
 62
250
  6
CONTINUOUS
 90
14
 70
0
 10
148.1990376651
 20
107.0647621958
 10
148.1995844873
 20
107.07796733
 10
148.1998745544
 20
107.0839410652
 10
148.2001756697
 20
107.0894978084
 10
148.2004854785
 20
107.0945941197
 10
148.2008040553
 20
107.0992264246
 10
148.2011313258
 20
107.1033982975
 10
148.2014647123
 20
107.1070770216
 10
148.2018042814
 20
107.1102586905
 10
148.2021499667
 20
107.1129472105
 10
148.2024989913
 20
107.1151215834
 10
148.2028504298
 20
107.1167748098
 10
148.2032052077
 20
107.1179138891
 10
148.203563325
 20
107.1185388213
  0
LWPOLYLINE
  5
365
100
AcDbEntity
  8
ASSI
100
AcDbPolyline
 62
250
  6
CONTINUOUS
 90
4
 70
0
 10
147.7675113194
 20
104.5068741748
 10
147.7666874125
 20
104.4915637379
 10
147.7658989811
 20
104.4755106514
 10
147.7644255536
 20
104.4412130758
  0
LWPOLYLINE
  5
366
100
AcDbEntity
  8
ASSI
100
AcDbPolyline
 62
250
  6
CONTINUOUS
 90
4
 70
0
 10
147.923743607
 20
98.0139662404
 10
147.9245675139
 20
98.0292766773
 10
147.9253559453
 20
98.0453297638
 10
147.9268293728
 20
98.0796273393
  0
LINE
  5
367
100
AcDbEntity
  8
ASSI
100
AcDbLine
 62
250
  6
CONTINUOUS
 10
145.1584246203
 20
81.1532290684
 11
145.1068819715
 21
80.7906614392
  0
LINE
  5
368
100
AcDbEntity
  8
ASSI
100
AcDbLine
 62
250
  6
CONTINUOUS
 10
145.3583941602
 20
80.9547198439
 11
145.3067907894
 21
80.5917250768
  0
LWPOLYLINE
  5
369
100
AcDbEntity
  8
ASSI
100
AcDbPolyline
 62
250
  6
CONTINUOUS
 90
25
 70
0
 10
147.7675109358
 20
98.0139735982
 10
147.7482037342
 20
98.0131964514
 10
147.7289766323
 20
98.0115424576
 10
147.7099093975
 20
98.0090184787
 10
147.6910811339
 20
98.0056349858
 10
147.6725699543
 20
98.0014060162
 10
147.654452656
 20
97.9963491144
 10
147.6368044019
 20
97.99048526
 10
147.6196984095
 20
97.9838387804
 10
147.6032056462
 20
97.9764372498
 10
147.5873945355
 20
97.9683113749
 10
147.5723306729
 20
97.9594948675
 10
147.5580765537
 20
97.9500243045
 10
147.544691314
 20
97.9399389764
 10
147.532230485
 20
97.9292807243
 10
147.520745763
 20
97.9180937659
 10
147.5102847944
 20
97.9064245126
 10
147.5008909788
 20
97.8943213764
 10
147.4926032882
 20
97.8818345697
 10
147.4854561056
 20
97.8690158964
 10
147.4794790826
 20
97.8559185372
 10
147.474697016
 20
97.8425968291
 10
147.4711297452
 20
97.8291060399
 10
147.4687920696
 20
97.8155021386
 10
147.4676936876
 20
97.8018415638
  0
LWPOLYLINE
  5
36A
100
AcDbEntity
  8
ASSI
100
AcDbPolyline
 62
7
  6
CONTINUOUS
 90
13
 70
0
 10
164.7659798663
 20
99.9480644858
 10
164.7749636084
 20
99.9483939955
 10
164.7833540866
 20
99.9487446092
 10
164.7910267076
 20
99.9491104066
 10
164.7979526793
 20
99.9494903492
 10
164.8041607938
 20
99.9498854755
 10
164.8096128344
 20
99.9502929808
 10
164.8143180945
 20
99.950714465
 10
164.8182672806
 20
99.9511483282
 10
164.8213942958
 20
99.9515869659
 10
164.8236771078
 20
99.9520278434
 10
164.8251377489
 20
99.9524734954
 10
164.825776219
 20
99.952923922
  0
LINE
  5
36B
100
AcDbEntity
  8
ASSI
100
AcDbLine
 62
7
  6
CONTINUOUS
 10
164.7462008853
 20
99.9474699026
 11
164.7659798663
 21
99.9480644858
  0
LINE
  5
36C
100
AcDbEntity
  8
ASSI
100
AcDbLine
 62
7
  6
CONTINUOUS
 10
164.7245969262
 20
99.9469734346
 11
164.7462008853
 21
99.9474699026
  0
LINE
  5
36D
100
AcDbEntity
  8
ASSI
100
AcDbLine
 62
7
  6
CONTINUOUS
 10
164.7014174089
 20
99.9465805529
 11
164.7245969262
 21
99.9469734346
  0
LWPOLYLINE
  5
36E
100
AcDbEntity
  8
ASSI
100
AcDbPolyline
 62
7
  6
CONTINUOUS
 90
3
 70
0
 10
164.6641465715
 20
99.9461917815
 10
164.6767639663
 20
99.9462933095
 10
164.7014174089
 20
99.9465805529
  0
LINE
  5
36F
100
AcDbEntity
  8
ASSI
100
AcDbLine
 62
250
  6
CONTINUOUS
 10
147.7675111926
 20
98.0139662437
 11
147.9237437337
 21
98.0139662403
  0
LINE
  5
370
100
AcDbEntity
  8
ASSI
100
AcDbLine
 62
250
  6
CONTINUOUS
 10
162.0675111926
 20
98.0139662437
 11
162.2237437337
 21
98.0139662403
  0
LINE
  5
371
100
AcDbEntity
  8
ASSI
100
AcDbLine
 62
250
  6
CONTINUOUS
 10
161.7595112424
 20
98.3675269888
 11
162.531743684
 21
98.3675269888
  0
LINE
  5
372
100
AcDbEntity
  8
ASSI
100
AcDbLine
 62
250
  6
CONTINUOUS
 10
147.4595112424
 20
98.3675269888
 11
148.231743684
 21
98.3675269888
  0
LINE
  5
373
100
AcDbEntity
  8
ASSI
100
AcDbLine
 62
7
  6
CONTINUOUS
 10
145.2780758368
 20
99.9467637062
 11
145.3019923167
 21
99.9464236437
  0
LINE
  5
374
100
AcDbEntity
  8
ASSI
100
AcDbLine
 62
7
  6
CONTINUOUS
 10
145.2556612773
 20
99.9472085006
 11
145.2780758368
 21
99.9467637062
  0
LWPOLYLINE
  5
375
100
AcDbEntity
  8
ASSI
100
AcDbPolyline
 62
250
  6
CONTINUOUS
 90
25
 70
0
 10
162.2237439907
 20
98.0139735982
 10
162.2430511622
 20
98.0131964533
 10
162.2622782358
 20
98.0115424639
 10
162.2813454444
 20
98.0090184918
 10
162.3001736839
 20
98.0056350079
 10
162.318684842
 20
98.0014060491
 10
162.3368021225
 20
97.9963491595
 10
162.3544503624
 20
97.9904853183
 10
162.3715563444
 20
97.9838388526
 10
162.3880491015
 20
97.9764373357
 10
162.4038602102
 20
97.9683114741
 10
162.4189240747
 20
97.959494979
 10
162.4331781999
 20
97.9500244267
 10
162.4465634492
 20
97.9399391074
 10
162.4590242909
 20
97.9292808616
 10
162.4705090284
 20
97.9180939065
 10
162.4809700145
 20
97.9064246532
 10
162.490363849
 20
97.8943215135
 10
162.4986515592
 20
97.8818346993
 10
162.505798761
 20
97.8690160144
 10
162.5117758021
 20
97.8559186397
 10
162.5165578847
 20
97.8425969118
 10
162.5201251684
 20
97.8291060987
 10
162.5224628529
 20
97.8155021698
 10
162.5235612388
 20
97.8018415638
  0
LINE
  5
376
100
AcDbEntity
  8
ASSI
100
AcDbLine
 62
7
  6
CONTINUOUS
 10
145.1497381645
 20
101.1333669174
 11
145.0956274632
 21
101.1604202076
  0
LINE
  5
377
100
AcDbEntity
  8
ASSI
100
AcDbLine
 62
7
  6
CONTINUOUS
 10
148.231743684
 20
99.9743039867
 11
148.2599854063
 21
99.9460622645
  0
LINE
  5
378
100
AcDbEntity
  8
ASSI
100
AcDbLine
 62
7
  6
CONTINUOUS
 10
147.4595112424
 20
102.5465364284
 11
147.4312695202
 21
102.5747781506
  0
LWPOLYLINE
  5
379
100
AcDbEntity
  8
ASSI
100
AcDbPolyline
 62
250
  6
CONTINUOUS
 90
13
 70
0
 10
160.2444015486
 20
85.3861548064
 10
160.2445022929
 20
85.3860199934
 10
160.244601986
 20
85.3857229842
 10
160.2447006279
 20
85.3852637786
 10
160.2447985486
 20
85.384639792
 10
160.244895418
 20
85.3838536092
 10
160.2449902462
 20
85.3829129837
 10
160.2450830021
 20
85.381816403
 10
160.2451737168
 20
85.3805653797
 10
160.2452614926
 20
85.3791722052
 10
160.2453463005
 20
85.3776354517
 10
160.2454281696
 20
85.375956547
 10
160.2455062894
 20
85.3741520654
  0
LWPOLYLINE
  5
37A
100
AcDbEntity
  8
ASSI
100
AcDbPolyline
 62
250
  6
CONTINUOUS
 90
8
 70
0
 10
147.7875086399
 20
107.4183565967
 10
147.7878670505
 20
107.4168097206
 10
147.7882220253
 20
107.4139574426
 10
147.7885735644
 20
107.4098071661
 10
147.7889225491
 20
107.4043697182
 10
147.789268098
 20
107.3976592663
 10
147.7896075672
 20
107.3896932371
 10
147.7899409527
 20
107.3804922286
  0
LINE
  5
37B
100
AcDbEntity
  8
ASSI
100
AcDbLine
 62
250
  6
CONTINUOUS
 10
145.1068819715
 20
121.730178976
 11
145.1584246203
 21
121.3676113468
  0
LINE
  5
37C
100
AcDbEntity
  8
ASSI
100
AcDbLine
 62
250
  6
CONTINUOUS
 10
145.3067907894
 20
121.9291153383
 11
145.3583941602
 21
121.5661205713
  0
LWPOLYLINE
  5
37D
100
AcDbEntity
  8
ASSI
100
AcDbPolyline
 62
250
  6
CONTINUOUS
 90
5
 70
0
 10
149.2942491795
 20
85.636116959
 10
149.2943500037
 20
85.6353206589
 10
149.2944497309
 20
85.6335346908
 10
149.2945483611
 20
85.6307647375
 10
149.2946461891
 20
85.6270196411
  0
LWPOLYLINE
  5
37E
100
AcDbEntity
  8
ASSI
100
AcDbPolyline
 62
7
  6
CONTINUOUS
 90
31
 70
0
 10
149.0461171145
 20
118.5701951154
 10
149.0467433963
 20
118.5609773315
 10
149.047861354
 20
118.5516950677
 10
149.0494813855
 20
118.5423705176
 10
149.0516135491
 20
118.5330309057
 10
149.0542655238
 20
118.5236962843
 10
149.0574427236
 20
118.514379535
 10
149.0611505147
 20
118.5051090959
 10
149.0653943717
 20
118.4959091626
 10
149.0701793046
 20
118.4867879531
 10
149.0755075163
 20
118.4777765798
 10
149.0813815423
 20
118.4689022005
 10
149.0878078315
 20
118.4601697447
 10
149.0947853812
 20
118.4516137288
 10
149.1023137742
 20
118.4432646055
 10
149.110402397
 20
118.4351254244
 10
149.1190468467
 20
118.4272348857
 10
149.1282430605
 20
118.4196278211
 10
149.1380035184
 20
118.4123078296
 10
149.1483197074
 20
118.4053187499
 10
149.1591822227
 20
118.398701173
 10
149.1706042994
 20
118.3924625477
 10
149.182572543
 20
118.3866522464
 10
149.1950683984
 20
118.3813182835
 10
149.2080973679
 20
118.3764762806
 10
149.2216389312
 20
118.3721806249
 10
149.2356600623
 20
118.3684865354
 10
149.2501437293
 20
118.3654196035
 10
149.2650565917
 20
118.3630281671
 10
149.2803474898
 20
118.3613786384
 10
149.2959648212
 20
118.3605258186
  0
LINE
  5
37F
100
AcDbEntity
  8
ASSI
100
AcDbLine
 62
250
  6
CONTINUOUS
 10
149.6863963084
 20
118.8736013901
 11
149.6862484813
 21
118.877596336
  0
LINE
  5
380
100
AcDbEntity
  8
ASSI
100
AcDbLine
 62
250
  6
CONTINUOUS
 10
149.7457486371
 20
117.1466883497
 11
149.7456037183
 21
117.1506766367
  0
LINE
  5
381
100
AcDbEntity
  8
ASSI
100
AcDbLine
 62
250
  6
CONTINUOUS
 10
149.4373676391
 20
118.6164636382
 11
149.437267713
 21
118.61999023
  0
LINE
  5
382
100
AcDbEntity
  8
ASSI
100
AcDbLine
 62
250
  6
CONTINUOUS
 10
149.6862484813
 20
118.877596336
 11
149.6861180533
 21
118.8820475983
  0
LINE
  5
383
100
AcDbEntity
  8
ASSI
100
AcDbLine
 62
250
  6
CONTINUOUS
 10
149.7456037183
 20
117.1506766367
 11
149.7454759478
 21
117.1551068369
  0
LINE
  5
384
100
AcDbEntity
  8
ASSI
100
AcDbLine
 62
250
  6
CONTINUOUS
 10
149.6861180533
 20
118.8820475983
 11
149.6860063479
 21
118.8869099835
  0
LINE
  5
385
100
AcDbEntity
  8
ASSI
100
AcDbLine
 62
250
  6
CONTINUOUS
 10
149.7454759478
 20
117.1551068369
 11
149.7453665904
 21
117.159935029
  0
LINE
  5
386
100
AcDbEntity
  8
ASSI
100
AcDbLine
 62
250
  6
CONTINUOUS
 10
149.3539872134
 20
83.9008501851
 11
149.3541810228
 21
83.8908492334
  0
LINE
  5
387
100
AcDbEntity
  8
ASSI
100
AcDbLine
 62
250
  6
CONTINUOUS
 10
149.437267713
 20
118.61999023
 11
149.4370739036
 21
118.6299911817
  0
LINE
  5
388
100
AcDbEntity
  8
ASSI
100
AcDbLine
 62
250
  6
CONTINUOUS
 10
149.2946461891
 20
85.6270196411
 11
149.2948376694
 21
85.6166564881
  0
LINE
  5
389
100
AcDbEntity
  8
ASSI
100
AcDbLine
 62
250
  6
CONTINUOUS
 10
149.4966087374
 20
116.893820774
 11
149.4964172571
 21
116.9041839271
  0
LINE
  5
38A
100
AcDbEntity
  8
ASSI
100
AcDbLine
 62
250
  6
CONTINUOUS
 10
149.4735196925
 20
80.901462595
 11
149.4360883873
 21
83.2001431278
  0
LINE
  5
38B
100
AcDbEntity
  8
ASSI
100
AcDbLine
 62
250
  6
CONTINUOUS
 10
149.317735234
 20
121.6193778201
 11
149.3551665392
 21
119.3206972873
  0
LINE
  5
38C
100
AcDbEntity
  8
ASSI
100
AcDbLine
 62
250
  6
CONTINUOUS
 10
149.6860063479
 20
118.8869099835
 11
149.6859151958
 21
118.8921113475
  0
LINE
  5
38D
100
AcDbEntity
  8
ASSI
100
AcDbLine
 62
250
  6
CONTINUOUS
 10
149.7453665904
 20
117.159935029
 11
149.7452773892
 21
117.1650914773
  0
LINE
  5
38E
100
AcDbEntity
  8
ASSI
100
AcDbLine
 62
250
  6
CONTINUOUS
 10
149.0754950892
 20
121.0465379774
 11
149.1053828866
 21
119.2105523043
  0
LINE
  5
38F
100
AcDbEntity
  8
ASSI
100
AcDbLine
 62
250
  6
CONTINUOUS
 10
149.7157598372
 20
81.4743024378
 11
149.6858720398
 21
83.3102881108
  0
LINE
  5
390
100
AcDbEntity
  8
ASSI
100
AcDbLine
 62
250
  6
CONTINUOUS
 10
149.1053397307
 20
83.6287290676
 11
149.1054090865
 21
83.6232696349
  0
LINE
  5
391
100
AcDbEntity
  8
ASSI
100
AcDbLine
 62
250
  6
CONTINUOUS
 10
149.6859151958
 20
118.8921113475
 11
149.6858458399
 21
118.8975707803
  0
LINE
  5
392
100
AcDbEntity
  8
ASSI
100
AcDbLine
 62
250
  6
CONTINUOUS
 10
149.7452773892
 20
117.1650914773
 11
149.7452095378
 21
117.1704976642
  0
LINE
  5
393
100
AcDbEntity
  8
ASSI
100
AcDbLine
 62
250
  6
CONTINUOUS
 10
149.3541810228
 20
83.8908492334
 11
149.3544566294
 21
83.8687488607
  0
LINE
  5
394
100
AcDbEntity
  8
ASSI
100
AcDbLine
 62
250
  6
CONTINUOUS
 10
149.4370739036
 20
118.6299911817
 11
149.436798297
 21
118.6520915545
  0
LINE
  5
395
100
AcDbEntity
  8
ASSI
100
AcDbLine
 62
250
  6
CONTINUOUS
 10
149.2948376694
 20
85.6166564881
 11
149.2951091439
 21
85.5942112345
  0
LINE
  5
396
100
AcDbEntity
  8
ASSI
100
AcDbLine
 62
250
  6
CONTINUOUS
 10
149.4964172571
 20
116.9041839271
 11
149.4961457825
 21
116.9266291806
  0
LINE
  5
397
100
AcDbEntity
  8
ASSI
100
AcDbLine
 62
250
  6
CONTINUOUS
 10
149.1053828866
 20
119.2105523043
 11
149.105449694
 21
119.2035444072
  0
LINE
  5
398
100
AcDbEntity
  8
ASSI
100
AcDbLine
 62
250
  6
CONTINUOUS
 10
149.6858720398
 20
83.3102881108
 11
149.6858052324
 21
83.317296008
  0
LINE
  5
399
100
AcDbEntity
  8
ASSI
100
AcDbLine
 62
250
  6
CONTINUOUS
 10
149.0460142033
 20
85.3530741392
 11
149.0460912234
 21
85.3447411717
  0
LINE
  5
39A
100
AcDbEntity
  8
ASSI
100
AcDbLine
 62
250
  6
CONTINUOUS
 10
149.1054090865
 20
83.6232696349
 11
149.105470582
 21
83.614745183
  0
LINE
  5
39B
100
AcDbEntity
  8
ASSI
100
AcDbLine
 62
250
  6
CONTINUOUS
 10
149.2951091439
 20
85.5942112345
 11
149.2955651141
 21
85.5272073704
  0
LINE
  5
39C
100
AcDbEntity
  8
ASSI
100
AcDbLine
 62
250
  6
CONTINUOUS
 10
149.3544566294
 20
83.8687488607
 11
149.3549216633
 21
83.8017702935
  0
LINE
  5
39D
100
AcDbEntity
  8
ASSI
100
AcDbLine
 62
250
  6
CONTINUOUS
 10
149.436798297
 20
118.6520915545
 11
149.4363332631
 21
118.7190701216
  0
LINE
  5
39E
100
AcDbEntity
  8
ASSI
100
AcDbLine
 62
250
  6
CONTINUOUS
 10
149.4961457825
 20
116.9266291806
 11
149.4956898123
 21
116.9936330448
  0
LINE
  5
39F
100
AcDbEntity
  8
ASSI
100
AcDbLine
 62
250
  6
CONTINUOUS
 10
149.6858458399
 20
118.8975707803
 11
149.6857843445
 21
118.9060952321
  0
LINE
  5
3A0
100
AcDbEntity
  8
ASSI
100
AcDbLine
 62
250
  6
CONTINUOUS
 10
149.7452095378
 20
117.1704976642
 11
149.7451493917
 21
117.1789315176
  0
LINE
  5
3A1
100
AcDbEntity
  8
ASSI
100
AcDbLine
 62
250
  6
CONTINUOUS
 10
149.105449694
 20
119.2035444072
 11
149.105480343
 21
119.1963424792
  0
LINE
  5
3A2
100
AcDbEntity
  8
ASSI
100
AcDbLine
 62
250
  6
CONTINUOUS
 10
149.6858052324
 20
83.317296008
 11
149.6857745834
 21
83.324497936
  0
LINE
  5
3A3
100
AcDbEntity
  8
ASSI
100
AcDbLine
 62
250
  6
CONTINUOUS
 10
149.0460912234
 20
85.3447411717
 11
149.0461171145
 21
85.3361624216
  0
LINE
  5
3A4
100
AcDbEntity
  8
ASSI
100
AcDbLine
 62
250
  6
CONTINUOUS
 10
149.3549216633
 20
83.8017702935
 11
149.3553271039
 21
83.6263681032
  0
LINE
  5
3A5
100
AcDbEntity
  8
ASSI
100
AcDbLine
 62
250
  6
CONTINUOUS
 10
149.4363332631
 20
118.7190701216
 11
149.4359278225
 21
118.894472312
  0
LINE
  5
3A6
100
AcDbEntity
  8
ASSI
100
AcDbLine
 62
250
  6
CONTINUOUS
 10
149.2955651141
 20
85.5272073704
 11
149.2959648212
 21
85.3361624216
  0
LINE
  5
3A7
100
AcDbEntity
  8
ASSI
100
AcDbLine
 62
250
  6
CONTINUOUS
 10
149.4956898123
 20
116.9936330448
 11
149.4952901052
 21
117.1846779936
  0
LINE
  5
3A8
100
AcDbEntity
  8
ASSI
100
AcDbLine
 62
250
  6
CONTINUOUS
 10
149.0461171145
 20
85.3361624216
 11
149.0461171145
 21
83.9506452998
  0
LINE
  5
3A9
100
AcDbEntity
  8
ASSI
100
AcDbLine
 62
7
  6
CONTINUOUS
 10
149.0754950892
 20
80.6945970489
 11
149.0754950892
 21
81.4743024378
  0
LINE
  5
3AA
100
AcDbEntity
  8
ASSI
100
AcDbLine
 62
7
  6
CONTINUOUS
 10
149.0754950892
 20
121.0465379774
 11
149.0754950892
 21
121.8262433662
  0
LINE
  5
3AB
100
AcDbEntity
  8
ASSI
100
AcDbLine
 62
250
  6
CONTINUOUS
 10
149.2959648212
 20
85.3361624216
 11
149.2959648212
 21
84.1603145966
  0
LINE
  5
3AC
100
AcDbEntity
  8
ASSI
100
AcDbLine
 62
250
  6
CONTINUOUS
 10
149.4952901052
 20
117.1846779936
 11
149.4952901052
 21
118.3605258186
  0
LINE
  5
3AD
100
AcDbEntity
  8
ASSI
100
AcDbLine
 62
7
  6
CONTINUOUS
 10
149.7157598372
 20
121.8262433662
 11
149.7157598372
 21
121.0465379774
  0
LINE
  5
3AE
100
AcDbEntity
  8
ASSI
100
AcDbLine
 62
7
  6
CONTINUOUS
 10
149.7157598372
 20
81.4743024378
 11
149.7157598372
 21
80.6945970489
  0
LINE
  5
3AF
100
AcDbEntity
  8
ASSI
100
AcDbLine
 62
250
  6
CONTINUOUS
 10
149.7451493917
 20
117.1789315176
 11
149.7451378119
 21
118.5701951154
  0
LINE
  5
3B0
100
AcDbEntity
  8
ASSI
100
AcDbLine
 62
250
  6
CONTINUOUS
 10
149.105470582
 20
83.614745183
 11
149.105480343
 21
83.3244979357
  0
LINE
  5
3B1
100
AcDbEntity
  8
ASSI
100
AcDbLine
 62
250
  6
CONTINUOUS
 10
149.6857843445
 20
118.9060952321
 11
149.6857745834
 21
119.1963424794
  0
LINE
  5
3B2
100
AcDbEntity
  8
ASSI
100
AcDbLine
 62
250
  6
CONTINUOUS
 10
149.3551665392
 20
119.3206972873
 11
149.3552568552
 21
118.8258816284
  0
LINE
  5
3B3
100
AcDbEntity
  8
ASSI
100
AcDbLine
 62
250
  6
CONTINUOUS
 10
149.4360883873
 20
83.2001431278
 11
149.4359980713
 21
83.6949587867
  0
LINE
  5
3B4
100
AcDbEntity
  8
ASSI
100
AcDbLine
 62
250
  6
CONTINUOUS
 10
149.4359278225
 20
118.894472312
 11
149.4360883873
 21
119.3206972873
  0
LINE
  5
3B5
100
AcDbEntity
  8
ASSI
100
AcDbLine
 62
250
  6
CONTINUOUS
 10
149.3553271039
 20
83.6263681032
 11
149.3551665392
 21
83.2001431278
  0
LINE
  5
3B6
100
AcDbEntity
  8
ASSI
100
AcDbLine
 62
250
  6
CONTINUOUS
 10
149.0461171145
 20
118.5701951154
 11
149.0461055348
 21
117.1789315176
  0
LINE
  5
3B7
100
AcDbEntity
  8
ASSI
100
AcDbLine
 62
250
  6
CONTINUOUS
 10
149.105480343
 20
119.1963424792
 11
149.105470582
 21
118.9060952321
  0
LINE
  5
3B8
100
AcDbEntity
  8
ASSI
100
AcDbLine
 62
250
  6
CONTINUOUS
 10
149.6857745834
 20
83.324497936
 11
149.6857843445
 21
83.614745183
  0
LINE
  5
3B9
100
AcDbEntity
  8
ASSI
100
AcDbLine
 62
250
  6
CONTINUOUS
 10
149.7451378119
 20
83.9506452998
 11
149.7451493917
 21
85.3419088975
  0
LINE
  5
3BA
100
AcDbEntity
  8
ASSI
100
AcDbLine
 62
250
  6
CONTINUOUS
 10
149.2959648212
 20
118.3605258186
 11
149.2956267514
 21
117.007250514
  0
LINE
  5
3BB
100
AcDbEntity
  8
ASSI
100
AcDbLine
 62
250
  6
CONTINUOUS
 10
149.4952901052
 20
84.1603145966
 11
149.4956281751
 21
85.5135899012
  0
LINE
  5
3BC
100
AcDbEntity
  8
ASSI
100
AcDbLine
 62
250
  6
CONTINUOUS
 10
149.3552568552
 20
118.8258816284
 11
149.3547821289
 21
118.6936911052
  0
LINE
  5
3BD
100
AcDbEntity
  8
ASSI
100
AcDbLine
 62
250
  6
CONTINUOUS
 10
149.4359980713
 20
83.6949587867
 11
149.4364727975
 21
83.8271493099
  0
LINE
  5
3BE
100
AcDbEntity
  8
ASSI
100
AcDbLine
 62
250
  6
CONTINUOUS
 10
149.105480343
 20
83.3244979357
 11
149.105449694
 21
83.3172960074
  0
LINE
  5
3BF
100
AcDbEntity
  8
ASSI
100
AcDbLine
 62
250
  6
CONTINUOUS
 10
149.6857745834
 20
119.1963424794
 11
149.6858052324
 21
119.2035444078
  0
LINE
  5
3C0
100
AcDbEntity
  8
ASSI
100
AcDbLine
 62
250
  6
CONTINUOUS
 10
149.2956267514
 20
117.007250514
 11
149.295193965
 21
116.9358549547
  0
LINE
  5
3C1
100
AcDbEntity
  8
ASSI
100
AcDbLine
 62
250
  6
CONTINUOUS
 10
149.4956281751
 20
85.5135899012
 11
149.4960609614
 21
85.5849854605
  0
LINE
  5
3C2
100
AcDbEntity
  8
ASSI
100
AcDbLine
 62
250
  6
CONTINUOUS
 10
149.0461055348
 20
117.1789315176
 11
149.0460453886
 21
117.1704976642
  0
LINE
  5
3C3
100
AcDbEntity
  8
ASSI
100
AcDbLine
 62
250
  6
CONTINUOUS
 10
149.7451493917
 20
85.3419088975
 11
149.7452095378
 21
85.3503427509
  0
LINE
  5
3C4
100
AcDbEntity
  8
ASSI
100
AcDbLine
 62
250
  6
CONTINUOUS
 10
149.105470582
 20
118.9060952321
 11
149.1054090865
 21
118.8975707803
  0
LINE
  5
3C5
100
AcDbEntity
  8
ASSI
100
AcDbLine
 62
250
  6
CONTINUOUS
 10
149.6857843445
 20
83.614745183
 11
149.6858458399
 21
83.6232696349
  0
LINE
  5
3C6
100
AcDbEntity
  8
ASSI
100
AcDbLine
 62
250
  6
CONTINUOUS
 10
149.3547821289
 20
118.6936911052
 11
149.3543673539
 21
118.6438085843
  0
LINE
  5
3C7
100
AcDbEntity
  8
ASSI
100
AcDbLine
 62
250
  6
CONTINUOUS
 10
149.4364727975
 20
83.8271493099
 11
149.4368875725
 21
83.8770318309
  0
LINE
  5
3C8
100
AcDbEntity
  8
ASSI
100
AcDbLine
 62
250
  6
CONTINUOUS
 10
149.105449694
 20
83.3172960074
 11
149.1053828866
 21
83.3102881105
  0
LINE
  5
3C9
100
AcDbEntity
  8
ASSI
100
AcDbLine
 62
250
  6
CONTINUOUS
 10
149.6858052324
 20
119.2035444078
 11
149.6858720398
 21
119.2105523047
  0
LINE
  5
3CA
100
AcDbEntity
  8
ASSI
100
AcDbLine
 62
250
  6
CONTINUOUS
 10
149.295193965
 20
116.9358549547
 11
149.2949304699
 21
116.9107673502
  0
LINE
  5
3CB
100
AcDbEntity
  8
ASSI
100
AcDbLine
 62
250
  6
CONTINUOUS
 10
149.4960609614
 20
85.5849854605
 11
149.4963244565
 21
85.610073065
  0
LINE
  5
3CC
100
AcDbEntity
  8
ASSI
100
AcDbLine
 62
250
  6
CONTINUOUS
 10
149.0460453886
 20
117.1704976642
 11
149.0459775372
 21
117.1650914773
  0
LINE
  5
3CD
100
AcDbEntity
  8
ASSI
100
AcDbLine
 62
250
  6
CONTINUOUS
 10
149.7452095378
 20
85.3503427509
 11
149.7452773892
 21
85.3557489379
  0
LWPOLYLINE
  5
3CE
100
AcDbEntity
  8
ASSI
100
AcDbPolyline
 62
250
  6
CONTINUOUS
 90
3
 70
0
 10
149.1054090865
 20
118.8975707803
 10
149.1053397307
 20
118.8921113475
 10
149.1052967105
 20
118.8894685002
  0
LINE
  5
3CF
100
AcDbEntity
  8
ASSI
100
AcDbLine
 62
250
  6
CONTINUOUS
 10
149.6858458399
 20
83.6232696349
 11
149.6859151958
 21
83.6287290676
  0
LINE
  5
3D0
100
AcDbEntity
  8
ASSI
100
AcDbLine
 62
250
  6
CONTINUOUS
 10
149.3543673539
 20
118.6438085843
 11
149.3541810228
 21
118.6299911817
  0
LINE
  5
3D1
100
AcDbEntity
  8
ASSI
100
AcDbLine
 62
250
  6
CONTINUOUS
 10
149.4368875725
 20
83.8770318309
 11
149.4370739036
 21
83.8908492335
  0
LINE
  5
3D2
100
AcDbEntity
  8
ASSI
100
AcDbLine
 62
250
  6
CONTINUOUS
 10
149.4360883873
 20
119.3206972873
 11
149.4735196925
 21
121.6193778201
  0
LINE
  5
3D3
100
AcDbEntity
  8
ASSI
100
AcDbLine
 62
250
  6
CONTINUOUS
 10
149.6858720398
 20
119.2105523047
 11
149.7157598372
 21
121.0465379774
  0
LINE
  5
3D4
100
AcDbEntity
  8
ASSI
100
AcDbLine
 62
250
  6
CONTINUOUS
 10
149.1053828866
 20
83.3102881105
 11
149.0754950892
 21
81.4743024378
  0
LINE
  5
3D5
100
AcDbEntity
  8
ASSI
100
AcDbLine
 62
250
  6
CONTINUOUS
 10
149.3551665392
 20
83.2001431278
 11
149.317735234
 21
80.901462595
  0
LWPOLYLINE
  5
3D6
100
AcDbEntity
  8
ASSI
100
AcDbPolyline
 62
250
  6
CONTINUOUS
 90
7
 70
0
 10
149.2949304699
 20
116.9107673502
 10
149.29474292
 20
116.8985287881
 10
149.2946461891
 20
116.893820774
 10
149.2945483611
 20
116.8900756776
 10
149.2944497309
 20
116.8873057243
 10
149.2943500037
 20
116.8855197563
 10
149.2942491795
 20
116.8847234562
  0
LWPOLYLINE
  5
3D7
100
AcDbEntity
  8
ASSI
100
AcDbPolyline
 62
250
  6
CONTINUOUS
 90
7
 70
0
 10
149.4963244565
 20
85.610073065
 10
149.4965120065
 20
85.6223116271
 10
149.4966087374
 20
85.6270196412
 10
149.4967065653
 20
85.6307647376
 10
149.4968051955
 20
85.6335346909
 10
149.4969049227
 20
85.6353206589
 10
149.497005747
 20
85.636116959
  0
LINE
  5
3D8
100
AcDbEntity
  8
ASSI
100
AcDbLine
 62
250
  6
CONTINUOUS
 10
149.7452773892
 20
85.3557489379
 11
149.7453665904
 21
85.3609053861
  0
LINE
  5
3D9
100
AcDbEntity
  8
ASSI
100
AcDbLine
 62
250
  6
CONTINUOUS
 10
149.6859151958
 20
83.6287290676
 11
149.6860063479
 21
83.6339304317
  0
LWPOLYLINE
  5
3DA
100
AcDbEntity
  8
ASSI
100
AcDbPolyline
 62
250
  6
CONTINUOUS
 90
3
 70
0
 10
149.3541810228
 20
118.6299911817
 10
149.3539872134
 20
118.61999023
 10
149.3538872873
 20
118.6164636382
  0
LWPOLYLINE
  5
3DB
100
AcDbEntity
  8
ASSI
100
AcDbPolyline
 62
250
  6
CONTINUOUS
 90
3
 70
0
 10
149.4370739036
 20
83.8908492335
 10
149.437267713
 20
83.9008501851
 10
149.4373676391
 20
83.9043767769
  0
LINE
  5
3DC
100
AcDbEntity
  8
ASSI
100
AcDbLine
 62
250
  6
CONTINUOUS
 10
149.7453665904
 20
85.3609053861
 11
149.7454759478
 21
85.3657335783
  0
LINE
  5
3DD
100
AcDbEntity
  8
ASSI
100
AcDbLine
 62
250
  6
CONTINUOUS
 10
149.6860063479
 20
83.6339304317
 11
149.6861180533
 21
83.6387928169
  0
LWPOLYLINE
  5
3DE
100
AcDbEntity
  8
ASSI
100
AcDbPolyline
 62
7
  6
CONTINUOUS
 90
28
 70
0
 10
149.8012476562
 20
117.107496756
 10
149.8008452208
 20
117.0930293793
 10
149.7996029807
 20
117.078578886
 10
149.797519597
 20
117.0641943074
 10
149.7945917351
 20
117.04990398
 10
149.7908263034
 20
117.0357790769
 10
149.7862526351
 20
117.0219301802
 10
149.7809055219
 20
117.0084347612
 10
149.774798276
 20
116.995302652
 10
149.7679362683
 20
116.9825406313
 10
149.7603406127
 20
116.970191053
 10
149.7520363338
 20
116.9582974095
 10
149.7430269487
 20
116.9468728509
 10
149.7333084614
 20
116.9359306239
 10
149.7229332139
 20
116.9255467196
 10
149.7119992256
 20
116.9158192794
 10
149.7005819056
 20
116.90680025
 10
149.6886950218
 20
116.8984860745
 10
149.6763534473
 20
116.8908813506
 10
149.6636012335
 20
116.8840109905
 10
149.6504804835
 20
116.8778955274
 10
149.6369986841
 20
116.872540294
 10
149.6231673804
 20
116.8679585772
 10
149.6090624891
 20
116.8641840347
 10
149.5947901633
 20
116.8612449271
 10
149.5804198792
 20
116.8591483259
 10
149.5659812396
 20
116.8578914522
 10
149.5515231353
 20
116.8574732581
  0
LWPOLYLINE
  5
3DF
100
AcDbEntity
  8
ASSI
100
AcDbPolyline
 62
7
  6
CONTINUOUS
 90
28
 70
0
 10
148.9900072702
 20
85.4133436591
 10
148.9904097057
 20
85.4278110358
 10
148.9916519458
 20
85.4422615291
 10
148.9937353294
 20
85.4566461078
 10
148.9966631914
 20
85.4709364352
 10
149.000428623
 20
85.4850613383
 10
149.0050022913
 20
85.4989102349
 10
149.0103494046
 20
85.512405654
 10
149.0164566505
 20
85.5255377632
 10
149.0233186581
 20
85.5382997838
 10
149.0309143137
 20
85.5506493622
 10
149.0392185926
 20
85.5625430056
 10
149.0482279777
 20
85.5739675643
 10
149.057946465
 20
85.5849097913
 10
149.0683217126
 20
85.5952936956
 10
149.0792557009
 20
85.6050211357
 10
149.0906730208
 20
85.6140401652
 10
149.1025599047
 20
85.6223543406
 10
149.1149014792
 20
85.6299590646
 10
149.1276536929
 20
85.6368294246
 10
149.1407744429
 20
85.6429448877
 10
149.1542562424
 20
85.6483001212
 10
149.1680875461
 20
85.6528818379
 10
149.1821924373
 20
85.6566563804
 10
149.1964647631
 20
85.6595954881
 10
149.2108350473
 20
85.6616920893
 10
149.2252736868
 20
85.662948963
 10
149.2397317911
 20
85.6633671571
  0
LINE
  5
3E0
100
AcDbEntity
  8
ASSI
100
AcDbLine
 62
250
  6
CONTINUOUS
 10
149.7454759478
 20
85.3657335783
 11
149.7456037183
 21
85.3701637785
  0
LINE
  5
3E1
100
AcDbEntity
  8
ASSI
100
AcDbLine
 62
250
  6
CONTINUOUS
 10
149.6861180533
 20
83.6387928169
 11
149.6862484813
 21
83.6432440792
  0
LWPOLYLINE
  5
3E2
100
AcDbEntity
  8
ASSI
100
AcDbPolyline
 62
250
  6
CONTINUOUS
 90
14
 70
0
 10
149.7456037183
 20
85.3701637785
 10
149.7457486371
 20
85.3741520654
 10
149.7458267568
 20
85.375956547
 10
149.7459086259
 20
85.3776354518
 10
149.7459934338
 20
85.3791722052
 10
149.7460812096
 20
85.3805653797
 10
149.7461719243
 20
85.381816403
 10
149.7462646803
 20
85.3829129837
 10
149.7463595084
 20
85.3838536092
 10
149.7464563779
 20
85.3846397921
 10
149.7465542986
 20
85.3852637786
 10
149.7466529404
 20
85.3857229842
 10
149.7467526335
 20
85.3860199934
 10
149.7468533778
 20
85.3861548064
  0
LWPOLYLINE
  5
3E3
100
AcDbEntity
  8
ASSI
100
AcDbPolyline
 62
250
  6
CONTINUOUS
 90
11
 70
0
 10
149.6862484813
 20
83.6432440792
 10
149.6863963084
 20
83.6472390251
 10
149.6864759416
 20
83.6490408289
 10
149.6865593632
 20
83.6507131085
 10
149.6866457289
 20
83.6522390538
 10
149.6867350799
 20
83.6536172558
 10
149.686827375
 20
83.6548491235
 10
149.686921646
 20
83.655922074
 10
149.6870175701
 20
83.6568319129
 10
149.6871154701
 20
83.6575828344
 10
149.6872153459
 20
83.6581748387
  0
LWPOLYLINE
  5
3E4
100
AcDbEntity
  8
ASSI
100
AcDbPolyline
 62
7
  6
CONTINUOUS
 90
31
 70
0
 10
149.0461171145
 20
83.9506452998
 10
149.046742266
 20
83.9599016785
 10
149.0478604403
 20
83.9691765444
 10
149.0494813855
 20
83.9784698976
 10
149.0516137487
 20
83.9878026929
 10
149.0542652355
 20
83.9971539754
 10
149.0574427236
 20
84.0064608801
 10
149.0611507376
 20
84.0157237102
 10
149.0653940522
 20
84.0249421625
 10
149.0701793046
 20
84.0340524621
 10
149.0755077578
 20
84.0430555921
 10
149.0813811805
 20
84.0519505695
 10
149.0878078315
 20
84.0606706704
 10
149.0947856405
 20
84.0692178328
 10
149.1023133551
 20
84.0775901188
 10
149.110402397
 20
84.0857149908
 10
149.1190471292
 20
84.093595884
 10
149.1282425694
 20
84.1012293633
 10
149.1380035184
 20
84.1085325856
 10
149.1483200263
 20
84.1155107773
 10
149.1591816524
 20
84.1221587121
 10
149.1706042994
 20
84.1283778675
 10
149.1825729272
 20
84.1341750535
 10
149.1950677737
 20
84.1395434602
 10
149.2080973679
 20
84.1443641346
 10
149.2216394199
 20
84.1486431037
 10
149.235659463
 20
84.1523743406
 10
149.2501437293
 20
84.1554208117
 10
149.2650588002
 20
84.1577368391
 10
149.2803502333
 20
84.1593681008
 10
149.2959648212
 20
84.1603145966
  0
LINE
  5
3E5
100
AcDbEntity
  8
ASSI
100
AcDbLine
 62
7
  6
CONTINUOUS
 10
148.2599854063
 20
102.5747781506
 11
148.231743684
 21
102.5465364284
  0
LINE
  5
3E6
100
AcDbEntity
  8
ASSI
100
AcDbLine
 62
7
  6
CONTINUOUS
 10
156.8651846596
 20
101.1176585554
 11
156.9186416219
 21
101.1307488571
  0
LINE
  5
3E7
100
AcDbEntity
  8
ASSI
100
AcDbLine
 62
7
  6
CONTINUOUS
 10
153.1260702668
 20
101.4031818598
 11
153.0726133045
 21
101.3900915581
  0
LWPOLYLINE
  5
3E8
100
AcDbEntity
  8
ASSI
100
AcDbPolyline
 62
7
  6
CONTINUOUS
 90
25
 70
0
 10
156.6110404034
 20
101.1176585554
 10
156.5947832794
 20
101.117221555
 10
156.5786314752
 20
101.1159085271
 10
156.562584991
 20
101.1137194715
 10
156.5465751806
 20
101.1106379046
 10
156.5306706902
 20
101.1066803101
 10
156.5150774578
 20
101.1018961394
 10
156.4998410427
 20
101.0962926485
 10
156.4849158856
 20
101.0898625814
 10
156.4703712471
 20
101.0826336223
 10
156.4561770551
 20
101.0745846902
 10
156.4423633817
 20
101.0657368662
 10
156.4290897035
 20
101.0561810773
 10
156.4163658724
 20
101.0459043698
 10
156.4041820366
 20
101.0349196974
 10
156.3926681173
 20
101.0233568489
 10
156.3818520867
 20
101.0112385587
 10
156.3717059727
 20
100.9985420924
 10
156.3622757798
 20
100.9853290357
 10
156.3535434807
 20
100.9715591551
 10
156.3455271027
 20
100.9572726841
 10
156.3383267326
 20
100.9426519093
 10
156.3319757326
 20
100.9277575928
 10
156.3264407405
 20
100.9125289725
 10
156.3217217563
 20
100.8969660483
  0
LWPOLYLINE
  5
3E9
100
AcDbEntity
  8
ASSI
100
AcDbPolyline
 62
7
  6
CONTINUOUS
 90
25
 70
0
 10
153.380214523
 20
101.4031818598
 10
153.3964716471
 20
101.4036188601
 10
153.4126234512
 20
101.4049318881
 10
153.4286699355
 20
101.4071209436
 10
153.4446797458
 20
101.4102025106
 10
153.4605842362
 20
101.4141601051
 10
153.4761774686
 20
101.4189442757
 10
153.4914138837
 20
101.4245477667
 10
153.5063390408
 20
101.4309778338
 10
153.5208836793
 20
101.4382067928
 10
153.5350778713
 20
101.4462557249
 10
153.5488915448
 20
101.455103549
 10
153.5621652229
 20
101.4646593379
 10
153.574889054
 20
101.4749360454
 10
153.5870728898
 20
101.4859207178
 10
153.5985868091
 20
101.4974835662
 10
153.6094028397
 20
101.5096018564
 10
153.6195489537
 20
101.5222983228
 10
153.6289791466
 20
101.5355113795
 10
153.6377114457
 20
101.5492812601
 10
153.6457278238
 20
101.5635677311
 10
153.6529281939
 20
101.5781885059
 10
153.6592791939
 20
101.5930828224
 10
153.6648141859
 20
101.6083114427
 10
153.6695331701
 20
101.6238743668
  0
LINE
  5
3EA
100
AcDbEntity
  8
ASSI
100
AcDbLine
 62
7
  6
CONTINUOUS
 10
164.6387055894
 20
99.9460766308
 11
164.6641465715
 21
99.9461917815
  0
LINE
  5
3EB
100
AcDbEntity
  8
ASSI
100
AcDbLine
 62
7
  6
CONTINUOUS
 10
164.6387055894
 20
99.9460766308
 11
162.5599854063
 21
99.9460622645
  0
LINE
  5
3EC
100
AcDbEntity
  8
ASSI
100
AcDbLine
 62
7
  6
CONTINUOUS
 10
161.7312695202
 20
99.9460622645
 11
157.636643025
 21
99.9460622645
  0
LINE
  5
3ED
100
AcDbEntity
  8
ASSI
100
AcDbLine
 62
7
  6
CONTINUOUS
 10
152.3546119014
 20
99.9460622645
 11
148.2599854063
 21
99.9460622645
  0
LINE
  5
3EE
100
AcDbEntity
  8
ASSI
100
AcDbLine
 62
7
  6
CONTINUOUS
 10
145.1497381645
 20
99.9844146024
 11
147.7593284905
 21
99.9844146024
  0
LINE
  5
3EF
100
AcDbEntity
  8
ASSI
100
AcDbLine
 62
7
  6
CONTINUOUS
 10
147.9319264359
 20
99.9844146024
 11
152.3358700127
 21
99.9844146024
  0
LINE
  5
3F0
100
AcDbEntity
  8
ASSI
100
AcDbLine
 62
7
  6
CONTINUOUS
 10
157.6553849137
 20
99.9844146024
 11
162.0593284905
 21
99.9844146024
  0
LINE
  5
3F1
100
AcDbEntity
  8
ASSI
100
AcDbLine
 62
7
  6
CONTINUOUS
 10
162.2319264359
 20
99.9844146024
 11
164.8415167619
 21
99.9844146024
  0
LINE
  5
3F2
100
AcDbEntity
  8
ASSI
100
AcDbLine
 62
7
  6
CONTINUOUS
 10
153.1260702668
 20
101.1176585554
 11
153.380214523
 21
101.1176585554
  0
LINE
  5
3F3
100
AcDbEntity
  8
ASSI
100
AcDbLine
 62
7
  6
CONTINUOUS
 10
156.6110404034
 20
101.1176585554
 11
156.8651846596
 21
101.1176585554
  0
LINE
  5
3F4
100
AcDbEntity
  8
ASSI
100
AcDbLine
 62
7
  6
CONTINUOUS
 10
152.6992857332
 20
101.1307488571
 11
153.0726133045
 21
101.1307488571
  0
LINE
  5
3F5
100
AcDbEntity
  8
ASSI
100
AcDbLine
 62
7
  6
CONTINUOUS
 10
156.9186416219
 20
101.1307488571
 11
157.2919691932
 21
101.1307488571
  0
LINE
  5
3F6
100
AcDbEntity
  8
ASSI
100
AcDbLine
 62
7
  6
CONTINUOUS
 10
164.8415167619
 20
101.1333669174
 11
157.2973600437
 21
101.1333669174
  0
LINE
  5
3F7
100
AcDbEntity
  8
ASSI
100
AcDbLine
 62
7
  6
CONTINUOUS
 10
152.6938948827
 20
101.1333669174
 11
145.1497381645
 21
101.1333669174
  0
LINE
  5
3F8
100
AcDbEntity
  8
ASSI
100
AcDbLine
 62
7
  6
CONTINUOUS
 10
165.9456274621
 20
101.1604202076
 11
164.8956274632
 21
101.1604202076
  0
LINE
  5
3F9
100
AcDbEntity
  8
ASSI
100
AcDbLine
 62
7
  6
CONTINUOUS
 10
145.0956274632
 20
101.1604202076
 11
144.0456274644
 21
101.1604202076
  0
LINE
  5
3FA
100
AcDbEntity
  8
ASSI
100
AcDbLine
 62
7
  6
CONTINUOUS
 10
144.0456274644
 20
101.3604202076
 11
145.0956274632
 21
101.3604202076
  0
LINE
  5
3FB
100
AcDbEntity
  8
ASSI
100
AcDbLine
 62
7
  6
CONTINUOUS
 10
164.8956274632
 20
101.3604202076
 11
165.9456274621
 21
101.3604202076
  0
LINE
  5
3FC
100
AcDbEntity
  8
ASSI
100
AcDbLine
 62
7
  6
CONTINUOUS
 10
145.1497381645
 20
101.3874734977
 11
152.6938948827
 21
101.3874734977
  0
LINE
  5
3FD
100
AcDbEntity
  8
ASSI
100
AcDbLine
 62
7
  6
CONTINUOUS
 10
157.2973600437
 20
101.3874734977
 11
164.8415167619
 21
101.3874734977
  0
LINE
  5
3FE
100
AcDbEntity
  8
ASSI
100
AcDbLine
 62
7
  6
CONTINUOUS
 10
157.2919691932
 20
101.3900915581
 11
156.9186416219
 21
101.3900915581
  0
LINE
  5
3FF
100
AcDbEntity
  8
ASSI
100
AcDbLine
 62
7
  6
CONTINUOUS
 10
153.0726133045
 20
101.3900915581
 11
152.6992857332
 21
101.3900915581
  0
LINE
  5
400
100
AcDbEntity
  8
ASSI
100
AcDbLine
 62
7
  6
CONTINUOUS
 10
156.8651846596
 20
101.4031818598
 11
156.6110404034
 21
101.4031818598
  0
LINE
  5
401
100
AcDbEntity
  8
ASSI
100
AcDbLine
 62
7
  6
CONTINUOUS
 10
153.380214523
 20
101.4031818598
 11
153.1260702668
 21
101.4031818598
  0
LINE
  5
402
100
AcDbEntity
  8
ASSI
100
AcDbLine
 62
7
  6
CONTINUOUS
 10
145.3397694703
 20
99.9461198031
 11
147.4312695202
 21
99.9460622645
  0
LWPOLYLINE
  5
403
100
AcDbEntity
  8
ASSI
100
AcDbPolyline
 62
7
  6
CONTINUOUS
 90
3
 70
0
 10
145.3019923167
 20
99.9464236437
 10
145.3144909601
 20
99.9462933095
 10
145.3397694703
 20
99.9461198031
  0
LINE
  5
404
100
AcDbEntity
  8
ASSI
100
AcDbLine
 62
7
  6
CONTINUOUS
 10
153.0726133045
 20
101.1307488571
 11
153.1260702668
 21
101.1176585554
  0
LWPOLYLINE
  5
405
100
AcDbEntity
  8
ASSI
100
AcDbPolyline
 62
250
  6
CONTINUOUS
 90
13
 70
0
 10
147.4876916014
 20
107.1185388213
 10
147.4880497188
 20
107.1179138891
 10
147.4884044967
 20
107.1167748098
 10
147.4887559351
 20
107.1151215834
 10
147.4891049598
 20
107.1129472105
 10
147.489450645
 20
107.1102586904
 10
147.4897902141
 20
107.1070770215
 10
147.4901236007
 20
107.1033982975
 10
147.4904508711
 20
107.0992264245
 10
147.4907694479
 20
107.0945941196
 10
147.4910792568
 20
107.0894978084
 10
147.491380372
 20
107.0839410651
 10
147.4916704391
 20
107.0779673299
  0
LINE
  5
406
100
AcDbEntity
  8
ASSI
100
AcDbLine
 62
250
  6
CONTINUOUS
 10
151.0801574094
 20
123.3826589774
 11
151.0801574094
 21
121.8262433662
  0
LINE
  5
407
100
AcDbEntity
  8
ASSI
100
AcDbLine
 62
250
  6
CONTINUOUS
 10
151.0801574094
 20
80.6945970489
 11
151.0801574094
 21
79.1381814378
  0
LINE
  5
408
100
AcDbEntity
  8
ASSI
100
AcDbLine
 62
250
  6
CONTINUOUS
 10
151.2533624901
 20
123.3878997553
 11
151.2533624901
 21
121.8385218223
  0
LINE
  5
409
100
AcDbEntity
  8
ASSI
100
AcDbLine
 62
250
  6
CONTINUOUS
 10
151.2533624901
 20
80.6823185928
 11
151.2533624901
 21
79.1329406598
  0
LINE
  5
40A
100
AcDbEntity
  8
ASSI
100
AcDbLine
 62
7
  6
CONTINUOUS
 10
147.4312695202
 20
99.9460622645
 11
147.4595112424
 21
99.9743039867
  0
LINE
  5
40B
100
AcDbEntity
  8
ASSI
100
AcDbLine
 62
7
  6
CONTINUOUS
 10
145.1497381645
 20
101.3874734977
 11
145.0956274632
 21
101.3604202076
  0
LWPOLYLINE
  5
40C
100
AcDbEntity
  8
ASSI
100
AcDbPolyline
 62
7
  6
CONTINUOUS
 90
13
 70
0
 10
145.2252750601
 20
102.5727759294
 10
145.216291318
 20
102.5724464196
 10
145.2079008398
 20
102.572095806
 10
145.2002282188
 20
102.5717300086
 10
145.1933022471
 20
102.571350066
 10
145.1870941326
 20
102.5709549396
 10
145.181642092
 20
102.5705474343
 10
145.1769368319
 20
102.5701259501
 10
145.1729876458
 20
102.569692087
 10
145.1698606306
 20
102.5692534492
 10
145.1675778186
 20
102.5688125717
 10
145.1661171776
 20
102.5683669197
 10
145.1654787074
 20
102.5679164931
  0
LINE
  5
40D
100
AcDbEntity
  8
ASSI
100
AcDbLine
 62
7
  6
CONTINUOUS
 10
145.2450540411
 20
102.5733705125
 11
145.2252750601
 21
102.5727759294
  0
LINE
  5
40E
100
AcDbEntity
  8
ASSI
100
AcDbLine
 62
7
  6
CONTINUOUS
 10
145.2666580002
 20
102.5738669805
 11
145.2450540411
 21
102.5733705125
  0
LINE
  5
40F
100
AcDbEntity
  8
ASSI
100
AcDbLine
 62
7
  6
CONTINUOUS
 10
145.2898375175
 20
102.5742598623
 11
145.2666580002
 21
102.5738669805
  0
LINE
  5
410
100
AcDbEntity
  8
ASSI
100
AcDbLine
 62
7
  6
CONTINUOUS
 10
145.3144909601
 20
102.5745471056
 11
145.2898375175
 21
102.5742598623
  0
LINE
  5
411
100
AcDbEntity
  8
ASSI
100
AcDbLine
 62
7
  6
CONTINUOUS
 10
145.3397694703
 20
102.574720612
 11
145.3144909601
 21
102.5745471056
  0
LINE
  5
412
100
AcDbEntity
  8
ASSI
100
AcDbLine
 62
7
  6
CONTINUOUS
 10
164.8415167619
 20
102.5364258127
 11
162.2319264359
 21
102.5364258127
  0
LINE
  5
413
100
AcDbEntity
  8
ASSI
100
AcDbLine
 62
7
  6
CONTINUOUS
 10
162.0593284905
 20
102.5364258127
 11
157.6553849137
 21
102.5364258127
  0
LINE
  5
414
100
AcDbEntity
  8
ASSI
100
AcDbLine
 62
7
  6
CONTINUOUS
 10
152.3358700127
 20
102.5364258127
 11
147.9319264359
 21
102.5364258127
  0
LINE
  5
415
100
AcDbEntity
  8
ASSI
100
AcDbLine
 62
7
  6
CONTINUOUS
 10
147.7593284905
 20
102.5364258127
 11
145.1497381645
 21
102.5364258127
  0
LINE
  5
416
100
AcDbEntity
  8
ASSI
100
AcDbLine
 62
7
  6
CONTINUOUS
 10
145.3397694703
 20
102.574720612
 11
147.4312695202
 21
102.5747781506
  0
LINE
  5
417
100
AcDbEntity
  8
ASSI
100
AcDbLine
 62
7
  6
CONTINUOUS
 10
148.2599854063
 20
102.5747781506
 11
152.3546119014
 21
102.5747781506
  0
LINE
  5
418
100
AcDbEntity
  8
ASSI
100
AcDbLine
 62
7
  6
CONTINUOUS
 10
157.636643025
 20
102.5747781506
 11
161.7312695202
 21
102.5747781506
  0
LINE
  5
419
100
AcDbEntity
  8
ASSI
100
AcDbLine
 62
7
  6
CONTINUOUS
 10
164.6514854561
 20
102.574720612
 11
162.5599854063
 21
102.5747781506
  0
LINE
  5
41A
100
AcDbEntity
  8
ASSI
100
AcDbLine
 62
7
  6
CONTINUOUS
 10
164.6767639664
 20
102.5745471056
 11
164.6514854561
 21
102.574720612
  0
LINE
  5
41B
100
AcDbEntity
  8
ASSI
100
AcDbLine
 62
7
  6
CONTINUOUS
 10
164.7014174089
 20
102.5742598623
 11
164.6767639664
 21
102.5745471056
  0
LINE
  5
41C
100
AcDbEntity
  8
ASSI
100
AcDbLine
 62
7
  6
CONTINUOUS
 10
164.7245969262
 20
102.5738669805
 11
164.7014174089
 21
102.5742598623
  0
LINE
  5
41D
100
AcDbEntity
  8
ASSI
100
AcDbLine
 62
7
  6
CONTINUOUS
 10
164.7462008853
 20
102.5733705125
 11
164.7245969262
 21
102.5738669805
  0
LINE
  5
41E
100
AcDbEntity
  8
ASSI
100
AcDbLine
 62
7
  6
CONTINUOUS
 10
156.9186416219
 20
101.3900915581
 11
156.8651846596
 21
101.4031818598
  0
LINE
  5
41F
100
AcDbEntity
  8
ASSI
100
AcDbLine
 62
250
  6
CONTINUOUS
 10
147.4324338392
 20
107.1737965835
 11
147.4876916014
 21
107.1185388213
  0
LINE
  5
420
100
AcDbEntity
  8
ASSI
100
AcDbLine
 62
250
  6
CONTINUOUS
 10
147.7323783867
 20
107.4734865322
 11
147.787508322
 21
107.4183565969
  0
LINE
  5
421
100
AcDbEntity
  8
ASSI
100
AcDbLine
 62
250
  6
CONTINUOUS
 10
149.4880758948
 20
118.3604202076
 11
149.4373676391
 21
118.6164636382
  0
LWPOLYLINE
  5
422
100
AcDbEntity
  8
ASSI
100
AcDbPolyline
 62
250
  6
CONTINUOUS
 90
10
 70
0
 10
149.6872153459
 20
118.8626655765
 10
149.6871154701
 20
118.8632575808
 10
149.6870175701
 20
118.8640085023
 10
149.686921646
 20
118.8649183411
 10
149.686827375
 20
118.8659912916
 10
149.6867350799
 20
118.8672231594
 10
149.6866457289
 20
118.8686013614
 10
149.6865593632
 20
118.8701273067
 10
149.6864759416
 20
118.8717995862
 10
149.6863963084
 20
118.8736013901
  0
LWPOLYLINE
  5
423
100
AcDbEntity
  8
ASSI
100
AcDbPolyline
 62
250
  6
CONTINUOUS
 90
5
 70
0
 10
149.497005747
 20
116.8847234562
 10
149.4969049227
 20
116.8855197563
 10
149.4968051955
 20
116.8873057243
 10
149.4967065653
 20
116.8900756776
 10
149.4966087374
 20
116.893820774
  0
LINE
  5
424
100
AcDbEntity
  8
ASSI
100
AcDbLine
 62
7
  6
CONTINUOUS
 10
151.6040524562
 20
123.4197329133
 11
151.67934594
 21
121.9291153383
  0
LINE
  5
425
100
AcDbEntity
  8
ASSI
100
AcDbLine
 62
7
  6
CONTINUOUS
 10
151.6040524562
 20
79.1011075019
 11
151.67934594
 21
80.5917250768
  0
LINE
  5
426
100
AcDbEntity
  8
ASSI
100
AcDbLine
 62
250
  6
CONTINUOUS
 10
149.4373676391
 20
83.9043767769
 11
149.4880758948
 21
84.1604202076
  0
LINE
  5
427
100
AcDbEntity
  8
ASSI
100
AcDbLine
 62
250
  6
CONTINUOUS
 10
149.6872153459
 20
83.6581748387
 11
149.7451378119
 21
83.9506452998
  0
LWPOLYLINE
  5
428
100
AcDbEntity
  8
ASSI
100
AcDbPolyline
 62
250
  6
CONTINUOUS
 90
25
 70
0
 10
162.2237439907
 20
104.506866817
 10
162.2430511923
 20
104.5076439637
 10
162.2622782941
 20
104.5092979576
 10
162.2813455289
 20
104.5118219365
 10
162.3001737925
 20
104.5152054293
 10
162.3186849721
 20
104.519434399
 10
162.3368022705
 20
104.5244913008
 10
162.3544505245
 20
104.5303551551
 10
162.3715565169
 20
104.5370016347
 10
162.3880492802
 20
104.5444031653
 10
162.4038603909
 20
104.5525290403
 10
162.4189242535
 20
104.5613455477
 10
162.4331783727
 20
104.5708161107
 10
162.4465636124
 20
104.5809014387
 10
162.4590244414
 20
104.5915596908
 10
162.4705091635
 20
104.6027466492
 10
162.480970132
 20
104.6144159026
 10
162.4903639476
 20
104.6265190387
 10
162.4986516383
 20
104.6390058454
 10
162.5057988208
 20
104.6518245188
 10
162.5117758438
 20
104.664921878
 10
162.5165579104
 20
104.678243586
 10
162.5201251812
 20
104.6917343753
 10
162.5224628568
 20
104.7053382765
 10
162.5235612388
 20
104.7189988513
  0
LWPOLYLINE
  5
429
100
AcDbEntity
  8
ASSI
100
AcDbPolyline
 62
250
  6
CONTINUOUS
 90
25
 70
0
 10
147.9237439907
 20
104.506866817
 10
147.9430511923
 20
104.5076439637
 10
147.9622782941
 20
104.5092979576
 10
147.9813455289
 20
104.5118219365
 10
148.0001737925
 20
104.5152054293
 10
148.0186849721
 20
104.519434399
 10
148.0368022705
 20
104.5244913008
 10
148.0544505245
 20
104.5303551551
 10
148.0715565169
 20
104.5370016347
 10
148.0880492802
 20
104.5444031653
 10
148.1038603909
 20
104.5525290403
 10
148.1189242535
 20
104.5613455477
 10
148.1331783727
 20
104.5708161107
 10
148.1465636124
 20
104.5809014387
 10
148.1590244414
 20
104.5915596908
 10
148.1705091635
 20
104.6027466492
 10
148.180970132
 20
104.6144159026
 10
148.1903639476
 20
104.6265190387
 10
148.1986516383
 20
104.6390058454
 10
148.2057988208
 20
104.6518245188
 10
148.2117758438
 20
104.664921878
 10
148.2165579104
 20
104.678243586
 10
148.2201251812
 20
104.6917343753
 10
148.2224628568
 20
104.7053382765
 10
148.2235612388
 20
104.7189988513
  0
LWPOLYLINE
  5
42A
100
AcDbEntity
  8
ASSI
100
AcDbPolyline
 62
250
  6
CONTINUOUS
 90
25
 70
0
 10
162.1990512778
 20
105.2139735982
 10
162.2183584916
 20
105.2147507458
 10
162.2375856048
 20
105.2164047416
 10
162.2566528499
 20
105.2189287233
 10
162.2754811228
 20
105.2223122198
 10
162.2939923104
 20
105.2265411937
 10
162.3121096154
 20
105.2315981003
 10
162.3297578744
 20
105.2374619597
 10
162.3468638704
 20
105.2441084444
 10
162.3633566355
 20
105.2515099801
 10
162.3791677464
 20
105.2596358599
 10
162.3942316078
 20
105.2684523717
 10
162.4084857243
 20
105.2779229384
 10
162.42187096
 20
105.2880082694
 10
162.4343317839
 20
105.2986665235
 10
162.4458165
 20
105.3098534828
 10
162.4562774618
 20
105.3215227357
 10
162.4656712703
 20
105.3336258702
 10
162.4739589538
 20
105.3461126739
 10
162.4811061293
 20
105.3589313428
 10
162.4870831457
 20
105.3720286961
 10
162.4918652066
 20
105.3853503968
 10
162.4954324728
 20
105.3988411774
 10
162.4977701453
 20
105.4124450688
 10
162.4988685259
 20
105.4261056325
  0
LWPOLYLINE
  5
42B
100
AcDbEntity
  8
ASSI
100
AcDbPolyline
 62
250
  6
CONTINUOUS
 90
25
 70
0
 10
147.8990512778
 20
105.2139735982
 10
147.9183584916
 20
105.2147507458
 10
147.9375856048
 20
105.2164047416
 10
147.9566528499
 20
105.2189287233
 10
147.9754811228
 20
105.2223122198
 10
147.9939923104
 20
105.2265411937
 10
148.0121096154
 20
105.2315981003
 10
148.0297578744
 20
105.2374619597
 10
148.0468638704
 20
105.2441084444
 10
148.0633566355
 20
105.2515099801
 10
148.0791677464
 20
105.2596358599
 10
148.0942316078
 20
105.2684523717
 10
148.1084857243
 20
105.2779229384
 10
148.12187096
 20
105.2880082694
 10
148.1343317839
 20
105.2986665235
 10
148.1458165
 20
105.3098534828
 10
148.1562774618
 20
105.3215227357
 10
148.1656712703
 20
105.3336258702
 10
148.1739589538
 20
105.3461126739
 10
148.1811061293
 20
105.3589313428
 10
148.1870831457
 20
105.3720286961
 10
148.1918652066
 20
105.3853503968
 10
148.1954324728
 20
105.3988411774
 10
148.1977701453
 20
105.4124450688
 10
148.1988685259
 20
105.4261056325
  0
LINE
  5
42C
100
AcDbEntity
  8
ASSI
100
AcDbLine
 62
250
  6
CONTINUOUS
 10
147.4595112424
 20
104.1533134264
 11
148.231743684
 21
104.1533134264
  0
LINE
  5
42D
100
AcDbEntity
  8
ASSI
100
AcDbLine
 62
250
  6
CONTINUOUS
 10
161.7595112424
 20
104.1533134264
 11
162.531743684
 21
104.1533134264
  0
LINE
  5
42E
100
AcDbEntity
  8
ASSI
100
AcDbLine
 62
250
  6
CONTINUOUS
 10
147.9237437339
 20
104.5068741714
 11
147.7675111927
 21
104.5068741749
  0
LINE
  5
42F
100
AcDbEntity
  8
ASSI
100
AcDbLine
 62
250
  6
CONTINUOUS
 10
162.2237437339
 20
104.5068741714
 11
162.0675111927
 21
104.5068741749
  0
LINE
  5
430
100
AcDbEntity
  8
ASSI
100
AcDbLine
 62
250
  6
CONTINUOUS
 10
147.7922036487
 20
105.2139735982
 11
147.8990512778
 21
105.2139735982
  0
LINE
  5
431
100
AcDbEntity
  8
ASSI
100
AcDbLine
 62
250
  6
CONTINUOUS
 10
162.0922036487
 20
105.2139735982
 11
162.1990512778
 21
105.2139735982
  0
LWPOLYLINE
  5
432
100
AcDbEntity
  8
ASSI
100
AcDbPolyline
 62
250
  6
CONTINUOUS
 90
25
 70
0
 10
147.7675109358
 20
104.506866817
 10
147.7482037642
 20
104.5076439619
 10
147.7289766906
 20
104.5092979512
 10
147.709909482
 20
104.5118219233
 10
147.6910812425
 20
104.5152054072
 10
147.6725700844
 20
104.519434366
 10
147.6544528039
 20
104.5244912556
 10
147.636804564
 20
104.5303550968
 10
147.6196985821
 20
104.5370015626
 10
147.6032058249
 20
104.5444030794
 10
147.5873947162
 20
104.5525289411
 10
147.5723308517
 20
104.5613454362
 10
147.5580767265
 20
104.5708159884
 10
147.5446914772
 20
104.5809013077
 10
147.5322306355
 20
104.5915595535
 10
147.520745898
 20
104.6027465086
 10
147.5102849119
 20
104.614415762
 10
147.5008910774
 20
104.6265189017
 10
147.4926033672
 20
104.6390057158
 10
147.4854561654
 20
104.6518244007
 10
147.4794791243
 20
104.6649217755
 10
147.4746970418
 20
104.6782435033
 10
147.471129758
 20
104.6917343164
 10
147.4687920736
 20
104.7053382453
 10
147.4676936877
 20
104.7189988514
  0
LWPOLYLINE
  5
433
100
AcDbEntity
  8
ASSI
100
AcDbPolyline
 62
250
  6
CONTINUOUS
 90
25
 70
0
 10
162.0675109358
 20
104.506866817
 10
162.0482037642
 20
104.5076439619
 10
162.0289766906
 20
104.5092979512
 10
162.009909482
 20
104.5118219233
 10
161.9910812425
 20
104.5152054072
 10
161.9725700844
 20
104.519434366
 10
161.9544528039
 20
104.5244912556
 10
161.936804564
 20
104.5303550968
 10
161.9196985821
 20
104.5370015626
 10
161.9032058249
 20
104.5444030794
 10
161.8873947162
 20
104.5525289411
 10
161.8723308517
 20
104.5613454362
 10
161.8580767265
 20
104.5708159884
 10
161.8446914772
 20
104.5809013077
 10
161.8322306355
 20
104.5915595535
 10
161.820745898
 20
104.6027465086
 10
161.8102849119
 20
104.614415762
 10
161.8008910774
 20
104.6265189017
 10
161.7926033672
 20
104.6390057158
 10
161.7854561654
 20
104.6518244007
 10
161.7794791243
 20
104.6649217755
 10
161.7746970418
 20
104.6782435033
 10
161.771129758
 20
104.6917343164
 10
161.7687920736
 20
104.7053382453
 10
161.7676936877
 20
104.7189988514
  0
LWPOLYLINE
  5
434
100
AcDbEntity
  8
ASSI
100
AcDbPolyline
 62
250
  6
CONTINUOUS
 90
25
 70
0
 10
147.7922036487
 20
105.2139735982
 10
147.7728964471
 20
105.2147507449
 10
147.7536693452
 20
105.2164047387
 10
147.7346021104
 20
105.2189287177
 10
147.7157738468
 20
105.2223122105
 10
147.6972626673
 20
105.2265411802
 10
147.6791453689
 20
105.231598082
 10
147.6614971148
 20
105.2374619363
 10
147.6443911224
 20
105.2441084159
 10
147.6278983591
 20
105.2515099465
 10
147.6120872484
 20
105.2596358214
 10
147.5970233858
 20
105.2684523289
 10
147.5827692666
 20
105.2779228919
 10
147.5693840269
 20
105.2880082199
 10
147.556923198
 20
105.298666472
 10
147.5454384759
 20
105.3098534304
 10
147.5349775074
 20
105.3215226838
 10
147.5255836917
 20
105.3336258199
 10
147.5172960011
 20
105.3461126266
 10
147.5101488185
 20
105.3589313
 10
147.5041717955
 20
105.3720286591
 10
147.4993897289
 20
105.3853503672
 10
147.4958224581
 20
105.3988411565
 10
147.4934847825
 20
105.4124450577
 10
147.4923864006
 20
105.4261056325
  0
LINE
  5
435
100
AcDbEntity
  8
ASSI
100
AcDbLine
 62
250
  6
CONTINUOUS
 10
162.2588765397
 20
95.047353883
 11
162.2037466044
 21
95.1024838182
  0
LINE
  5
436
100
AcDbEntity
  8
ASSI
100
AcDbLine
 62
250
  6
CONTINUOUS
 10
162.5588210872
 20
95.3470438317
 11
162.503563325
 21
95.4023015939
  0
LWPOLYLINE
  5
437
100
AcDbEntity
  8
ASSI
100
AcDbPolyline
 62
7
  6
CONTINUOUS
 90
25
 70
0
 10
153.6695331701
 20
100.8969660483
 10
153.6648141859
 20
100.9125289725
 10
153.6592791939
 20
100.9277575928
 10
153.6529281939
 20
100.9426519093
 10
153.6457278238
 20
100.9572726841
 10
153.6377114457
 20
100.9715591551
 10
153.6289791466
 20
100.9853290357
 10
153.6195489537
 20
100.9985420924
 10
153.6094028397
 20
101.0112385587
 10
153.5985868091
 20
101.0233568489
 10
153.5870728898
 20
101.0349196974
 10
153.574889054
 20
101.0459043698
 10
153.5621652229
 20
101.0561810773
 10
153.5488915448
 20
101.0657368662
 10
153.5350778713
 20
101.0745846902
 10
153.5208836793
 20
101.0826336223
 10
153.5063390408
 20
101.0898625814
 10
153.4914138837
 20
101.0962926485
 10
153.4761774686
 20
101.1018961394
 10
153.4605842362
 20
101.1066803101
 10
153.4446797458
 20
101.1106379046
 10
153.4286699355
 20
101.1137194715
 10
153.4126234512
 20
101.1159085271
 10
153.3964716471
 20
101.117221555
 10
153.380214523
 20
101.1176585554
  0
LINE
  5
438
100
AcDbEntity
  8
ASSI
100
AcDbLine
 62
7
  6
CONTINUOUS
 10
160.2754950892
 20
80.6945970489
 11
160.201514386
 21
80.9547198439
  0
LINE
  5
439
100
AcDbEntity
  8
ASSI
100
AcDbLine
 62
250
  6
CONTINUOUS
 10
149.7451378119
 20
118.5701951154
 11
149.6872153459
 21
118.8626655765
  0
LINE
  5
43A
100
AcDbEntity
  8
ASSI
100
AcDbLine
 62
7
  6
CONTINUOUS
 10
160.201514386
 20
121.5661205713
 11
160.2754950892
 21
121.8262433662
  0
LINE
  5
43B
100
AcDbEntity
  8
ASSI
100
AcDbLine
 62
7
  6
CONTINUOUS
 10
149.7897405404
 20
80.9547198439
 11
149.7157598372
 21
80.6945970489
  0
LINE
  5
43C
100
AcDbEntity
  8
ASSI
100
AcDbLine
 62
250
  6
CONTINUOUS
 10
147.4876916014
 20
95.4023015939
 11
147.4324338392
 21
95.3470438317
  0
LINE
  5
43D
100
AcDbEntity
  8
ASSI
100
AcDbLine
 62
250
  6
CONTINUOUS
 10
147.787508322
 20
95.1024838182
 11
147.7323783867
 21
95.047353883
  0
LWPOLYLINE
  5
43E
100
AcDbEntity
  8
ASSI
100
AcDbPolyline
 62
250
  6
CONTINUOUS
 90
25
 70
0
 10
162.0875088495
 20
107.4183560694
 10
162.0679150152
 20
107.4176912665
 10
162.0484049557
 20
107.41574743
 10
162.0290620868
 20
107.4125328709
 10
162.0099691093
 20
107.4080613334
 10
161.9912076556
 20
107.4023519358
 10
161.9728579412
 20
107.3954290891
 10
161.9549984205
 20
107.3873223924
 10
161.9377054522
 20
107.3780665061
 10
161.9210529729
 20
107.3677010044
 10
161.9051121805
 20
107.3562702056
 10
161.8899512299
 20
107.3438229824
 10
161.8756349421
 20
107.3304125537
 10
161.8622245263
 20
107.3160962562
 10
161.8497773189
 20
107.3009352997
 10
161.8383465378
 20
107.2849945056
 10
161.8279810553
 20
107.2683420292
 10
161.8187251887
 20
107.2510490686
 10
161.8106185114
 20
107.2331895604
 10
161.8036956833
 20
107.2148398634
 10
161.7979863025
 20
107.1960784319
 10
161.7935147793
 20
107.176985481
 10
161.7903002312
 20
107.1576426427
 10
161.7883564018
 20
107.1381326177
 10
161.7876916014
 20
107.1185388213
  0
LINE
  5
43F
100
AcDbEntity
  8
ASSI
100
AcDbLine
 62
250
  6
CONTINUOUS
 10
147.4944320119
 20
105.5675269888
 11
148.1968229146
 21
105.5675269888
  0
LINE
  5
440
100
AcDbEntity
  8
ASSI
100
AcDbLine
 62
250
  6
CONTINUOUS
 10
161.7944320119
 20
105.5675269888
 11
162.4968229146
 21
105.5675269888
  0
LINE
  5
441
100
AcDbEntity
  8
ASSI
100
AcDbLine
 62
250
  6
CONTINUOUS
 10
147.4944320119
 20
106.9186606558
 11
148.1968229146
 21
106.9186606558
  0
LINE
  5
442
100
AcDbEntity
  8
ASSI
100
AcDbLine
 62
250
  6
CONTINUOUS
 10
161.7944320119
 20
106.9186606558
 11
162.4968229146
 21
106.9186606558
  0
LWPOLYLINE
  5
443
100
AcDbEntity
  8
ASSI
100
AcDbPolyline
 62
250
  6
CONTINUOUS
 90
25
 70
0
 10
147.9037460769
 20
107.4183560694
 10
147.9233398948
 20
107.4176912676
 10
147.942849939
 20
107.4157474342
 10
147.9621927939
 20
107.4125328801
 10
147.9812857588
 20
107.4080613492
 10
148.0000472015
 20
107.4023519595
 10
148.0183969069
 20
107.3954291217
 10
148.0362564207
 20
107.3873224345
 10
148.0535493842
 20
107.3780665582
 10
148.070201861
 20
107.3677010664
 10
148.0861426531
 20
107.356270277
 10
148.1013036054
 20
107.3438230625
 10
148.1156198969
 20
107.3304126413
 10
148.1290303182
 20
107.3160963497
 10
148.1414775327
 20
107.3009353974
 10
148.1529083221
 20
107.2849946053
 10
148.1632738138
 20
107.2683421286
 10
148.1725296902
 20
107.2510491651
 10
148.1806363774
 20
107.2331896513
 10
148.1875592152
 20
107.2148399458
 10
148.1932686048
 20
107.1960785032
 10
148.1977401357
 20
107.1769855382
 10
148.2009546898
 20
107.1576426833
 10
148.2028985232
 20
107.1381326391
 10
148.203563325
 20
107.1185388213
  0
LWPOLYLINE
  5
444
100
AcDbEntity
  8
ASSI
100
AcDbPolyline
 62
250
  6
CONTINUOUS
 90
25
 70
0
 10
162.0922036487
 20
105.2139735982
 10
162.0728964471
 20
105.2147507449
 10
162.0536693452
 20
105.2164047387
 10
162.0346021104
 20
105.2189287177
 10
162.0157738468
 20
105.2223122105
 10
161.9972626673
 20
105.2265411802
 10
161.9791453689
 20
105.231598082
 10
161.9614971148
 20
105.2374619363
 10
161.9443911224
 20
105.2441084159
 10
161.9278983591
 20
105.2515099465
 10
161.9120872484
 20
105.2596358214
 10
161.8970233858
 20
105.2684523289
 10
161.8827692666
 20
105.2779228919
 10
161.8693840269
 20
105.2880082199
 10
161.856923198
 20
105.298666472
 10
161.8454384759
 20
105.3098534304
 10
161.8349775074
 20
105.3215226838
 10
161.8255836917
 20
105.3336258199
 10
161.8172960011
 20
105.3461126266
 10
161.8101488185
 20
105.3589313
 10
161.8041717955
 20
105.3720286591
 10
161.7993897289
 20
105.3853503672
 10
161.7958224581
 20
105.3988411565
 10
161.7934847825
 20
105.4124450577
 10
161.7923864006
 20
105.4261056325
  0
LINE
  5
445
100
AcDbEntity
  8
ASSI
100
AcDbLine
 62
7
  6
CONTINUOUS
 10
164.8415167619
 20
101.3874734977
 11
164.8956274632
 21
101.3604202076
  0
LWPOLYLINE
  5
446
100
AcDbEntity
  8
ASSI
100
AcDbPolyline
 62
7
  6
CONTINUOUS
 90
25
 70
0
 10
156.3217217563
 20
101.6238743668
 10
156.3264407405
 20
101.6083114427
 10
156.3319757326
 20
101.5930828224
 10
156.3383267326
 20
101.5781885059
 10
156.3455271027
 20
101.5635677311
 10
156.3535434807
 20
101.5492812601
 10
156.3622757798
 20
101.5355113795
 10
156.3717059727
 20
101.5222983228
 10
156.3818520867
 20
101.5096018564
 10
156.3926681173
 20
101.4974835662
 10
156.4041820366
 20
101.4859207178
 10
156.4163658724
 20
101.4749360454
 10
156.4290897035
 20
101.4646593379
 10
156.4423633817
 20
101.455103549
 10
156.4561770551
 20
101.4462557249
 10
156.4703712471
 20
101.4382067928
 10
156.4849158856
 20
101.4309778338
 10
156.4998410427
 20
101.4245477667
 10
156.5150774578
 20
101.4189442757
 10
156.5306706902
 20
101.4141601051
 10
156.5465751806
 20
101.4102025106
 10
156.562584991
 20
101.4071209436
 10
156.5786314752
 20
101.4049318881
 10
156.5947832794
 20
101.4036188601
 10
156.6110404034
 20
101.4031818598
  0
LINE
  5
447
100
AcDbEntity
  8
ASSI
100
AcDbLine
 62
7
  6
CONTINUOUS
 10
149.7157598372
 20
121.8262433662
 11
149.7897405404
 21
121.5661205713
  0
LINE
  5
448
100
AcDbEntity
  8
ASSI
100
AcDbLine
 62
7
  6
CONTINUOUS
 10
158.3872024702
 20
79.1011075019
 11
158.3119089864
 21
80.5917250768
  0
LINE
  5
449
100
AcDbEntity
  8
ASSI
100
AcDbLine
 62
7
  6
CONTINUOUS
 10
158.3872024702
 20
123.4197329133
 11
158.3119089864
 21
121.9291153383
  0
LINE
  5
44A
100
AcDbEntity
  8
ASSI
100
AcDbLine
 62
250
  6
CONTINUOUS
 10
160.3040395805
 20
118.8626655765
 11
160.2461171145
 21
118.5701951154
  0
LINE
  5
44B
100
AcDbEntity
  8
ASSI
100
AcDbLine
 62
250
  6
CONTINUOUS
 10
160.5538872873
 20
118.6164636382
 11
160.5031790316
 21
118.3604202076
  0
LINE
  5
44C
100
AcDbEntity
  8
ASSI
100
AcDbLine
 62
250
  6
CONTINUOUS
 10
162.2037466045
 20
107.4183565969
 11
162.2588765397
 21
107.4734865322
  0
LINE
  5
44D
100
AcDbEntity
  8
ASSI
100
AcDbLine
 62
250
  6
CONTINUOUS
 10
162.503563325
 20
107.1185388213
 11
162.5588210872
 21
107.1737965835
  0
LWPOLYLINE
  5
44E
100
AcDbEntity
  8
ASSI
100
AcDbPolyline
 62
250
  6
CONTINUOUS
 90
25
 70
0
 10
147.7875088495
 20
107.4183560694
 10
147.7679150152
 20
107.4176912665
 10
147.7484049557
 20
107.41574743
 10
147.7290620868
 20
107.4125328709
 10
147.7099691093
 20
107.4080613334
 10
147.6912076556
 20
107.4023519358
 10
147.6728579412
 20
107.3954290891
 10
147.6549984205
 20
107.3873223924
 10
147.6377054522
 20
107.3780665061
 10
147.6210529729
 20
107.3677010044
 10
147.6051121805
 20
107.3562702056
 10
147.5899512299
 20
107.3438229824
 10
147.5756349421
 20
107.3304125537
 10
147.5622245263
 20
107.3160962562
 10
147.5497773189
 20
107.3009352997
 10
147.5383465378
 20
107.2849945056
 10
147.5279810553
 20
107.2683420292
 10
147.5187251887
 20
107.2510490686
 10
147.5106185114
 20
107.2331895604
 10
147.5036956833
 20
107.2148398634
 10
147.4979863025
 20
107.1960784319
 10
147.4935147793
 20
107.176985481
 10
147.4903002312
 20
107.1576426427
 10
147.4883564018
 20
107.1381326177
 10
147.4876916014
 20
107.1185388213
  0
LINE
  5
44F
100
AcDbEntity
  8
ASSI
100
AcDbLine
 62
250
  6
CONTINUOUS
 10
162.2037466045
 20
107.4183565969
 11
162.087508322
 21
107.4183565969
  0
LINE
  5
450
100
AcDbEntity
  8
ASSI
100
AcDbLine
 62
250
  6
CONTINUOUS
 10
147.9037466045
 20
107.4183565969
 11
147.787508322
 21
107.4183565969
  0
LINE
  5
451
100
AcDbEntity
  8
ASSI
100
AcDbLine
 62
7
  6
CONTINUOUS
 10
147.7323783867
 20
107.4734865322
 11
147.9588765397
 21
107.4734865322
  0
LINE
  5
452
100
AcDbEntity
  8
ASSI
100
AcDbLine
 62
7
  6
CONTINUOUS
 10
162.0323783867
 20
107.4734865322
 11
162.2588765397
 21
107.4734865322
  0
LWPOLYLINE
  5
453
100
AcDbEntity
  8
ASSI
100
AcDbPolyline
 62
7
  6
CONTINUOUS
 90
28
 70
0
 10
147.9588765397
 20
107.4734865322
 10
147.9762216139
 20
107.4729853195
 10
147.9935475497
 20
107.4714783585
 10
148.0107956476
 20
107.4689638613
 10
148.0279322331
 20
107.46543755
 10
148.0448717675
 20
107.4609075874
 10
148.0614809849
 20
107.4554093025
 10
148.0776668941
 20
107.4489844166
 10
148.0934178461
 20
107.4416487294
 10
148.1087254295
 20
107.4334087403
 10
148.1235394378
 20
107.4242893591
 10
148.1378071234
 20
107.4143208595
 10
148.151510919
 20
107.4035089052
 10
148.164634066
 20
107.39185004
 10
148.1770870044
 20
107.3794063318
 10
148.1887538628
 20
107.3662936921
 10
148.199572231
 20
107.3526025772
 10
148.2095464813
 20
107.3383492485
 10
148.2186725139
 20
107.3235489064
 10
148.2269203287
 20
107.3082533425
 10
148.2342643648
 20
107.2925134129
 10
148.2406978843
 20
107.2763373208
 10
148.246205293
 20
107.2597354274
 10
148.2507441539
 20
107.2428018413
 10
148.2542781487
 20
107.2256734298
 10
148.2567993846
 20
107.2084370471
 10
148.2583129452
 20
107.1911252064
 10
148.2588210872
 20
107.1737965835
  0
LWPOLYLINE
  5
454
100
AcDbEntity
  8
ASSI
100
AcDbPolyline
 62
7
  6
CONTINUOUS
 90
28
 70
0
 10
162.2588765397
 20
107.4734865322
 10
162.2762216139
 20
107.4729853195
 10
162.2935475497
 20
107.4714783585
 10
162.3107956476
 20
107.4689638613
 10
162.3279322331
 20
107.46543755
 10
162.3448717675
 20
107.4609075874
 10
162.3614809849
 20
107.4554093025
 10
162.3776668941
 20
107.4489844166
 10
162.3934178461
 20
107.4416487294
 10
162.4087254295
 20
107.4334087403
 10
162.4235394378
 20
107.4242893591
 10
162.4378071234
 20
107.4143208595
 10
162.451510919
 20
107.4035089052
 10
162.464634066
 20
107.39185004
 10
162.4770870044
 20
107.3794063318
 10
162.4887538628
 20
107.3662936921
 10
162.499572231
 20
107.3526025772
 10
162.5095464813
 20
107.3383492485
 10
162.5186725139
 20
107.3235489064
 10
162.5269203287
 20
107.3082533425
 10
162.5342643648
 20
107.2925134129
 10
162.5406978843
 20
107.2763373208
 10
162.546205293
 20
107.2597354274
 10
162.5507441539
 20
107.2428018413
 10
162.5542781487
 20
107.2256734298
 10
162.5567993846
 20
107.2084370471
 10
162.5583129452
 20
107.1911252064
 10
162.5588210872
 20
107.1737965835
  0
LWPOLYLINE
  5
455
100
AcDbEntity
  8
ASSI
100
AcDbPolyline
 62
250
  6
CONTINUOUS
 90
25
 70
0
 10
162.2037460769
 20
107.4183560694
 10
162.2233398948
 20
107.4176912676
 10
162.242849939
 20
107.4157474342
 10
162.2621927939
 20
107.4125328801
 10
162.2812857588
 20
107.4080613492
 10
162.3000472015
 20
107.4023519595
 10
162.3183969069
 20
107.3954291217
 10
162.3362564207
 20
107.3873224345
 10
162.3535493842
 20
107.3780665582
 10
162.370201861
 20
107.3677010664
 10
162.3861426531
 20
107.356270277
 10
162.4013036054
 20
107.3438230625
 10
162.4156198969
 20
107.3304126413
 10
162.4290303182
 20
107.3160963497
 10
162.4414775327
 20
107.3009353974
 10
162.4529083221
 20
107.2849946053
 10
162.4632738138
 20
107.2683421286
 10
162.4725296902
 20
107.2510491651
 10
162.4806363774
 20
107.2331896513
 10
162.4875592152
 20
107.2148399458
 10
162.4932686048
 20
107.1960785032
 10
162.4977401357
 20
107.1769855382
 10
162.5009546898
 20
107.1576426833
 10
162.5028985232
 20
107.1381326391
 10
162.503563325
 20
107.1185388213
  0
LINE
  5
456
100
AcDbEntity
  8
ASSI
100
AcDbLine
 62
7
  6
CONTINUOUS
 10
162.531743684
 20
99.9743039867
 11
162.5599854063
 21
99.9460622645
  0
LWPOLYLINE
  5
457
100
AcDbEntity
  8
ASSI
100
AcDbPolyline
 62
250
  6
CONTINUOUS
 90
13
 70
0
 10
162.503563325
 20
95.4023015939
 10
162.5032052077
 20
95.4029265261
 10
162.5028504298
 20
95.4040656054
 10
162.5024989913
 20
95.4057188318
 10
162.5021499667
 20
95.4078932047
 10
162.5018042814
 20
95.4105817247
 10
162.5014647123
 20
95.4137633936
 10
162.5011313258
 20
95.4174421177
 10
162.5008040553
 20
95.4216139906
 10
162.5004854785
 20
95.4262462955
 10
162.5001756697
 20
95.4313426068
 10
162.4998745544
 20
95.43689935
 10
162.4995844873
 20
95.4428730853
  0
LINE
  5
458
100
AcDbEntity
  8
ASSI
100
AcDbLine
 62
250
  6
CONTINUOUS
 10
160.2461171145
 20
83.9506452998
 11
160.3040395805
 21
83.6581748387
  0
LINE
  5
459
100
AcDbEntity
  8
ASSI
100
AcDbLine
 62
250
  6
CONTINUOUS
 10
160.5031790316
 20
84.1604202076
 11
160.5538872873
 21
83.9043767769
  0
LWPOLYLINE
  5
45A
100
AcDbEntity
  8
ASSI
100
AcDbPolyline
 62
250
  6
CONTINUOUS
 90
10
 70
0
 10
160.3040395805
 20
83.6581748387
 10
160.3041394564
 20
83.6575828344
 10
160.3042373563
 20
83.6568319128
 10
160.3043332804
 20
83.655922074
 10
160.3044275514
 20
83.6548491235
 10
160.3045198465
 20
83.6536172558
 10
160.3046091975
 20
83.6522390538
 10
160.3046955632
 20
83.6507131085
 10
160.3047789848
 20
83.6490408289
 10
160.304858618
 20
83.6472390251
  0
LWPOLYLINE
  5
45B
100
AcDbEntity
  8
ASSI
100
AcDbPolyline
 62
7
  6
CONTINUOUS
 90
31
 70
0
 10
160.9451378119
 20
83.9506452998
 10
160.9445115301
 20
83.9598630837
 10
160.9433935725
 20
83.9691453474
 10
160.941773541
 20
83.9784698976
 10
160.9396413774
 20
83.9878095094
 10
160.9369894027
 20
83.9971441308
 10
160.9338122028
 20
84.0064608801
 10
160.9301044117
 20
84.0157313193
 10
160.9258605547
 20
84.0249312526
 10
160.9210756218
 20
84.0340524621
 10
160.9157474101
 20
84.0430638354
 10
160.9098733841
 20
84.0519382147
 10
160.9034470949
 20
84.0606706704
 10
160.8964695452
 20
84.0692266864
 10
160.8889411523
 20
84.0775758096
 10
160.8808525294
 20
84.0857149908
 10
160.8722080797
 20
84.0936055295
 10
160.8630118659
 20
84.101212594
 10
160.853251408
 20
84.1085325856
 10
160.842935219
 20
84.1155216652
 10
160.8320727038
 20
84.1221392422
 10
160.820650627
 20
84.1283778675
 10
160.8086823834
 20
84.1341881688
 10
160.796186528
 20
84.1395221317
 10
160.7831575585
 20
84.1443641346
 10
160.7696159952
 20
84.1486597902
 10
160.7555948641
 20
84.1523538798
 10
160.7411111972
 20
84.1554208117
 10
160.7261983348
 20
84.1578122481
 10
160.7109074366
 20
84.1594617768
 10
160.6952901052
 20
84.1603145966
  0
LINE
  5
45C
100
AcDbEntity
  8
ASSI
100
AcDbLine
 62
250
  6
CONTINUOUS
 10
160.304858618
 20
83.6472390251
 11
160.3050064452
 21
83.6432440792
  0
LINE
  5
45D
100
AcDbEntity
  8
ASSI
100
AcDbLine
 62
250
  6
CONTINUOUS
 10
160.2455062894
 20
85.3741520654
 11
160.2456512082
 21
85.3701637785
  0
LINE
  5
45E
100
AcDbEntity
  8
ASSI
100
AcDbLine
 62
250
  6
CONTINUOUS
 10
160.5538872873
 20
83.9043767769
 11
160.5539872134
 21
83.9008501851
  0
LINE
  5
45F
100
AcDbEntity
  8
ASSI
100
AcDbLine
 62
250
  6
CONTINUOUS
 10
160.3050064452
 20
83.6432440792
 11
160.3051368732
 21
83.6387928169
  0
LINE
  5
460
100
AcDbEntity
  8
ASSI
100
AcDbLine
 62
250
  6
CONTINUOUS
 10
160.2456512082
 20
85.3701637785
 11
160.2457789786
 21
85.3657335782
  0
LINE
  5
461
100
AcDbEntity
  8
ASSI
100
AcDbLine
 62
250
  6
CONTINUOUS
 10
160.3051368732
 20
83.6387928169
 11
160.3052485786
 21
83.6339304317
  0
LINE
  5
462
100
AcDbEntity
  8
ASSI
100
AcDbLine
 62
250
  6
CONTINUOUS
 10
160.2457789786
 20
85.3657335782
 11
160.245888336
 21
85.3609053861
  0
LINE
  5
463
100
AcDbEntity
  8
ASSI
100
AcDbLine
 62
250
  6
CONTINUOUS
 10
160.3052485786
 20
83.6339304317
 11
160.3053397307
 21
83.6287290676
  0
LWPOLYLINE
  5
464
100
AcDbEntity
  8
ASSI
100
AcDbPolyline
 62
250
  6
CONTINUOUS
 90
3
 70
0
 10
160.245888336
 20
85.3609053861
 10
160.2459775372
 20
85.3557489378
 10
160.2460142033
 20
85.3530741392
  0
LINE
  5
465
100
AcDbEntity
  8
ASSI
100
AcDbLine
 62
250
  6
CONTINUOUS
 10
158.7378924363
 20
79.1329406598
 11
158.7378924363
 21
80.6823185928
  0
LINE
  5
466
100
AcDbEntity
  8
ASSI
100
AcDbLine
 62
250
  6
CONTINUOUS
 10
158.7378924363
 20
121.8385218223
 11
158.7378924363
 21
123.3878997553
  0
LINE
  5
467
100
AcDbEntity
  8
ASSI
100
AcDbLine
 62
250
  6
CONTINUOUS
 10
158.9110975171
 20
79.1381814378
 11
158.9110975171
 21
80.6945970489
  0
LINE
  5
468
100
AcDbEntity
  8
ASSI
100
AcDbLine
 62
250
  6
CONTINUOUS
 10
158.9110975171
 20
121.8262433662
 11
158.9110975171
 21
123.3826589774
  0
LINE
  5
469
100
AcDbEntity
  8
ASSI
100
AcDbLine
 62
250
  6
CONTINUOUS
 10
160.2459775372
 20
117.1650914773
 11
160.245888336
 21
117.159935029
  0
LINE
  5
46A
100
AcDbEntity
  8
ASSI
100
AcDbLine
 62
250
  6
CONTINUOUS
 10
160.3052967105
 20
118.8894685002
 11
160.3051952817
 21
118.8844366255
  0
LINE
  5
46B
100
AcDbEntity
  8
ASSI
100
AcDbLine
 62
250
  6
CONTINUOUS
 10
160.245888336
 20
117.159935029
 11
160.2457789786
 21
117.1551068369
  0
LINE
  5
46C
100
AcDbEntity
  8
ASSI
100
AcDbLine
 62
250
  6
CONTINUOUS
 10
160.3051952817
 20
118.8844366255
 11
160.3050739434
 21
118.8797671375
  0
LINE
  5
46D
100
AcDbEntity
  8
ASSI
100
AcDbLine
 62
250
  6
CONTINUOUS
 10
160.2457789786
 20
117.1551068369
 11
160.2456512082
 21
117.1506766367
  0
LWPOLYLINE
  5
46E
100
AcDbEntity
  8
ASSI
100
AcDbPolyline
 62
250
  6
CONTINUOUS
 90
12
 70
0
 10
160.3050739434
 20
118.8797671375
 10
160.3049344258
 20
118.8755341009
 10
160.304858618
 20
118.8736013901
 10
160.3047789848
 20
118.8717995862
 10
160.3046955632
 20
118.8701273067
 10
160.3046091975
 20
118.8686013614
 10
160.3045198465
 20
118.8672231594
 10
160.3044275514
 20
118.8659912916
 10
160.3043332804
 20
118.8649183411
 10
160.3042373563
 20
118.8640085023
 10
160.3041394564
 20
118.8632575807
 10
160.3040395805
 20
118.8626655765
  0
LWPOLYLINE
  5
46F
100
AcDbEntity
  8
ASSI
100
AcDbPolyline
 62
250
  6
CONTINUOUS
 90
14
 70
0
 10
160.2456512082
 20
117.1506766367
 10
160.2455062894
 20
117.1466883497
 10
160.2454281696
 20
117.1448838681
 10
160.2453463005
 20
117.1432049634
 10
160.2452614926
 20
117.1416682099
 10
160.2451737168
 20
117.1402750354
 10
160.2450830021
 20
117.1390240121
 10
160.2449902462
 20
117.1379274315
 10
160.244895418
 20
117.136986806
 10
160.2447985486
 20
117.1362006231
 10
160.2447006279
 20
117.1355766366
 10
160.244601986
 20
117.135117431
 10
160.2445022929
 20
117.1348204217
 10
160.2444015486
 20
117.1346856088
  0
LWPOLYLINE
  5
470
100
AcDbEntity
  8
ASSI
100
AcDbPolyline
 62
7
  6
CONTINUOUS
 90
31
 70
0
 10
160.9451378119
 20
118.5701951154
 10
160.9445126605
 20
118.5609387366
 10
160.9433944861
 20
118.5516638707
 10
160.941773541
 20
118.5423705176
 10
160.9396411777
 20
118.5330377222
 10
160.936989691
 20
118.5236864397
 10
160.9338122028
 20
118.514379535
 10
160.9301041888
 20
118.5051167049
 10
160.9258608742
 20
118.4958982527
 10
160.9210756218
 20
118.4867879531
 10
160.9157471687
 20
118.4777848231
 10
160.909873746
 20
118.4688898457
 10
160.9034470949
 20
118.4601697447
 10
160.8964692859
 20
118.4516225823
 10
160.8889415713
 20
118.4432502964
 10
160.8808525294
 20
118.4351254244
 10
160.8722077972
 20
118.4272445312
 10
160.863012357
 20
118.4196110519
 10
160.853251408
 20
118.4123078296
 10
160.8429349002
 20
118.4053296378
 10
160.832073274
 20
118.398681703
 10
160.820650627
 20
118.3924625477
 10
160.8086819993
 20
118.3866653616
 10
160.7961871527
 20
118.381296955
 10
160.7831575585
 20
118.3764762806
 10
160.7696155065
 20
118.3721973115
 10
160.7555954634
 20
118.3684660746
 10
160.7411111972
 20
118.3654196035
 10
160.7261961263
 20
118.363103576
 10
160.7109046931
 20
118.3614723144
 10
160.6952901052
 20
118.3605258186
  0
LINE
  5
471
100
AcDbEntity
  8
ASSI
100
AcDbLine
 62
7
  6
CONTINUOUS
 10
164.8415167619
 20
101.1333669174
 11
164.8956274632
 21
101.1604202076
  0
LWPOLYLINE
  5
472
100
AcDbEntity
  8
ASSI
100
AcDbPolyline
 62
7
  6
CONTINUOUS
 90
14
 70
0
 10
164.825776219
 20
102.5679164931
 10
164.8251377489
 20
102.5683669197
 10
164.8236771078
 20
102.5688125717
 10
164.8213942958
 20
102.5692534492
 10
164.8182672806
 20
102.569692087
 10
164.8143180945
 20
102.5701259501
 10
164.8096128344
 20
102.5705474343
 10
164.8041607938
 20
102.5709549396
 10
164.7979526793
 20
102.571350066
 10
164.7910267076
 20
102.5717300086
 10
164.7833540866
 20
102.572095806
 10
164.7749636084
 20
102.5724464196
 10
164.7659798663
 20
102.5727759294
 10
164.7462008853
 20
102.5733705125
  0
LINE
  5
473
100
AcDbEntity
  8
ASSI
100
AcDbLine
 62
7
  6
CONTINUOUS
 10
161.7595112424
 20
102.5465364284
 11
161.7312695202
 21
102.5747781506
  0
LWPOLYLINE
  5
474
100
AcDbEntity
  8
ASSI
100
AcDbPolyline
 62
250
  6
CONTINUOUS
 90
13
 70
0
 10
149.7468533778
 20
117.1346856088
 10
149.7467526335
 20
117.1348204217
 10
149.7466529404
 20
117.135117431
 10
149.7465542986
 20
117.1355766366
 10
149.7464563779
 20
117.1362006231
 10
149.7463595084
 20
117.136986806
 10
149.7462646803
 20
117.1379274315
 10
149.7461719243
 20
117.1390240121
 10
149.7460812096
 20
117.1402750354
 10
149.7459934338
 20
117.14166821
 10
149.7459086259
 20
117.1432049634
 10
149.7458267568
 20
117.1448838681
 10
149.7457486371
 20
117.1466883497
  0
LWPOLYLINE
  5
475
100
AcDbEntity
  8
ASSI
100
AcDbPolyline
 62
250
  6
CONTINUOUS
 90
5
 70
0
 10
160.4942491795
 20
85.636116959
 10
160.4943500037
 20
85.6353206589
 10
160.4944497309
 20
85.6335346908
 10
160.4945483611
 20
85.6307647375
 10
160.4946461891
 20
85.6270196411
  0
LWPOLYLINE
  5
476
100
AcDbEntity
  8
ASSI
100
AcDbPolyline
 62
7
  6
CONTINUOUS
 90
31
 70
0
 10
160.2461171145
 20
118.5701951154
 10
160.2467433963
 20
118.5609773315
 10
160.247861354
 20
118.5516950677
 10
160.2494813855
 20
118.5423705176
 10
160.2516135491
 20
118.5330309057
 10
160.2542655238
 20
118.5236962843
 10
160.2574427236
 20
118.514379535
 10
160.2611505147
 20
118.5051090959
 10
160.2653943717
 20
118.4959091626
 10
160.2701793046
 20
118.4867879531
 10
160.2755075163
 20
118.4777765798
 10
160.2813815423
 20
118.4689022005
 10
160.2878078315
 20
118.4601697447
 10
160.2947853812
 20
118.4516137288
 10
160.3023137742
 20
118.4432646055
 10
160.310402397
 20
118.4351254244
 10
160.3190468467
 20
118.4272348857
 10
160.3282430605
 20
118.4196278211
 10
160.3380035184
 20
118.4123078296
 10
160.3483197074
 20
118.4053187499
 10
160.3591822227
 20
118.398701173
 10
160.3706042994
 20
118.3924625477
 10
160.382572543
 20
118.3866522464
 10
160.3950683984
 20
118.3813182835
 10
160.4080973679
 20
118.3764762806
 10
160.4216389312
 20
118.3721806249
 10
160.4356600623
 20
118.3684865354
 10
160.4501437293
 20
118.3654196035
 10
160.4650565917
 20
118.3630281671
 10
160.4803474898
 20
118.3613786384
 10
160.4959648212
 20
118.3605258186
  0
LINE
  5
477
100
AcDbEntity
  8
ASSI
100
AcDbLine
 62
250
  6
CONTINUOUS
 10
162.0666874127
 20
98.0292766797
 11
162.0675113192
 21
98.0139662438
  0
LINE
  5
478
100
AcDbEntity
  8
ASSI
100
AcDbLine
 62
250
  6
CONTINUOUS
 10
162.0651460254
 20
98.0621109953
 11
162.0666874127
 21
98.0292766797
  0
LINE
  5
479
100
AcDbEntity
  8
ASSI
100
AcDbLine
 62
250
  6
CONTINUOUS
 10
160.8863963084
 20
118.8736013901
 11
160.8862484813
 21
118.877596336
  0
LINE
  5
47A
100
AcDbEntity
  8
ASSI
100
AcDbLine
 62
250
  6
CONTINUOUS
 10
162.0675111926
 20
98.0139662437
 11
162.0922036487
 21
97.306866817
  0
LINE
  5
47B
100
AcDbEntity
  8
ASSI
100
AcDbLine
 62
250
  6
CONTINUOUS
 10
160.9457486371
 20
117.1466883497
 11
160.9456037183
 21
117.1506766367
  0
LWPOLYLINE
  5
47C
100
AcDbEntity
  8
ASSI
100
AcDbPolyline
 62
250
  6
CONTINUOUS
 90
3
 70
0
 10
162.0631000092
 20
98.1166412341
 10
162.0637405575
 20
98.0978368074
 10
162.0651460254
 20
98.0621109953
  0
LINE
  5
47D
100
AcDbEntity
  8
ASSI
100
AcDbLine
 62
250
  6
CONTINUOUS
 10
161.7660821913
 20
97.8520314983
 11
161.7927983153
 21
97.0818606141
  0
LINE
  5
47E
100
AcDbEntity
  8
ASSI
100
AcDbLine
 62
250
  6
CONTINUOUS
 10
160.6373676391
 20
118.6164636382
 11
160.637267713
 21
118.61999023
  0
LINE
  5
47F
100
AcDbEntity
  8
ASSI
100
AcDbLine
 62
250
  6
CONTINUOUS
 10
160.8862484813
 20
118.877596336
 11
160.8861180533
 21
118.8820475983
  0
LINE
  5
480
100
AcDbEntity
  8
ASSI
100
AcDbLine
 62
250
  6
CONTINUOUS
 10
160.9456037183
 20
117.1506766367
 11
160.9454759478
 21
117.1551068369
  0
LINE
  5
481
100
AcDbEntity
  8
ASSI
100
AcDbLine
 62
250
  6
CONTINUOUS
 10
161.7646089631
 20
97.9068600876
 11
161.7660821913
 21
97.8520314983
  0
LINE
  5
482
100
AcDbEntity
  8
ASSI
100
AcDbLine
 62
250
  6
CONTINUOUS
 10
161.7927983153
 20
97.0818606141
 11
161.793168579
 21
97.0680414366
  0
LINE
  5
483
100
AcDbEntity
  8
ASSI
100
AcDbLine
 62
250
  6
CONTINUOUS
 10
161.7929418038
 20
107.0421421806
 11
161.7933535213
 21
107.025426457
  0
LINE
  5
484
100
AcDbEntity
  8
ASSI
100
AcDbLine
 62
250
  6
CONTINUOUS
 10
160.8861180533
 20
118.8820475983
 11
160.8860063479
 21
118.8869099835
  0
LINE
  5
485
100
AcDbEntity
  8
ASSI
100
AcDbLine
 62
250
  6
CONTINUOUS
 10
160.9454759478
 20
117.1551068369
 11
160.9453665904
 21
117.159935029
  0
LINE
  5
486
100
AcDbEntity
  8
ASSI
100
AcDbLine
 62
250
  6
CONTINUOUS
 10
161.7626878167
 20
97.9970742201
 11
161.7646089631
 21
97.9068600876
  0
LINE
  5
487
100
AcDbEntity
  8
ASSI
100
AcDbLine
 62
250
  6
CONTINUOUS
 10
161.793168579
 20
97.0680414366
 11
161.7936426857
 21
97.0456711721
  0
LINE
  5
488
100
AcDbEntity
  8
ASSI
100
AcDbLine
 62
250
  6
CONTINUOUS
 10
161.7933535213
 20
107.025426457
 11
161.7937039291
 21
107.0075713646
  0
LINE
  5
489
100
AcDbEntity
  8
ASSI
100
AcDbLine
 62
250
  6
CONTINUOUS
 10
160.5539872134
 20
83.9008501851
 11
160.5541810228
 21
83.8908492334
  0
LINE
  5
48A
100
AcDbEntity
  8
ASSI
100
AcDbLine
 62
250
  6
CONTINUOUS
 10
160.637267713
 20
118.61999023
 11
160.6370739036
 21
118.6299911817
  0
LINE
  5
48B
100
AcDbEntity
  8
ASSI
100
AcDbLine
 62
250
  6
CONTINUOUS
 10
160.4946461891
 20
85.6270196411
 11
160.4948376694
 21
85.6166564881
  0
LINE
  5
48C
100
AcDbEntity
  8
ASSI
100
AcDbLine
 62
250
  6
CONTINUOUS
 10
160.6966087374
 20
116.893820774
 11
160.6964172571
 21
116.9041839271
  0
LINE
  5
48D
100
AcDbEntity
  8
ASSI
100
AcDbLine
 62
250
  6
CONTINUOUS
 10
160.6735196925
 20
80.901462595
 11
160.6360883873
 21
83.2001431278
  0
LINE
  5
48E
100
AcDbEntity
  8
ASSI
100
AcDbLine
 62
250
  6
CONTINUOUS
 10
160.517735234
 20
121.6193778201
 11
160.5551665392
 21
119.3206972873
  0
LINE
  5
48F
100
AcDbEntity
  8
ASSI
100
AcDbLine
 62
250
  6
CONTINUOUS
 10
160.8860063479
 20
118.8869099835
 11
160.8859151958
 21
118.8921113475
  0
LINE
  5
490
100
AcDbEntity
  8
ASSI
100
AcDbLine
 62
250
  6
CONTINUOUS
 10
160.9453665904
 20
117.159935029
 11
160.9452773892
 21
117.1650914773
  0
LINE
  5
491
100
AcDbEntity
  8
ASSI
100
AcDbLine
 62
250
  6
CONTINUOUS
 10
161.7936426857
 20
97.0456711721
 11
161.7940107751
 21
97.0217173512
  0
LINE
  5
492
100
AcDbEntity
  8
ASSI
100
AcDbLine
 62
250
  6
CONTINUOUS
 10
161.7611885116
 20
98.0945472245
 11
161.7626878167
 21
97.9970742201
  0
LINE
  5
493
100
AcDbEntity
  8
ASSI
100
AcDbLine
 62
250
  6
CONTINUOUS
 10
160.2754950892
 20
121.0465379774
 11
160.3053828866
 21
119.2105523043
  0
LINE
  5
494
100
AcDbEntity
  8
ASSI
100
AcDbLine
 62
250
  6
CONTINUOUS
 10
160.9157598372
 20
81.4743024378
 11
160.8858720398
 21
83.3102881108
  0
LINE
  5
495
100
AcDbEntity
  8
ASSI
100
AcDbLine
 62
250
  6
CONTINUOUS
 10
161.7937039291
 20
107.0075713646
 11
161.7941053216
 21
106.9791131449
  0
LINE
  5
496
100
AcDbEntity
  8
ASSI
100
AcDbLine
 62
250
  6
CONTINUOUS
 10
160.3053397307
 20
83.6287290676
 11
160.3054090865
 21
83.6232696349
  0
LINE
  5
497
100
AcDbEntity
  8
ASSI
100
AcDbLine
 62
250
  6
CONTINUOUS
 10
160.8859151958
 20
118.8921113475
 11
160.8858458399
 21
118.8975707803
  0
LINE
  5
498
100
AcDbEntity
  8
ASSI
100
AcDbLine
 62
250
  6
CONTINUOUS
 10
160.9452773892
 20
117.1650914773
 11
160.9452095378
 21
117.1704976642
  0
LINE
  5
499
100
AcDbEntity
  8
ASSI
100
AcDbLine
 62
250
  6
CONTINUOUS
 10
160.5541810228
 20
83.8908492334
 11
160.5544566294
 21
83.8687488607
  0
LINE
  5
49A
100
AcDbEntity
  8
ASSI
100
AcDbLine
 62
250
  6
CONTINUOUS
 10
160.6370739036
 20
118.6299911817
 11
160.636798297
 21
118.6520915545
  0
LINE
  5
49B
100
AcDbEntity
  8
ASSI
100
AcDbLine
 62
250
  6
CONTINUOUS
 10
160.4948376694
 20
85.6166564881
 11
160.4951091439
 21
85.5942112345
  0
LINE
  5
49C
100
AcDbEntity
  8
ASSI
100
AcDbLine
 62
250
  6
CONTINUOUS
 10
160.6964172571
 20
116.9041839271
 11
160.6961457825
 21
116.9266291806
  0
LINE
  5
49D
100
AcDbEntity
  8
ASSI
100
AcDbLine
 62
250
  6
CONTINUOUS
 10
161.7940107751
 20
97.0217173512
 11
161.7942664708
 21
96.9965945296
  0
LINE
  5
49E
100
AcDbEntity
  8
ASSI
100
AcDbLine
 62
250
  6
CONTINUOUS
 10
161.7601579687
 20
98.1964263493
 11
161.7611885116
 21
98.0945472245
  0
LINE
  5
49F
100
AcDbEntity
  8
ASSI
100
AcDbLine
 62
250
  6
CONTINUOUS
 10
160.3053828866
 20
119.2105523043
 11
160.305449694
 21
119.2035444072
  0
LINE
  5
4A0
100
AcDbEntity
  8
ASSI
100
AcDbLine
 62
250
  6
CONTINUOUS
 10
160.8858720398
 20
83.3102881108
 11
160.8858052324
 21
83.317296008
  0
LINE
  5
4A1
100
AcDbEntity
  8
ASSI
100
AcDbLine
 62
250
  6
CONTINUOUS
 10
160.2460142033
 20
85.3530741392
 11
160.2460912234
 21
85.3447411717
  0
LINE
  5
4A2
100
AcDbEntity
  8
ASSI
100
AcDbLine
 62
250
  6
CONTINUOUS
 10
161.7941053216
 20
106.9791131449
 11
161.7943499198
 21
106.9492355859
  0
LINE
  5
4A3
100
AcDbEntity
  8
ASSI
100
AcDbLine
 62
250
  6
CONTINUOUS
 10
160.3054090865
 20
83.6232696349
 11
160.305470582
 21
83.614745183
  0
LINE
  5
4A4
100
AcDbEntity
  8
ASSI
100
AcDbLine
 62
250
  6
CONTINUOUS
 10
160.4951091439
 20
85.5942112345
 11
160.4955651141
 21
85.5272073704
  0
LINE
  5
4A5
100
AcDbEntity
  8
ASSI
100
AcDbLine
 62
250
  6
CONTINUOUS
 10
160.5544566294
 20
83.8687488607
 11
160.5549216633
 21
83.8017702935
  0
LINE
  5
4A6
100
AcDbEntity
  8
ASSI
100
AcDbLine
 62
250
  6
CONTINUOUS
 10
160.636798297
 20
118.6520915545
 11
160.6363332631
 21
118.7190701216
  0
LINE
  5
4A7
100
AcDbEntity
  8
ASSI
100
AcDbLine
 62
250
  6
CONTINUOUS
 10
160.6961457825
 20
116.9266291806
 11
160.6956898123
 21
116.9936330448
  0
LINE
  5
4A8
100
AcDbEntity
  8
ASSI
100
AcDbLine
 62
250
  6
CONTINUOUS
 10
160.8858458399
 20
118.8975707803
 11
160.8857843445
 21
118.9060952321
  0
LINE
  5
4A9
100
AcDbEntity
  8
ASSI
100
AcDbLine
 62
250
  6
CONTINUOUS
 10
160.9452095378
 20
117.1704976642
 11
160.9451493917
 21
117.1789315176
  0
LINE
  5
4AA
100
AcDbEntity
  8
ASSI
100
AcDbLine
 62
250
  6
CONTINUOUS
 10
161.7942664708
 20
96.9965945296
 11
161.7944053866
 21
96.9707561425
  0
LINE
  5
4AB
100
AcDbEntity
  8
ASSI
100
AcDbLine
 62
250
  6
CONTINUOUS
 10
161.7596108747
 20
98.2994642607
 11
161.7601579687
 21
98.1964263493
  0
LINE
  5
4AC
100
AcDbEntity
  8
ASSI
100
AcDbLine
 62
250
  6
CONTINUOUS
 10
160.305449694
 20
119.2035444072
 11
160.305480343
 21
119.1963424792
  0
LINE
  5
4AD
100
AcDbEntity
  8
ASSI
100
AcDbLine
 62
250
  6
CONTINUOUS
 10
160.8858052324
 20
83.317296008
 11
160.8857745834
 21
83.324497936
  0
LINE
  5
4AE
100
AcDbEntity
  8
ASSI
100
AcDbLine
 62
250
  6
CONTINUOUS
 10
160.2460912234
 20
85.3447411717
 11
160.2461171145
 21
85.3361624216
  0
LINE
  5
4AF
100
AcDbEntity
  8
ASSI
100
AcDbLine
 62
250
  6
CONTINUOUS
 10
161.7943499198
 20
106.9492355859
 11
161.7944320119
 21
106.9186606558
  0
LINE
  5
4B0
100
AcDbEntity
  8
ASSI
100
AcDbLine
 62
250
  6
CONTINUOUS
 10
160.5549216633
 20
83.8017702935
 11
160.5553271039
 21
83.6263681032
  0
LINE
  5
4B1
100
AcDbEntity
  8
ASSI
100
AcDbLine
 62
250
  6
CONTINUOUS
 10
160.6363332631
 20
118.7190701216
 11
160.6359278225
 21
118.894472312
  0
LINE
  5
4B2
100
AcDbEntity
  8
ASSI
100
AcDbLine
 62
250
  6
CONTINUOUS
 10
160.4955651141
 20
85.5272073704
 11
160.4959648212
 21
85.3361624216
  0
LINE
  5
4B3
100
AcDbEntity
  8
ASSI
100
AcDbLine
 62
250
  6
CONTINUOUS
 10
160.6956898123
 20
116.9936330448
 11
160.6952901052
 21
117.1846779936
  0
LINE
  5
4B4
100
AcDbEntity
  8
ASSI
100
AcDbLine
 62
250
  6
CONTINUOUS
 10
160.2461171145
 20
85.3361624216
 11
160.2461171145
 21
83.9506452998
  0
LINE
  5
4B5
100
AcDbEntity
  8
ASSI
100
AcDbLine
 62
7
  6
CONTINUOUS
 10
160.2754950892
 20
80.6945970489
 11
160.2754950892
 21
81.4743024378
  0
LINE
  5
4B6
100
AcDbEntity
  8
ASSI
100
AcDbLine
 62
7
  6
CONTINUOUS
 10
160.2754950892
 20
121.0465379774
 11
160.2754950892
 21
121.8262433662
  0
LINE
  5
4B7
100
AcDbEntity
  8
ASSI
100
AcDbLine
 62
250
  6
CONTINUOUS
 10
160.4959648212
 20
85.3361624216
 11
160.4959648212
 21
84.1603145966
  0
LINE
  5
4B8
100
AcDbEntity
  8
ASSI
100
AcDbLine
 62
250
  6
CONTINUOUS
 10
160.6952901052
 20
117.1846779936
 11
160.6952901052
 21
118.3605258186
  0
LINE
  5
4B9
100
AcDbEntity
  8
ASSI
100
AcDbLine
 62
7
  6
CONTINUOUS
 10
160.9157598372
 20
121.8262433662
 11
160.9157598372
 21
121.0465379774
  0
LINE
  5
4BA
100
AcDbEntity
  8
ASSI
100
AcDbLine
 62
7
  6
CONTINUOUS
 10
160.9157598372
 20
81.4743024378
 11
160.9157598372
 21
80.6945970489
  0
LINE
  5
4BB
100
AcDbEntity
  8
ASSI
100
AcDbLine
 62
250
  6
CONTINUOUS
 10
160.9451493917
 20
117.1789315176
 11
160.9451378119
 21
118.5701951154
  0
LINE
  5
4BC
100
AcDbEntity
  8
ASSI
100
AcDbLine
 62
250
  6
CONTINUOUS
 10
161.7595112424
 20
99.9743039867
 11
161.7596108747
 21
98.2994642607
  0
LINE
  5
4BD
100
AcDbEntity
  8
ASSI
100
AcDbLine
 62
250
  6
CONTINUOUS
 10
160.305470582
 20
83.614745183
 11
160.305480343
 21
83.3244979357
  0
LINE
  5
4BE
100
AcDbEntity
  8
ASSI
100
AcDbLine
 62
250
  6
CONTINUOUS
 10
160.8857843445
 20
118.9060952321
 11
160.8857745834
 21
119.1963424794
  0
LINE
  5
4BF
100
AcDbEntity
  8
ASSI
100
AcDbLine
 62
250
  6
CONTINUOUS
 10
161.7944053866
 20
96.9707561425
 11
161.7944227041
 21
95.5919106302
  0
LINE
  5
4C0
100
AcDbEntity
  8
ASSI
100
AcDbLine
 62
250
  6
CONTINUOUS
 10
160.5551665392
 20
119.3206972873
 11
160.5552568552
 21
118.8258816284
  0
LINE
  5
4C1
100
AcDbEntity
  8
ASSI
100
AcDbLine
 62
250
  6
CONTINUOUS
 10
160.6360883873
 20
83.2001431278
 11
160.6359980713
 21
83.6949587867
  0
LINE
  5
4C2
100
AcDbEntity
  8
ASSI
100
AcDbLine
 62
250
  6
CONTINUOUS
 10
160.6359278225
 20
118.894472312
 11
160.6360883873
 21
119.3206972873
  0
LINE
  5
4C3
100
AcDbEntity
  8
ASSI
100
AcDbLine
 62
250
  6
CONTINUOUS
 10
160.5553271039
 20
83.6263681032
 11
160.5551665392
 21
83.2001431278
  0
LINE
  5
4C4
100
AcDbEntity
  8
ASSI
100
AcDbLine
 62
250
  6
CONTINUOUS
 10
160.2461171145
 20
118.5701951154
 11
160.2461055348
 21
117.1789315176
  0
LINE
  5
4C5
100
AcDbEntity
  8
ASSI
100
AcDbLine
 62
250
  6
CONTINUOUS
 10
160.305480343
 20
119.1963424792
 11
160.305470582
 21
118.9060952321
  0
LINE
  5
4C6
100
AcDbEntity
  8
ASSI
100
AcDbLine
 62
250
  6
CONTINUOUS
 10
160.8857745834
 20
83.324497936
 11
160.8857843445
 21
83.614745183
  0
LINE
  5
4C7
100
AcDbEntity
  8
ASSI
100
AcDbLine
 62
250
  6
CONTINUOUS
 10
160.9451378119
 20
83.9506452998
 11
160.9451493917
 21
85.3419088975
  0
LINE
  5
4C8
100
AcDbEntity
  8
ASSI
100
AcDbLine
 62
250
  6
CONTINUOUS
 10
161.7597403004
 20
104.2555491911
 11
161.7595112424
 21
102.5465364284
  0
LINE
  5
4C9
100
AcDbEntity
  8
ASSI
100
AcDbLine
 62
250
  6
CONTINUOUS
 10
161.7944320119
 20
106.9186606558
 11
161.7943723226
 21
105.5414347156
  0
LINE
  5
4CA
100
AcDbEntity
  8
ASSI
100
AcDbLine
 62
250
  6
CONTINUOUS
 10
160.4959648212
 20
118.3605258186
 11
160.4956267514
 21
117.007250514
  0
LINE
  5
4CB
100
AcDbEntity
  8
ASSI
100
AcDbLine
 62
250
  6
CONTINUOUS
 10
160.6952901052
 20
84.1603145966
 11
160.6956281751
 21
85.5135899012
  0
LINE
  5
4CC
100
AcDbEntity
  8
ASSI
100
AcDbLine
 62
250
  6
CONTINUOUS
 10
160.5552568552
 20
118.8258816284
 11
160.5547821289
 21
118.6936911052
  0
LINE
  5
4CD
100
AcDbEntity
  8
ASSI
100
AcDbLine
 62
250
  6
CONTINUOUS
 10
160.6359980713
 20
83.6949587867
 11
160.6364727975
 21
83.8271493099
  0
LINE
  5
4CE
100
AcDbEntity
  8
ASSI
100
AcDbLine
 62
250
  6
CONTINUOUS
 10
160.305480343
 20
83.3244979357
 11
160.305449694
 21
83.3172960074
  0
LINE
  5
4CF
100
AcDbEntity
  8
ASSI
100
AcDbLine
 62
250
  6
CONTINUOUS
 10
160.8857745834
 20
119.1963424794
 11
160.8858052324
 21
119.2035444078
  0
LINE
  5
4D0
100
AcDbEntity
  8
ASSI
100
AcDbLine
 62
250
  6
CONTINUOUS
 10
161.7944227041
 20
95.5919106302
 11
161.7942862318
 21
95.5615414176
  0
LINE
  5
4D1
100
AcDbEntity
  8
ASSI
100
AcDbLine
 62
250
  6
CONTINUOUS
 10
160.4956267514
 20
117.007250514
 11
160.495193965
 21
116.9358549547
  0
LINE
  5
4D2
100
AcDbEntity
  8
ASSI
100
AcDbLine
 62
250
  6
CONTINUOUS
 10
160.6956281751
 20
85.5135899012
 11
160.6960609614
 21
85.5849854605
  0
LINE
  5
4D3
100
AcDbEntity
  8
ASSI
100
AcDbLine
 62
250
  6
CONTINUOUS
 10
161.7604470158
 20
104.3586350637
 11
161.7597403004
 21
104.2555491911
  0
LINE
  5
4D4
100
AcDbEntity
  8
ASSI
100
AcDbLine
 62
250
  6
CONTINUOUS
 10
161.7943723226
 20
105.5414347156
 11
161.7941941253
 21
105.5157732502
  0
LINE
  5
4D5
100
AcDbEntity
  8
ASSI
100
AcDbLine
 62
250
  6
CONTINUOUS
 10
160.2461055348
 20
117.1789315176
 11
160.2460453886
 21
117.1704976642
  0
LINE
  5
4D6
100
AcDbEntity
  8
ASSI
100
AcDbLine
 62
250
  6
CONTINUOUS
 10
160.9451493917
 20
85.3419088975
 11
160.9452095378
 21
85.3503427509
  0
LINE
  5
4D7
100
AcDbEntity
  8
ASSI
100
AcDbLine
 62
250
  6
CONTINUOUS
 10
160.305470582
 20
118.9060952321
 11
160.3054090865
 21
118.8975707803
  0
LINE
  5
4D8
100
AcDbEntity
  8
ASSI
100
AcDbLine
 62
250
  6
CONTINUOUS
 10
160.8857843445
 20
83.614745183
 11
160.8858458399
 21
83.6232696349
  0
LINE
  5
4D9
100
AcDbEntity
  8
ASSI
100
AcDbLine
 62
250
  6
CONTINUOUS
 10
160.5547821289
 20
118.6936911052
 11
160.5543673539
 21
118.6438085843
  0
LINE
  5
4DA
100
AcDbEntity
  8
ASSI
100
AcDbLine
 62
250
  6
CONTINUOUS
 10
160.6364727975
 20
83.8271493099
 11
160.6368875725
 21
83.8770318309
  0
LINE
  5
4DB
100
AcDbEntity
  8
ASSI
100
AcDbLine
 62
250
  6
CONTINUOUS
 10
160.305449694
 20
83.3172960074
 11
160.3053828866
 21
83.3102881105
  0
LINE
  5
4DC
100
AcDbEntity
  8
ASSI
100
AcDbLine
 62
250
  6
CONTINUOUS
 10
160.8858052324
 20
119.2035444078
 11
160.8858720398
 21
119.2105523047
  0
LINE
  5
4DD
100
AcDbEntity
  8
ASSI
100
AcDbLine
 62
250
  6
CONTINUOUS
 10
161.7942862318
 20
95.5615414176
 11
161.7939885957
 21
95.5320585283
  0
LINE
  5
4DE
100
AcDbEntity
  8
ASSI
100
AcDbLine
 62
250
  6
CONTINUOUS
 10
160.495193965
 20
116.9358549547
 11
160.4949304699
 21
116.9107673502
  0
LINE
  5
4DF
100
AcDbEntity
  8
ASSI
100
AcDbLine
 62
250
  6
CONTINUOUS
 10
160.6960609614
 20
85.5849854605
 11
160.6963244565
 21
85.610073065
  0
LINE
  5
4E0
100
AcDbEntity
  8
ASSI
100
AcDbLine
 62
250
  6
CONTINUOUS
 10
161.7616368197
 20
104.4593930374
 11
161.7604470158
 21
104.3586350637
  0
LINE
  5
4E1
100
AcDbEntity
  8
ASSI
100
AcDbLine
 62
250
  6
CONTINUOUS
 10
161.7941941253
 20
105.5157732502
 11
161.7939004051
 21
105.4909923999
  0
LINE
  5
4E2
100
AcDbEntity
  8
ASSI
100
AcDbLine
 62
250
  6
CONTINUOUS
 10
160.2460453886
 20
117.1704976642
 11
160.2459775372
 21
117.1650914773
  0
LINE
  5
4E3
100
AcDbEntity
  8
ASSI
100
AcDbLine
 62
250
  6
CONTINUOUS
 10
160.9452095378
 20
85.3503427509
 11
160.9452773892
 21
85.3557489379
  0
LWPOLYLINE
  5
4E4
100
AcDbEntity
  8
ASSI
100
AcDbPolyline
 62
250
  6
CONTINUOUS
 90
3
 70
0
 10
160.3054090865
 20
118.8975707803
 10
160.3053397307
 20
118.8921113475
 10
160.3052967105
 20
118.8894685002
  0
LINE
  5
4E5
100
AcDbEntity
  8
ASSI
100
AcDbLine
 62
250
  6
CONTINUOUS
 10
160.8858458399
 20
83.6232696349
 11
160.8859151958
 21
83.6287290676
  0
LINE
  5
4E6
100
AcDbEntity
  8
ASSI
100
AcDbLine
 62
250
  6
CONTINUOUS
 10
160.5543673539
 20
118.6438085843
 11
160.5541810228
 21
118.6299911817
  0
LINE
  5
4E7
100
AcDbEntity
  8
ASSI
100
AcDbLine
 62
250
  6
CONTINUOUS
 10
160.6368875725
 20
83.8770318309
 11
160.6370739036
 21
83.8908492335
  0
LINE
  5
4E8
100
AcDbEntity
  8
ASSI
100
AcDbLine
 62
250
  6
CONTINUOUS
 10
160.6360883873
 20
119.3206972873
 11
160.6735196925
 21
121.6193778201
  0
LINE
  5
4E9
100
AcDbEntity
  8
ASSI
100
AcDbLine
 62
250
  6
CONTINUOUS
 10
160.8858720398
 20
119.2105523047
 11
160.9157598372
 21
121.0465379774
  0
LINE
  5
4EA
100
AcDbEntity
  8
ASSI
100
AcDbLine
 62
250
  6
CONTINUOUS
 10
160.3053828866
 20
83.3102881105
 11
160.2754950892
 21
81.4743024378
  0
LINE
  5
4EB
100
AcDbEntity
  8
ASSI
100
AcDbLine
 62
250
  6
CONTINUOUS
 10
160.5551665392
 20
83.2001431278
 11
160.517735234
 21
80.901462595
  0
LWPOLYLINE
  5
4EC
100
AcDbEntity
  8
ASSI
100
AcDbPolyline
 62
250
  6
CONTINUOUS
 90
7
 70
0
 10
160.4949304699
 20
116.9107673502
 10
160.49474292
 20
116.8985287881
 10
160.4946461891
 20
116.893820774
 10
160.4945483611
 20
116.8900756776
 10
160.4944497309
 20
116.8873057243
 10
160.4943500037
 20
116.8855197563
 10
160.4942491795
 20
116.8847234562
  0
LWPOLYLINE
  5
4ED
100
AcDbEntity
  8
ASSI
100
AcDbPolyline
 62
250
  6
CONTINUOUS
 90
7
 70
0
 10
160.6963244565
 20
85.610073065
 10
160.6965120065
 20
85.6223116271
 10
160.6966087374
 20
85.6270196412
 10
160.6967065653
 20
85.6307647376
 10
160.6968051955
 20
85.6335346909
 10
160.6969049227
 20
85.6353206589
 10
160.697005747
 20
85.636116959
  0
LINE
  5
4EE
100
AcDbEntity
  8
ASSI
100
AcDbLine
 62
250
  6
CONTINUOUS
 10
160.9452773892
 20
85.3557489379
 11
160.9453665904
 21
85.3609053861
  0
LINE
  5
4EF
100
AcDbEntity
  8
ASSI
100
AcDbLine
 62
250
  6
CONTINUOUS
 10
160.8859151958
 20
83.6287290676
 11
160.8860063479
 21
83.6339304317
  0
LINE
  5
4F0
100
AcDbEntity
  8
ASSI
100
AcDbLine
 62
250
  6
CONTINUOUS
 10
161.7632831217
 20
104.5547520755
 11
161.7616368197
 21
104.4593930374
  0
LINE
  5
4F1
100
AcDbEntity
  8
ASSI
100
AcDbLine
 62
250
  6
CONTINUOUS
 10
161.7939004051
 20
105.4909923999
 11
161.7934961928
 21
105.4675211058
  0
LWPOLYLINE
  5
4F2
100
AcDbEntity
  8
ASSI
100
AcDbPolyline
 62
250
  6
CONTINUOUS
 90
3
 70
0
 10
160.5541810228
 20
118.6299911817
 10
160.5539872134
 20
118.61999023
 10
160.5538872873
 20
118.6164636382
  0
LWPOLYLINE
  5
4F3
100
AcDbEntity
  8
ASSI
100
AcDbPolyline
 62
250
  6
CONTINUOUS
 90
3
 70
0
 10
160.6370739036
 20
83.8908492335
 10
160.637267713
 20
83.9008501851
 10
160.6373676391
 20
83.9043767769
  0
LINE
  5
4F4
100
AcDbEntity
  8
ASSI
100
AcDbLine
 62
250
  6
CONTINUOUS
 10
161.7934961928
 20
105.4675211058
 11
161.793168579
 21
105.4527989784
  0
LINE
  5
4F5
100
AcDbEntity
  8
ASSI
100
AcDbLine
 62
250
  6
CONTINUOUS
 10
161.7646089631
 20
104.6139803287
 11
161.7632831217
 21
104.5547520755
  0
LINE
  5
4F6
100
AcDbEntity
  8
ASSI
100
AcDbLine
 62
250
  6
CONTINUOUS
 10
160.9453665904
 20
85.3609053861
 11
160.9454759478
 21
85.3657335783
  0
LINE
  5
4F7
100
AcDbEntity
  8
ASSI
100
AcDbLine
 62
250
  6
CONTINUOUS
 10
160.8860063479
 20
83.6339304317
 11
160.8861180533
 21
83.6387928169
  0
LWPOLYLINE
  5
4F8
100
AcDbEntity
  8
ASSI
100
AcDbPolyline
 62
7
  6
CONTINUOUS
 90
28
 70
0
 10
161.0012476562
 20
117.107496756
 10
161.0008452208
 20
117.0930293793
 10
160.9996029807
 20
117.078578886
 10
160.997519597
 20
117.0641943074
 10
160.9945917351
 20
117.04990398
 10
160.9908263034
 20
117.0357790769
 10
160.9862526351
 20
117.0219301802
 10
160.9809055219
 20
117.0084347612
 10
160.974798276
 20
116.995302652
 10
160.9679362683
 20
116.9825406313
 10
160.9603406127
 20
116.970191053
 10
160.9520363338
 20
116.9582974095
 10
160.9430269487
 20
116.9468728509
 10
160.9333084614
 20
116.9359306239
 10
160.9229332139
 20
116.9255467196
 10
160.9119992256
 20
116.9158192794
 10
160.9005819056
 20
116.90680025
 10
160.8886950218
 20
116.8984860745
 10
160.8763534473
 20
116.8908813506
 10
160.8636012335
 20
116.8840109905
 10
160.8504804835
 20
116.8778955274
 10
160.8369986841
 20
116.872540294
 10
160.8231673804
 20
116.8679585772
 10
160.8090624891
 20
116.8641840347
 10
160.7947901633
 20
116.8612449271
 10
160.7804198792
 20
116.8591483259
 10
160.7659812396
 20
116.8578914522
 10
160.7515231353
 20
116.8574732581
  0
LWPOLYLINE
  5
4F9
100
AcDbEntity
  8
ASSI
100
AcDbPolyline
 62
7
  6
CONTINUOUS
 90
28
 70
0
 10
160.1900072702
 20
85.4133436591
 10
160.1904097057
 20
85.4278110358
 10
160.1916519458
 20
85.4422615291
 10
160.1937353294
 20
85.4566461078
 10
160.1966631914
 20
85.4709364352
 10
160.200428623
 20
85.4850613383
 10
160.2050022913
 20
85.4989102349
 10
160.2103494046
 20
85.512405654
 10
160.2164566505
 20
85.5255377632
 10
160.2233186581
 20
85.5382997838
 10
160.2309143137
 20
85.5506493622
 10
160.2392185926
 20
85.5625430056
 10
160.2482279777
 20
85.5739675643
 10
160.257946465
 20
85.5849097913
 10
160.2683217126
 20
85.5952936956
 10
160.2792557009
 20
85.6050211357
 10
160.2906730208
 20
85.6140401652
 10
160.3025599047
 20
85.6223543406
 10
160.3149014792
 20
85.6299590646
 10
160.3276536929
 20
85.6368294246
 10
160.3407744429
 20
85.6429448877
 10
160.3542562424
 20
85.6483001212
 10
160.3680875461
 20
85.6528818379
 10
160.3821924373
 20
85.6566563804
 10
160.3964647631
 20
85.6595954881
 10
160.4108350473
 20
85.6616920893
 10
160.4252736868
 20
85.662948963
 10
160.4397317911
 20
85.6633671571
  0
LINE
  5
4FA
100
AcDbEntity
  8
ASSI
100
AcDbLine
 62
250
  6
CONTINUOUS
 10
161.7660821913
 20
104.6688089189
 11
161.7646089631
 21
104.6139803287
  0
LINE
  5
4FB
100
AcDbEntity
  8
ASSI
100
AcDbLine
 62
250
  6
CONTINUOUS
 10
161.793168579
 20
105.4527989784
 11
161.7927983153
 21
105.4389798009
  0
LWPOLYLINE
  5
4FC
100
AcDbEntity
  8
ASSI
100
AcDbPolyline
 62
7
  6
CONTINUOUS
 90
28
 70
0
 10
161.7324338392
 20
107.1737965835
 10
161.7329419812
 20
107.1911252064
 10
161.7344555418
 20
107.2084370471
 10
161.7369767777
 20
107.2256734298
 10
161.7405107725
 20
107.2428018413
 10
161.7450496335
 20
107.2597354274
 10
161.7505570421
 20
107.2763373208
 10
161.7569905616
 20
107.2925134129
 10
161.7643345977
 20
107.3082533425
 10
161.7725824125
 20
107.3235489064
 10
161.7817084452
 20
107.3383492485
 10
161.7916826955
 20
107.3526025772
 10
161.8025010637
 20
107.3662936921
 10
161.814167922
 20
107.3794063318
 10
161.8266208604
 20
107.39185004
 10
161.8397440075
 20
107.4035089052
 10
161.853447803
 20
107.4143208595
 10
161.8677154887
 20
107.4242893591
 10
161.8825294969
 20
107.4334087403
 10
161.8978370804
 20
107.4416487294
 10
161.9135880323
 20
107.4489844166
 10
161.9297739415
 20
107.4554093025
 10
161.9463831589
 20
107.4609075874
 10
161.9633226933
 20
107.46543755
 10
161.9804592788
 20
107.4689638613
 10
161.9977073768
 20
107.4714783585
 10
162.0150333125
 20
107.4729853195
 10
162.0323783867
 20
107.4734865322
  0
LINE
  5
4FD
100
AcDbEntity
  8
ASSI
100
AcDbLine
 62
250
  6
CONTINUOUS
 10
160.9454759478
 20
85.3657335783
 11
160.9456037183
 21
85.3701637785
  0
LINE
  5
4FE
100
AcDbEntity
  8
ASSI
100
AcDbLine
 62
250
  6
CONTINUOUS
 10
160.8861180533
 20
83.6387928169
 11
160.8862484813
 21
83.6432440792
  0
LINE
  5
4FF
100
AcDbEntity
  8
ASSI
100
AcDbLine
 62
250
  6
CONTINUOUS
 10
161.7676936876
 20
104.7189988513
 11
161.7660821913
 21
104.6688089189
  0
LINE
  5
500
100
AcDbEntity
  8
ASSI
100
AcDbLine
 62
250
  6
CONTINUOUS
 10
161.7927983153
 20
105.4389798009
 11
161.7676936876
 21
104.7189988513
  0
LWPOLYLINE
  5
501
100
AcDbEntity
  8
ASSI
100
AcDbPolyline
 62
250
  6
CONTINUOUS
 90
14
 70
0
 10
160.9456037183
 20
85.3701637785
 10
160.9457486371
 20
85.3741520654
 10
160.9458267568
 20
85.375956547
 10
160.9459086259
 20
85.3776354518
 10
160.9459934338
 20
85.3791722052
 10
160.9460812096
 20
85.3805653797
 10
160.9461719243
 20
85.381816403
 10
160.9462646803
 20
85.3829129837
 10
160.9463595084
 20
85.3838536092
 10
160.9464563779
 20
85.3846397921
 10
160.9465542986
 20
85.3852637786
 10
160.9466529404
 20
85.3857229842
 10
160.9467526335
 20
85.3860199934
 10
160.9468533778
 20
85.3861548064
  0
LWPOLYLINE
  5
502
100
AcDbEntity
  8
ASSI
100
AcDbPolyline
 62
250
  6
CONTINUOUS
 90
11
 70
0
 10
160.8862484813
 20
83.6432440792
 10
160.8863963084
 20
83.6472390251
 10
160.8864759416
 20
83.6490408289
 10
160.8865593632
 20
83.6507131085
 10
160.8866457289
 20
83.6522390538
 10
160.8867350799
 20
83.6536172558
 10
160.886827375
 20
83.6548491235
 10
160.886921646
 20
83.655922074
 10
160.8870175701
 20
83.6568319129
 10
160.8871154701
 20
83.6575828344
 10
160.8872153459
 20
83.6581748387
  0
LINE
  5
503
100
AcDbEntity
  8
ASSI
100
AcDbLine
 62
7
  6
CONTINUOUS
 10
162.5599854063
 20
102.5747781506
 11
162.531743684
 21
102.5465364284
  0
LINE
  5
504
100
AcDbEntity
  8
ASSI
100
AcDbLine
 62
7
  6
CONTINUOUS
 10
161.7312695202
 20
99.9460622645
 11
161.7595112424
 21
99.9743039867
  0
LINE
  5
505
100
AcDbEntity
  8
ASSI
100
AcDbLine
 62
7
  6
CONTINUOUS
 10
164.8787505642
 20
111.5604202076
 11
164.4956274632
 21
111.5604202076
  0
LINE
  5
506
100
AcDbEntity
  8
ASSI
100
AcDbLine
 62
7
  6
CONTINUOUS
 10
145.4956274632
 20
111.5604202076
 11
145.1125043623
 21
111.5604202076
  0
LINE
  5
507
100
AcDbEntity
  8
ASSI
100
AcDbLine
 62
250
  6
CONTINUOUS
 10
161.7324338392
 20
107.1737965835
 11
161.7876916014
 21
107.1185388213
  0
LWPOLYLINE
  5
508
100
AcDbEntity
  8
ASSI
100
AcDbPolyline
 62
250
  6
CONTINUOUS
 90
8
 70
0
 10
162.2037462865
 20
95.1024838185
 10
162.2033878759
 20
95.1040306945
 10
162.2030329011
 20
95.1068829725
 10
162.202681362
 20
95.111033249
 10
162.2023323773
 20
95.116470697
 10
162.2019868284
 20
95.1231811488
 10
162.2016473592
 20
95.1311471781
 10
162.2013139737
 20
95.1403481865
  0
LINE
  5
509
100
AcDbEntity
  8
ASSI
100
AcDbLine
 62
250
  6
CONTINUOUS
 10
164.6844641371
 20
80.5917250768
 11
164.6328607663
 21
80.9547198439
  0
LINE
  5
50A
100
AcDbEntity
  8
ASSI
100
AcDbLine
 62
250
  6
CONTINUOUS
 10
164.884372955
 20
80.7906614392
 11
164.8328303061
 21
81.1532290684
  0
LINE
  5
50B
100
AcDbEntity
  8
ASSI
100
AcDbLine
 62
250
  6
CONTINUOUS
 10
162.2245675138
 20
104.4915637355
 11
162.2237436072
 21
104.5068741714
  0
LINE
  5
50C
100
AcDbEntity
  8
ASSI
100
AcDbLine
 62
250
  6
CONTINUOUS
 10
162.226108901
 20
104.4587294198
 11
162.2245675138
 21
104.4915637355
  0
LINE
  5
50D
100
AcDbEntity
  8
ASSI
100
AcDbLine
 62
250
  6
CONTINUOUS
 10
161.7916704391
 20
107.0779673299
 11
161.7922172613
 21
107.0647621957
  0
LINE
  5
50E
100
AcDbEntity
  8
ASSI
100
AcDbLine
 62
250
  6
CONTINUOUS
 10
162.4995844873
 20
95.4428730853
 11
162.4990376651
 21
95.4560782195
  0
LINE
  5
50F
100
AcDbEntity
  8
ASSI
100
AcDbLine
 62
250
  6
CONTINUOUS
 10
162.2275143689
 20
104.4230036078
 11
162.226108901
 21
104.4587294198
  0
LINE
  5
510
100
AcDbEntity
  8
ASSI
100
AcDbLine
 62
250
  6
CONTINUOUS
 10
162.2237437339
 20
104.5068741714
 11
162.1990512778
 21
105.2139735982
  0
LWPOLYLINE
  5
511
100
AcDbEntity
  8
ASSI
100
AcDbPolyline
 62
250
  6
CONTINUOUS
 90
3
 70
0
 10
161.7922172613
 20
107.0647621957
 10
161.7927134761
 20
107.0500466566
 10
161.7929418038
 20
107.0421421806
  0
LINE
  5
512
100
AcDbEntity
  8
ASSI
100
AcDbLine
 62
250
  6
CONTINUOUS
 10
162.4990376651
 20
95.4560782195
 11
162.4985414503
 21
95.4707937585
  0
LINE
  5
513
100
AcDbEntity
  8
ASSI
100
AcDbLine
 62
250
  6
CONTINUOUS
 10
162.2287501135
 20
104.3848299954
 11
162.2275143689
 21
104.4230036078
  0
LINE
  5
514
100
AcDbEntity
  8
ASSI
100
AcDbLine
 62
250
  6
CONTINUOUS
 10
162.5251727351
 20
104.6688089168
 11
162.4984566111
 21
105.438979801
  0
LINE
  5
515
100
AcDbEntity
  8
ASSI
100
AcDbLine
 62
250
  6
CONTINUOUS
 10
162.0619540647
 20
98.1559118234
 11
162.0631000092
 21
98.1166412341
  0
LINE
  5
516
100
AcDbEntity
  8
ASSI
100
AcDbLine
 62
250
  6
CONTINUOUS
 10
162.2013139737
 20
95.1403481865
 11
162.2006680737
 21
95.1623550162
  0
LINE
  5
517
100
AcDbEntity
  8
ASSI
100
AcDbLine
 62
250
  6
CONTINUOUS
 10
162.0899409527
 20
107.3804922286
 11
162.0905868528
 21
107.358485399
  0
LINE
  5
518
100
AcDbEntity
  8
ASSI
100
AcDbLine
 62
250
  6
CONTINUOUS
 10
162.4985414503
 20
95.4707937585
 11
162.4980997346
 21
95.4869042044
  0
LINE
  5
519
100
AcDbEntity
  8
ASSI
100
AcDbLine
 62
250
  6
CONTINUOUS
 10
162.5266459633
 20
104.6139803276
 11
162.5251727351
 21
104.6688089168
  0
LINE
  5
51A
100
AcDbEntity
  8
ASSI
100
AcDbLine
 62
250
  6
CONTINUOUS
 10
162.4984566111
 20
105.438979801
 11
162.4980863475
 21
105.4527989786
  0
LINE
  5
51B
100
AcDbEntity
  8
ASSI
100
AcDbLine
 62
250
  6
CONTINUOUS
 10
162.2298009019
 20
104.3446110311
 11
162.2287501135
 21
104.3848299954
  0
LINE
  5
51C
100
AcDbEntity
  8
ASSI
100
AcDbLine
 62
250
  6
CONTINUOUS
 10
162.0610057973
 20
98.196923056
 11
162.0619540647
 21
98.1559118234
  0
LINE
  5
51D
100
AcDbEntity
  8
ASSI
100
AcDbLine
 62
250
  6
CONTINUOUS
 10
162.2006680737
 20
95.1623550162
 11
162.2000572206
 21
95.1889690885
  0
LINE
  5
51E
100
AcDbEntity
  8
ASSI
100
AcDbLine
 62
250
  6
CONTINUOUS
 10
162.0905868528
 20
107.358485399
 11
162.0911977058
 21
107.3318713266
  0
LINE
  5
51F
100
AcDbEntity
  8
ASSI
100
AcDbLine
 62
250
  6
CONTINUOUS
 10
162.4980997346
 20
95.4869042044
 11
162.4977180154
 21
95.5042252058
  0
LINE
  5
520
100
AcDbEntity
  8
ASSI
100
AcDbLine
 62
250
  6
CONTINUOUS
 10
162.5285671097
 20
104.5237661951
 11
162.5266459633
 21
104.6139803276
  0
LINE
  5
521
100
AcDbEntity
  8
ASSI
100
AcDbLine
 62
250
  6
CONTINUOUS
 10
162.4980863475
 20
105.4527989786
 11
162.4976122408
 21
105.4751692431
  0
LINE
  5
522
100
AcDbEntity
  8
ASSI
100
AcDbLine
 62
250
  6
CONTINUOUS
 10
162.2306466482
 20
104.302888491
 11
162.2298009019
 21
104.3446110311
  0
LINE
  5
523
100
AcDbEntity
  8
ASSI
100
AcDbLine
 62
250
  6
CONTINUOUS
 10
162.0602644125
 20
98.2391885055
 11
162.0610057973
 21
98.196923056
  0
LINE
  5
524
100
AcDbEntity
  8
ASSI
100
AcDbLine
 62
250
  6
CONTINUOUS
 10
162.2000572206
 20
95.1889690885
 11
162.1992204148
 21
95.2369076754
  0
LINE
  5
525
100
AcDbEntity
  8
ASSI
100
AcDbLine
 62
250
  6
CONTINUOUS
 10
162.0911977058
 20
107.3318713266
 11
162.0920345116
 21
107.2839327397
  0
LINE
  5
526
100
AcDbEntity
  8
ASSI
100
AcDbLine
 62
250
  6
CONTINUOUS
 10
162.4977180154
 20
95.5042252058
 11
162.4972663307
 21
95.5320585284
  0
LINE
  5
527
100
AcDbEntity
  8
ASSI
100
AcDbLine
 62
250
  6
CONTINUOUS
 10
162.4976122408
 20
105.4751692431
 11
162.4972441513
 21
105.4991230639
  0
LINE
  5
528
100
AcDbEntity
  8
ASSI
100
AcDbLine
 62
250
  6
CONTINUOUS
 10
162.231279545
 20
104.2602529921
 11
162.2306466482
 21
104.302888491
  0
LINE
  5
529
100
AcDbEntity
  8
ASSI
100
AcDbLine
 62
250
  6
CONTINUOUS
 10
162.5300664148
 20
104.4262931906
 11
162.5285671097
 21
104.5237661951
  0
LINE
  5
52A
100
AcDbEntity
  8
ASSI
100
AcDbLine
 62
250
  6
CONTINUOUS
 10
162.0597400037
 20
98.2821049068
 11
162.0602644125
 21
98.2391885055
  0
LINE
  5
52B
100
AcDbEntity
  8
ASSI
100
AcDbLine
 62
250
  6
CONTINUOUS
 10
162.1992204148
 20
95.2369076754
 11
162.1982825421
 21
95.3139795988
  0
LINE
  5
52C
100
AcDbEntity
  8
ASSI
100
AcDbLine
 62
250
  6
CONTINUOUS
 10
162.0920345116
 20
107.2839327397
 11
162.0929723844
 21
107.2068608163
  0
LINE
  5
52D
100
AcDbEntity
  8
ASSI
100
AcDbLine
 62
250
  6
CONTINUOUS
 10
162.0922036487
 20
97.306866817
 11
162.0931554486
 21
97.2219686747
  0
LINE
  5
52E
100
AcDbEntity
  8
ASSI
100
AcDbLine
 62
250
  6
CONTINUOUS
 10
162.1990512778
 20
105.2139735982
 11
162.1980994778
 21
105.2988717405
  0
LINE
  5
52F
100
AcDbEntity
  8
ASSI
100
AcDbLine
 62
250
  6
CONTINUOUS
 10
162.4972441513
 20
105.4991230639
 11
162.4969884556
 21
105.5242458856
  0
LINE
  5
530
100
AcDbEntity
  8
ASSI
100
AcDbLine
 62
250
  6
CONTINUOUS
 10
162.2316972448
 20
104.2172297223
 11
162.231279545
 21
104.2602529921
  0
LINE
  5
531
100
AcDbEntity
  8
ASSI
100
AcDbLine
 62
250
  6
CONTINUOUS
 10
162.5310969578
 20
104.3244140658
 11
162.5300664148
 21
104.4262931906
  0
LINE
  5
532
100
AcDbEntity
  8
ASSI
100
AcDbLine
 62
250
  6
CONTINUOUS
 10
162.4972663307
 20
95.5320585284
 11
162.4969686947
 21
95.5615414177
  0
LINE
  5
533
100
AcDbEntity
  8
ASSI
100
AcDbLine
 62
250
  6
CONTINUOUS
 10
162.0594282159
 20
98.3250316269
 11
162.0597400037
 21
98.2821049068
  0
LINE
  5
534
100
AcDbEntity
  8
ASSI
100
AcDbLine
 62
250
  6
CONTINUOUS
 10
162.0929723844
 20
107.2068608163
 11
162.0938057785
 21
107.0940111175
  0
LINE
  5
535
100
AcDbEntity
  8
ASSI
100
AcDbLine
 62
250
  6
CONTINUOUS
 10
162.1982825421
 20
95.3139795988
 11
162.1974491479
 21
95.4268292976
  0
LINE
  5
536
100
AcDbEntity
  8
ASSI
100
AcDbLine
 62
250
  6
CONTINUOUS
 10
162.0931554486
 20
97.2219686747
 11
162.0939261002
 21
97.1036575071
  0
LINE
  5
537
100
AcDbEntity
  8
ASSI
100
AcDbLine
 62
250
  6
CONTINUOUS
 10
162.1980994778
 20
105.2988717405
 11
162.1973288263
 21
105.4171829081
  0
LINE
  5
538
100
AcDbEntity
  8
ASSI
100
AcDbLine
 62
250
  6
CONTINUOUS
 10
162.4969884556
 20
105.5242458856
 11
162.4968495399
 21
105.5500842726
  0
LINE
  5
539
100
AcDbEntity
  8
ASSI
100
AcDbLine
 62
250
  6
CONTINUOUS
 10
162.5316440518
 20
104.2213761545
 11
162.5310969578
 21
104.3244140658
  0
LINE
  5
53A
100
AcDbEntity
  8
ASSI
100
AcDbLine
 62
250
  6
CONTINUOUS
 10
162.2319031206
 20
104.1744862394
 11
162.2316972448
 21
104.2172297223
  0
LINE
  5
53B
100
AcDbEntity
  8
ASSI
100
AcDbLine
 62
250
  6
CONTINUOUS
 10
162.4969686947
 20
95.5615414177
 11
162.4968322223
 21
95.5919106303
  0
LINE
  5
53C
100
AcDbEntity
  8
ASSI
100
AcDbLine
 62
250
  6
CONTINUOUS
 10
162.0938057785
 20
107.0940111175
 11
162.0942399365
 21
106.9442283342
  0
LINE
  5
53D
100
AcDbEntity
  8
ASSI
100
AcDbLine
 62
250
  6
CONTINUOUS
 10
162.1974491479
 20
95.4268292976
 11
162.1970149899
 21
95.5766120809
  0
LINE
  5
53E
100
AcDbEntity
  8
ASSI
100
AcDbLine
 62
250
  6
CONTINUOUS
 10
162.0593284905
 20
99.9844146024
 11
162.0594282159
 21
98.3250316269
  0
LINE
  5
53F
100
AcDbEntity
  8
ASSI
100
AcDbLine
 62
250
  6
CONTINUOUS
 10
162.0939261002
 20
97.1036575071
 11
162.09424926
 21
95.6021952198
  0
LINE
  5
540
100
AcDbEntity
  8
ASSI
100
AcDbLine
 62
250
  6
CONTINUOUS
 10
162.1973288263
 20
105.4171829081
 11
162.1970056664
 21
106.9186451953
  0
LINE
  5
541
100
AcDbEntity
  8
ASSI
100
AcDbLine
 62
250
  6
CONTINUOUS
 10
162.2319264359
 20
102.5364258127
 11
162.2319031206
 21
104.1744862394
  0
LINE
  5
542
100
AcDbEntity
  8
ASSI
100
AcDbLine
 62
250
  6
CONTINUOUS
 10
162.2801574094
 20
123.3826589774
 11
162.2801574094
 21
121.8262433662
  0
LINE
  5
543
100
AcDbEntity
  8
ASSI
100
AcDbLine
 62
250
  6
CONTINUOUS
 10
162.2801574094
 20
80.6945970489
 11
162.2801574094
 21
79.1381814378
  0
LINE
  5
544
100
AcDbEntity
  8
ASSI
100
AcDbLine
 62
250
  6
CONTINUOUS
 10
162.4533624901
 20
123.3878997553
 11
162.4533624901
 21
121.8385218223
  0
LINE
  5
545
100
AcDbEntity
  8
ASSI
100
AcDbLine
 62
250
  6
CONTINUOUS
 10
162.4533624901
 20
80.6823185928
 11
162.4533624901
 21
79.1329406598
  0
LINE
  5
546
100
AcDbEntity
  8
ASSI
100
AcDbLine
 62
250
  6
CONTINUOUS
 10
162.531743684
 20
102.5465364284
 11
162.5316440518
 21
104.2213761545
  0
LINE
  5
547
100
AcDbEntity
  8
ASSI
100
AcDbLine
 62
250
  6
CONTINUOUS
 10
162.4968495399
 20
105.5500842726
 11
162.4968322223
 21
106.9289297849
  0
LINE
  5
548
100
AcDbEntity
  8
ASSI
100
AcDbLine
 62
250
  6
CONTINUOUS
 10
162.4968322223
 20
95.5919106303
 11
162.4968495399
 21
96.9707561427
  0
LINE
  5
549
100
AcDbEntity
  8
ASSI
100
AcDbLine
 62
250
  6
CONTINUOUS
 10
162.0942399365
 20
106.9442283342
 11
162.094011353
 21
105.4381283235
  0
LINE
  5
54A
100
AcDbEntity
  8
ASSI
100
AcDbLine
 62
250
  6
CONTINUOUS
 10
162.1970149899
 20
95.5766120809
 11
162.1972435735
 21
97.0827120916
  0
LINE
  5
54B
100
AcDbEntity
  8
ASSI
100
AcDbLine
 62
250
  6
CONTINUOUS
 10
162.0594282158
 20
104.1958087825
 11
162.0593284905
 21
102.5364258127
  0
LINE
  5
54C
100
AcDbEntity
  8
ASSI
100
AcDbLine
 62
250
  6
CONTINUOUS
 10
162.2318267106
 20
98.3250316327
 11
162.2319264359
 21
99.9844146024
  0
LINE
  5
54D
100
AcDbEntity
  8
ASSI
100
AcDbLine
 62
250
  6
CONTINUOUS
 10
162.531514626
 20
98.2652912241
 11
162.531743684
 21
99.9743039867
  0
LINE
  5
54E
100
AcDbEntity
  8
ASSI
100
AcDbLine
 62
250
  6
CONTINUOUS
 10
162.0942492765
 20
95.6021952198
 11
162.0939225168
 21
95.4510219568
  0
LINE
  5
54F
100
AcDbEntity
  8
ASSI
100
AcDbLine
 62
250
  6
CONTINUOUS
 10
162.1970056499
 20
106.9186451953
 11
162.1973324096
 21
107.0698184584
  0
LINE
  5
550
100
AcDbEntity
  8
ASSI
100
AcDbLine
 62
250
  6
CONTINUOUS
 10
162.4968322223
 20
106.9289297849
 11
162.4969686947
 21
106.9592989976
  0
LINE
  5
551
100
AcDbEntity
  8
ASSI
100
AcDbLine
 62
250
  6
CONTINUOUS
 10
162.4968495399
 20
96.9707561427
 11
162.4969884556
 21
96.9965945298
  0
LINE
  5
552
100
AcDbEntity
  8
ASSI
100
AcDbLine
 62
250
  6
CONTINUOUS
 10
162.094011353
 20
105.4381283235
 11
162.093313458
 21
105.3175227733
  0
LINE
  5
553
100
AcDbEntity
  8
ASSI
100
AcDbLine
 62
250
  6
CONTINUOUS
 10
162.1972435735
 20
97.0827120916
 11
162.1979414684
 21
97.2033176419
  0
LINE
  5
554
100
AcDbEntity
  8
ASSI
100
AcDbLine
 62
250
  6
CONTINUOUS
 10
162.0939225168
 20
95.4510219568
 11
162.0931706989
 21
95.3352672639
  0
LINE
  5
555
100
AcDbEntity
  8
ASSI
100
AcDbLine
 62
250
  6
CONTINUOUS
 10
162.1973324096
 20
107.0698184584
 11
162.1980842275
 21
107.1855731512
  0
LINE
  5
556
100
AcDbEntity
  8
ASSI
100
AcDbLine
 62
250
  6
CONTINUOUS
 10
162.0597400037
 20
104.2387355025
 11
162.0594282158
 21
104.1958087825
  0
LINE
  5
557
100
AcDbEntity
  8
ASSI
100
AcDbLine
 62
250
  6
CONTINUOUS
 10
162.2315149228
 20
98.2821049126
 11
162.2318267106
 21
98.3250316327
  0
LINE
  5
558
100
AcDbEntity
  8
ASSI
100
AcDbLine
 62
250
  6
CONTINUOUS
 10
162.5308079107
 20
98.1622053515
 11
162.531514626
 21
98.2652912241
  0
LINE
  5
559
100
AcDbEntity
  8
ASSI
100
AcDbLine
 62
250
  6
CONTINUOUS
 10
162.4969884556
 20
96.9965945298
 11
162.4972441513
 21
97.0217173514
  0
LINE
  5
55A
100
AcDbEntity
  8
ASSI
100
AcDbLine
 62
250
  6
CONTINUOUS
 10
162.4969686947
 20
106.9592989976
 11
162.4972663307
 21
106.9887818868
  0
LWPOLYLINE
  5
55B
100
AcDbEntity
  8
ASSI
100
AcDbPolyline
 62
250
  6
CONTINUOUS
 90
3
 70
0
 10
162.093313458
 20
105.3175227733
 10
162.0924149415
 20
105.2297293242
 10
162.0922036487
 20
105.2139735982
  0
LWPOLYLINE
  5
55C
100
AcDbEntity
  8
ASSI
100
AcDbPolyline
 62
250
  6
CONTINUOUS
 90
3
 70
0
 10
162.1979414684
 20
97.2033176419
 10
162.198839985
 20
97.2911110909
 10
162.1990512778
 20
97.306866817
  0
LINE
  5
55D
100
AcDbEntity
  8
ASSI
100
AcDbLine
 62
250
  6
CONTINUOUS
 10
162.1980842275
 20
107.1855731512
 11
162.1989656964
 21
107.265980036
  0
LINE
  5
55E
100
AcDbEntity
  8
ASSI
100
AcDbLine
 62
250
  6
CONTINUOUS
 10
162.0931706989
 20
95.3352672639
 11
162.09228923
 21
95.2548603791
  0
LINE
  5
55F
100
AcDbEntity
  8
ASSI
100
AcDbLine
 62
250
  6
CONTINUOUS
 10
162.0602644126
 20
104.2816519053
 11
162.0597400037
 21
104.2387355025
  0
LINE
  5
560
100
AcDbEntity
  8
ASSI
100
AcDbLine
 62
250
  6
CONTINUOUS
 10
162.2309905139
 20
98.2391885098
 11
162.2315149228
 21
98.2821049126
  0
LINE
  5
561
100
AcDbEntity
  8
ASSI
100
AcDbLine
 62
250
  6
CONTINUOUS
 10
162.5296181067
 20
98.0614473777
 11
162.5308079107
 21
98.1622053515
  0
LINE
  5
562
100
AcDbEntity
  8
ASSI
100
AcDbLine
 62
250
  6
CONTINUOUS
 10
162.4972441513
 20
97.0217173514
 11
162.4976122408
 21
97.0456711722
  0
LINE
  5
563
100
AcDbEntity
  8
ASSI
100
AcDbLine
 62
250
  6
CONTINUOUS
 10
162.1989656964
 20
107.265980036
 11
162.1997671927
 21
107.3169216959
  0
LINE
  5
564
100
AcDbEntity
  8
ASSI
100
AcDbLine
 62
250
  6
CONTINUOUS
 10
162.09228923
 20
95.2548603791
 11
162.0914877338
 21
95.2039187192
  0
LINE
  5
565
100
AcDbEntity
  8
ASSI
100
AcDbLine
 62
250
  6
CONTINUOUS
 10
161.7939885957
 20
95.5320585283
 11
161.793536911
 21
95.5042252057
  0
LINE
  5
566
100
AcDbEntity
  8
ASSI
100
AcDbLine
 62
250
  6
CONTINUOUS
 10
162.4972663307
 20
106.9887818868
 11
162.4977180154
 21
107.0166152094
  0
LINE
  5
567
100
AcDbEntity
  8
ASSI
100
AcDbLine
 62
250
  6
CONTINUOUS
 10
162.0610057971
 20
104.323917356
 11
162.0602644126
 21
104.2816519053
  0
LINE
  5
568
100
AcDbEntity
  8
ASSI
100
AcDbLine
 62
250
  6
CONTINUOUS
 10
162.2302491293
 20
98.1969230591
 11
162.2309905139
 21
98.2391885098
  0
LINE
  5
569
100
AcDbEntity
  8
ASSI
100
AcDbLine
 62
250
  6
CONTINUOUS
 10
162.5279718047
 20
97.9660883397
 11
162.5296181067
 21
98.0614473777
  0
LINE
  5
56A
100
AcDbEntity
  8
ASSI
100
AcDbLine
 62
250
  6
CONTINUOUS
 10
162.1997671927
 20
107.3169216959
 11
162.2003582913
 21
107.3457379614
  0
LINE
  5
56B
100
AcDbEntity
  8
ASSI
100
AcDbLine
 62
250
  6
CONTINUOUS
 10
162.0914877338
 20
95.2039187192
 11
162.0908966351
 21
95.1751024537
  0
LINE
  5
56C
100
AcDbEntity
  8
ASSI
100
AcDbLine
 62
250
  6
CONTINUOUS
 10
161.793536911
 20
95.5042252057
 11
161.7931551918
 21
95.4869042043
  0
LINE
  5
56D
100
AcDbEntity
  8
ASSI
100
AcDbLine
 62
250
  6
CONTINUOUS
 10
162.4977180154
 20
107.0166152094
 11
162.4980997346
 21
107.0339362109
  0
LINE
  5
56E
100
AcDbEntity
  8
ASSI
100
AcDbLine
 62
250
  6
CONTINUOUS
 10
162.4976122408
 20
97.0456711722
 11
162.4980863475
 21
97.0680414368
  0
LINE
  5
56F
100
AcDbEntity
  8
ASSI
100
AcDbLine
 62
250
  6
CONTINUOUS
 10
162.5266459633
 20
97.9068600864
 11
162.5279718047
 21
97.9660883397
  0
LINE
  5
570
100
AcDbEntity
  8
ASSI
100
AcDbLine
 62
250
  6
CONTINUOUS
 10
162.0619540646
 20
104.3649285898
 11
162.0610057971
 21
104.323917356
  0
LINE
  5
571
100
AcDbEntity
  8
ASSI
100
AcDbLine
 62
250
  6
CONTINUOUS
 10
162.2293008618
 20
98.1559118253
 11
162.2302491293
 21
98.1969230591
  0
LWPOLYLINE
  5
572
100
AcDbEntity
  8
ASSI
100
AcDbPolyline
 62
250
  6
CONTINUOUS
 90
10
 70
0
 10
162.2003582913
 20
107.3457379614
 10
162.2009866679
 20
107.3700803818
 10
162.2013139737
 20
107.3804922287
 10
162.2016473592
 20
107.3896932372
 10
162.2019868284
 20
107.3976592664
 10
162.2023323773
 20
107.4043697183
 10
162.202681362
 20
107.4098071662
 10
162.2030329011
 20
107.4139574427
 10
162.2033878759
 20
107.4168097206
 10
162.2037462865
 20
107.4183565967
  0
LWPOLYLINE
  5
573
100
AcDbEntity
  8
ASSI
100
AcDbPolyline
 62
250
  6
CONTINUOUS
 90
10
 70
0
 10
162.0908966351
 20
95.1751024537
 10
162.0902682586
 20
95.1507600333
 10
162.0899409527
 20
95.1403481864
 10
162.0896075672
 20
95.131147178
 10
162.089268098
 20
95.1231811487
 10
162.0889225491
 20
95.1164706969
 10
162.0885735644
 20
95.111033249
 10
162.0882220253
 20
95.1068829725
 10
162.0878670505
 20
95.1040306945
 10
162.0875086399
 20
95.1024838185
  0
LINE
  5
574
100
AcDbEntity
  8
ASSI
100
AcDbLine
 62
250
  6
CONTINUOUS
 10
162.4980863475
 20
97.0680414368
 11
162.4984566111
 21
97.0818606142
  0
LINE
  5
575
100
AcDbEntity
  8
ASSI
100
AcDbLine
 62
250
  6
CONTINUOUS
 10
162.5251727351
 20
97.8520314963
 11
162.5266459633
 21
97.9068600864
  0
LINE
  5
576
100
AcDbEntity
  8
ASSI
100
AcDbLine
 62
250
  6
CONTINUOUS
 10
161.7931551918
 20
95.4869042043
 11
161.7927134761
 21
95.4707937584
  0
LINE
  5
577
100
AcDbEntity
  8
ASSI
100
AcDbLine
 62
250
  6
CONTINUOUS
 10
162.4980997346
 20
107.0339362109
 11
162.4985414504
 21
107.0500466567
  0
LWPOLYLINE
  5
578
100
AcDbEntity
  8
ASSI
100
AcDbPolyline
 62
7
  6
CONTINUOUS
 90
28
 70
0
 10
162.5588210872
 20
95.3470438317
 10
162.5583129452
 20
95.3297152088
 10
162.5567993846
 20
95.312403368
 10
162.5542781487
 20
95.2951669854
 10
162.5507441539
 20
95.2780385739
 10
162.546205293
 20
95.2611049878
 10
162.5406978843
 20
95.2445030944
 10
162.5342643648
 20
95.2283270022
 10
162.5269203287
 20
95.2125870726
 10
162.5186725139
 20
95.1972915088
 10
162.5095464813
 20
95.1824911667
 10
162.499572231
 20
95.168237838
 10
162.4887538628
 20
95.1545467231
 10
162.4770870044
 20
95.1414340833
 10
162.464634066
 20
95.1289903752
 10
162.451510919
 20
95.1173315099
 10
162.4378071234
 20
95.1065195557
 10
162.4235394378
 20
95.096551056
 10
162.4087254295
 20
95.0874316749
 10
162.3934178461
 20
95.0791916857
 10
162.3776668941
 20
95.0718559985
 10
162.3614809849
 20
95.0654311127
 10
162.3448717675
 20
95.0599328277
 10
162.3279322331
 20
95.0554028652
 10
162.3107956476
 20
95.0518765539
 10
162.2935475497
 20
95.0493620567
 10
162.2762216139
 20
95.0478550956
 10
162.2588765397
 20
95.047353883
  0
LINE
  5
579
100
AcDbEntity
  8
ASSI
100
AcDbLine
 62
250
  6
CONTINUOUS
 10
162.0631000095
 20
104.4041991802
 11
162.0619540646
 21
104.3649285898
  0
LINE
  5
57A
100
AcDbEntity
  8
ASSI
100
AcDbLine
 62
250
  6
CONTINUOUS
 10
162.228154917
 20
98.1166412349
 11
162.2293008618
 21
98.1559118253
  0
LINE
  5
57B
100
AcDbEntity
  8
ASSI
100
AcDbLine
 62
250
  6
CONTINUOUS
 10
162.5235612388
 20
97.8018415638
 11
162.5251727351
 21
97.8520314963
  0
LINE
  5
57C
100
AcDbEntity
  8
ASSI
100
AcDbLine
 62
250
  6
CONTINUOUS
 10
162.0922036487
 20
105.2139735982
 11
162.0675111927
 21
104.5068741749
  0
LINE
  5
57D
100
AcDbEntity
  8
ASSI
100
AcDbLine
 62
250
  6
CONTINUOUS
 10
162.1990512778
 20
97.306866817
 11
162.2237437337
 21
98.0139662403
  0
LINE
  5
57E
100
AcDbEntity
  8
ASSI
100
AcDbLine
 62
250
  6
CONTINUOUS
 10
162.4984566111
 20
97.0818606142
 11
162.5235612388
 21
97.8018415638
  0
LINE
  5
57F
100
AcDbEntity
  8
ASSI
100
AcDbLine
 62
250
  6
CONTINUOUS
 10
161.7927134761
 20
95.4707937584
 11
161.7922172613
 21
95.4560782194
  0
LINE
  5
580
100
AcDbEntity
  8
ASSI
100
AcDbLine
 62
250
  6
CONTINUOUS
 10
162.4985414504
 20
107.0500466567
 11
162.4990376651
 21
107.0647621958
  0
LINE
  5
581
100
AcDbEntity
  8
ASSI
100
AcDbLine
 62
250
  6
CONTINUOUS
 10
162.0644255536
 20
104.4412130758
 11
162.0631000095
 21
104.4041991802
  0
LINE
  5
582
100
AcDbEntity
  8
ASSI
100
AcDbLine
 62
250
  6
CONTINUOUS
 10
162.2268293728
 20
98.0796273393
 11
162.228154917
 21
98.1166412349
  0
LWPOLYLINE
  5
583
100
AcDbEntity
  8
ASSI
100
AcDbPolyline
 62
250
  6
CONTINUOUS
 90
14
 70
0
 10
161.7922172613
 20
95.4560782194
 10
161.7916704391
 20
95.4428730852
 10
161.791380372
 20
95.43689935
 10
161.7910792568
 20
95.4313426067
 10
161.7907694479
 20
95.4262462955
 10
161.7904508711
 20
95.4216139906
 10
161.7901236007
 20
95.4174421176
 10
161.7897902141
 20
95.4137633936
 10
161.789450645
 20
95.4105817247
 10
161.7891049598
 20
95.4078932046
 10
161.7887559351
 20
95.4057188317
 10
161.7884044966
 20
95.4040656053
 10
161.7880497187
 20
95.4029265261
 10
161.7876916014
 20
95.4023015939
  0
LWPOLYLINE
  5
584
100
AcDbEntity
  8
ASSI
100
AcDbPolyline
 62
250
  6
CONTINUOUS
 90
14
 70
0
 10
162.4990376651
 20
107.0647621958
 10
162.4995844873
 20
107.07796733
 10
162.4998745544
 20
107.0839410652
 10
162.5001756697
 20
107.0894978084
 10
162.5004854785
 20
107.0945941197
 10
162.5008040553
 20
107.0992264246
 10
162.5011313258
 20
107.1033982975
 10
162.5014647123
 20
107.1070770216
 10
162.5018042814
 20
107.1102586905
 10
162.5021499667
 20
107.1129472105
 10
162.5024989913
 20
107.1151215834
 10
162.5028504298
 20
107.1167748098
 10
162.5032052077
 20
107.1179138891
 10
162.503563325
 20
107.1185388213
  0
LWPOLYLINE
  5
585
100
AcDbEntity
  8
ASSI
100
AcDbPolyline
 62
250
  6
CONTINUOUS
 90
4
 70
0
 10
162.0675113194
 20
104.5068741748
 10
162.0666874125
 20
104.4915637379
 10
162.0658989811
 20
104.4755106514
 10
162.0644255536
 20
104.4412130758
  0
LWPOLYLINE
  5
586
100
AcDbEntity
  8
ASSI
100
AcDbPolyline
 62
250
  6
CONTINUOUS
 90
4
 70
0
 10
162.223743607
 20
98.0139662404
 10
162.2245675139
 20
98.0292766773
 10
162.2253559453
 20
98.0453297638
 10
162.2268293728
 20
98.0796273393
  0
LINE
  5
587
100
AcDbEntity
  8
ASSI
100
AcDbLine
 62
250
  6
CONTINUOUS
 10
164.6328607663
 20
121.5661205713
 11
164.6844641371
 21
121.9291153383
  0
LINE
  5
588
100
AcDbEntity
  8
ASSI
100
AcDbLine
 62
250
  6
CONTINUOUS
 10
164.8328303061
 20
121.3676113468
 11
164.884372955
 21
121.730178976
  0
LINE
  5
589
100
AcDbEntity
  8
ASSI
100
AcDbLine
 62
7
  6
CONTINUOUS
 10
143.8456274632
 20
114.3604202076
 11
145.0956274632
 21
114.3604202076
  0
LINE
  5
58A
100
AcDbEntity
  8
ASSI
100
AcDbLine
 62
7
  6
CONTINUOUS
 10
164.8956274632
 20
114.3604202076
 11
166.1456274632
 21
114.3604202076
  0
LINE
  5
58B
100
AcDbEntity
  8
ASSI
100
AcDbLine
 62
250
  6
CONTINUOUS
 10
149.5515231353
 20
116.8574732581
 11
149.4970061295
 21
116.8847234559
  0
LINE
  5
58C
100
AcDbEntity
  8
ASSI
100
AcDbLine
 62
250
  6
CONTINUOUS
 10
149.8012476562
 20
117.107496756
 11
149.7468533778
 21
117.1346856088
  0
LINE
  5
58D
100
AcDbEntity
  8
ASSI
100
AcDbLine
 62
250
  6
CONTINUOUS
 10
162.0323783867
 20
107.4734865322
 11
162.087508322
 21
107.4183565969
  0
LWPOLYLINE
  5
58E
100
AcDbEntity
  8
ASSI
100
AcDbPolyline
 62
250
  6
CONTINUOUS
 90
13
 70
0
 10
161.7876916014
 20
107.1185388213
 10
161.7880497188
 20
107.1179138891
 10
161.7884044967
 20
107.1167748098
 10
161.7887559351
 20
107.1151215834
 10
161.7891049598
 20
107.1129472105
 10
161.789450645
 20
107.1102586904
 10
161.7897902141
 20
107.1070770215
 10
161.7901236007
 20
107.1033982975
 10
161.7904508711
 20
107.0992264245
 10
161.7907694479
 20
107.0945941196
 10
161.7910792568
 20
107.0894978084
 10
161.791380372
 20
107.0839410651
 10
161.7916704391
 20
107.0779673299
  0
LINE
  5
58F
100
AcDbEntity
  8
ASSI
100
AcDbLine
 62
7
  6
CONTINUOUS
 10
164.8415167619
 20
102.5364258127
 11
164.825776219
 21
102.5679164931
  0
LWPOLYLINE
  5
590
100
AcDbEntity
  8
ASSI
100
AcDbPolyline
 62
250
  6
CONTINUOUS
 90
8
 70
0
 10
162.0875086399
 20
107.4183565967
 10
162.0878670505
 20
107.4168097206
 10
162.0882220253
 20
107.4139574426
 10
162.0885735644
 20
107.4098071661
 10
162.0889225491
 20
107.4043697182
 10
162.089268098
 20
107.3976592663
 10
162.0896075672
 20
107.3896932371
 10
162.0899409527
 20
107.3804922286
  0
LINE
  5
591
100
AcDbEntity
  8
ASSI
100
AcDbLine
 62
250
  6
CONTINUOUS
 10
160.6880758948
 20
118.3604202076
 11
160.6373676391
 21
118.6164636382
  0
LINE
  5
592
100
AcDbEntity
  8
ASSI
100
AcDbLine
 62
250
  6
CONTINUOUS
 10
160.9451378119
 20
118.5701951154
 11
160.8872153459
 21
118.8626655765
  0
LWPOLYLINE
  5
593
100
AcDbEntity
  8
ASSI
100
AcDbPolyline
 62
250
  6
CONTINUOUS
 90
10
 70
0
 10
160.8872153459
 20
118.8626655765
 10
160.8871154701
 20
118.8632575808
 10
160.8870175701
 20
118.8640085023
 10
160.886921646
 20
118.8649183411
 10
160.886827375
 20
118.8659912916
 10
160.8867350799
 20
118.8672231594
 10
160.8866457289
 20
118.8686013614
 10
160.8865593632
 20
118.8701273067
 10
160.8864759416
 20
118.8717995862
 10
160.8863963084
 20
118.8736013901
  0
LWPOLYLINE
  5
594
100
AcDbEntity
  8
ASSI
100
AcDbPolyline
 62
250
  6
CONTINUOUS
 90
5
 70
0
 10
160.697005747
 20
116.8847234562
 10
160.6969049227
 20
116.8855197563
 10
160.6968051955
 20
116.8873057243
 10
160.6967065653
 20
116.8900756776
 10
160.6966087374
 20
116.893820774
  0
LINE
  5
595
100
AcDbEntity
  8
ASSI
100
AcDbLine
 62
7
  6
CONTINUOUS
 10
162.8040524562
 20
123.4197329133
 11
162.87934594
 21
121.9291153383
  0
LINE
  5
596
100
AcDbEntity
  8
ASSI
100
AcDbLine
 62
7
  6
CONTINUOUS
 10
164.884372955
 20
121.730178976
 11
164.8956274632
 21
114.3604202076
  0
LINE
  5
597
100
AcDbEntity
  8
ASSI
100
AcDbLine
 62
250
  6
CONTINUOUS
 10
164.8328303061
 20
81.1532290684
 11
164.8292290547
 21
87.1604202076
  0
LINE
  5
598
100
AcDbEntity
  8
ASSI
100
AcDbLine
 62
7
  6
CONTINUOUS
 10
164.4956274632
 20
115.3604202076
 11
164.4956274632
 21
111.5604202076
  0
LINE
  5
599
100
AcDbEntity
  8
ASSI
100
AcDbLine
 62
7
  6
CONTINUOUS
 10
164.4956274632
 20
87.1604202076
 11
164.4956274632
 21
90.9604202076
  0
LINE
  5
59A
100
AcDbEntity
  8
ASSI
100
AcDbLine
 62
250
  6
CONTINUOUS
 10
164.6276335709
 20
90.9604202076
 11
164.6258069708
 21
99.9460622645
  0
LINE
  5
59B
100
AcDbEntity
  8
ASSI
100
AcDbLine
 62
250
  6
CONTINUOUS
 10
164.6328607663
 20
80.9547198439
 11
164.6292567211
 21
87.1604202076
  0
LINE
  5
59C
100
AcDbEntity
  8
ASSI
100
AcDbLine
 62
250
  6
CONTINUOUS
 10
164.8276046009
 20
90.9604202076
 11
164.825776219
 21
99.952923922
  0
LINE
  5
59D
100
AcDbEntity
  8
ASSI
100
AcDbLine
 62
7
  6
CONTINUOUS
 10
164.8415167619
 20
101.1333669174
 11
164.8415167619
 21
99.9844146024
  0
LINE
  5
59E
100
AcDbEntity
  8
ASSI
100
AcDbLine
 62
7
  6
CONTINUOUS
 10
164.8415167619
 20
101.3874734977
 11
164.8415167619
 21
102.5364258127
  0
LINE
  5
59F
100
AcDbEntity
  8
ASSI
100
AcDbLine
 62
7
  6
CONTINUOUS
 10
164.8787505642
 20
115.3604202076
 11
164.8787505642
 21
111.5604202076
  0
LINE
  5
5A0
100
AcDbEntity
  8
ASSI
100
AcDbLine
 62
7
  6
CONTINUOUS
 10
164.8787505642
 20
87.1604202076
 11
164.8787505642
 21
90.9604202076
  0
LINE
  5
5A1
100
AcDbEntity
  8
ASSI
100
AcDbLine
 62
7
  6
CONTINUOUS
 10
164.8956274632
 20
101.1604202076
 11
164.8956274632
 21
88.1604202076
  0
LINE
  5
5A2
100
AcDbEntity
  8
ASSI
100
AcDbLine
 62
7
  6
CONTINUOUS
 10
164.8956274632
 20
101.3604202076
 11
164.8956274632
 21
114.3604202076
  0
LINE
  5
5A3
100
AcDbEntity
  8
ASSI
100
AcDbLine
 62
250
  6
CONTINUOUS
 10
164.6258069708
 20
102.5747781506
 11
164.6276335709
 21
111.5604202076
  0
LINE
  5
5A4
100
AcDbEntity
  8
ASSI
100
AcDbLine
 62
250
  6
CONTINUOUS
 10
164.825776219
 20
102.5679164931
 11
164.8276046009
 21
111.5604202076
  0
LINE
  5
5A5
100
AcDbEntity
  8
ASSI
100
AcDbLine
 62
250
  6
CONTINUOUS
 10
164.6292567211
 20
115.3604202076
 11
164.6328607663
 21
121.5661205713
  0
LINE
  5
5A6
100
AcDbEntity
  8
ASSI
100
AcDbLine
 62
250
  6
CONTINUOUS
 10
164.8292290547
 20
115.3604202076
 11
164.8328303061
 21
121.3676113468
  0
LINE
  5
5A7
100
AcDbEntity
  8
ASSI
100
AcDbLine
 62
7
  6
CONTINUOUS
 10
164.884372955
 20
80.7906614392
 11
164.8956274632
 21
88.1604202076
  0
LWPOLYLINE
  5
5A8
100
AcDbEntity
  8
ASSI
100
AcDbPolyline
 62
250
  6
CONTINUOUS
 90
25
 70
0
 10
164.8328303053
 20
81.1532290742
 10
164.8323807373
 20
81.1403401282
 10
164.8310867447
 20
81.1274875195
 10
164.8289502465
 20
81.1147259872
 10
164.8259755971
 20
81.102105901
 10
164.8221725732
 20
81.0896862939
 10
164.8175592156
 20
81.0775337703
 10
164.8121555624
 20
81.0657029637
 10
164.8059830213
 20
81.054242324
 10
164.7990703388
 20
81.0432059907
 10
164.7914489349
 20
81.0326432593
 10
164.7831501616
 20
81.0225967949
 10
164.7742077668
 20
81.0131075603
 10
164.7646585424
 20
81.0042153014
 10
164.7545441707
 20
80.9959594928
 10
164.7439095151
 20
80.9883769044
 10
164.7328009745
 20
80.9815003882
 10
164.7212653462
 20
80.9753586921
 10
164.7093513137
 20
80.969977714
 10
164.6971094649
 20
80.965380402
 10
164.6845924853
 20
80.9615866391
 10
164.6718542582
 20
80.958612778
 10
164.6589494008
 20
80.9564715432
 10
164.6459330083
 20
80.9551720502
 10
164.6328607663
 20
80.9547198439
  0
LINE
  5
5A9
100
AcDbEntity
  8
ASSI
100
AcDbLine
 62
7
  6
CONTINUOUS
 10
162.8040524562
 20
79.1011075019
 11
162.87934594
 21
80.5917250768
  0
LINE
  5
5AA
100
AcDbEntity
  8
ASSI
100
AcDbLine
 62
250
  6
CONTINUOUS
 10
160.6373676391
 20
83.9043767769
 11
160.6880758948
 21
84.1604202076
  0
LINE
  5
5AB
100
AcDbEntity
  8
ASSI
100
AcDbLine
 62
250
  6
CONTINUOUS
 10
160.8872153459
 20
83.6581748387
 11
160.9451378119
 21
83.9506452998
  0
LINE
  5
5AC
100
AcDbEntity
  8
ASSI
100
AcDbLine
 62
7
  6
CONTINUOUS
 10
164.825776219
 20
99.952923922
 11
164.8415167619
 21
99.9844146024
  0
LINE
  5
5AD
100
AcDbEntity
  8
ASSI
100
AcDbLine
 62
250
  6
CONTINUOUS
 10
161.7876916014
 20
95.4023015939
 11
161.7324338392
 21
95.3470438317
  0
LINE
  5
5AE
100
AcDbEntity
  8
ASSI
100
AcDbLine
 62
250
  6
CONTINUOUS
 10
162.087508322
 20
95.1024838182
 11
162.0323783867
 21
95.047353883
  0
LWPOLYLINE
  5
5AF
100
AcDbEntity
  8
ASSI
100
AcDbPolyline
 62
250
  6
CONTINUOUS
 90
25
 70
0
 10
160.6970056711
 20
116.884723685
 10
160.7133401971
 20
116.8852684133
 10
160.7296048282
 20
116.88688036
 10
160.7457299705
 20
116.8895526273
 10
160.7616466272
 20
116.8932737807
 10
160.7772866932
 20
116.8980278976
 10
160.7925832469
 20
116.9037946354
 10
160.807470837
 20
116.9105493185
 10
160.8218857619
 20
116.9182630443
 10
160.8357663425
 20
116.9269028065
 10
160.8490531862
 20
116.9364316365
 10
160.8616894411
 20
116.9468087615
 10
160.873621039
 20
116.9579897789
 10
160.8847969268
 20
116.9699268466
 10
160.8951692852
 20
116.9825688874
 10
160.9046937329
 20
116.9958618078
 10
160.9133295171
 20
117.0097487293
 10
160.921039687
 20
117.0241702318
 10
160.9277912528
 20
117.0390646079
 10
160.9335553261
 20
117.0543681269
 10
160.938307244
 20
117.0700153076
 10
160.9420266746
 20
117.0859391984
 10
160.9446977035
 20
117.1020716637
 10
160.9463089024
 20
117.1183436755
 10
160.9468533778
 20
117.1346856088
  0
LINE
  5
5B0
100
AcDbEntity
  8
ASSI
100
AcDbLine
 62
7
  6
CONTINUOUS
 10
164.8787505642
 20
115.3604202076
 11
164.4956274632
 21
115.3604202076
  0
LINE
  5
5B1
100
AcDbEntity
  8
ASSI
100
AcDbLine
 62
7
  6
CONTINUOUS
 10
145.4956274632
 20
115.3604202076
 11
145.1125043623
 21
115.3604202076
  0
LINE
  5
5B2
100
AcDbEntity
  8
ASSI
100
AcDbLine
 62
7
  6
CONTINUOUS
 10
166.1456274632
 20
114.3604202076
 11
166.1325532259
 21
122.9217871855
  0
LINE
  5
5B3
100
AcDbEntity
  8
ASSI
100
AcDbLine
 62
7
  6
CONTINUOUS
 10
166.1456274632
 20
100.9604430529
 11
166.1456274632
 21
88.1604202076
  0
LINE
  5
5B4
100
AcDbEntity
  8
ASSI
100
AcDbLine
 62
7
  6
CONTINUOUS
 10
166.1456274632
 20
101.5603973623
 11
166.1456274632
 21
114.3604202076
  0
LINE
  5
5B5
100
AcDbEntity
  8
ASSI
100
AcDbLine
 62
7
  6
CONTINUOUS
 10
166.1456274632
 20
88.1604202076
 11
166.1325532259
 21
79.5990532297
  0
LINE
  5
5B6
100
AcDbEntity
  8
ASSI
100
AcDbLine
 62
7
  6
CONTINUOUS
 10
160.9897405404
 20
80.9547198439
 11
160.9157598372
 21
80.6945970489
  0
LINE
  5
5B7
100
AcDbEntity
  8
ASSI
100
AcDbLine
 62
250
  6
CONTINUOUS
 10
149.4970061295
 20
85.6361169593
 11
149.5515231353
 21
85.6633671571
  0
LINE
  5
5B8
100
AcDbEntity
  8
ASSI
100
AcDbLine
 62
250
  6
CONTINUOUS
 10
149.7468533778
 20
85.3861548064
 11
149.8012476562
 21
85.4133436591
  0
LWPOLYLINE
  5
5B9
100
AcDbEntity
  8
ASSI
100
AcDbPolyline
 62
7
  6
CONTINUOUS
 90
31
 70
0
 10
149.4952901052
 20
118.3605258186
 10
149.5109046931
 20
118.3614723144
 10
149.5261961263
 20
118.363103576
 10
149.5411111972
 20
118.3654196035
 10
149.5555954634
 20
118.3684660746
 10
149.5696155065
 20
118.3721973115
 10
149.5831575585
 20
118.3764762806
 10
149.5961871527
 20
118.381296955
 10
149.6086819993
 20
118.3866653616
 10
149.620650627
 20
118.3924625477
 10
149.632073274
 20
118.398681703
 10
149.6429349002
 20
118.4053296378
 10
149.653251408
 20
118.4123078296
 10
149.663012357
 20
118.4196110519
 10
149.6722077972
 20
118.4272445312
 10
149.6808525294
 20
118.4351254244
 10
149.6889415713
 20
118.4432502964
 10
149.6964692859
 20
118.4516225823
 10
149.7034470949
 20
118.4601697447
 10
149.709873746
 20
118.4688898457
 10
149.7157471687
 20
118.4777848231
 10
149.7210756218
 20
118.4867879531
 10
149.7258608742
 20
118.4958982527
 10
149.7301041888
 20
118.5051167049
 10
149.7338122028
 20
118.514379535
 10
149.736989691
 20
118.5236864397
 10
149.7396411777
 20
118.5330377222
 10
149.741773541
 20
118.5423705176
 10
149.7433944861
 20
118.5516638707
 10
149.7445126605
 20
118.5609387366
 10
149.7451378119
 20
118.5701951154
  0
LWPOLYLINE
  5
5BA
100
AcDbEntity
  8
ASSI
100
AcDbPolyline
 62
250
  6
CONTINUOUS
 90
25
 70
0
 10
160.6373676391
 20
118.6164636382
 10
160.6536458614
 20
118.6170839313
 10
160.6698549112
 20
118.6187477536
 10
160.6859259131
 20
118.6214480347
 10
160.7017905785
 20
118.6251733001
 10
160.7173814946
 20
118.6299077198
 10
160.7326324104
 20
118.635631175
 10
160.7474785217
 20
118.6423193445
 10
160.7618567449
 20
118.6499438081
 10
160.7757059832
 20
118.6584721661
 10
160.7889673888
 20
118.6678681788
 10
160.8015846124
 20
118.6780919197
 10
160.8135040414
 20
118.6890999447
 10
160.8246750285
 20
118.7008454775
 10
160.8350501074
 20
118.7132786085
 10
160.8445851938
 20
118.7263465063
 10
160.8532397723
 20
118.7399936422
 10
160.8609770694
 20
118.7541620267
 10
160.8677642096
 20
118.7687914564
 10
160.8735723541
 20
118.7838197678
 10
160.8783768243
 20
118.7991831029
 10
160.8821572065
 20
118.8148161821
 10
160.8848974381
 20
118.8306525784
 10
160.8865858758
 20
118.8466249996
 10
160.8872153459
 20
118.8626655765
  0
LWPOLYLINE
  5
5BB
100
AcDbEntity
  8
ASSI
100
AcDbPolyline
 62
250
  6
CONTINUOUS
 90
25
 70
0
 10
149.4970056711
 20
116.884723685
 10
149.5133401971
 20
116.8852684133
 10
149.5296048282
 20
116.88688036
 10
149.5457299705
 20
116.8895526273
 10
149.5616466272
 20
116.8932737807
 10
149.5772866932
 20
116.8980278976
 10
149.5925832469
 20
116.9037946354
 10
149.607470837
 20
116.9105493185
 10
149.6218857619
 20
116.9182630443
 10
149.6357663425
 20
116.9269028065
 10
149.6490531862
 20
116.9364316365
 10
149.6616894411
 20
116.9468087615
 10
149.673621039
 20
116.9579897789
 10
149.6847969268
 20
116.9699268466
 10
149.6951692852
 20
116.9825688874
 10
149.7046937329
 20
116.9958618078
 10
149.7133295171
 20
117.0097487293
 10
149.721039687
 20
117.0241702318
 10
149.7277912528
 20
117.0390646079
 10
149.7335553261
 20
117.0543681269
 10
149.738307244
 20
117.0700153076
 10
149.7420266746
 20
117.0859391984
 10
149.7446977035
 20
117.1020716637
 10
149.7463089024
 20
117.1183436755
 10
149.7468533778
 20
117.1346856088
  0
LINE
  5
5BC
100
AcDbEntity
  8
ASSI
100
AcDbLine
 62
7
  6
CONTINUOUS
 10
149.2397317911
 20
116.8574732581
 11
149.5515231353
 21
116.8574732581
  0
LINE
  5
5BD
100
AcDbEntity
  8
ASSI
100
AcDbLine
 62
7
  6
CONTINUOUS
 10
160.4397317911
 20
116.8574732581
 11
160.7515231353
 21
116.8574732581
  0
LINE
  5
5BE
100
AcDbEntity
  8
ASSI
100
AcDbLine
 62
250
  6
CONTINUOUS
 10
149.2942487969
 20
116.8847234559
 11
149.4970061295
 21
116.8847234559
  0
LINE
  5
5BF
100
AcDbEntity
  8
ASSI
100
AcDbLine
 62
250
  6
CONTINUOUS
 10
160.4942487969
 20
116.8847234559
 11
160.6970061295
 21
116.8847234559
  0
LINE
  5
5C0
100
AcDbEntity
  8
ASSI
100
AcDbLine
 62
250
  6
CONTINUOUS
 10
149.0461171145
 20
117.1846779936
 11
149.7451378119
 21
117.1846779936
  0
LINE
  5
5C1
100
AcDbEntity
  8
ASSI
100
AcDbLine
 62
250
  6
CONTINUOUS
 10
160.2461171145
 20
117.1846779936
 11
160.9451378119
 21
117.1846779936
  0
LINE
  5
5C2
100
AcDbEntity
  8
ASSI
100
AcDbLine
 62
7
  6
CONTINUOUS
 10
160.6880758948
 20
118.3604202076
 11
160.5031790316
 21
118.3604202076
  0
LINE
  5
5C3
100
AcDbEntity
  8
ASSI
100
AcDbLine
 62
7
  6
CONTINUOUS
 10
149.3031790316
 20
118.3604202076
 11
149.4880758948
 21
118.3604202076
  0
LWPOLYLINE
  5
5C4
100
AcDbEntity
  8
ASSI
100
AcDbPolyline
 62
7
  6
CONTINUOUS
 90
28
 70
0
 10
149.2397317911
 20
116.8574732581
 10
149.2252731288
 20
116.8578914845
 10
149.210833937
 20
116.8591484551
 10
149.1964631117
 20
116.8612452172
 10
149.1821902596
 20
116.8641845498
 10
149.1680848646
 20
116.8679593795
 10
149.1542530911
 20
116.872541441
 10
149.1407708697
 20
116.8778970684
 10
149.1276497401
 20
116.8840129744
 10
149.1148971718
 20
116.8908838352
 10
149.1025552589
 20
116.8984891269
 10
149.090668075
 20
116.906803928
 10
149.0792505224
 20
116.9158236213
 10
149.0683163796
 20
116.925551752
 10
149.0579410502
 20
116.935936372
 10
149.0482225543
 20
116.9468793306
 10
149.0392132012
 20
116.9583046724
 10
149.0309090331
 20
116.9701991052
 10
149.0233136493
 20
116.9825493321
 10
149.0164520217
 20
116.9953118947
 10
149.0103452706
 20
117.0084443703
 10
149.0049988575
 20
117.0219396413
 10
149.0004260828
 20
117.0357875961
 10
148.9966615421
 20
117.0499109836
 10
148.9937343978
 20
117.0641996421
 10
148.9916515227
 20
117.0785825572
 10
148.9904095985
 20
117.0930312666
 10
148.9900072702
 20
117.107496756
  0
LWPOLYLINE
  5
5C5
100
AcDbEntity
  8
ASSI
100
AcDbPolyline
 62
7
  6
CONTINUOUS
 90
28
 70
0
 10
160.4397317911
 20
116.8574732581
 10
160.4252731288
 20
116.8578914845
 10
160.410833937
 20
116.8591484551
 10
160.3964631117
 20
116.8612452172
 10
160.3821902596
 20
116.8641845498
 10
160.3680848646
 20
116.8679593795
 10
160.3542530911
 20
116.872541441
 10
160.3407708697
 20
116.8778970684
 10
160.3276497401
 20
116.8840129744
 10
160.3148971718
 20
116.8908838352
 10
160.3025552589
 20
116.8984891269
 10
160.290668075
 20
116.906803928
 10
160.2792505224
 20
116.9158236213
 10
160.2683163796
 20
116.925551752
 10
160.2579410502
 20
116.935936372
 10
160.2482225543
 20
116.9468793306
 10
160.2392132012
 20
116.9583046724
 10
160.2309090331
 20
116.9701991052
 10
160.2233136493
 20
116.9825493321
 10
160.2164520217
 20
116.9953118947
 10
160.2103452706
 20
117.0084443703
 10
160.2049988575
 20
117.0219396413
 10
160.2004260828
 20
117.0357875961
 10
160.1966615421
 20
117.0499109836
 10
160.1937343978
 20
117.0641996421
 10
160.1916515227
 20
117.0785825572
 10
160.1904095985
 20
117.0930312666
 10
160.1900072702
 20
117.107496756
  0
LWPOLYLINE
  5
5C6
100
AcDbEntity
  8
ASSI
100
AcDbPolyline
 62
250
  6
CONTINUOUS
 90
25
 70
0
 10
149.2942492553
 20
116.884723685
 10
149.2779147576
 20
116.8852684114
 10
149.2616501525
 20
116.8868803528
 10
149.2455250335
 20
116.8895526118
 10
149.2296083975
 20
116.8932737543
 10
149.2139683489
 20
116.8980278583
 10
149.1986718091
 20
116.9037945815
 10
149.1837842294
 20
116.9105492493
 10
149.1693693112
 20
116.9182629595
 10
149.1554887336
 20
116.9269027063
 10
149.1422018894
 20
116.9364315219
 10
149.1295656306
 20
116.9468086338
 10
149.1176340259
 20
116.9579896403
 10
149.1064581284
 20
116.9699266995
 10
149.0960857582
 20
116.9825687349
 10
149.0865612967
 20
116.9958616532
 10
149.0779254977
 20
117.0097485762
 10
149.0702153122
 20
117.0241700841
 10
149.0634637309
 20
117.0390644697
 10
149.0576996427
 20
117.0543680022
 10
149.0529477111
 20
117.0700152006
 10
149.0492282688
 20
117.0859391129
 10
149.0465572309
 20
117.1020716034
 10
149.0449460261
 20
117.1183436438
 10
149.0444015486
 20
117.1346856088
  0
LWPOLYLINE
  5
5C7
100
AcDbEntity
  8
ASSI
100
AcDbPolyline
 62
250
  6
CONTINUOUS
 90
25
 70
0
 10
160.4942492553
 20
116.884723685
 10
160.4779147576
 20
116.8852684114
 10
160.4616501525
 20
116.8868803528
 10
160.4455250335
 20
116.8895526118
 10
160.4296083975
 20
116.8932737543
 10
160.4139683489
 20
116.8980278583
 10
160.3986718091
 20
116.9037945815
 10
160.3837842294
 20
116.9105492493
 10
160.3693693112
 20
116.9182629595
 10
160.3554887336
 20
116.9269027063
 10
160.3422018894
 20
116.9364315219
 10
160.3295656306
 20
116.9468086338
 10
160.3176340259
 20
116.9579896403
 10
160.3064581284
 20
116.9699266995
 10
160.2960857582
 20
116.9825687349
 10
160.2865612967
 20
116.9958616532
 10
160.2779254977
 20
117.0097485762
 10
160.2702153122
 20
117.0241700841
 10
160.2634637309
 20
117.0390644697
 10
160.2576996427
 20
117.0543680022
 10
160.2529477111
 20
117.0700152006
 10
160.2492282688
 20
117.0859391129
 10
160.2465572309
 20
117.1020716034
 10
160.2449460261
 20
117.1183436438
 10
160.2444015486
 20
117.1346856088
  0
LWPOLYLINE
  5
5C8
100
AcDbEntity
  8
ASSI
100
AcDbPolyline
 62
250
  6
CONTINUOUS
 90
25
 70
0
 10
149.3538872873
 20
118.6164636382
 10
149.3376091213
 20
118.6170839273
 10
149.3214001243
 20
118.6187477387
 10
149.3053291714
 20
118.6214480026
 10
149.2894645509
 20
118.6251732452
 10
149.2738736748
 20
118.6299076371
 10
149.2586227914
 20
118.635631061
 10
149.2437767047
 20
118.6423191971
 10
149.2293984984
 20
118.6499436262
 10
149.2155492684
 20
118.6584719506
 10
149.2022878624
 20
118.6678679319
 10
149.1896706308
 20
118.6780916449
 10
149.1777511864
 20
118.6890996471
 10
149.1665801773
 20
118.7008451633
 10
149.1562050712
 20
118.7132782848
 10
149.1466699538
 20
118.7263461808
 10
149.1380153416
 20
118.7399933234
 10
149.1302780096
 20
118.7541617234
 10
149.1234908354
 20
118.7687911766
 10
149.1176826587
 20
118.7838195196
 10
149.1128781598
 20
118.7991828943
 10
149.1090977537
 20
118.8148160188
 10
149.1063575041
 20
118.830652465
 10
149.1046690549
 20
118.8466249409
 10
149.1040395805
 20
118.8626655765
  0
LWPOLYLINE
  5
5C9
100
AcDbEntity
  8
ASSI
100
AcDbPolyline
 62
250
  6
CONTINUOUS
 90
13
 70
0
 10
160.9468533778
 20
117.1346856088
 10
160.9467526335
 20
117.1348204217
 10
160.9466529404
 20
117.135117431
 10
160.9465542986
 20
117.1355766366
 10
160.9464563779
 20
117.1362006231
 10
160.9463595084
 20
117.136986806
 10
160.9462646803
 20
117.1379274315
 10
160.9461719243
 20
117.1390240121
 10
160.9460812096
 20
117.1402750354
 10
160.9459934338
 20
117.14166821
 10
160.9459086259
 20
117.1432049634
 10
160.9458267568
 20
117.1448838681
 10
160.9457486371
 20
117.1466883497
  0
LINE
  5
5CA
100
AcDbEntity
  8
ASSI
100
AcDbLine
 62
7
  6
CONTINUOUS
 10
160.9157598372
 20
121.8262433662
 11
160.9897405404
 21
121.5661205713
  0
LINE
  5
5CB
100
AcDbEntity
  8
ASSI
100
AcDbLine
 62
7
  6
CONTINUOUS
 10
162.4533624901
 20
121.8385218223
 11
162.87934594
 21
121.9291153383
  0
LWPOLYLINE
  5
5CC
100
AcDbEntity
  8
ASSI
100
AcDbPolyline
 62
250
  6
CONTINUOUS
 90
25
 70
0
 10
149.4373676391
 20
118.6164636382
 10
149.4536458614
 20
118.6170839313
 10
149.4698549112
 20
118.6187477536
 10
149.4859259131
 20
118.6214480347
 10
149.5017905785
 20
118.6251733001
 10
149.5173814946
 20
118.6299077198
 10
149.5326324104
 20
118.635631175
 10
149.5474785217
 20
118.6423193445
 10
149.5618567449
 20
118.6499438081
 10
149.5757059832
 20
118.6584721661
 10
149.5889673888
 20
118.6678681788
 10
149.6015846124
 20
118.6780919197
 10
149.6135040414
 20
118.6890999447
 10
149.6246750285
 20
118.7008454775
 10
149.6350501074
 20
118.7132786085
 10
149.6445851938
 20
118.7263465063
 10
149.6532397723
 20
118.7399936422
 10
149.6609770694
 20
118.7541620267
 10
149.6677642096
 20
118.7687914564
 10
149.6735723541
 20
118.7838197678
 10
149.6783768243
 20
118.7991831029
 10
149.6821572065
 20
118.8148161821
 10
149.6848974381
 20
118.8306525784
 10
149.6865858758
 20
118.8466249996
 10
149.6872153459
 20
118.8626655765
  0
LWPOLYLINE
  5
5CD
100
AcDbEntity
  8
ASSI
100
AcDbPolyline
 62
250
  6
CONTINUOUS
 90
25
 70
0
 10
160.5551665392
 20
119.3206972873
 10
160.5391462812
 20
119.3202658091
 10
160.5231918936
 20
119.3194017065
 10
160.5073689727
 20
119.3181085325
 10
160.4917425736
 20
119.3163916042
 10
160.4763769447
 20
119.3142579809
 10
160.4613352636
 20
119.3117164358
 10
160.4466793739
 20
119.3087774187
 10
160.4324695324
 20
119.3054530138
 10
160.4187641634
 20
119.3017568901
 10
160.405619616
 20
119.2977042446
 10
160.3930899325
 20
119.29331174
 10
160.3812266281
 20
119.2885974368
 10
160.3700784777
 20
119.283580718
 10
160.3596913152
 20
119.2782822101
 10
160.3501078458
 20
119.2727236979
 10
160.3413674705
 20
119.2669280354
 10
160.3335061239
 20
119.2609190515
 10
160.3265561257
 20
119.2547214515
 10
160.3205460496
 20
119.2483607168
 10
160.3155006047
 20
119.2418629992
 10
160.3114405335
 20
119.2352550131
 10
160.3083825282
 20
119.2285639266
 10
160.3063391609
 20
119.22181725
 10
160.3053188324
 20
119.2150427219
  0
LWPOLYLINE
  5
5CE
100
AcDbEntity
  8
ASSI
100
AcDbPolyline
 62
250
  6
CONTINUOUS
 90
25
 70
0
 10
149.3551665392
 20
119.3206972873
 10
149.3391462812
 20
119.3202658091
 10
149.3231918936
 20
119.3194017065
 10
149.3073689727
 20
119.3181085325
 10
149.2917425736
 20
119.3163916042
 10
149.2763769447
 20
119.3142579809
 10
149.2613352636
 20
119.3117164358
 10
149.2466793739
 20
119.3087774187
 10
149.2324695324
 20
119.3054530138
 10
149.2187641634
 20
119.3017568901
 10
149.205619616
 20
119.2977042446
 10
149.1930899325
 20
119.29331174
 10
149.1812266281
 20
119.2885974368
 10
149.1700784777
 20
119.283580718
 10
149.1596913152
 20
119.2782822101
 10
149.1501078458
 20
119.2727236979
 10
149.1413674705
 20
119.2669280354
 10
149.1335061239
 20
119.2609190515
 10
149.1265561257
 20
119.2547214515
 10
149.1205460496
 20
119.2483607168
 10
149.1155006047
 20
119.2418629992
 10
149.1114405335
 20
119.2352550131
 10
149.1083825282
 20
119.2285639266
 10
149.1063391609
 20
119.22181725
 10
149.1053188324
 20
119.2150427219
  0
LINE
  5
5CF
100
AcDbEntity
  8
ASSI
100
AcDbLine
 62
250
  6
CONTINUOUS
 10
149.3538872873
 20
118.6164636382
 11
149.4373676391
 21
118.6164636382
  0
LINE
  5
5D0
100
AcDbEntity
  8
ASSI
100
AcDbLine
 62
250
  6
CONTINUOUS
 10
160.5538872873
 20
118.6164636382
 11
160.6373676391
 21
118.6164636382
  0
LINE
  5
5D1
100
AcDbEntity
  8
ASSI
100
AcDbLine
 62
250
  6
CONTINUOUS
 10
149.1054824226
 20
118.9119059641
 11
149.6857725038
 21
118.9119059641
  0
LINE
  5
5D2
100
AcDbEntity
  8
ASSI
100
AcDbLine
 62
250
  6
CONTINUOUS
 10
160.3054824226
 20
118.9119059641
 11
160.8857725038
 21
118.9119059641
  0
LINE
  5
5D3
100
AcDbEntity
  8
ASSI
100
AcDbLine
 62
250
  6
CONTINUOUS
 10
149.1054824226
 20
119.1939118088
 11
149.6857725038
 21
119.1939118088
  0
LINE
  5
5D4
100
AcDbEntity
  8
ASSI
100
AcDbLine
 62
250
  6
CONTINUOUS
 10
160.3054824226
 20
119.1939118088
 11
160.8857725038
 21
119.1939118088
  0
LINE
  5
5D5
100
AcDbEntity
  8
ASSI
100
AcDbLine
 62
250
  6
CONTINUOUS
 10
149.3551665392
 20
119.3206972873
 11
149.4360883873
 21
119.3206972873
  0
LINE
  5
5D6
100
AcDbEntity
  8
ASSI
100
AcDbLine
 62
250
  6
CONTINUOUS
 10
160.5551665392
 20
119.3206972873
 11
160.6360883873
 21
119.3206972873
  0
LWPOLYLINE
  5
5D7
100
AcDbEntity
  8
ASSI
100
AcDbPolyline
 62
250
  6
CONTINUOUS
 90
25
 70
0
 10
149.4360883873
 20
119.3206972873
 10
149.4521085856
 20
119.3202658126
 10
149.4680629175
 20
119.3194017164
 10
149.483885787
 20
119.3181085516
 10
149.4995121391
 20
119.3163916348
 10
149.5148777263
 20
119.3142580251
 10
149.5299193737
 20
119.3117164948
 10
149.544575238
 20
119.3087774933
 10
149.558785062
 20
119.3054531043
 10
149.5724904225
 20
119.3017569958
 10
149.5856349703
 20
119.2977043644
 10
149.598164662
 20
119.2933118722
 10
149.6100279822
 20
119.2885975788
 10
149.6211761553
 20
119.283580867
 10
149.6315633458
 20
119.2782823627
 10
149.6411468472
 20
119.2727238507
 10
149.6498872572
 20
119.2669281845
 10
149.6577486399
 20
119.2609191929
 10
149.6646986734
 20
119.2547215816
 10
149.670708783
 20
119.2483608319
 10
149.6757542581
 20
119.2418630959
 10
149.6798143546
 20
119.2352550887
 10
149.6828723795
 20
119.228563979
 10
149.6849157597
 20
119.2218172771
 10
149.685936094
 20
119.2150427219
  0
LWPOLYLINE
  5
5D8
100
AcDbEntity
  8
ASSI
100
AcDbPolyline
 62
250
  6
CONTINUOUS
 90
25
 70
0
 10
160.6360883873
 20
119.3206972873
 10
160.6521085856
 20
119.3202658126
 10
160.6680629175
 20
119.3194017164
 10
160.683885787
 20
119.3181085516
 10
160.6995121391
 20
119.3163916348
 10
160.7148777263
 20
119.3142580251
 10
160.7299193737
 20
119.3117164948
 10
160.744575238
 20
119.3087774933
 10
160.758785062
 20
119.3054531043
 10
160.7724904225
 20
119.3017569958
 10
160.7856349703
 20
119.2977043644
 10
160.798164662
 20
119.2933118722
 10
160.8100279822
 20
119.2885975788
 10
160.8211761553
 20
119.283580867
 10
160.8315633458
 20
119.2782823627
 10
160.8411468472
 20
119.2727238507
 10
160.8498872572
 20
119.2669281845
 10
160.8577486399
 20
119.2609191929
 10
160.8646986734
 20
119.2547215816
 10
160.870708783
 20
119.2483608319
 10
160.8757542581
 20
119.2418630959
 10
160.8798143546
 20
119.2352550887
 10
160.8828723795
 20
119.228563979
 10
160.8849157597
 20
119.2218172771
 10
160.885936094
 20
119.2150427219
  0
LWPOLYLINE
  5
5D9
100
AcDbEntity
  8
ASSI
100
AcDbPolyline
 62
250
  6
CONTINUOUS
 90
25
 70
0
 10
160.5538872873
 20
118.6164636382
 10
160.5376091213
 20
118.6170839273
 10
160.5214001243
 20
118.6187477387
 10
160.5053291714
 20
118.6214480026
 10
160.4894645509
 20
118.6251732452
 10
160.4738736748
 20
118.6299076371
 10
160.4586227914
 20
118.635631061
 10
160.4437767047
 20
118.6423191971
 10
160.4293984984
 20
118.6499436262
 10
160.4155492684
 20
118.6584719506
 10
160.4022878624
 20
118.6678679319
 10
160.3896706308
 20
118.6780916449
 10
160.3777511864
 20
118.6890996471
 10
160.3665801773
 20
118.7008451633
 10
160.3562050712
 20
118.7132782848
 10
160.3466699538
 20
118.7263461808
 10
160.3380153416
 20
118.7399933234
 10
160.3302780096
 20
118.7541617234
 10
160.3234908354
 20
118.7687911766
 10
160.3176826587
 20
118.7838195196
 10
160.3128781598
 20
118.7991828943
 10
160.3090977537
 20
118.8148160188
 10
160.3063575041
 20
118.830652465
 10
160.3046690549
 20
118.8466249409
 10
160.3040395805
 20
118.8626655765
  0
LINE
  5
5DA
100
AcDbEntity
  8
ASSI
100
AcDbLine
 62
250
  6
CONTINUOUS
 10
160.7515231353
 20
116.8574732581
 11
160.6970061295
 21
116.8847234559
  0
LINE
  5
5DB
100
AcDbEntity
  8
ASSI
100
AcDbLine
 62
250
  6
CONTINUOUS
 10
161.0012476562
 20
117.107496756
 11
160.9468533778
 21
117.1346856088
  0
LINE
  5
5DC
100
AcDbEntity
  8
ASSI
100
AcDbLine
 62
7
  6
CONTINUOUS
 10
151.2533624901
 20
121.8385218223
 11
151.67934594
 21
121.9291153383
  0
LWPOLYLINE
  5
5DD
100
AcDbEntity
  8
ASSI
100
AcDbPolyline
 62
250
  6
CONTINUOUS
 90
13
 70
0
 10
145.2348683658
 20
121.3738708553
 10
145.2235818215
 20
121.3734771825
 10
145.2130325627
 20
121.3730514384
 10
145.2032782832
 20
121.3725959514
 10
145.1943723288
 20
121.3721132115
 10
145.186363406
 20
121.3716058592
 10
145.1792953154
 20
121.3710766708
 10
145.1732067122
 20
121.3705285379
 10
145.1681308949
 20
121.3699644582
 10
145.1640956229
 20
121.3693875211
 10
145.1611229651
 20
121.368800881
 10
145.1592291788
 20
121.3682077408
 10
145.1584246211
 20
121.367611341
  0
LINE
  5
5DE
100
AcDbEntity
  8
ASSI
100
AcDbLine
 62
250
  6
CONTINUOUS
 10
145.2594027133
 20
121.3745535595
 11
145.2348683658
 21
121.3738708553
  0
LINE
  5
5DF
100
AcDbEntity
  8
ASSI
100
AcDbLine
 62
250
  6
CONTINUOUS
 10
145.2860996277
 20
121.3750846391
 11
145.2594027133
 21
121.3745535595
  0
LINE
  5
5E0
100
AcDbEntity
  8
ASSI
100
AcDbLine
 62
250
  6
CONTINUOUS
 10
145.3143758883
 20
121.3754524907
 11
145.2860996277
 21
121.3750846391
  0
LINE
  5
5E1
100
AcDbEntity
  8
ASSI
100
AcDbLine
 62
250
  6
CONTINUOUS
 10
145.3436137721
 20
121.3756490834
 11
145.3143758883
 21
121.3754524907
  0
LINE
  5
5E2
100
AcDbEntity
  8
ASSI
100
AcDbLine
 62
250
  6
CONTINUOUS
 10
164.6328607559
 20
121.3756816565
 11
160.9958678518
 21
121.3756816565
  0
LINE
  5
5E3
100
AcDbEntity
  8
ASSI
100
AcDbLine
 62
250
  6
CONTINUOUS
 10
160.1953870747
 20
121.3756816565
 11
149.7958678518
 21
121.3756816565
  0
LINE
  5
5E4
100
AcDbEntity
  8
ASSI
100
AcDbLine
 62
250
  6
CONTINUOUS
 10
148.9953870747
 20
121.3756816565
 11
145.3436137721
 21
121.3756490834
  0
LINE
  5
5E5
100
AcDbEntity
  8
ASSI
100
AcDbLine
 62
250
  6
CONTINUOUS
 10
164.6328607663
 20
121.5661205713
 11
160.9897405404
 21
121.5661205713
  0
LINE
  5
5E6
100
AcDbEntity
  8
ASSI
100
AcDbLine
 62
250
  6
CONTINUOUS
 10
160.201514386
 20
121.5661205713
 11
149.7897405404
 21
121.5661205713
  0
LINE
  5
5E7
100
AcDbEntity
  8
ASSI
100
AcDbLine
 62
250
  6
CONTINUOUS
 10
149.001514386
 20
121.5661205713
 11
145.3583941602
 21
121.5661205713
  0
LINE
  5
5E8
100
AcDbEntity
  8
ASSI
100
AcDbLine
 62
7
  6
CONTINUOUS
 10
149.4735196925
 20
121.6193778201
 11
149.317735234
 21
121.6193778201
  0
LINE
  5
5E9
100
AcDbEntity
  8
ASSI
100
AcDbLine
 62
7
  6
CONTINUOUS
 10
160.517735234
 20
121.6193778201
 11
160.6735196925
 21
121.6193778201
  0
LINE
  5
5EA
100
AcDbEntity
  8
ASSI
100
AcDbLine
 62
7
  6
CONTINUOUS
 10
147.7110975171
 20
121.8262433662
 11
149.0754950892
 21
121.8262433662
  0
LINE
  5
5EB
100
AcDbEntity
  8
ASSI
100
AcDbLine
 62
7
  6
CONTINUOUS
 10
149.7157598372
 20
121.8262433662
 11
151.0801574094
 21
121.8262433662
  0
LINE
  5
5EC
100
AcDbEntity
  8
ASSI
100
AcDbLine
 62
7
  6
CONTINUOUS
 10
158.9110975171
 20
121.8262433662
 11
160.2754950892
 21
121.8262433662
  0
LINE
  5
5ED
100
AcDbEntity
  8
ASSI
100
AcDbLine
 62
7
  6
CONTINUOUS
 10
160.9157598372
 20
121.8262433662
 11
162.2801574094
 21
121.8262433662
  0
LINE
  5
5EE
100
AcDbEntity
  8
ASSI
100
AcDbLine
 62
7
  6
CONTINUOUS
 10
145.3067907894
 20
121.9291153383
 11
147.1119089864
 21
121.9291153383
  0
LINE
  5
5EF
100
AcDbEntity
  8
ASSI
100
AcDbLine
 62
7
  6
CONTINUOUS
 10
151.67934594
 20
121.9291153383
 11
158.3119089864
 21
121.9291153383
  0
LINE
  5
5F0
100
AcDbEntity
  8
ASSI
100
AcDbLine
 62
7
  6
CONTINUOUS
 10
162.87934594
 20
121.9291153383
 11
164.6844641371
 21
121.9291153383
  0
LWPOLYLINE
  5
5F1
100
AcDbEntity
  8
ASSI
100
AcDbPolyline
 62
250
  6
CONTINUOUS
 90
3
 70
0
 10
164.6768790381
 20
121.3754524907
 10
164.6476073469
 20
121.3755464534
 10
164.6328607663
 20
121.3756816565
  0
LINE
  5
5F2
100
AcDbEntity
  8
ASSI
100
AcDbLine
 62
250
  6
CONTINUOUS
 10
164.6911830668
 20
121.3753074876
 11
164.6768790381
 21
121.3754524907
  0
LWPOLYLINE
  5
5F3
100
AcDbEntity
  8
ASSI
100
AcDbPolyline
 62
250
  6
CONTINUOUS
 90
3
 70
0
 10
164.7563865606
 20
121.3738708553
 10
164.7318589016
 20
121.3745705497
 10
164.6911830668
 20
121.3753074876
  0
LWPOLYLINE
  5
5F4
100
AcDbEntity
  8
ASSI
100
AcDbPolyline
 62
250
  6
CONTINUOUS
 90
25
 70
0
 10
164.6328607663
 20
121.5661205713
 10
164.6459217457
 20
121.5656691209
 10
164.6589269473
 20
121.5643718511
 10
164.6718208315
 20
121.5622343019
 10
164.6845483341
 20
121.5592656019
 10
164.6970551013
 20
121.5554784291
 10
164.7092877222
 20
121.5508889569
 10
164.7211939565
 20
121.545516785
 10
164.7327229577
 20
121.5393848557
 10
164.7438254906
 20
121.5325193556
 10
164.754454141
 20
121.5249496045
 10
164.7645635185
 20
121.5167079294
 10
164.7741104502
 20
121.5078295271
 10
164.7830541654
 20
121.4983523133
 10
164.7913564693
 20
121.4883167612
 10
164.7989819064
 20
121.4777657282
 10
164.8058979117
 20
121.4667442733
 10
164.8120749498
 20
121.4552994643
 10
164.8174866414
 20
121.4434801771
 10
164.8221098755
 20
121.4313368869
 10
164.8259249081
 20
121.4189214523
 10
164.828915447
 20
121.4062868943
 10
164.8310687208
 20
121.3934871697
 10
164.8323755338
 20
121.3805769406
 10
164.8328303053
 20
121.367611341
  0
LWPOLYLINE
  5
5F5
100
AcDbEntity
  8
ASSI
100
AcDbPolyline
 62
250
  6
CONTINUOUS
 90
3
 70
0
 10
164.7879766433
 20
121.3725959514
 10
164.7676812018
 20
121.3734968422
 10
164.7563865606
 20
121.3738708553
  0
LINE
  5
5F6
100
AcDbEntity
  8
ASSI
100
AcDbLine
 62
250
  6
CONTINUOUS
 10
164.7968927836
 20
121.3721406066
 11
164.7879766433
 21
121.3725959514
  0
LINE
  5
5F7
100
AcDbEntity
  8
ASSI
100
AcDbLine
 62
7
  6
CONTINUOUS
 10
147.5378924363
 20
121.8385218223
 11
147.1119089864
 21
121.9291153383
  0
LINE
  5
5F8
100
AcDbEntity
  8
ASSI
100
AcDbLine
 62
250
  6
CONTINUOUS
 10
160.6970061295
 20
85.6361169593
 11
160.7515231353
 21
85.6633671571
  0
LINE
  5
5F9
100
AcDbEntity
  8
ASSI
100
AcDbLine
 62
250
  6
CONTINUOUS
 10
160.9468533778
 20
85.3861548064
 11
161.0012476562
 21
85.4133436591
  0
LINE
  5
5FA
100
AcDbEntity
  8
ASSI
100
AcDbLine
 62
7
  6
CONTINUOUS
 10
162.8040524562
 20
123.4197329133
 11
162.4533624901
 21
123.3878997553
  0
LINE
  5
5FB
100
AcDbEntity
  8
ASSI
100
AcDbLine
 62
7
  6
CONTINUOUS
 10
151.6040524562
 20
123.4197329133
 11
151.2533624901
 21
123.3878997553
  0
LINE
  5
5FC
100
AcDbEntity
  8
ASSI
100
AcDbLine
 62
7
  6
CONTINUOUS
 10
147.7110975171
 20
123.3826589774
 11
151.0801574094
 21
123.3826589774
  0
LINE
  5
5FD
100
AcDbEntity
  8
ASSI
100
AcDbLine
 62
7
  6
CONTINUOUS
 10
158.9110975171
 20
123.3826589774
 11
162.2801574094
 21
123.3826589774
  0
LINE
  5
5FE
100
AcDbEntity
  8
ASSI
100
AcDbLine
 62
7
  6
CONTINUOUS
 10
144.3590815238
 20
123.4197329133
 11
147.1872024702
 21
123.4197329133
  0
LINE
  5
5FF
100
AcDbEntity
  8
ASSI
100
AcDbLine
 62
7
  6
CONTINUOUS
 10
151.6040524562
 20
123.4197329133
 11
158.3872024702
 21
123.4197329133
  0
LINE
  5
600
100
AcDbEntity
  8
ASSI
100
AcDbLine
 62
7
  6
CONTINUOUS
 10
162.8040524562
 20
123.4197329133
 11
165.6321734026
 21
123.4197329133
  0
LINE
  5
601
100
AcDbEntity
  8
ASSI
100
AcDbLine
 62
7
  6
CONTINUOUS
 10
147.1872024702
 20
123.4197329133
 11
147.5378924363
 21
123.3878997553
  0
LINE
  5
602
100
AcDbEntity
  8
ASSI
100
AcDbLine
 62
7
  6
CONTINUOUS
 10
158.3872024702
 20
123.4197329133
 11
158.7378924363
 21
123.3878997553
  0
LINE
  5
603
100
AcDbEntity
  8
ASSI
100
AcDbLine
 62
7
  6
CONTINUOUS
 10
158.7378924363
 20
121.8385218223
 11
158.3119089864
 21
121.9291153383
  0
LWPOLYLINE
  5
604
100
AcDbEntity
  8
ASSI
100
AcDbPolyline
 62
250
  6
CONTINUOUS
 90
8
 70
0
 10
164.8328303053
 20
121.367611341
 10
164.8320146381
 20
121.3683205562
 10
164.8301164843
 20
121.3688892514
 10
164.8271593035
 20
121.3693875211
 10
164.8231398172
 20
121.3699533414
 10
164.8180575565
 20
121.3705675502
 10
164.8119596111
 20
121.3710766708
 10
164.7968927836
 20
121.3721406066
  0
ARC
  5
605
100
AcDbEntity
  8
ASSI
100
AcDbCircle
 62
7
  6
CONTINUOUS
 10
154.9956274632
 20
101.2604202076
 40
2.95
100
AcDbArc
 50
25.6291347882
 51
154.3708652118
  0
ARC
  5
606
100
AcDbEntity
  8
ASSI
100
AcDbCircle
 62
7
  6
CONTINUOUS
 10
154.9956274632
 20
101.2604202076
 40
2.95
100
AcDbArc
 50
205.6291347882
 51
334.3708652118
  0
ARC
  5
607
100
AcDbEntity
  8
ASSI
100
AcDbCircle
 62
7
  6
CONTINUOUS
 10
154.9956274632
 20
101.2604202076
 40
2.3052365195
100
AcDbArc
 50
3.1594622934
 51
176.8405377066
  0
ARC
  5
608
100
AcDbEntity
  8
ASSI
100
AcDbCircle
 62
7
  6
CONTINUOUS
 10
154.9956274632
 20
101.2604202076
 40
2.3052365195
100
AcDbArc
 50
183.1594622934
 51
356.8405377066
  0
ARC
  5
609
100
AcDbEntity
  8
ASSI
100
AcDbCircle
 62
7
  6
CONTINUOUS
 10
154.9956274632
 20
101.2604202076
 40
2.3
100
AcDbArc
 50
3.2319837745
 51
176.7680162255
  0
ARC
  5
60A
100
AcDbEntity
  8
ASSI
100
AcDbCircle
 62
7
  6
CONTINUOUS
 10
154.9956274632
 20
101.2604202076
 40
2.3
100
AcDbArc
 50
183.2319837745
 51
356.7680162255
  0
ARC
  5
60B
100
AcDbEntity
  8
ASSI
100
AcDbCircle
 62
7
  6
CONTINUOUS
 10
154.9956274632
 20
101.2604202076
 40
1.9273811542
100
AcDbArc
 50
3.8576891981
 51
176.1423108019
  0
ARC
  5
60C
100
AcDbEntity
  8
ASSI
100
AcDbCircle
 62
7
  6
CONTINUOUS
 10
154.9956274632
 20
101.2604202076
 40
1.9273811542
100
AcDbArc
 50
183.8576891981
 51
356.1423108019
  0
ARC
  5
60D
100
AcDbEntity
  8
ASSI
100
AcDbCircle
 62
7
  6
CONTINUOUS
 10
154.9956274632
 20
101.2604202076
 40
1.875
100
AcDbArc
 50
4.3667008241
 51
175.6332991759
  0
ARC
  5
60E
100
AcDbEntity
  8
ASSI
100
AcDbCircle
 62
7
  6
CONTINUOUS
 10
154.9956274632
 20
101.2604202076
 40
1.875
100
AcDbArc
 50
184.3667008241
 51
355.6332991759
  0
ARC
  5
60F
100
AcDbEntity
  8
ASSI
100
AcDbCircle
 62
7
  6
CONTINUOUS
 10
154.9956274632
 20
101.2604202076
 40
1.375
100
AcDbArc
 50
15.3271627815
 51
164.6728372185
  0
ARC
  5
610
100
AcDbEntity
  8
ASSI
100
AcDbCircle
 62
7
  6
CONTINUOUS
 10
154.9956274632
 20
101.2604202076
 40
1.375
100
AcDbArc
 50
195.3271627815
 51
344.6728372185
  0
ELLIPSE
  5
611
100
AcDbEntity
  8
ASSI
100
AcDbEllipse
 62
7
  6
CONTINUOUS
 10
144.3587771694
 20
122.9213319519
 30
0.0
 11
0.498078285
 21
0.0448076117
 31
0.0
 40
0.9965957691
 41
1.4807720384
 42
3.0506549766
  0
ELLIPSE
  5
612
100
AcDbEntity
  8
ASSI
100
AcDbEllipse
 62
7
  6
CONTINUOUS
 10
165.6324777571
 20
122.9213319519
 30
0.0
 11
0.498078285
 21
-0.0448076117
 31
0.0
 40
0.9965957691
 41
0.0909376769
 42
1.6608206152
  0
ELLIPSE
  5
613
100
AcDbEntity
  8
ASSI
100
AcDbEllipse
 62
7
  6
CONTINUOUS
 10
144.0456579288
 20
101.5604278233
 30
0.0
 11
0.1789222233
 21
0.0894542984
 31
0.0
 40
0.9998096356
 41
2.6780516535
 42
4.2486956813
  0
ELLIPSE
  5
614
100
AcDbEntity
  8
ASSI
100
AcDbEllipse
 62
7
  6
CONTINUOUS
 10
165.9455969976
 20
101.5604278233
 30
0.0
 11
0.1789222233
 21
-0.0894542984
 31
0.0
 40
0.9998096356
 41
-1.1071030277
 42
0.4635410001
  0
ELLIPSE
  5
615
100
AcDbEntity
  8
ASSI
100
AcDbEllipse
 62
7
  6
CONTINUOUS
 10
162.2801574094
 20
123.3931405332
 30
0.0
 11
0.2
 21
0.0
 31
0.0
 40
0.0524077793
 41
-1.5707963268
 42
-0.5235987756
  0
ELLIPSE
  5
616
100
AcDbEntity
  8
ASSI
100
AcDbEllipse
 62
7
  6
CONTINUOUS
 10
158.9110975171
 20
123.3931405332
 30
0.0
 11
0.2
 21
-0.0
 31
0.0
 40
0.0524077793
 41
-2.617993878
 42
-1.5707963268
  0
ELLIPSE
  5
617
100
AcDbEntity
  8
ASSI
100
AcDbEllipse
 62
7
  6
CONTINUOUS
 10
151.0801574094
 20
123.3931405332
 30
0.0
 11
0.2
 21
0.0
 31
0.0
 40
0.0524077793
 41
-1.5707963268
 42
-0.5235987756
  0
ELLIPSE
  5
618
100
AcDbEntity
  8
ASSI
100
AcDbEllipse
 62
7
  6
CONTINUOUS
 10
147.7110975171
 20
123.3931405332
 30
0.0
 11
0.2
 21
-0.0
 31
0.0
 40
0.0524077793
 41
-2.617993878
 42
-1.5707963268
  0
ELLIPSE
  5
619
100
AcDbEntity
  8
ASSI
100
AcDbEllipse
 62
7
  6
CONTINUOUS
 10
149.4656074511
 20
121.0278274243
 30
0.0
 11
0.0096324734
 21
0.5915363915
 31
0.0
 40
0.4225722455
 41
-1.5322803821
 42
0.0068809827
  0
ELLIPSE
  5
61A
100
AcDbEntity
  8
ASSI
100
AcDbEllipse
 62
7
  6
CONTINUOUS
 10
179.1392126032
 20
101.2604202076
 30
0.0
 11
0.0
 21
498.5
 31
0.0
 40
0.0349207695
 41
1.5589337088
 42
1.568159698
  0
ELLIPSE
  5
61B
100
AcDbEntity
  8
ASSI
100
AcDbEllipse
 62
7
  6
CONTINUOUS
 10
160.5256474753
 20
121.0278274243
 30
0.0
 11
-0.0096324734
 21
0.5915363915
 31
0.0
 40
0.4225722455
 41
-0.0068809827
 42
1.5322803821
  0
ELLIPSE
  5
61C
100
AcDbEntity
  8
ASSI
100
AcDbEllipse
 62
7
  6
CONTINUOUS
 10
160.6656074511
 20
121.0278274243
 30
0.0
 11
0.0096324734
 21
0.5915363915
 31
0.0
 40
0.4225722455
 41
-1.5322803821
 42
0.0068809827
  0
ELLIPSE
  5
61D
100
AcDbEntity
  8
ASSI
100
AcDbEllipse
 62
7
  6
CONTINUOUS
 10
160.5046950136
 20
118.6142768605
 30
0.0
 11
0.0493464685
 21
0.2491672984
 31
0.0
 40
0.9842259085
 41
-2.97793128
 42
-2.9490849661
  0
ELLIPSE
  5
61E
100
AcDbEntity
  8
ASSI
100
AcDbEllipse
 62
7
  6
CONTINUOUS
 10
160.6865599128
 20
118.6142768605
 30
0.0
 11
-0.0493464685
 21
0.2491672984
 31
0.0
 40
0.9842259085
 41
-3.3341003411
 42
-3.3052540272
  0
ELLIPSE
  5
61F
100
AcDbEntity
  8
ASSI
100
AcDbEllipse
 62
7
  6
CONTINUOUS
 10
149.3046950136
 20
118.6142768605
 30
0.0
 11
0.0493464685
 21
0.2491672984
 31
0.0
 40
0.9842259085
 41
-2.97793128
 42
-2.9490849661
  0
ELLIPSE
  5
620
100
AcDbEntity
  8
ASSI
100
AcDbEllipse
 62
7
  6
CONTINUOUS
 10
149.4865599128
 20
118.6142768605
 30
0.0
 11
-0.0493464685
 21
0.2491672984
 31
0.0
 40
0.9842259085
 41
-3.3341003411
 42
-3.3052540272
  0
ELLIPSE
  5
621
100
AcDbEntity
  8
ASSI
100
AcDbEllipse
 62
7
  6
CONTINUOUS
 10
130.8520423232
 20
101.2604202076
 30
0.0
 11
0.0
 21
498.5
 31
0.0
 40
0.0349207695
 41
-1.568159698
 42
-1.5589337088
  0
ELLIPSE
  5
622
100
AcDbEntity
  8
ASSI
100
AcDbEllipse
 62
7
  6
CONTINUOUS
 10
164.8392126032
 20
101.2604202076
 30
0.0
 11
0.0
 21
498.5
 31
0.0
 40
0.0349207695
 41
1.5589337088
 42
1.568159698
  0
ELLIPSE
  5
623
100
AcDbEntity
  8
ASSI
100
AcDbEllipse
 62
7
  6
CONTINUOUS
 10
149.3256474753
 20
121.0278274243
 30
0.0
 11
-0.0096324734
 21
0.5915363915
 31
0.0
 40
0.4225722455
 41
-0.0068809827
 42
1.5322803821
  0
ELLIPSE
  5
624
100
AcDbEntity
  8
ASSI
100
AcDbEllipse
 62
7
  6
CONTINUOUS
 10
177.5892126032
 20
101.2604202076
 30
0.0
 11
0.0
 21
498.5
 31
0.0
 40
0.0349207695
 41
1.5304337907
 42
1.5390014484
  0
ELLIPSE
  5
625
100
AcDbEntity
  8
ASSI
100
AcDbEllipse
 62
7
  6
CONTINUOUS
 10
160.2023655403
 20
121.367611341
 30
0.0
 11
0.0
 21
0.2
 31
0.0
 40
0.0349207695
 41
0.1221730476
 42
1.5304337907
  0
ELLIPSE
  5
626
100
AcDbEntity
  8
ASSI
100
AcDbEllipse
 62
7
  6
CONTINUOUS
 10
160.9888893862
 20
121.367611341
 30
0.0
 11
0.0
 21
0.2
 31
0.0
 40
0.0349207695
 41
-1.5304337907
 42
-0.1221730476
  0
ELLIPSE
  5
627
100
AcDbEntity
  8
ASSI
100
AcDbEllipse
 62
7
  6
CONTINUOUS
 10
143.6020423232
 20
101.2604202076
 30
0.0
 11
0.0
 21
498.5
 31
0.0
 40
0.0349207695
 41
-1.5390014484
 42
-1.5304337907
  0
ELLIPSE
  5
628
100
AcDbEntity
  8
ASSI
100
AcDbEllipse
 62
7
  6
CONTINUOUS
 10
166.3892126032
 20
101.2604202076
 30
0.0
 11
0.0
 21
498.5
 31
0.0
 40
0.0349207695
 41
1.5304337907
 42
1.5390014484
  0
ELLIPSE
  5
629
100
AcDbEntity
  8
ASSI
100
AcDbEllipse
 62
7
  6
CONTINUOUS
 10
149.0023655403
 20
121.367611341
 30
0.0
 11
0.0
 21
0.2
 31
0.0
 40
0.0349207695
 41
0.1221730476
 42
1.5304337907
  0
ELLIPSE
  5
62A
100
AcDbEntity
  8
ASSI
100
AcDbEllipse
 62
7
  6
CONTINUOUS
 10
149.7888893862
 20
121.367611341
 30
0.0
 11
0.0
 21
0.2
 31
0.0
 40
0.0349207695
 41
-1.5304337907
 42
-0.1221730476
  0
ELLIPSE
  5
62B
100
AcDbEntity
  8
ASSI
100
AcDbEllipse
 62
7
  6
CONTINUOUS
 10
132.4020423232
 20
101.2604202076
 30
0.0
 11
0.0
 21
498.5
 31
0.0
 40
0.0349207695
 41
-1.5390014484
 42
-1.5304337907
  0
ELLIPSE
  5
62C
100
AcDbEntity
  8
ASSI
100
AcDbEllipse
 62
7
  6
CONTINUOUS
 10
147.9319264359
 20
102.5469020436
 30
0.0
 11
0.3
 21
0.0
 31
0.0
 40
0.0349207695
 41
-1.5707963268
 42
-0.034906585
  0
ELLIPSE
  5
62D
100
AcDbEntity
  8
ASSI
100
AcDbEllipse
 62
7
  6
CONTINUOUS
 10
162.2801574094
 20
121.8508002784
 30
0.0
 11
0.2
 21
0.0
 31
0.0
 40
0.1227845609
 41
-1.5707963268
 42
-0.5235987756
  0
ELLIPSE
  5
62E
100
AcDbEntity
  8
ASSI
100
AcDbEllipse
 62
7
  6
CONTINUOUS
 10
158.9110975171
 20
121.8508002784
 30
0.0
 11
0.2
 21
0.0
 31
0.0
 40
0.1227845609
 41
-2.617993878
 42
-1.5707963268
  0
ELLIPSE
  5
62F
100
AcDbEntity
  8
ASSI
100
AcDbEllipse
 62
7
  6
CONTINUOUS
 10
151.0801574094
 20
121.8508002784
 30
0.0
 11
0.2
 21
0.0
 31
0.0
 40
0.1227845609
 41
-1.5707963268
 42
-0.5235987756
  0
ELLIPSE
  5
630
100
AcDbEntity
  8
ASSI
100
AcDbEllipse
 62
7
  6
CONTINUOUS
 10
147.7110975171
 20
121.8508002784
 30
0.0
 11
0.2
 21
0.0
 31
0.0
 40
0.1227845609
 41
-2.617993878
 42
-1.5707963268
  0
ELLIPSE
  5
631
100
AcDbEntity
  8
ASSI
100
AcDbEllipse
 62
7
  6
CONTINUOUS
 10
145.3069117895
 20
121.7297549537
 30
0.0
 11
0.1992395838
 21
-0.0178260286
 31
0.0
 40
0.9965982379
 41
1.6603320108
 42
3.2290014227
  0
ELLIPSE
  5
632
100
AcDbEntity
  8
ASSI
100
AcDbEllipse
 62
7
  6
CONTINUOUS
 10
164.6843431369
 20
121.7297549537
 30
0.0
 11
0.1992395838
 21
0.0178260286
 31
0.0
 40
0.9965982379
 41
-0.0874087691
 42
1.4812606428
  0
ELLIPSE
  5
633
100
AcDbEntity
  8
ASSI
100
AcDbEllipse
 62
7
  6
CONTINUOUS
 10
145.1520423232
 20
101.2604202076
 30
0.0
 11
0.0
 21
498.5
 31
0.0
 40
0.0349207695
 41
-1.568159698
 42
-1.5589337088
  0
ELLIPSE
  5
634
100
AcDbEntity
  8
ASSI
100
AcDbEllipse
 62
7
  6
CONTINUOUS
 10
162.2319264359
 20
102.5469020436
 30
0.0
 11
0.3
 21
0.0
 31
0.0
 40
0.0349207695
 41
-1.5707963268
 42
-0.034906585
  0
ELLIPSE
  5
635
100
AcDbEntity
  8
ASSI
100
AcDbEllipse
 62
7
  6
CONTINUOUS
 10
165.6324777571
 20
79.5995084633
 30
0.0
 11
0.498078285
 21
0.0448076117
 31
0.0
 40
0.9965957691
 41
-1.6608206152
 42
-0.0909376769
  0
ELLIPSE
  5
636
100
AcDbEntity
  8
ASSI
100
AcDbEllipse
 62
7
  6
CONTINUOUS
 10
144.3587771694
 20
79.5995084633
 30
0.0
 11
0.498078285
 21
-0.0448076117
 31
0.0
 40
0.9965957691
 41
-3.0506549766
 42
-1.4807720384
  0
ELLIPSE
  5
637
100
AcDbEntity
  8
ASSI
100
AcDbEllipse
 62
7
  6
CONTINUOUS
 10
165.9455969976
 20
100.9604125919
 30
0.0
 11
-0.1789222233
 21
-0.0894542984
 31
0.0
 40
0.9998096356
 41
2.6780516535
 42
4.2486956813
  0
ELLIPSE
  5
638
100
AcDbEntity
  8
ASSI
100
AcDbEllipse
 62
7
  6
CONTINUOUS
 10
144.0456579288
 20
100.9604125919
 30
0.0
 11
-0.1789222233
 21
0.0894542984
 31
0.0
 40
0.9998096356
 41
-1.1071030277
 42
0.4635410001
  0
ELLIPSE
  5
639
100
AcDbEntity
  8
ASSI
100
AcDbEllipse
 62
7
  6
CONTINUOUS
 10
147.7110975171
 20
79.1276998819
 30
0.0
 11
0.2
 21
-0.0
 31
0.0
 40
0.0524077793
 41
1.5707963268
 42
2.617993878
  0
ELLIPSE
  5
63A
100
AcDbEntity
  8
ASSI
100
AcDbEllipse
 62
7
  6
CONTINUOUS
 10
151.0801574094
 20
79.1276998819
 30
0.0
 11
0.2
 21
-0.0
 31
0.0
 40
0.0524077793
 41
0.5235987756
 42
1.5707963268
  0
ELLIPSE
  5
63B
100
AcDbEntity
  8
ASSI
100
AcDbEllipse
 62
7
  6
CONTINUOUS
 10
158.9110975171
 20
79.1276998819
 30
0.0
 11
0.2
 21
-0.0
 31
0.0
 40
0.0524077793
 41
1.5707963268
 42
2.617993878
  0
ELLIPSE
  5
63C
100
AcDbEntity
  8
ASSI
100
AcDbEllipse
 62
7
  6
CONTINUOUS
 10
162.2801574094
 20
79.1276998819
 30
0.0
 11
0.2
 21
0.0
 31
0.0
 40
0.0524077793
 41
0.5235987756
 42
1.5707963268
  0
ELLIPSE
  5
63D
100
AcDbEntity
  8
ASSI
100
AcDbEllipse
 62
7
  6
CONTINUOUS
 10
160.5256474753
 20
81.4930129908
 30
0.0
 11
0.0096324734
 21
0.5915363915
 31
0.0
 40
0.4225722455
 41
-4.6738730357
 42
-3.1347116709
  0
ELLIPSE
  5
63E
100
AcDbEntity
  8
ASSI
100
AcDbEllipse
 62
7
  6
CONTINUOUS
 10
130.8520423232
 20
101.2604202076
 30
0.0
 11
0.0
 21
498.5
 31
0.0
 40
0.0349207695
 41
-1.5826589448
 42
-1.5734329556
  0
ELLIPSE
  5
63F
100
AcDbEntity
  8
ASSI
100
AcDbEllipse
 62
7
  6
CONTINUOUS
 10
149.4656074511
 20
81.4930129908
 30
0.0
 11
-0.0096324734
 21
0.5915363915
 31
0.0
 40
0.4225722455
 41
-3.1484736363
 42
-1.6093122714
  0
ELLIPSE
  5
640
100
AcDbEntity
  8
ASSI
100
AcDbEllipse
 62
7
  6
CONTINUOUS
 10
149.3256474753
 20
81.4930129908
 30
0.0
 11
0.0096324734
 21
0.5915363915
 31
0.0
 40
0.4225722455
 41
-4.6738730357
 42
-3.1347116709
  0
ELLIPSE
  5
641
100
AcDbEntity
  8
ASSI
100
AcDbEllipse
 62
7
  6
CONTINUOUS
 10
149.4865599128
 20
83.9065635546
 30
0.0
 11
0.0493464685
 21
0.2491672984
 31
0.0
 40
0.9842259085
 41
0.1636613736
 42
0.1925076875
  0
ELLIPSE
  5
642
100
AcDbEntity
  8
ASSI
100
AcDbEllipse
 62
7
  6
CONTINUOUS
 10
149.3046950136
 20
83.9065635546
 30
0.0
 11
-0.0493464685
 21
0.2491672984
 31
0.0
 40
0.9842259085
 41
-0.1925076875
 42
-0.1636613736
  0
ELLIPSE
  5
643
100
AcDbEntity
  8
ASSI
100
AcDbEllipse
 62
7
  6
CONTINUOUS
 10
160.6865599128
 20
83.9065635546
 30
0.0
 11
0.0493464685
 21
0.2491672984
 31
0.0
 40
0.9842259085
 41
0.1636613736
 42
0.1925076875
  0
ELLIPSE
  5
644
100
AcDbEntity
  8
ASSI
100
AcDbEllipse
 62
7
  6
CONTINUOUS
 10
160.5046950136
 20
83.9065635546
 30
0.0
 11
-0.0493464685
 21
0.2491672984
 31
0.0
 40
0.9842259085
 41
-0.1925076875
 42
-0.1636613736
  0
ELLIPSE
  5
645
100
AcDbEntity
  8
ASSI
100
AcDbEllipse
 62
7
  6
CONTINUOUS
 10
179.1392126032
 20
101.2604202076
 30
0.0
 11
0.0
 21
498.5
 31
0.0
 40
0.0349207695
 41
-4.7097523516
 42
-4.7005263624
  0
ELLIPSE
  5
646
100
AcDbEntity
  8
ASSI
100
AcDbEllipse
 62
7
  6
CONTINUOUS
 10
145.1520423232
 20
101.2604202076
 30
0.0
 11
0.0
 21
498.5
 31
0.0
 40
0.0349207695
 41
-1.5826589448
 42
-1.5734329556
  0
ELLIPSE
  5
647
100
AcDbEntity
  8
ASSI
100
AcDbEllipse
 62
7
  6
CONTINUOUS
 10
160.6656074511
 20
81.4930129908
 30
0.0
 11
-0.0096324734
 21
0.5915363915
 31
0.0
 40
0.4225722455
 41
-3.1484736363
 42
-1.6093122714
  0
ELLIPSE
  5
648
100
AcDbEntity
  8
ASSI
100
AcDbEllipse
 62
7
  6
CONTINUOUS
 10
132.4020423232
 20
101.2604202076
 30
0.0
 11
0.0
 21
498.5
 31
0.0
 40
0.0349207695
 41
-1.6111588629
 42
-1.6025912052
  0
ELLIPSE
  5
649
100
AcDbEntity
  8
ASSI
100
AcDbEllipse
 62
7
  6
CONTINUOUS
 10
149.7888893862
 20
81.1532290742
 30
0.0
 11
0.0
 21
0.2
 31
0.0
 40
0.0349207695
 41
-3.0194196059
 42
-1.6111588629
  0
ELLIPSE
  5
64A
100
AcDbEntity
  8
ASSI
100
AcDbEllipse
 62
7
  6
CONTINUOUS
 10
149.0023655403
 20
81.1532290742
 30
0.0
 11
0.0
 21
0.2
 31
0.0
 40
0.0349207695
 41
-4.6720264443
 42
-3.2637657012
  0
ELLIPSE
  5
64B
100
AcDbEntity
  8
ASSI
100
AcDbEllipse
 62
7
  6
CONTINUOUS
 10
166.3892126032
 20
101.2604202076
 30
0.0
 11
0.0
 21
498.5
 31
0.0
 40
0.0349207695
 41
-4.680594102
 42
-4.6720264443
  0
ELLIPSE
  5
64C
100
AcDbEntity
  8
ASSI
100
AcDbEllipse
 62
7
  6
CONTINUOUS
 10
143.6020423232
 20
101.2604202076
 30
0.0
 11
0.0
 21
498.5
 31
0.0
 40
0.0349207695
 41
-1.6111588629
 42
-1.6025912052
  0
ELLIPSE
  5
64D
100
AcDbEntity
  8
ASSI
100
AcDbEllipse
 62
7
  6
CONTINUOUS
 10
160.9888893862
 20
81.1532290742
 30
0.0
 11
0.0
 21
0.2
 31
0.0
 40
0.0349207695
 41
-3.0194196059
 42
-1.6111588629
  0
ELLIPSE
  5
64E
100
AcDbEntity
  8
ASSI
100
AcDbEllipse
 62
7
  6
CONTINUOUS
 10
160.2023655403
 20
81.1532290742
 30
0.0
 11
0.0
 21
0.2
 31
0.0
 40
0.0349207695
 41
-4.6720264443
 42
-3.2637657012
  0
ELLIPSE
  5
64F
100
AcDbEntity
  8
ASSI
100
AcDbEllipse
 62
7
  6
CONTINUOUS
 10
177.5892126032
 20
101.2604202076
 30
0.0
 11
0.0
 21
498.5
 31
0.0
 40
0.0349207695
 41
-4.680594102
 42
-4.6720264443
  0
ELLIPSE
  5
650
100
AcDbEntity
  8
ASSI
100
AcDbEllipse
 62
7
  6
CONTINUOUS
 10
162.0593284905
 20
99.9739383716
 30
0.0
 11
0.3
 21
0.0
 31
0.0
 40
0.0349207695
 41
1.5707963268
 42
3.1066860686
  0
ELLIPSE
  5
651
100
AcDbEntity
  8
ASSI
100
AcDbEllipse
 62
7
  6
CONTINUOUS
 10
147.7110975171
 20
80.6700401368
 30
0.0
 11
0.2
 21
0.0
 31
0.0
 40
0.1227845609
 41
1.5707963268
 42
2.617993878
  0
ELLIPSE
  5
652
100
AcDbEntity
  8
ASSI
100
AcDbEllipse
 62
7
  6
CONTINUOUS
 10
151.0801574094
 20
80.6700401368
 30
0.0
 11
0.2
 21
0.0
 31
0.0
 40
0.1227845609
 41
0.5235987756
 42
1.5707963268
  0
ELLIPSE
  5
653
100
AcDbEntity
  8
ASSI
100
AcDbEllipse
 62
7
  6
CONTINUOUS
 10
158.9110975171
 20
80.6700401368
 30
0.0
 11
0.2
 21
0.0
 31
0.0
 40
0.1227845609
 41
1.5707963268
 42
2.617993878
  0
ELLIPSE
  5
654
100
AcDbEntity
  8
ASSI
100
AcDbEllipse
 62
7
  6
CONTINUOUS
 10
162.2801574094
 20
80.6700401368
 30
0.0
 11
0.2
 21
0.0
 31
0.0
 40
0.1227845609
 41
0.5235987756
 42
1.5707963268
  0
ELLIPSE
  5
655
100
AcDbEntity
  8
ASSI
100
AcDbEllipse
 62
7
  6
CONTINUOUS
 10
164.6843431369
 20
80.7910854614
 30
0.0
 11
0.1992395838
 21
-0.0178260286
 31
0.0
 40
0.9965982379
 41
-1.4812606428
 42
0.0874087691
  0
ELLIPSE
  5
656
100
AcDbEntity
  8
ASSI
100
AcDbEllipse
 62
7
  6
CONTINUOUS
 10
145.3069117895
 20
80.7910854614
 30
0.0
 11
0.1992395838
 21
0.0178260286
 31
0.0
 40
0.9965982379
 41
3.0541838845
 42
4.6228532964
  0
ELLIPSE
  5
657
100
AcDbEntity
  8
ASSI
100
AcDbEllipse
 62
7
  6
CONTINUOUS
 10
164.8392126032
 20
101.2604202076
 30
0.0
 11
0.0
 21
498.5
 31
0.0
 40
0.0349207695
 41
-4.7097523516
 42
-4.7005263624
  0
ELLIPSE
  5
658
100
AcDbEntity
  8
ASSI
100
AcDbEllipse
 62
7
  6
CONTINUOUS
 10
147.7593284905
 20
99.9739383716
 30
0.0
 11
0.3
 21
-0.0
 31
0.0
 40
0.0349207695
 41
1.5707963268
 42
3.1066860686
  0
ENDSEC
  0
SECTION
  2
OBJECTS
  0
DICTIONARY
  5
C
100
AcDbDictionary
280
0
281
1
  3
ACAD_GROUP
350
D
  3
ACAD_MLINESTYLE
350
17
  3
ACAD_LAYOUT
350
1A
  3
ACAD_PLOTSETTINGS
350
19
  3
ACAD_PLOTSTYLENAME
350
E
  0
DICTIONARY
  5
D
102
{ACAD_REACTORS
330
C
102
}
100
AcDbDictionary
280
0
281
1
  0
ACDBDICTIONARYWDFLT
  5
E
102
{ACAD_REACTORS
330
C
102
}
100
AcDbDictionary
281
1
  3
Normal
350
F
100
AcDbDictionaryWithDefault
340
F
  0
DICTIONARY
  5
17
102
{ACAD_REACTORS
330
C
102
}
100
AcDbDictionary
280
0
281
1
  3
Standard
350
18
  0
DICTIONARY
  5
19
102
{ACAD_REACTORS
330
C
102
}
100
AcDbDictionary
281
1
  0
DICTIONARY
  5
1A
102
{ACAD_REACTORS
330
C
102
}
100
AcDbDictionary
281
1
  3
Model
350
659
  3
Layout1
350
65A
  0
ACDBPLACEHOLDER
  5
F
102
{ACAD_REACTORS
330
E
102
}
  0
MLINESTYLE
  5
18
102
{ACAD_REACTORS
330
17
102
}
100
AcDbMlineStyle
  2
STANDARD
 70
0
  3

 62
256
 51
90.0
 52
90.0
 71
2
 49
0.5
 62
256
  6
BYLAYER
 49
-0.5
 62
256
  6
BYLAYER
  0
LAYOUT
  5
659
102
{ACAD_REACTORS
330
1A
102
}
100
AcDbPlotSettings
  1

  2
none_device
  4
ISO_A4_(297.00_x_210.00_MM)
  6

 40
0.0
 41
0.0
 42
0.0
 43
0.0
 44
297.0
 45
210.0
 46
0.0
 47
0.0
 48
0.0
 49
0.0
140
0.0
141
0.0
142
1.0
143
1.0
 70
1024
 72
1
 73
0
 74
0
  7

 75
0
147
1.0
148
0.0
149
0.0
100
AcDbLayout
  1
Model
 70
0
 71
0
 10
0.0
 20
0.0
 11
297.0
 21
210.0
 12
0.0
 22
0.0
 32
0.0
 14
0.0
 24
0.0
 34
0.0
 15
0.0
 25
0.0
 35
0.0
146
0.0
 13
0.0
 23
0.0
 33
0.0
 16
1.0
 26
0.0
 36
0.0
 17
0.0
 27
1.0
 37
0.0
 76
0
330
216
345
0
346
0
  0
LAYOUT
  5
65A
102
{ACAD_REACTORS
330
1A
102
}
100
AcDbPlotSettings
  1

  2
none_device
  4
ISO_A4_(297.00_x_210.00_MM)
  6

 40
0.0
 41
0.0
 42
0.0
 43
0.0
 44
297.0
 45
210.0
 46
0.0
 47
0.0
 48
0.0
 49
0.0
140
0.0
141
0.0
142
1.0
143
1.0
 70
0
 72
1
 73
0
 74
0
  7

 75
0
147
1.0
148
0.0
149
0.0
100
AcDbLayout
  1
Layout1
 70
0
 71
1
 10
0.0
 20
0.0
 11
297.0
 21
210.0
 12
0.0
 22
0.0
 32
0.0
 14
0.0
 24
0.0
 34
0.0
 15
0.0
 25
0.0
 35
0.0
146
0.0
 13
0.0
 23
0.0
 33
0.0
 16
1.0
 26
0.0
 36
0.0
 17
0.0
 27
1.0
 37
0.0
 76
0
330
217
345
0
346
0
  0
ENDSEC
  0
EOF
