  0
SECTION
  2
HEADER
  9
$ACADVER
  1
AC1024
  9
$DWGCODEPAGE
  3
ANSI_1252
  9
$EXTMAX
 10
297.0
 20
210.0
 30
0.0
  9
$EXTMIN
 10
0.0
 20
0.0
 30
0.0
  9
$LIMMIN
 10
0.0
 20
0.0
  9
$LIMMAX
 10
297.0
 20
210.0
  9
$VIEWCTR
 10
148.5
 20
105.0
  9
$VIEWSIZE
 40
210.0
  9
$CLAYER
  8
0
  9
$LTSCALE
 40
16.335
  9
$CELTYPE
  6
BYLAYER
  9
$DIMSCALE
 40
1.0
  9
$DIMASZ
 40
3.0
  9
$DIMEXO
 40
0.5
  9
$DIMDLI
 40
11.286
  9
$DIMEXE
 40
1.5
  9
$DIMCEN
 40
2.673
  9
$DIMLFAC
 40
1.0
  9
$DIMBLK
  1
_FILLED
  9
$DIMALT
 70
0
  9
$DIMALTF
 40
0.0393700787
  9
$DIMTXT
 40
3.0
  9
$DIMTOL
 70
1
  9
$DIMLIM
 70
0
  9
$DIMTFAC
 40
1.0
  9
$DIMTP
 40
0.01
  9
$DIMTM
 40
0.01
  9
$DIMGAP
 40
0.625
  9
$DIMDSEP
 70
44
  9
$AUNITS
 70
0
  9
$PDMODE
 70
3
  9
$PDSIZE
 40
3.0
  9
$HANDSEED
  5
65B
  9
$TILEMODE
 70
1
  9
$MEASUREMENT
 70
1
  9
$INSUNITS
 70
4
  0
ENDSEC
  0
SECTION
  2
CLASSES
  0
CLASS
  1
ACDBDICTIONARYWDFLT
  2
AcDbDictionaryWithDefault
  3
AutoCAD 2000
 90
0
 91
1
280
0
281
0
  0
CLASS
  1
ACDBPLACEHOLDER
  2
AcDbPlaceHolder
  3
AutoCAD 2000
 90
0
 91
1
280
0
281
0
  0
CLASS
  1
LAYOUT
  2
AcDbLayout
  3
AutoCAD 2000
 90
0
 91
0
280
0
281
0
  0
ENDSEC
  0
SECTION
  2
TABLES
  0
TABLE
  2
VPORT
  5
8
100
AcDbSymbolTable
 70
2
  0
VPORT
  5
1F4
100
AcDbSymbolTableRecord
100
AcDbViewportTableRecord
  2
*ACTIVE
 70
0
 10
0.0
 20
0.0
 11
1.0
 21
1.0
 12
148.5
 22
105.0
 13
0.0
 23
0.0
 14
1.0
 24
1.0
 15
0.0
 25
0.0
 16
0.0
 26
0.0
 36
1.0
 17
0.0
 27
0.0
 37
0.0
 40
210.0
 41
1.4142857143
 42
50.0
 43
0.0
 44
0.0
 50
0.0
 51
0.0
 71
0
 72
100
 73
1
 74
1
 75
0
 76
0
 77
0
 78
0
  0
ENDTAB
  0
TABLE
  2
LTYPE
  5
5
100
AcDbSymbolTable
 70
6
  0
LTYPE
  5
14
100
AcDbSymbolTableRecord
100
AcDbLinetypeTableRecord
  2
BYBLOCK
 70
0
  3

 72
65
 73
0
 40
0.0
  0
LTYPE
  5
15
100
AcDbSymbolTableRecord
100
AcDbLinetypeTableRecord
  2
BYLAYER
 70
0
  3

 72
65
 73
0
 40
0.0
  0
LTYPE
  5
16
100
AcDbSymbolTableRecord
100
AcDbLinetypeTableRecord
  2
CONTINUOUS
 70
64
  3
Solid line
 72
65
 73
0
 40
0.0
  0
LTYPE
  5
1F5
100
AcDbSymbolTableRecord
100
AcDbLinetypeTableRecord
  2
CENTER
 70
64
  3
____ _ ____ _ ____ _ ____ _ ____ _ ____ _ ____
 72
65
 73
4
 40
0.6
 49
0.375
 74
0
 49
-0.075
 74
0
 49
0.075
 74
0
 49
-0.075
 74
0
  0
LTYPE
  5
1F6
100
AcDbSymbolTableRecord
100
AcDbLinetypeTableRecord
  2
HIDDEN
 70
64
  3
- - - - - - - - - - - - - - - - - - - -
 72
65
 73
2
 40
0.2
 49
0.1
 74
0
 49
-0.1
 74
0
  0
LTYPE
  5
1F7
100
AcDbSymbolTableRecord
100
AcDbLinetypeTableRecord
  2
PHANTOM
 70
64
  3
_____ _ _ _____ _ _ _____ _ _ _____
 72
65
 73
6
 40
0.8
 49
0.45
 74
0
 49
-0.05
 74
0
 49
0.1
 74
0
 49
-0.05
 74
0
 49
0.1
 74
0
 49
-0.05
 74
0
  0
LTYPE
  5
1F8
100
AcDbSymbolTableRecord
100
AcDbLinetypeTableRecord
  2
DOT
 70
64
  3
. . . . . . . . . . . . . . . . . . . .
 72
65
 73
2
 40
0.2
 49
0.1
 74
0
 49
-0.1
 74
0
  0
LTYPE
  5
1F9
100
AcDbSymbolTableRecord
100
AcDbLinetypeTableRecord
  2
DASHED
 70
64
  3
- - - - - - - - - - - - - - - - - - - -
 72
65
 73
2
 40
0.2
 49
0.1
 74
0
 49
-0.1
 74
0
  0
ENDTAB
  0
TABLE
  2
LAYER
  5
2
100
AcDbSymbolTable
 70
36
  0
LAYER
  5
10
100
AcDbSymbolTableRecord
100
AcDbLayerTableRecord
  2
0
 70
0
 62
7
  6
CONTINUOUS
370
-3
390
F
  0
LAYER
  5
1FA
100
AcDbSymbolTableRecord
100
AcDbLayerTableRecord
  2
DEFAULT_1
 70
0
 62
7
  6
CENTER
370
-3
390
F
  0
LAYER
  5
1FB
100
AcDbSymbolTableRecord
100
AcDbLayerTableRecord
  2
DEFAULT_2
 70
0
 62
7
  6
HIDDEN
370
-3
390
F
  0
LAYER
  5
1FC
100
AcDbSymbolTableRecord
100
AcDbLayerTableRecord
  2
DEFAULT_3
 70
0
 62
7
  6
PHANTOM
370
-3
390
F
  0
LAYER
  5
1FD
100
AcDbSymbolTableRecord
100
AcDbLayerTableRecord
  2
ASSI
 70
0
 62
7
  6
CONTINUOUS
370
-3
390
F
  0
LAYER
  5
1FE
100
AcDbSymbolTableRecord
100
AcDbLayerTableRecord
  2
COORDINATE
 70
0
 62
7
  6
CONTINUOUS
370
-3
390
F
  0
LAYER
  5
1FF
100
AcDbSymbolTableRecord
100
AcDbLayerTableRecord
  2
COORD_ORIGINE
 70
0
 62
7
  6
CONTINUOUS
370
-3
390
F
  0
LAYER
  5
200
100
AcDbSymbolTableRecord
100
AcDbLayerTableRecord
  2
COPY_PUBLISH
 70
0
 62
7
  6
CONTINUOUS
370
-3
390
F
  0
LAYER
  5
201
100
AcDbSymbolTableRecord
100
AcDbLayerTableRecord
  2
COSMETICI
 70
0
 62
7
  6
CONTINUOUS
370
-3
390
F
  0
LAYER
  5
202
100
AcDbSymbolTableRecord
100
AcDbLayerTableRecord
  2
CURVE
 70
0
 62
7
  6
CONTINUOUS
370
-3
390
F
  0
LAYER
  5
203
100
AcDbSymbolTableRecord
100
AcDbLayerTableRecord
  2
DRAFT
 70
0
 62
7
  6
CONTINUOUS
370
-3
390
F
  0
LAYER
  5
204
100
AcDbSymbolTableRecord
100
AcDbLayerTableRecord
  2
IGES
 70
0
 62
7
  6
CONTINUOUS
370
-3
390
F
  0
LAYER
  5
205
100
AcDbSymbolTableRecord
100
AcDbLayerTableRecord
  2
IMPORT_IGES
 70
0
 62
7
  6
CONTINUOUS
370
-3
390
F
  0
LAYER
  5
206
100
AcDbSymbolTableRecord
100
AcDbLayerTableRecord
  2
INTFCLR_2
 70
0
 62
7
  6
CONTINUOUS
370
-3
390
F
  0
LAYER
  5
207
100
AcDbSymbolTableRecord
100
AcDbLayerTableRecord
  2
INTFCLR_3
 70
0
 62
7
  6
CONTINUOUS
370
-3
390
F
  0
LAYER
  5
208
100
AcDbSymbolTableRecord
100
AcDbLayerTableRecord
  2
INTFCLR_4
 70
0
 62
7
  6
CONTINUOUS
370
-3
390
F
  0
LAYER
  5
209
100
AcDbSymbolTableRecord
100
AcDbLayerTableRecord
  2
NOTE
 70
0
 62
7
  6
CONTINUOUS
370
-3
390
F
  0
LAYER
  5
20A
100
AcDbSymbolTableRecord
100
AcDbLayerTableRecord
  2
PIANI
 70
0
 62
7
  6
CONTINUOUS
370
-3
390
F
  0
LAYER
  5
20B
100
AcDbSymbolTableRecord
100
AcDbLayerTableRecord
  2
PIANI_ORIGINE
 70
0
 62
7
  6
CONTINUOUS
370
-3
390
F
  0
LAYER
  5
20C
100
AcDbSymbolTableRecord
100
AcDbLayerTableRecord
  2
PIANI_RIFERIMENTO
 70
0
 62
7
  6
CONTINUOUS
370
-3
390
F
  0
LAYER
  5
20D
100
AcDbSymbolTableRecord
100
AcDbLayerTableRecord
  2
PUNTI
 70
0
 62
7
  6
CONTINUOUS
370
-3
390
F
  0
LAYER
  5
20E
100
AcDbSymbolTableRecord
100
AcDbLayerTableRecord
  2
RACCORDO
 70
0
 62
7
  6
CONTINUOUS
370
-3
390
F
  0
LAYER
  5
20F
100
AcDbSymbolTableRecord
100
AcDbLayerTableRecord
  2
SIMBOLI
 70
0
 62
7
  6
CONTINUOUS
370
-3
390
F
  0
LAYER
  5
210
100
AcDbSymbolTableRecord
100
AcDbLayerTableRecord
  2
SMUSSO
 70
0
 62
7
  6
CONTINUOUS
370
-3
390
F
  0
LAYER
  5
211
100
AcDbSymbolTableRecord
100
AcDbLayerTableRecord
  2
SNAPLINE
 70
0
 62
7
  6
CONTINUOUS
370
-3
390
F
  0
LAYER
  5
212
100
AcDbSymbolTableRecord
100
AcDbLayerTableRecord
  2
SUPERFICI
 70
0
 62
7
  6
CONTINUOUS
370
-3
390
F
  0
LAYER
  5
213
100
AcDbSymbolTableRecord
100
AcDbLayerTableRecord
  2
TRASH
 70
0
 62
7
  6
CONTINUOUS
370
-3
390
F
  0
LAYER
  5
214
100
AcDbSymbolTableRecord
100
AcDbLayerTableRecord
  2
XSEC_DATUMS
 70
0
 62
7
  6
CONTINUOUS
370
-3
390
F
  0
ENDTAB
  0
TABLE
  2
STYLE
  5
3
100
AcDbSymbolTable
 70
1
  0
STYLE
  5
11
100
AcDbSymbolTableRecord
100
AcDbTextStyleTableRecord
  2
STANDARD
 70
0
 40
0.0
 41
0.8
 50
0.0
 71
0
 42
0.2
  3
txt
  4

  0
STYLE
  5
215
100
AcDbSymbolTableRecord
100
AcDbTextStyleTableRecord
  2
TEXTSTYLE_1
 70
0
 40
0.0
 41
0.8
 50
0.0
 71
0
 42
0.2
  3
gdt
  4

  0
ENDTAB
  0
TABLE
  2
VIEW
  5
6
100
AcDbSymbolTable
 70
0
  0
ENDTAB
  0
TABLE
  2
UCS
  5
7
100
AcDbSymbolTable
 70
0
  0
ENDTAB
  0
TABLE
  2
APPID
  5
9
100
AcDbSymbolTable
 70
1
  0
APPID
  5
216
100
AcDbSymbolTableRecord
100
AcDbRegAppTableRecord
  2
ACAD
 70
0
  0
ENDTAB
  0
TABLE
  2
BLOCK_RECORD
  5
1
100
AcDbSymbolTable
 70
0
  0
BLOCK_RECORD
  5
217
100
AcDbSymbolTableRecord
100
AcDbBlockTableRecord
  2
*Model_Space
  0
BLOCK_RECORD
  5
218
100
AcDbSymbolTableRecord
100
AcDbBlockTableRecord
  2
*Paper_Space
  0
BLOCK_RECORD
  5
219
100
AcDbSymbolTableRecord
100
AcDbBlockTableRecord
  2
_FILLED
  0
ENDTAB
  0
TABLE
  2
DIMSTYLE
  5
A
100
AcDbSymbolTable
 70
1
100
AcDbDimStyleTable
 71
0
  0
DIMSTYLE
105
21A
100
AcDbSymbolTableRecord
100
AcDbDimStyleTableRecord
  2
STANDARD
 70
0
  3

  4

 40
1.0
 41
3.0
 42
0.5
 43
0.38
 44
1.5
 45
0.0
 46
0.0
 47
0.01
 48
0.01
140
3.0
141
0.09
142
0.0
143
25.4
144
1.0
145
0.0
146
1.0
147
0.625
 71
1
 72
0
 73
0
 74
0
 75
0
 76
0
 77
1
 78
8
 79
2
170
0
171
1
172
0
173
0
174
0
175
0
176
0
177
0
178
0
270
2
179
2
271
2
272
2
273
2
274
2
275
0
280
0
281
0
282
0
283
1
284
8
285
0
286
0
287
3
288
0
340
11
278
44
341
219
342
219
343
219
344
219
  0
ENDTAB
  0
ENDSEC
  0
SECTION
  2
BLOCKS
  0
BLOCK
  5
20
100
AcDbEntity
  8
0
100
AcDbBlockBegin
  2
*Model_Space
 70
0
 10
0.0
 20
0.0
 30
0.0
  3
*Model_Space
  1

  0
ENDBLK
  5
21
100
AcDbEntity
  8
0
100
AcDbBlockEnd
  0
BLOCK
  5
1C
100
AcDbEntity
  8
0
100
AcDbBlockBegin
  2
*Paper_Space
 70
0
 10
0.0
 20
0.0
 30
0.0
  3
*Paper_Space
  1

  0
ENDBLK
  5
1D
100
AcDbEntity
  8
0
100
AcDbBlockEnd
  0
BLOCK
  5
21B
100
AcDbEntity
  8
0
100
AcDbBlockBegin
  2
_FILLED
 70
64
 10
0.0
 20
0.0
  3
_FILLED
  1

  0
SOLID
  5
21C
100
AcDbEntity
  8
0
  6
BYBLOCK
 62
0
100
AcDbTrace
 10
0.0
 20
0.0
 11
-1.0
 21
0.3166666667
 12
-1.0
 22
-0.3166666667
 13
-1.0
 23
-0.3166666667
  0
ENDBLK
  5
21D
100
AcDbEntity
  8
0
  6
BYBLOCK
 62
0
100
AcDbBlockEnd
  0
ENDSEC
  0
SECTION
  2
ENTITIES
  0
LINE
  5
21E
100
AcDbEntity
  8
ASSI
100
AcDbLine
 62
7
  6
CONTINUOUS
 10
149.4757705373
 20
81.5209501303
 11
149.8264605033
 21
81.5527832883
  0
LINE
  5
21F
100
AcDbEntity
  8
ASSI
100
AcDbLine
 62
7
  6
CONTINUOUS
 10
138.2757705373
 20
81.5209501303
 11
138.6264605033
 21
81.5527832883
  0
LINE
  5
220
100
AcDbEntity
  8
ASSI
100
AcDbLine
 62
7
  6
CONTINUOUS
 10
156.7207414696
 20
81.5209501303
 11
153.8926205232
 21
81.5209501303
  0
LINE
  5
221
100
AcDbEntity
  8
ASSI
100
AcDbLine
 62
7
  6
CONTINUOUS
 10
149.4757705373
 20
81.5209501303
 11
142.6926205232
 21
81.5209501303
  0
LINE
  5
222
100
AcDbEntity
  8
ASSI
100
AcDbLine
 62
7
  6
CONTINUOUS
 10
138.2757705373
 20
81.5209501303
 11
135.4476495909
 21
81.5209501303
  0
LINE
  5
223
100
AcDbEntity
  8
ASSI
100
AcDbLine
 62
7
  6
CONTINUOUS
 10
153.3687254764
 20
81.5580240663
 11
149.9996655841
 21
81.5580240663
  0
LINE
  5
224
100
AcDbEntity
  8
ASSI
100
AcDbLine
 62
7
  6
CONTINUOUS
 10
142.1687254764
 20
81.5580240663
 11
138.7996655841
 21
81.5580240663
  0
LINE
  5
225
100
AcDbEntity
  8
ASSI
100
AcDbLine
 62
7
  6
CONTINUOUS
 10
142.6926205232
 20
81.5209501303
 11
142.3419305572
 21
81.5527832883
  0
LINE
  5
226
100
AcDbEntity
  8
ASSI
100
AcDbLine
 62
7
  6
CONTINUOUS
 10
153.8926205232
 20
81.5209501303
 11
153.5419305572
 21
81.5527832883
  0
LWPOLYLINE
  5
227
100
AcDbEntity
  8
ASSI
100
AcDbPolyline
 62
250
  6
CONTINUOUS
 90
8
 70
0
 10
136.2469926882
 20
83.5730717027
 10
136.2478083554
 20
83.5723624875
 10
136.2497065092
 20
83.5717937922
 10
136.2526636899
 20
83.5712955225
 10
136.2566831762
 20
83.5707297022
 10
136.261765437
 20
83.5701154935
 10
136.2678633824
 20
83.5696063729
 10
136.2829302098
 20
83.5685424371
  0
LINE
  5
228
100
AcDbEntity
  8
ASSI
100
AcDbLine
 62
7
  6
CONTINUOUS
 10
149.8264605033
 20
83.1021612213
 11
149.4004770534
 21
83.0115677053
  0
LWPOLYLINE
  5
229
100
AcDbEntity
  8
ASSI
100
AcDbPolyline
 62
250
  6
CONTINUOUS
 90
13
 70
0
 10
155.8449546276
 20
83.5668121884
 10
155.856241172
 20
83.5672058612
 10
155.8667904307
 20
83.5676316053
 10
155.8765447103
 20
83.5680870922
 10
155.8854506647
 20
83.5685698321
 10
155.8934595875
 20
83.5690771844
 10
155.9005276781
 20
83.5696063729
 10
155.9066162813
 20
83.5701545058
 10
155.9116920986
 20
83.5707185854
 10
155.9157273706
 20
83.5712955225
 10
155.9187000284
 20
83.5718821627
 10
155.9205938147
 20
83.5724753028
 10
155.9213983723
 20
83.5730717027
  0
LINE
  5
22A
100
AcDbEntity
  8
ASSI
100
AcDbLine
 62
250
  6
CONTINUOUS
 10
155.8204202802
 20
83.5661294842
 11
155.8449546276
 21
83.5668121884
  0
LINE
  5
22B
100
AcDbEntity
  8
ASSI
100
AcDbLine
 62
250
  6
CONTINUOUS
 10
155.7937233658
 20
83.5655984046
 11
155.8204202802
 21
83.5661294842
  0
LINE
  5
22C
100
AcDbEntity
  8
ASSI
100
AcDbLine
 62
250
  6
CONTINUOUS
 10
155.7654471051
 20
83.5652305529
 11
155.7937233658
 21
83.5655984046
  0
LINE
  5
22D
100
AcDbEntity
  8
ASSI
100
AcDbLine
 62
250
  6
CONTINUOUS
 10
155.7362092213
 20
83.5650339602
 11
155.7654471051
 21
83.5652305529
  0
LINE
  5
22E
100
AcDbEntity
  8
ASSI
100
AcDbLine
 62
7
  6
CONTINUOUS
 10
155.7730322041
 20
83.0115677053
 11
153.967914007
 21
83.0115677053
  0
LINE
  5
22F
100
AcDbEntity
  8
ASSI
100
AcDbLine
 62
7
  6
CONTINUOUS
 10
149.4004770534
 20
83.0115677053
 11
142.767914007
 21
83.0115677053
  0
LINE
  5
230
100
AcDbEntity
  8
ASSI
100
AcDbLine
 62
7
  6
CONTINUOUS
 10
138.2004770534
 20
83.0115677053
 11
136.3953588564
 21
83.0115677053
  0
LINE
  5
231
100
AcDbEntity
  8
ASSI
100
AcDbLine
 62
7
  6
CONTINUOUS
 10
153.3687254764
 20
83.1144396774
 11
152.0043279042
 21
83.1144396774
  0
LINE
  5
232
100
AcDbEntity
  8
ASSI
100
AcDbLine
 62
7
  6
CONTINUOUS
 10
151.3640631563
 20
83.1144396774
 11
149.9996655841
 21
83.1144396774
  0
LINE
  5
233
100
AcDbEntity
  8
ASSI
100
AcDbLine
 62
7
  6
CONTINUOUS
 10
142.1687254764
 20
83.1144396774
 11
140.8043279042
 21
83.1144396774
  0
LINE
  5
234
100
AcDbEntity
  8
ASSI
100
AcDbLine
 62
7
  6
CONTINUOUS
 10
140.1640631563
 20
83.1144396774
 11
138.7996655841
 21
83.1144396774
  0
LINE
  5
235
100
AcDbEntity
  8
ASSI
100
AcDbLine
 62
7
  6
CONTINUOUS
 10
140.5620877595
 20
83.3213052235
 11
140.406303301
 21
83.3213052235
  0
LINE
  5
236
100
AcDbEntity
  8
ASSI
100
AcDbLine
 62
7
  6
CONTINUOUS
 10
151.606303301
 20
83.3213052235
 11
151.7620877595
 21
83.3213052235
  0
LINE
  5
237
100
AcDbEntity
  8
ASSI
100
AcDbLine
 62
250
  6
CONTINUOUS
 10
136.4469622272
 20
83.3745624723
 11
140.090082453
 21
83.3745624723
  0
LINE
  5
238
100
AcDbEntity
  8
ASSI
100
AcDbLine
 62
250
  6
CONTINUOUS
 10
140.8783086075
 20
83.3745624723
 11
151.290082453
 21
83.3745624723
  0
LINE
  5
239
100
AcDbEntity
  8
ASSI
100
AcDbLine
 62
250
  6
CONTINUOUS
 10
152.0783086075
 20
83.3745624723
 11
155.7214288333
 21
83.3745624723
  0
LINE
  5
23A
100
AcDbEntity
  8
ASSI
100
AcDbLine
 62
250
  6
CONTINUOUS
 10
136.4469622376
 20
83.5650013871
 11
140.0839551417
 21
83.5650013871
  0
LINE
  5
23B
100
AcDbEntity
  8
ASSI
100
AcDbLine
 62
250
  6
CONTINUOUS
 10
140.8844359188
 20
83.5650013871
 11
151.2839551417
 21
83.5650013871
  0
LINE
  5
23C
100
AcDbEntity
  8
ASSI
100
AcDbLine
 62
250
  6
CONTINUOUS
 10
152.0844359188
 20
83.5650013871
 11
155.7362092213
 21
83.5650339602
  0
LWPOLYLINE
  5
23D
100
AcDbEntity
  8
ASSI
100
AcDbPolyline
 62
250
  6
CONTINUOUS
 90
3
 70
0
 10
136.4029439554
 20
83.5652305529
 10
136.4322156465
 20
83.5651365903
 10
136.4469622272
 20
83.5650013871
  0
LINE
  5
23E
100
AcDbEntity
  8
ASSI
100
AcDbLine
 62
250
  6
CONTINUOUS
 10
136.3886399266
 20
83.565375556
 11
136.4029439554
 21
83.5652305529
  0
LWPOLYLINE
  5
23F
100
AcDbEntity
  8
ASSI
100
AcDbPolyline
 62
250
  6
CONTINUOUS
 90
3
 70
0
 10
136.3234364329
 20
83.5668121884
 10
136.3479640919
 20
83.5661124939
 10
136.3886399266
 20
83.565375556
  0
LWPOLYLINE
  5
240
100
AcDbEntity
  8
ASSI
100
AcDbPolyline
 62
250
  6
CONTINUOUS
 90
25
 70
0
 10
136.4469622272
 20
83.3745624723
 10
136.4339012478
 20
83.3750139227
 10
136.4208960461
 20
83.3763111926
 10
136.4080021619
 20
83.3784487418
 10
136.3952746594
 20
83.3814174418
 10
136.3827678922
 20
83.3852046146
 10
136.3705352713
 20
83.3897940867
 10
136.358629037
 20
83.3951662586
 10
136.3471000357
 20
83.401298188
 10
136.3359975028
 20
83.408163688
 10
136.3253688525
 20
83.4157334392
 10
136.315259475
 20
83.4239751142
 10
136.3057125433
 20
83.4328535165
 10
136.296768828
 20
83.4423307303
 10
136.2884665241
 20
83.4523662825
 10
136.2808410871
 20
83.4629173155
 10
136.2739250818
 20
83.4739387704
 10
136.2677480436
 20
83.4853835793
 10
136.262336352
 20
83.4972028665
 10
136.257713118
 20
83.5093461568
 10
136.2538980854
 20
83.5217615914
 10
136.2509075465
 20
83.5343961493
 10
136.2487542727
 20
83.5471958739
 10
136.2474474596
 20
83.5601061031
 10
136.2469926882
 20
83.5730717027
  0
LWPOLYLINE
  5
241
100
AcDbEntity
  8
ASSI
100
AcDbPolyline
 62
250
  6
CONTINUOUS
 90
3
 70
0
 10
136.2918463502
 20
83.5680870922
 10
136.3121417917
 20
83.5671862015
 10
136.3234364329
 20
83.5668121884
  0
LINE
  5
242
100
AcDbEntity
  8
ASSI
100
AcDbLine
 62
250
  6
CONTINUOUS
 10
136.2829302098
 20
83.5685424371
 11
136.2918463502
 21
83.5680870922
  0
LINE
  5
243
100
AcDbEntity
  8
ASSI
100
AcDbLine
 62
7
  6
CONTINUOUS
 10
142.3419305572
 20
83.1021612213
 11
142.767914007
 21
83.0115677053
  0
LINE
  5
244
100
AcDbEntity
  8
ASSI
100
AcDbLine
 62
7
  6
CONTINUOUS
 10
138.6264605033
 20
83.1021612213
 11
138.2004770534
 21
83.0115677053
  0
LWPOLYLINE
  5
245
100
AcDbEntity
  8
ASSI
100
AcDbPolyline
 62
250
  6
CONTINUOUS
 90
25
 70
0
 10
151.7246564543
 20
85.6199857563
 10
151.7406767122
 20
85.6204172345
 10
151.7566310998
 20
85.6212813371
 10
151.7724540207
 20
85.6225745111
 10
151.7880804198
 20
85.6242914394
 10
151.8034460487
 20
85.6264250627
 10
151.8184877299
 20
85.6289666079
 10
151.8331436196
 20
85.631905625
 10
151.8473534611
 20
85.6352300299
 10
151.8610588301
 20
85.6389261536
 10
151.8742033775
 20
85.6429787991
 10
151.886733061
 20
85.6473713036
 10
151.8985963654
 20
85.6520856069
 10
151.9097445158
 20
85.6571023257
 10
151.9201316783
 20
85.6624008336
 10
151.9297151477
 20
85.6679593458
 10
151.9384555229
 20
85.6737550082
 10
151.9463168696
 20
85.6797639921
 10
151.9532668678
 20
85.6859615922
 10
151.9592769439
 20
85.6923223269
 10
151.9643223888
 20
85.6988200444
 10
151.9683824599
 20
85.7054280305
 10
151.9714404653
 20
85.712119117
 10
151.9734838325
 20
85.7188657936
 10
151.974504161
 20
85.7256403218
  0
LINE
  5
246
100
AcDbEntity
  8
ASSI
100
AcDbLine
 62
250
  6
CONTINUOUS
 10
151.7246564543
 20
85.6199857563
 11
151.6437346062
 21
85.6199857563
  0
LINE
  5
247
100
AcDbEntity
  8
ASSI
100
AcDbLine
 62
250
  6
CONTINUOUS
 10
140.5246564543
 20
85.6199857563
 11
140.4437346062
 21
85.6199857563
  0
LWPOLYLINE
  5
248
100
AcDbEntity
  8
ASSI
100
AcDbPolyline
 62
250
  6
CONTINUOUS
 90
25
 70
0
 10
140.4437346062
 20
85.6199857563
 10
140.4277144078
 20
85.620417231
 10
140.411760076
 20
85.6212813272
 10
140.3959372065
 20
85.6225744921
 10
140.3803108544
 20
85.6242914089
 10
140.3649452671
 20
85.6264250186
 10
140.3499036197
 20
85.6289665489
 10
140.3352477555
 20
85.6319055503
 10
140.3210379315
 20
85.6352299394
 10
140.307332571
 20
85.6389260478
 10
140.2941880232
 20
85.6429786793
 10
140.2816583315
 20
85.6473711715
 10
140.2697950112
 20
85.6520854648
 10
140.2586468382
 20
85.6571021767
 10
140.2482596476
 20
85.6624006809
 10
140.2386761462
 20
85.667959193
 10
140.2299357362
 20
85.6737548591
 10
140.2220743536
 20
85.6797638508
 10
140.21512432
 20
85.6859614621
 10
140.2091142105
 20
85.6923222118
 10
140.2040687353
 20
85.6988199478
 10
140.2000086389
 20
85.705427955
 10
140.196950614
 20
85.7121190646
 10
140.1949072338
 20
85.7188657665
 10
140.1938868994
 20
85.7256403218
  0
LINE
  5
249
100
AcDbEntity
  8
ASSI
100
AcDbLine
 62
7
  6
CONTINUOUS
 10
153.5419305572
 20
83.1021612213
 11
153.967914007
 21
83.0115677053
  0
LINE
  5
24A
100
AcDbEntity
  8
ASSI
100
AcDbLine
 62
250
  6
CONTINUOUS
 10
140.1329696156
 20
119.5545282373
 11
140.0785753372
 21
119.5273393845
  0
LINE
  5
24B
100
AcDbEntity
  8
ASSI
100
AcDbLine
 62
250
  6
CONTINUOUS
 10
140.382816864
 20
119.3045660844
 11
140.3282998582
 21
119.2773158866
  0
LWPOLYLINE
  5
24C
100
AcDbEntity
  8
ASSI
100
AcDbPolyline
 62
7
  6
CONTINUOUS
 90
31
 70
0
 10
151.5845328883
 20
86.5801572251
 10
151.5689183004
 20
86.5792107292
 10
151.5536268672
 20
86.5775794676
 10
151.5387117963
 20
86.5752634402
 10
151.5242275301
 20
86.5722169691
 10
151.510207487
 20
86.5684857322
 10
151.4966654349
 20
86.5642067631
 10
151.4836358408
 20
86.5593860886
 10
151.4711409942
 20
86.554017682
 10
151.4591723664
 20
86.548220496
 10
151.4477497195
 20
86.5420013406
 10
151.4368880933
 20
86.5353534058
 10
151.4265715854
 20
86.5283752141
 10
151.4168106364
 20
86.5210719918
 10
151.4076151962
 20
86.5134385125
 10
151.3989704641
 20
86.5055576193
 10
151.3908814221
 20
86.4974327473
 10
151.3833537075
 20
86.4890604613
 10
151.3763758986
 20
86.4805132989
 10
151.3699492475
 20
86.471793198
 10
151.3640758248
 20
86.4628982206
 10
151.3587473717
 20
86.4538950906
 10
151.3539621192
 20
86.4447847909
 10
151.3497188046
 20
86.4355663387
 10
151.3460107907
 20
86.4263035086
 10
151.3428333025
 20
86.4169966039
 10
151.3401818157
 20
86.4076453214
 10
151.3380494525
 20
86.3983125261
 10
151.3364285073
 20
86.3890191729
 10
151.335310333
 20
86.379744307
 10
151.3346851815
 20
86.3704879283
  0
LWPOLYLINE
  5
24D
100
AcDbEntity
  8
ASSI
100
AcDbPolyline
 62
250
  6
CONTINUOUS
 90
25
 70
0
 10
151.6424553543
 20
86.3242194054
 10
151.6261771321
 20
86.3235991123
 10
151.6099680822
 20
86.32193529
 10
151.5938970804
 20
86.319235009
 10
151.5780324149
 20
86.3155097436
 10
151.5624414988
 20
86.3107753238
 10
151.547190583
 20
86.3050518686
 10
151.5323444717
 20
86.2983636991
 10
151.5179662485
 20
86.2907392356
 10
151.5041170103
 20
86.2822108775
 10
151.4908556047
 20
86.2728148649
 10
151.478238381
 20
86.262591124
 10
151.4663189521
 20
86.2515830989
 10
151.455147965
 20
86.2398375661
 10
151.4447728861
 20
86.2274044352
 10
151.4352377996
 20
86.2143365374
 10
151.4265832211
 20
86.2006894014
 10
151.4188459241
 20
86.186521017
 10
151.4120587839
 20
86.1718915873
 10
151.4062506393
 20
86.1568632759
 10
151.4014461692
 20
86.1414999407
 10
151.397665787
 20
86.1258668616
 10
151.3949255554
 20
86.1100304653
 10
151.3932371177
 20
86.094058044
 10
151.3926076476
 20
86.0780174672
  0
LWPOLYLINE
  5
24E
100
AcDbEntity
  8
ASSI
100
AcDbPolyline
 62
250
  6
CONTINUOUS
 90
25
 70
0
 10
140.4424553543
 20
86.3242194054
 10
140.4261771321
 20
86.3235991123
 10
140.4099680822
 20
86.32193529
 10
140.3938970804
 20
86.319235009
 10
140.3780324149
 20
86.3155097436
 10
140.3624414988
 20
86.3107753238
 10
140.347190583
 20
86.3050518686
 10
140.3323444717
 20
86.2983636991
 10
140.3179662485
 20
86.2907392356
 10
140.3041170103
 20
86.2822108775
 10
140.2908556047
 20
86.2728148649
 10
140.278238381
 20
86.262591124
 10
140.2663189521
 20
86.2515830989
 10
140.255147965
 20
86.2398375661
 10
140.2447728861
 20
86.2274044352
 10
140.2352377996
 20
86.2143365374
 10
140.2265832211
 20
86.2006894014
 10
140.2188459241
 20
86.186521017
 10
140.2120587839
 20
86.1718915873
 10
140.2062506393
 20
86.1568632759
 10
140.2014461692
 20
86.1414999407
 10
140.197665787
 20
86.1258668616
 10
140.1949255554
 20
86.1100304653
 10
140.1932371177
 20
86.094058044
 10
140.1926076476
 20
86.0780174672
  0
LWPOLYLINE
  5
24F
100
AcDbEntity
  8
ASSI
100
AcDbPolyline
 62
250
  6
CONTINUOUS
 90
25
 70
0
 10
140.5246564543
 20
85.6199857563
 10
140.5406767122
 20
85.6204172345
 10
140.5566310998
 20
85.6212813371
 10
140.5724540207
 20
85.6225745111
 10
140.5880804198
 20
85.6242914394
 10
140.6034460487
 20
85.6264250627
 10
140.6184877299
 20
85.6289666079
 10
140.6331436196
 20
85.631905625
 10
140.6473534611
 20
85.6352300299
 10
140.6610588301
 20
85.6389261536
 10
140.6742033775
 20
85.6429787991
 10
140.686733061
 20
85.6473713036
 10
140.6985963654
 20
85.6520856069
 10
140.7097445158
 20
85.6571023257
 10
140.7201316783
 20
85.6624008336
 10
140.7297151477
 20
85.6679593458
 10
140.7384555229
 20
85.6737550082
 10
140.7463168696
 20
85.6797639921
 10
140.7532668678
 20
85.6859615922
 10
140.7592769439
 20
85.6923223269
 10
140.7643223888
 20
85.6988200444
 10
140.7683824599
 20
85.7054280305
 10
140.7714404653
 20
85.712119117
 10
140.7734838325
 20
85.7188657936
 10
140.774504161
 20
85.7256403218
  0
LINE
  5
250
100
AcDbEntity
  8
ASSI
100
AcDbLine
 62
250
  6
CONTINUOUS
 10
140.1940504897
 20
85.7467712349
 11
140.7743405708
 21
85.7467712349
  0
LINE
  5
251
100
AcDbEntity
  8
ASSI
100
AcDbLine
 62
250
  6
CONTINUOUS
 10
151.3940504897
 20
85.7467712349
 11
151.9743405708
 21
85.7467712349
  0
LINE
  5
252
100
AcDbEntity
  8
ASSI
100
AcDbLine
 62
250
  6
CONTINUOUS
 10
140.1940504897
 20
86.0287770795
 11
140.7743405708
 21
86.0287770795
  0
LINE
  5
253
100
AcDbEntity
  8
ASSI
100
AcDbLine
 62
250
  6
CONTINUOUS
 10
151.3940504897
 20
86.0287770795
 11
151.9743405708
 21
86.0287770795
  0
LINE
  5
254
100
AcDbEntity
  8
ASSI
100
AcDbLine
 62
250
  6
CONTINUOUS
 10
151.7259357062
 20
86.3242194054
 11
151.6424553543
 21
86.3242194054
  0
LINE
  5
255
100
AcDbEntity
  8
ASSI
100
AcDbLine
 62
250
  6
CONTINUOUS
 10
140.5259357062
 20
86.3242194054
 11
140.4424553543
 21
86.3242194054
  0
LINE
  5
256
100
AcDbEntity
  8
ASSI
100
AcDbLine
 62
7
  6
CONTINUOUS
 10
151.7766439618
 20
86.5802628361
 11
151.5917470987
 21
86.5802628361
  0
LINE
  5
257
100
AcDbEntity
  8
ASSI
100
AcDbLine
 62
7
  6
CONTINUOUS
 10
140.3917470987
 20
86.5802628361
 11
140.5766439618
 21
86.5802628361
  0
LWPOLYLINE
  5
258
100
AcDbEntity
  8
ASSI
100
AcDbPolyline
 62
250
  6
CONTINUOUS
 90
25
 70
0
 10
151.6437346062
 20
85.6199857563
 10
151.6277144078
 20
85.620417231
 10
151.611760076
 20
85.6212813272
 10
151.5959372065
 20
85.6225744921
 10
151.5803108544
 20
85.6242914089
 10
151.5649452671
 20
85.6264250186
 10
151.5499036197
 20
85.6289665489
 10
151.5352477555
 20
85.6319055503
 10
151.5210379315
 20
85.6352299394
 10
151.507332571
 20
85.6389260478
 10
151.4941880232
 20
85.6429786793
 10
151.4816583315
 20
85.6473711715
 10
151.4697950112
 20
85.6520854648
 10
151.4586468382
 20
85.6571021767
 10
151.4482596476
 20
85.6624006809
 10
151.4386761462
 20
85.667959193
 10
151.4299357362
 20
85.6737548591
 10
151.4220743536
 20
85.6797638508
 10
151.41512432
 20
85.6859614621
 10
151.4091142105
 20
85.6923222118
 10
151.4040687353
 20
85.6988199478
 10
151.4000086389
 20
85.705427955
 10
151.396950614
 20
85.7121190646
 10
151.3949072338
 20
85.7188657665
 10
151.3938868994
 20
85.7256403218
  0
LWPOLYLINE
  5
259
100
AcDbEntity
  8
ASSI
100
AcDbPolyline
 62
250
  6
CONTINUOUS
 90
25
 70
0
 10
140.5259357062
 20
86.3242194054
 10
140.5422138721
 20
86.3235991164
 10
140.5584228691
 20
86.321935305
 10
140.5744938221
 20
86.319235041
 10
140.5903584425
 20
86.3155097984
 10
140.6059493187
 20
86.3107754065
 10
140.6212002021
 20
86.3050519826
 10
140.6360462888
 20
86.2983638465
 10
140.650424495
 20
86.2907394175
 10
140.6642737251
 20
86.282211093
 10
140.6775351311
 20
86.2728151117
 10
140.6901523627
 20
86.2625913987
 10
140.702071807
 20
86.2515833966
 10
140.7132428161
 20
86.2398378803
 10
140.7236179223
 20
86.2274047589
 10
140.7331530397
 20
86.2143368628
 10
140.7418076519
 20
86.2006897202
 10
140.7495449838
 20
86.1865213202
 10
140.7563321581
 20
86.1718918671
 10
140.7621403347
 20
86.156863524
 10
140.7669448337
 20
86.1415001493
 10
140.7707252398
 20
86.1258670248
 10
140.7734654894
 20
86.1100305786
 10
140.7751539386
 20
86.0940581027
 10
140.7757834129
 20
86.0780174672
  0
LWPOLYLINE
  5
25A
100
AcDbEntity
  8
ASSI
100
AcDbPolyline
 62
250
  6
CONTINUOUS
 90
25
 70
0
 10
151.7259357062
 20
86.3242194054
 10
151.7422138721
 20
86.3235991164
 10
151.7584228691
 20
86.321935305
 10
151.7744938221
 20
86.319235041
 10
151.7903584425
 20
86.3155097984
 10
151.8059493187
 20
86.3107754065
 10
151.8212002021
 20
86.3050519826
 10
151.8360462888
 20
86.2983638465
 10
151.850424495
 20
86.2907394175
 10
151.8642737251
 20
86.282211093
 10
151.8775351311
 20
86.2728151117
 10
151.8901523627
 20
86.2625913987
 10
151.902071807
 20
86.2515833966
 10
151.9132428161
 20
86.2398378803
 10
151.9236179223
 20
86.2274047589
 10
151.9331530397
 20
86.2143368628
 10
151.9418076519
 20
86.2006897202
 10
151.9495449838
 20
86.1865213202
 10
151.9563321581
 20
86.1718918671
 10
151.9621403347
 20
86.156863524
 10
151.9669448337
 20
86.1415001493
 10
151.9707252398
 20
86.1258670248
 10
151.9734654894
 20
86.1100305786
 10
151.9751539386
 20
86.0940581027
 10
151.9757834129
 20
86.0780174672
  0
LINE
  5
25B
100
AcDbEntity
  8
ASSI
100
AcDbLine
 62
250
  6
CONTINUOUS
 10
140.0785753372
 20
87.8331862876
 11
140.1329696156
 21
87.8059974348
  0
LINE
  5
25C
100
AcDbEntity
  8
ASSI
100
AcDbLine
 62
250
  6
CONTINUOUS
 10
140.3282998582
 20
88.0832097856
 11
140.382816864
 21
88.0559595878
  0
LWPOLYLINE
  5
25D
100
AcDbEntity
  8
ASSI
100
AcDbPolyline
 62
250
  6
CONTINUOUS
 90
25
 70
0
 10
151.5828173224
 20
88.0559593586
 10
151.5664827963
 20
88.0554146303
 10
151.5502181652
 20
88.0538026837
 10
151.5340930229
 20
88.0511304163
 10
151.5181763663
 20
88.0474092629
 10
151.5025363003
 20
88.042655146
 10
151.4872397465
 20
88.0368884083
 10
151.4723521565
 20
88.0301337252
 10
151.4579372315
 20
88.0224199993
 10
151.444056651
 20
88.0137802371
 10
151.4307698072
 20
88.0042514071
 10
151.4181335523
 20
87.9938742822
 10
151.4062019545
 20
87.9826932648
 10
151.3950260667
 20
87.9707561971
 10
151.3846537083
 20
87.9581141562
 10
151.3751292605
 20
87.9448212358
 10
151.3664934764
 20
87.9309343143
 10
151.3587833065
 20
87.9165128119
 10
151.3520317407
 20
87.9016184358
 10
151.3462676674
 20
87.8863149167
 10
151.3415157494
 20
87.8706677361
 10
151.3377963189
 20
87.8547438453
 10
151.33512529
 20
87.8386113799
 10
151.333514091
 20
87.8223393681
 10
151.3329696156
 20
87.8059974348
  0
LWPOLYLINE
  5
25E
100
AcDbEntity
  8
ASSI
100
AcDbPolyline
 62
250
  6
CONTINUOUS
 90
25
 70
0
 10
140.3828173224
 20
88.0559593586
 10
140.3664827963
 20
88.0554146303
 10
140.3502181652
 20
88.0538026837
 10
140.3340930229
 20
88.0511304163
 10
140.3181763663
 20
88.0474092629
 10
140.3025363003
 20
88.042655146
 10
140.2872397465
 20
88.0368884083
 10
140.2723521565
 20
88.0301337252
 10
140.2579372315
 20
88.0224199993
 10
140.244056651
 20
88.0137802371
 10
140.2307698072
 20
88.0042514071
 10
140.2181335523
 20
87.9938742822
 10
140.2062019545
 20
87.9826932648
 10
140.1950260667
 20
87.9707561971
 10
140.1846537083
 20
87.9581141562
 10
140.1751292605
 20
87.9448212358
 10
140.1664934764
 20
87.9309343143
 10
140.1587833065
 20
87.9165128119
 10
140.1520317407
 20
87.9016184358
 10
140.1462676674
 20
87.8863149167
 10
140.1415157494
 20
87.8706677361
 10
140.1377963189
 20
87.8547438453
 10
140.13512529
 20
87.8386113799
 10
140.133514091
 20
87.8223393681
 10
140.1329696156
 20
87.8059974348
  0
LINE
  5
25F
100
AcDbEntity
  8
ASSI
100
AcDbLine
 62
250
  6
CONTINUOUS
 10
140.1346851815
 20
87.7560050501
 11
140.833705879
 21
87.7560050501
  0
LINE
  5
260
100
AcDbEntity
  8
ASSI
100
AcDbLine
 62
250
  6
CONTINUOUS
 10
151.3346851815
 20
87.7560050501
 11
152.033705879
 21
87.7560050501
  0
LINE
  5
261
100
AcDbEntity
  8
ASSI
100
AcDbLine
 62
250
  6
CONTINUOUS
 10
151.7855741965
 20
88.0559595878
 11
151.582816864
 21
88.0559595878
  0
LINE
  5
262
100
AcDbEntity
  8
ASSI
100
AcDbLine
 62
250
  6
CONTINUOUS
 10
140.5855741965
 20
88.0559595878
 11
140.382816864
 21
88.0559595878
  0
LINE
  5
263
100
AcDbEntity
  8
ASSI
100
AcDbLine
 62
7
  6
CONTINUOUS
 10
151.8400912023
 20
88.0832097856
 11
151.5282998582
 21
88.0832097856
  0
LINE
  5
264
100
AcDbEntity
  8
ASSI
100
AcDbLine
 62
7
  6
CONTINUOUS
 10
140.6400912023
 20
88.0832097856
 11
140.3282998582
 21
88.0832097856
  0
LWPOLYLINE
  5
265
100
AcDbEntity
  8
ASSI
100
AcDbPolyline
 62
7
  6
CONTINUOUS
 90
28
 70
0
 10
140.6400912023
 20
88.0832097856
 10
140.6545498646
 20
88.0827915592
 10
140.6689890565
 20
88.0815345886
 10
140.6833598818
 20
88.0794378264
 10
140.6976327338
 20
88.0764984939
 10
140.7117381288
 20
88.0727236642
 10
140.7255699024
 20
88.0681416027
 10
140.7390521237
 20
88.0627859752
 10
140.7521732534
 20
88.0566700692
 10
140.7649258217
 20
88.0497992085
 10
140.7772677346
 20
88.0421939167
 10
140.7891549185
 20
88.0338791157
 10
140.8005724711
 20
88.0248594223
 10
140.8115066139
 20
88.0151312916
 10
140.8218819432
 20
88.0047466717
 10
140.8316004392
 20
87.9938037131
 10
140.8406097922
 20
87.9823783713
 10
140.8489139603
 20
87.9704839384
 10
140.8565093442
 20
87.9581337116
 10
140.8633709718
 20
87.945371149
 10
140.8694777228
 20
87.9322386734
 10
140.874824136
 20
87.9187434023
 10
140.8793969107
 20
87.9048954476
 10
140.8831614513
 20
87.89077206
 10
140.8860885956
 20
87.8764834015
 10
140.8881714708
 20
87.8621004864
 10
140.889413395
 20
87.847651777
 10
140.8898157233
 20
87.8331862876
  0
LWPOLYLINE
  5
266
100
AcDbEntity
  8
ASSI
100
AcDbPolyline
 62
7
  6
CONTINUOUS
 90
28
 70
0
 10
151.8400912023
 20
88.0832097856
 10
151.8545498646
 20
88.0827915592
 10
151.8689890565
 20
88.0815345886
 10
151.8833598818
 20
88.0794378264
 10
151.8976327338
 20
88.0764984939
 10
151.9117381288
 20
88.0727236642
 10
151.9255699024
 20
88.0681416027
 10
151.9390521237
 20
88.0627859752
 10
151.9521732534
 20
88.0566700692
 10
151.9649258217
 20
88.0497992085
 10
151.9772677346
 20
88.0421939167
 10
151.9891549185
 20
88.0338791157
 10
152.0005724711
 20
88.0248594223
 10
152.0115066139
 20
88.0151312916
 10
152.0218819432
 20
88.0047466717
 10
152.0316004392
 20
87.9938037131
 10
152.0406097922
 20
87.9823783713
 10
152.0489139603
 20
87.9704839384
 10
152.0565093442
 20
87.9581337116
 10
152.0633709718
 20
87.945371149
 10
152.0694777228
 20
87.9322386734
 10
152.074824136
 20
87.9187434023
 10
152.0793969107
 20
87.9048954476
 10
152.0831614513
 20
87.89077206
 10
152.0860885956
 20
87.8764834015
 10
152.0881714708
 20
87.8621004864
 10
152.089413395
 20
87.847651777
 10
152.0898157233
 20
87.8331862876
  0
LWPOLYLINE
  5
267
100
AcDbEntity
  8
ASSI
100
AcDbPolyline
 62
250
  6
CONTINUOUS
 90
25
 70
0
 10
140.5855737381
 20
88.0559593586
 10
140.6019082359
 20
88.0554146322
 10
140.618172841
 20
88.0538026909
 10
140.6342979599
 20
88.0511304319
 10
140.650214596
 20
88.0474092893
 10
140.6658546445
 20
88.0426551854
 10
140.6811511844
 20
88.0368884621
 10
140.6960387641
 20
88.0301337943
 10
140.7104536823
 20
88.0224200842
 10
140.7243342599
 20
88.0137803373
 10
140.7376211041
 20
88.0042515218
 10
140.7502573628
 20
87.9938744098
 10
140.7621889676
 20
87.9826934034
 10
140.773364865
 20
87.9707563441
 10
140.7837372353
 20
87.9581143088
 10
140.7932616967
 20
87.9448213905
 10
140.8018974958
 20
87.9309344675
 10
140.8096076813
 20
87.9165129595
 10
140.8163592626
 20
87.901618574
 10
140.8221233508
 20
87.8863150414
 10
140.8268752824
 20
87.8706678431
 10
140.8305947246
 20
87.8547439308
 10
140.8332657626
 20
87.8386114403
 10
140.8348769674
 20
87.8223393998
 10
140.8354214449
 20
87.8059974348
  0
LWPOLYLINE
  5
268
100
AcDbEntity
  8
ASSI
100
AcDbPolyline
 62
250
  6
CONTINUOUS
 90
25
 70
0
 10
151.7855737381
 20
88.0559593586
 10
151.8019082359
 20
88.0554146322
 10
151.818172841
 20
88.0538026909
 10
151.8342979599
 20
88.0511304319
 10
151.850214596
 20
88.0474092893
 10
151.8658546445
 20
88.0426551854
 10
151.8811511844
 20
88.0368884621
 10
151.8960387641
 20
88.0301337943
 10
151.9104536823
 20
88.0224200842
 10
151.9243342599
 20
88.0137803373
 10
151.9376211041
 20
88.0042515218
 10
151.9502573628
 20
87.9938744098
 10
151.9621889676
 20
87.9826934034
 10
151.973364865
 20
87.9707563441
 10
151.9837372353
 20
87.9581143088
 10
151.9932616967
 20
87.9448213905
 10
152.0018974958
 20
87.9309344675
 10
152.0096076813
 20
87.9165129595
 10
152.0163592626
 20
87.901618574
 10
152.0221233508
 20
87.8863150414
 10
152.0268752824
 20
87.8706678431
 10
152.0305947246
 20
87.8547439308
 10
152.0332657626
 20
87.8386114403
 10
152.0348769674
 20
87.8223393998
 10
152.0354214449
 20
87.8059974348
  0
LINE
  5
269
100
AcDbEntity
  8
ASSI
100
AcDbLine
 62
7
  6
CONTINUOUS
 10
136.2010724293
 20
89.5802628361
 11
136.5841955302
 21
89.5802628361
  0
LINE
  5
26A
100
AcDbEntity
  8
ASSI
100
AcDbLine
 62
7
  6
CONTINUOUS
 10
155.5841955302
 20
89.5802628361
 11
155.9673186312
 21
89.5802628361
  0
LINE
  5
26B
100
AcDbEntity
  8
ASSI
100
AcDbLine
 62
7
  6
CONTINUOUS
 10
157.2341955302
 20
90.5802628361
 11
155.9841955302
 21
90.5802628361
  0
LINE
  5
26C
100
AcDbEntity
  8
ASSI
100
AcDbLine
 62
7
  6
CONTINUOUS
 10
136.1841955302
 20
90.5802628361
 11
134.9341955302
 21
90.5802628361
  0
LWPOLYLINE
  5
26D
100
AcDbEntity
  8
ASSI
100
AcDbPolyline
 62
250
  6
CONTINUOUS
 90
13
 70
0
 10
140.1329696156
 20
87.8059974348
 10
140.1330703599
 20
87.8058626219
 10
140.133170053
 20
87.8055656127
 10
140.1332686949
 20
87.8051064071
 10
140.1333666156
 20
87.8044824205
 10
140.1334634851
 20
87.8036962377
 10
140.1335583132
 20
87.8027556122
 10
140.1336510692
 20
87.8016590315
 10
140.1337417838
 20
87.8004080082
 10
140.1338295596
 20
87.7990148337
 10
140.1339143676
 20
87.7974780802
 10
140.1339962367
 20
87.7957991755
 10
140.1340743564
 20
87.7939946939
  0
LINE
  5
26E
100
AcDbEntity
  8
ASSI
100
AcDbLine
 62
250
  6
CONTINUOUS
 10
151.3329696156
 20
119.5545282373
 11
151.2785753372
 21
119.5273393845
  0
LINE
  5
26F
100
AcDbEntity
  8
ASSI
100
AcDbLine
 62
250
  6
CONTINUOUS
 10
151.582816864
 20
119.3045660844
 11
151.5282998582
 21
119.2773158866
  0
LINE
  5
270
100
AcDbEntity
  8
ASSI
100
AcDbLine
 62
250
  6
CONTINUOUS
 10
151.2785753372
 20
87.8331862876
 11
151.3329696156
 21
87.8059974348
  0
LINE
  5
271
100
AcDbEntity
  8
ASSI
100
AcDbLine
 62
250
  6
CONTINUOUS
 10
151.5282998582
 20
88.0832097856
 11
151.582816864
 21
88.0559595878
  0
LINE
  5
272
100
AcDbEntity
  8
ASSI
100
AcDbLine
 62
7
  6
CONTINUOUS
 10
134.9341955302
 20
90.5802628361
 11
134.9472697676
 21
82.0188958581
  0
LINE
  5
273
100
AcDbEntity
  8
ASSI
100
AcDbLine
 62
7
  6
CONTINUOUS
 10
136.1954500385
 20
83.2105040677
 11
136.1841955302
 21
90.5802628361
  0
LINE
  5
274
100
AcDbEntity
  8
ASSI
100
AcDbLine
 62
250
  6
CONTINUOUS
 10
136.2469926874
 20
123.7874539753
 11
136.2505939387
 21
117.7802628361
  0
LINE
  5
275
100
AcDbEntity
  8
ASSI
100
AcDbLine
 62
7
  6
CONTINUOUS
 10
134.9341955302
 20
103.3802856814
 11
134.9341955302
 21
90.5802628361
  0
LINE
  5
276
100
AcDbEntity
  8
ASSI
100
AcDbLine
 62
7
  6
CONTINUOUS
 10
134.9341955302
 20
103.9802399908
 11
134.9341955302
 21
116.7802628361
  0
LINE
  5
277
100
AcDbEntity
  8
ASSI
100
AcDbLine
 62
7
  6
CONTINUOUS
 10
136.1841955302
 20
103.5802628361
 11
136.1841955302
 21
90.5802628361
  0
LINE
  5
278
100
AcDbEntity
  8
ASSI
100
AcDbLine
 62
7
  6
CONTINUOUS
 10
136.1841955302
 20
103.7802628361
 11
136.1841955302
 21
116.7802628361
  0
LINE
  5
279
100
AcDbEntity
  8
ASSI
100
AcDbLine
 62
7
  6
CONTINUOUS
 10
136.2010724293
 20
117.7802628361
 11
136.2010724293
 21
113.9802628361
  0
LINE
  5
27A
100
AcDbEntity
  8
ASSI
100
AcDbLine
 62
7
  6
CONTINUOUS
 10
136.2010724293
 20
89.5802628361
 11
136.2010724293
 21
93.3802628361
  0
LINE
  5
27B
100
AcDbEntity
  8
ASSI
100
AcDbLine
 62
7
  6
CONTINUOUS
 10
136.2383062315
 20
103.5532095459
 11
136.2383062315
 21
102.4042572309
  0
LINE
  5
27C
100
AcDbEntity
  8
ASSI
100
AcDbLine
 62
7
  6
CONTINUOUS
 10
136.2383062315
 20
103.8073161262
 11
136.2383062315
 21
104.9562684412
  0
LINE
  5
27D
100
AcDbEntity
  8
ASSI
100
AcDbLine
 62
250
  6
CONTINUOUS
 10
136.2522183926
 20
113.9802628361
 11
136.2540467744
 21
104.9877591216
  0
LINE
  5
27E
100
AcDbEntity
  8
ASSI
100
AcDbLine
 62
250
  6
CONTINUOUS
 10
136.2540467744
 20
102.3727665505
 11
136.2522183926
 21
93.3802628361
  0
LINE
  5
27F
100
AcDbEntity
  8
ASSI
100
AcDbLine
 62
250
  6
CONTINUOUS
 10
136.2505939387
 20
89.5802628361
 11
136.2469926874
 21
83.5730716969
  0
LINE
  5
280
100
AcDbEntity
  8
ASSI
100
AcDbLine
 62
7
  6
CONTINUOUS
 10
134.9341955302
 20
116.7802628361
 11
134.9472697676
 21
125.341629814
  0
LINE
  5
281
100
AcDbEntity
  8
ASSI
100
AcDbLine
 62
7
  6
CONTINUOUS
 10
136.1954500385
 20
124.1500216045
 11
136.1841955302
 21
116.7802628361
  0
LWPOLYLINE
  5
282
100
AcDbEntity
  8
ASSI
100
AcDbPolyline
 62
250
  6
CONTINUOUS
 90
25
 70
0
 10
136.2469926882
 20
123.7874539695
 10
136.2474422562
 20
123.8003429154
 10
136.2487362488
 20
123.8131955241
 10
136.250872747
 20
123.8259570565
 10
136.2538473964
 20
123.8385771426
 10
136.2576504203
 20
123.8509967498
 10
136.2622637779
 20
123.8631492734
 10
136.2676674311
 20
123.8749800799
 10
136.2738399721
 20
123.8864407196
 10
136.2807526546
 20
123.8974770529
 10
136.2883740586
 20
123.9080397843
 10
136.2966728319
 20
123.9180862488
 10
136.3056152266
 20
123.9275754833
 10
136.3151644511
 20
123.9364677422
 10
136.3252788227
 20
123.9447235508
 10
136.3359134784
 20
123.9523061392
 10
136.347022019
 20
123.9591826554
 10
136.3585576472
 20
123.9653243515
 10
136.3704716797
 20
123.9707053297
 10
136.3827135286
 20
123.9753026417
 10
136.3952305082
 20
123.9790964046
 10
136.4079687353
 20
123.9820702656
 10
136.4208735927
 20
123.9842115004
 10
136.4338899851
 20
123.9855109935
 10
136.4469622272
 20
123.9859631998
  0
LINE
  5
283
100
AcDbEntity
  8
ASSI
100
AcDbLine
 62
7
  6
CONTINUOUS
 10
140.090082453
 20
123.9859631998
 11
140.1640631563
 21
124.2460859947
  0
LINE
  5
284
100
AcDbEntity
  8
ASSI
100
AcDbLine
 62
7
  6
CONTINUOUS
 10
136.2010724293
 20
93.3802628361
 11
136.5841955302
 21
93.3802628361
  0
LINE
  5
285
100
AcDbEntity
  8
ASSI
100
AcDbLine
 62
7
  6
CONTINUOUS
 10
155.5841955302
 20
93.3802628361
 11
155.9673186312
 21
93.3802628361
  0
LINE
  5
286
100
AcDbEntity
  8
ASSI
100
AcDbLine
 62
7
  6
CONTINUOUS
 10
140.1640631563
 20
83.1144396774
 11
140.090082453
 21
83.3745624723
  0
LINE
  5
287
100
AcDbEntity
  8
ASSI
100
AcDbLine
 62
7
  6
CONTINUOUS
 10
138.2757705373
 20
81.5209501303
 11
138.2004770534
 21
83.0115677053
  0
LINE
  5
288
100
AcDbEntity
  8
ASSI
100
AcDbLine
 62
250
  6
CONTINUOUS
 10
136.4469622272
 20
123.9859631998
 11
136.4505662723
 21
117.7802628361
  0
LINE
  5
289
100
AcDbEntity
  8
ASSI
100
AcDbLine
 62
250
  6
CONTINUOUS
 10
136.4521894226
 20
113.9802628361
 11
136.4540160226
 21
104.9946207791
  0
LINE
  5
28A
100
AcDbEntity
  8
ASSI
100
AcDbLine
 62
7
  6
CONTINUOUS
 10
136.5841955302
 20
117.7802628361
 11
136.5841955302
 21
113.9802628361
  0
LINE
  5
28B
100
AcDbEntity
  8
ASSI
100
AcDbLine
 62
7
  6
CONTINUOUS
 10
136.5841955302
 20
89.5802628361
 11
136.5841955302
 21
93.3802628361
  0
LINE
  5
28C
100
AcDbEntity
  8
ASSI
100
AcDbLine
 62
250
  6
CONTINUOUS
 10
136.4540160226
 20
102.365904893
 11
136.4521894226
 21
93.3802628361
  0
LINE
  5
28D
100
AcDbEntity
  8
ASSI
100
AcDbLine
 62
250
  6
CONTINUOUS
 10
136.4505662723
 20
89.5802628361
 11
136.4469622272
 21
83.3745624723
  0
LINE
  5
28E
100
AcDbEntity
  8
ASSI
100
AcDbLine
 62
7
  6
CONTINUOUS
 10
138.2757705373
 20
125.8395755418
 11
138.2004770534
 21
124.3489579668
  0
LINE
  5
28F
100
AcDbEntity
  8
ASSI
100
AcDbLine
 62
250
  6
CONTINUOUS
 10
140.1926076476
 20
121.282508205
 11
140.1346851815
 21
120.9900377439
  0
LINE
  5
290
100
AcDbEntity
  8
ASSI
100
AcDbLine
 62
250
  6
CONTINUOUS
 10
140.4424553543
 20
121.0363062667
 11
140.3917470987
 21
120.7802628361
  0
LINE
  5
291
100
AcDbEntity
  8
ASSI
100
AcDbLine
 62
7
  6
CONTINUOUS
 10
136.2540467744
 20
104.9877591216
 11
136.2383062315
 21
104.9562684412
  0
LINE
  5
292
100
AcDbEntity
  8
ASSI
100
AcDbLine
 62
250
  6
CONTINUOUS
 10
138.9923146715
 20
109.8381992254
 11
139.0474446067
 21
109.8933291607
  0
LINE
  5
293
100
AcDbEntity
  8
ASSI
100
AcDbLine
 62
250
  6
CONTINUOUS
 10
139.292131392
 20
109.5383814497
 11
139.3473891542
 21
109.593639212
  0
LINE
  5
294
100
AcDbEntity
  8
ASSI
100
AcDbLine
 62
250
  6
CONTINUOUS
 10
139.0474446067
 20
97.4671965115
 11
138.9923146715
 21
97.5223264467
  0
LINE
  5
295
100
AcDbEntity
  8
ASSI
100
AcDbLine
 62
250
  6
CONTINUOUS
 10
139.3473891542
 20
97.7668864602
 11
139.292131392
 21
97.8221442224
  0
LWPOLYLINE
  5
296
100
AcDbEntity
  8
ASSI
100
AcDbPolyline
 62
250
  6
CONTINUOUS
 90
13
 70
0
 10
139.292131392
 20
97.8221442224
 10
139.2917732747
 20
97.8227691546
 10
139.2914184968
 20
97.8239082339
 10
139.2910670583
 20
97.8255614602
 10
139.2907180337
 20
97.8277358332
 10
139.2903723485
 20
97.8304243532
 10
139.2900327794
 20
97.8336060221
 10
139.2896993928
 20
97.8372847462
 10
139.2893721224
 20
97.8414566191
 10
139.2890535455
 20
97.846088924
 10
139.2887437367
 20
97.8511852353
 10
139.2884426215
 20
97.8567419785
 10
139.2881525544
 20
97.8627157138
  0
LINE
  5
297
100
AcDbEntity
  8
ASSI
100
AcDbLine
 62
7
  6
CONTINUOUS
 10
136.2383062315
 20
102.4042572309
 11
136.2540467744
 21
102.3727665505
  0
LWPOLYLINE
  5
298
100
AcDbEntity
  8
ASSI
100
AcDbPolyline
 62
250
  6
CONTINUOUS
 90
8
 70
0
 10
138.9923143535
 20
97.522326447
 10
138.991955943
 20
97.523873323
 10
138.9916009681
 20
97.526725601
 10
138.991249429
 20
97.5308758775
 10
138.9909004444
 20
97.5363133255
 10
138.9905548955
 20
97.5430237773
 10
138.9902154262
 20
97.5509898066
 10
138.9898820407
 20
97.560190815
  0
LINE
  5
299
100
AcDbEntity
  8
ASSI
100
AcDbLine
 62
250
  6
CONTINUOUS
 10
140.1346851815
 20
86.3704879283
 11
140.1926076476
 21
86.0780174672
  0
LINE
  5
29A
100
AcDbEntity
  8
ASSI
100
AcDbLine
 62
250
  6
CONTINUOUS
 10
140.3917470987
 20
86.5802628361
 11
140.4424553543
 21
86.3242194054
  0
LWPOLYLINE
  5
29B
100
AcDbEntity
  8
ASSI
100
AcDbPolyline
 62
250
  6
CONTINUOUS
 90
10
 70
0
 10
140.1926076476
 20
86.0780174672
 10
140.1927075234
 20
86.0774254629
 10
140.1928054234
 20
86.0766745413
 10
140.1929013475
 20
86.0757647025
 10
140.1929956184
 20
86.074691752
 10
140.1930879135
 20
86.0734598843
 10
140.1931772646
 20
86.0720816823
 10
140.1932636302
 20
86.070555737
 10
140.1933470518
 20
86.0688834574
 10
140.1934266851
 20
86.0670816536
  0
LWPOLYLINE
  5
29C
100
AcDbEntity
  8
ASSI
100
AcDbPolyline
 62
7
  6
CONTINUOUS
 90
31
 70
0
 10
140.833705879
 20
86.3704879283
 10
140.8330795972
 20
86.3797057121
 10
140.8319616395
 20
86.3889879759
 10
140.830341608
 20
86.3983125261
 10
140.8282094444
 20
86.4076521379
 10
140.8255574697
 20
86.4169867593
 10
140.8223802698
 20
86.4263035086
 10
140.8186724787
 20
86.4355739478
 10
140.8144286218
 20
86.444773881
 10
140.8096436888
 20
86.4538950906
 10
140.8043154771
 20
86.4629064638
 10
140.7984414512
 20
86.4717808432
 10
140.7920151619
 20
86.4805132989
 10
140.7850376123
 20
86.4890693149
 10
140.7775092193
 20
86.4974184381
 10
140.7694205964
 20
86.5055576193
 10
140.7607761467
 20
86.5134481579
 10
140.751579933
 20
86.5210552225
 10
140.7418194751
 20
86.5283752141
 10
140.7315032861
 20
86.5353642937
 10
140.7206407708
 20
86.5419818707
 10
140.7092186941
 20
86.548220496
 10
140.6972504504
 20
86.5540307973
 10
140.6847545951
 20
86.5593647602
 10
140.6717256256
 20
86.5642067631
 10
140.6581840622
 20
86.5685024187
 10
140.6441629312
 20
86.5721965083
 10
140.6296792642
 20
86.5752634402
 10
140.6147664018
 20
86.5776548766
 10
140.5994755036
 20
86.5793044053
 10
140.5838581722
 20
86.5801572251
  0
LINE
  5
29D
100
AcDbEntity
  8
ASSI
100
AcDbLine
 62
250
  6
CONTINUOUS
 10
138.8552554797
 20
100.4491193082
 11
138.8560793863
 21
100.4338088723
  0
LINE
  5
29E
100
AcDbEntity
  8
ASSI
100
AcDbLine
 62
250
  6
CONTINUOUS
 10
139.0131355808
 20
106.911406364
 11
139.0123116742
 21
106.9267167998
  0
LINE
  5
29F
100
AcDbEntity
  8
ASSI
100
AcDbLine
 62
250
  6
CONTINUOUS
 10
138.8537140924
 20
100.4819536238
 11
138.8552554797
 21
100.4491193082
  0
LINE
  5
2A0
100
AcDbEntity
  8
ASSI
100
AcDbLine
 62
250
  6
CONTINUOUS
 10
139.0146769681
 20
106.8785720483
 11
139.0131355808
 21
106.911406364
  0
LINE
  5
2A1
100
AcDbEntity
  8
ASSI
100
AcDbLine
 62
250
  6
CONTINUOUS
 10
138.5802385061
 20
109.4978099584
 11
138.5807853284
 21
109.4846048242
  0
LINE
  5
2A2
100
AcDbEntity
  8
ASSI
100
AcDbLine
 62
250
  6
CONTINUOUS
 10
139.2881525544
 20
97.8627157138
 11
139.2876057321
 21
97.875920848
  0
LINE
  5
2A3
100
AcDbEntity
  8
ASSI
100
AcDbLine
 62
250
  6
CONTINUOUS
 10
138.8523086246
 20
100.5176794359
 11
138.8537140924
 21
100.4819536238
  0
LINE
  5
2A4
100
AcDbEntity
  8
ASSI
100
AcDbLine
 62
250
  6
CONTINUOUS
 10
139.0160824359
 20
106.8428462362
 11
139.0146769681
 21
106.8785720483
  0
LINE
  5
2A5
100
AcDbEntity
  8
ASSI
100
AcDbLine
 62
250
  6
CONTINUOUS
 10
138.8560792596
 20
100.4338088722
 11
138.8807717157
 21
99.7267094455
  0
LINE
  5
2A6
100
AcDbEntity
  8
ASSI
100
AcDbLine
 62
250
  6
CONTINUOUS
 10
139.0123118009
 20
106.9267167999
 11
138.9876193448
 21
107.6338162267
  0
LWPOLYLINE
  5
2A7
100
AcDbEntity
  8
ASSI
100
AcDbPolyline
 62
250
  6
CONTINUOUS
 90
3
 70
0
 10
140.1934266851
 20
86.0670816536
 10
140.1935745122
 20
86.0630867077
 10
140.1936420105
 20
86.0609159061
  0
LWPOLYLINE
  5
2A8
100
AcDbEntity
  8
ASSI
100
AcDbPolyline
 62
250
  6
CONTINUOUS
 90
3
 70
0
 10
140.1340743564
 20
87.7939946939
 10
140.1342192752
 20
87.790006407
 10
140.134285409
 20
87.7878443622
  0
LINE
  5
2A9
100
AcDbEntity
  8
ASSI
100
AcDbLine
 62
250
  6
CONTINUOUS
 10
138.5807853284
 20
109.4846048242
 11
138.5812815431
 21
109.4698892851
  0
LINE
  5
2AA
100
AcDbEntity
  8
ASSI
100
AcDbLine
 62
250
  6
CONTINUOUS
 10
139.2876057321
 20
97.875920848
 11
139.2871095174
 21
97.890636387
  0
LINE
  5
2AB
100
AcDbEntity
  8
ASSI
100
AcDbLine
 62
250
  6
CONTINUOUS
 10
138.85107288
 20
100.5558530482
 11
138.8523086246
 21
100.5176794359
  0
LINE
  5
2AC
100
AcDbEntity
  8
ASSI
100
AcDbLine
 62
250
  6
CONTINUOUS
 10
139.0173181805
 20
106.8046726239
 11
139.0160824359
 21
106.8428462362
  0
LINE
  5
2AD
100
AcDbEntity
  8
ASSI
100
AcDbLine
 62
250
  6
CONTINUOUS
 10
138.5546502583
 20
100.2718741268
 11
138.5813663824
 21
99.5017032426
  0
LINE
  5
2AE
100
AcDbEntity
  8
ASSI
100
AcDbLine
 62
250
  6
CONTINUOUS
 10
139.3137408022
 20
107.0886515453
 11
139.2870246781
 21
107.8588224295
  0
LINE
  5
2AF
100
AcDbEntity
  8
ASSI
100
AcDbLine
 62
250
  6
CONTINUOUS
 10
138.9898820407
 20
97.560190815
 11
138.9892361407
 21
97.5821976447
  0
LINE
  5
2B0
100
AcDbEntity
  8
ASSI
100
AcDbLine
 62
250
  6
CONTINUOUS
 10
138.8785090198
 20
109.8003348571
 11
138.8791549198
 21
109.7783280275
  0
LINE
  5
2B1
100
AcDbEntity
  8
ASSI
100
AcDbLine
 62
250
  6
CONTINUOUS
 10
138.5812815431
 20
109.4698892851
 11
138.5817232588
 21
109.4537788393
  0
LINE
  5
2B2
100
AcDbEntity
  8
ASSI
100
AcDbLine
 62
250
  6
CONTINUOUS
 10
139.2871095174
 20
97.890636387
 11
139.2866678017
 21
97.9067468329
  0
LINE
  5
2B3
100
AcDbEntity
  8
ASSI
100
AcDbLine
 62
250
  6
CONTINUOUS
 10
138.5531770301
 20
100.3267027161
 11
138.5546502583
 21
100.2718741268
  0
LINE
  5
2B4
100
AcDbEntity
  8
ASSI
100
AcDbLine
 62
250
  6
CONTINUOUS
 10
139.3152140304
 20
107.0338229561
 11
139.3137408022
 21
107.0886515453
  0
LINE
  5
2B5
100
AcDbEntity
  8
ASSI
100
AcDbLine
 62
250
  6
CONTINUOUS
 10
138.5813663824
 20
99.5017032426
 11
138.581736646
 21
99.4878840651
  0
LINE
  5
2B6
100
AcDbEntity
  8
ASSI
100
AcDbLine
 62
250
  6
CONTINUOUS
 10
139.2870246781
 20
107.8588224295
 11
139.2866544145
 21
107.872641607
  0
LINE
  5
2B7
100
AcDbEntity
  8
ASSI
100
AcDbLine
 62
250
  6
CONTINUOUS
 10
138.8500220916
 20
100.5960720125
 11
138.85107288
 21
100.5558530482
  0
LINE
  5
2B8
100
AcDbEntity
  8
ASSI
100
AcDbLine
 62
250
  6
CONTINUOUS
 10
139.0183689689
 20
106.7644536596
 11
139.0173181805
 21
106.8046726239
  0
LINE
  5
2B9
100
AcDbEntity
  8
ASSI
100
AcDbLine
 62
250
  6
CONTINUOUS
 10
138.9892361407
 20
97.5821976447
 11
138.9886252876
 21
97.608811717
  0
LINE
  5
2BA
100
AcDbEntity
  8
ASSI
100
AcDbLine
 62
250
  6
CONTINUOUS
 10
138.8791549198
 20
109.7783280275
 11
138.8797657728
 21
109.7517139551
  0
LINE
  5
2BB
100
AcDbEntity
  8
ASSI
100
AcDbLine
 62
250
  6
CONTINUOUS
 10
138.5817232588
 20
109.4537788393
 11
138.5821049781
 21
109.4364578378
  0
LINE
  5
2BC
100
AcDbEntity
  8
ASSI
100
AcDbLine
 62
250
  6
CONTINUOUS
 10
139.2866678017
 20
97.9067468329
 11
139.2862860824
 21
97.9240678343
  0
LINE
  5
2BD
100
AcDbEntity
  8
ASSI
100
AcDbLine
 62
250
  6
CONTINUOUS
 10
138.5512558837
 20
100.4169168486
 11
138.5531770301
 21
100.3267027161
  0
LINE
  5
2BE
100
AcDbEntity
  8
ASSI
100
AcDbLine
 62
250
  6
CONTINUOUS
 10
139.3171351768
 20
106.9436088236
 11
139.3152140304
 21
107.0338229561
  0
LINE
  5
2BF
100
AcDbEntity
  8
ASSI
100
AcDbLine
 62
250
  6
CONTINUOUS
 10
138.581736646
 20
99.4878840651
 11
138.5822107527
 21
99.4655138006
  0
LINE
  5
2C0
100
AcDbEntity
  8
ASSI
100
AcDbLine
 62
250
  6
CONTINUOUS
 10
139.2866544145
 20
107.872641607
 11
139.2861803078
 21
107.8950118716
  0
LINE
  5
2C1
100
AcDbEntity
  8
ASSI
100
AcDbLine
 62
250
  6
CONTINUOUS
 10
138.8491763452
 20
100.6377945527
 11
138.8500220916
 21
100.5960720125
  0
LINE
  5
2C2
100
AcDbEntity
  8
ASSI
100
AcDbLine
 62
250
  6
CONTINUOUS
 10
139.0192147153
 20
106.7227311195
 11
139.0183689689
 21
106.7644536596
  0
LINE
  5
2C3
100
AcDbEntity
  8
ASSI
100
AcDbLine
 62
250
  6
CONTINUOUS
 10
138.9886252876
 20
97.608811717
 11
138.9877884819
 21
97.6567503039
  0
LINE
  5
2C4
100
AcDbEntity
  8
ASSI
100
AcDbLine
 62
250
  6
CONTINUOUS
 10
138.8797657728
 20
109.7517139551
 11
138.8806025786
 21
109.7037753682
  0
LINE
  5
2C5
100
AcDbEntity
  8
ASSI
100
AcDbLine
 62
250
  6
CONTINUOUS
 10
138.5821049781
 20
109.4364578378
 11
138.5825566627
 21
109.4086245152
  0
LINE
  5
2C6
100
AcDbEntity
  8
ASSI
100
AcDbLine
 62
250
  6
CONTINUOUS
 10
139.2862860824
 20
97.9240678343
 11
139.2858343978
 21
97.9519011569
  0
LINE
  5
2C7
100
AcDbEntity
  8
ASSI
100
AcDbLine
 62
250
  6
CONTINUOUS
 10
138.5822107527
 20
99.4655138006
 11
138.5825788421
 21
99.4415599797
  0
LINE
  5
2C8
100
AcDbEntity
  8
ASSI
100
AcDbLine
 62
250
  6
CONTINUOUS
 10
139.2861803078
 20
107.8950118716
 11
139.2858122184
 21
107.9189656924
  0
LINE
  5
2C9
100
AcDbEntity
  8
ASSI
100
AcDbLine
 62
250
  6
CONTINUOUS
 10
138.5497565787
 20
100.514389853
 11
138.5512558837
 21
100.4169168486
  0
LINE
  5
2CA
100
AcDbEntity
  8
ASSI
100
AcDbLine
 62
250
  6
CONTINUOUS
 10
138.8485434484
 20
100.6804300516
 11
138.8491763452
 21
100.6377945527
  0
LINE
  5
2CB
100
AcDbEntity
  8
ASSI
100
AcDbLine
 62
250
  6
CONTINUOUS
 10
139.0198476121
 20
106.6800956206
 11
139.0192147153
 21
106.7227311195
  0
LINE
  5
2CC
100
AcDbEntity
  8
ASSI
100
AcDbLine
 62
250
  6
CONTINUOUS
 10
139.3186344818
 20
106.8461358191
 11
139.3171351768
 21
106.9436088236
  0
LINE
  5
2CD
100
AcDbEntity
  8
ASSI
100
AcDbLine
 62
250
  6
CONTINUOUS
 10
138.9877884819
 20
97.6567503039
 11
138.9868506091
 21
97.7338222273
  0
LINE
  5
2CE
100
AcDbEntity
  8
ASSI
100
AcDbLine
 62
250
  6
CONTINUOUS
 10
138.8806025786
 20
109.7037753682
 11
138.8815404514
 21
109.6267034448
  0
LINE
  5
2CF
100
AcDbEntity
  8
ASSI
100
AcDbLine
 62
250
  6
CONTINUOUS
 10
138.8807717157
 20
99.7267094455
 11
138.8817235157
 21
99.6418113032
  0
LINE
  5
2D0
100
AcDbEntity
  8
ASSI
100
AcDbLine
 62
250
  6
CONTINUOUS
 10
138.9876193448
 20
107.6338162267
 11
138.9866675448
 21
107.718714369
  0
LINE
  5
2D1
100
AcDbEntity
  8
ASSI
100
AcDbLine
 62
250
  6
CONTINUOUS
 10
138.5825788421
 20
99.4415599797
 11
138.5828345379
 21
99.4164371581
  0
LINE
  5
2D2
100
AcDbEntity
  8
ASSI
100
AcDbLine
 62
250
  6
CONTINUOUS
 10
139.2858122184
 20
107.9189656924
 11
139.2855565226
 21
107.9440885141
  0
LINE
  5
2D3
100
AcDbEntity
  8
ASSI
100
AcDbLine
 62
250
  6
CONTINUOUS
 10
138.5487260357
 20
100.6162689778
 11
138.5497565787
 21
100.514389853
  0
LINE
  5
2D4
100
AcDbEntity
  8
ASSI
100
AcDbLine
 62
250
  6
CONTINUOUS
 10
138.8481257487
 20
100.7234533213
 11
138.8485434484
 21
100.6804300516
  0
LINE
  5
2D5
100
AcDbEntity
  8
ASSI
100
AcDbLine
 62
250
  6
CONTINUOUS
 10
139.0202653118
 20
106.6370723508
 11
139.0198476121
 21
106.6800956206
  0
LINE
  5
2D6
100
AcDbEntity
  8
ASSI
100
AcDbLine
 62
250
  6
CONTINUOUS
 10
139.3196650248
 20
106.7442566943
 11
139.3186344818
 21
106.8461358191
  0
LINE
  5
2D7
100
AcDbEntity
  8
ASSI
100
AcDbLine
 62
250
  6
CONTINUOUS
 10
138.5825566627
 20
109.4086245152
 11
138.5828542988
 21
109.3791416259
  0
LINE
  5
2D8
100
AcDbEntity
  8
ASSI
100
AcDbLine
 62
250
  6
CONTINUOUS
 10
139.2858343978
 20
97.9519011569
 11
139.2855367617
 21
97.9813840462
  0
LINE
  5
2D9
100
AcDbEntity
  8
ASSI
100
AcDbLine
 62
250
  6
CONTINUOUS
 10
138.8815404514
 20
109.6267034448
 11
138.8823738455
 21
109.513853746
  0
LINE
  5
2DA
100
AcDbEntity
  8
ASSI
100
AcDbLine
 62
250
  6
CONTINUOUS
 10
138.9868506091
 20
97.7338222273
 11
138.986017215
 21
97.8466719261
  0
LINE
  5
2DB
100
AcDbEntity
  8
ASSI
100
AcDbLine
 62
250
  6
CONTINUOUS
 10
138.8817235157
 20
99.6418113032
 11
138.8824941672
 21
99.5235001356
  0
LINE
  5
2DC
100
AcDbEntity
  8
ASSI
100
AcDbLine
 62
250
  6
CONTINUOUS
 10
138.9866675448
 20
107.718714369
 11
138.9858968933
 21
107.8370255366
  0
LINE
  5
2DD
100
AcDbEntity
  8
ASSI
100
AcDbLine
 62
250
  6
CONTINUOUS
 10
138.5828345379
 20
99.4164371581
 11
138.5829734536
 21
99.390598771
  0
LINE
  5
2DE
100
AcDbEntity
  8
ASSI
100
AcDbLine
 62
250
  6
CONTINUOUS
 10
139.2855565226
 20
107.9440885141
 11
139.2854176069
 21
107.9699269011
  0
LINE
  5
2DF
100
AcDbEntity
  8
ASSI
100
AcDbLine
 62
250
  6
CONTINUOUS
 10
138.5481789417
 20
100.7193068892
 11
138.5487260357
 21
100.6162689778
  0
LINE
  5
2E0
100
AcDbEntity
  8
ASSI
100
AcDbLine
 62
250
  6
CONTINUOUS
 10
139.3202121188
 20
106.641218783
 11
139.3196650248
 21
106.7442566943
  0
LINE
  5
2E1
100
AcDbEntity
  8
ASSI
100
AcDbLine
 62
250
  6
CONTINUOUS
 10
138.8479198728
 20
100.7661968043
 11
138.8481257487
 21
100.7234533213
  0
LINE
  5
2E2
100
AcDbEntity
  8
ASSI
100
AcDbLine
 62
250
  6
CONTINUOUS
 10
139.0204711877
 20
106.5943288679
 11
139.0202653118
 21
106.6370723508
  0
LINE
  5
2E3
100
AcDbEntity
  8
ASSI
100
AcDbLine
 62
250
  6
CONTINUOUS
 10
138.5828542988
 20
109.3791416259
 11
138.5829907711
 21
109.3487724134
  0
LINE
  5
2E4
100
AcDbEntity
  8
ASSI
100
AcDbLine
 62
250
  6
CONTINUOUS
 10
139.2855367617
 20
97.9813840462
 11
139.2854002894
 21
98.0117532588
  0
LINE
  5
2E5
100
AcDbEntity
  8
ASSI
100
AcDbLine
 62
250
  6
CONTINUOUS
 10
138.8823738455
 20
109.513853746
 11
138.8828080036
 21
109.3640709627
  0
LINE
  5
2E6
100
AcDbEntity
  8
ASSI
100
AcDbLine
 62
250
  6
CONTINUOUS
 10
138.986017215
 20
97.8466719261
 11
138.9855830569
 21
97.9964547094
  0
LINE
  5
2E7
100
AcDbEntity
  8
ASSI
100
AcDbLine
 62
250
  6
CONTINUOUS
 10
138.5480793094
 20
102.3941466152
 11
138.5481789417
 21
100.7193068892
  0
LINE
  5
2E8
100
AcDbEntity
  8
ASSI
100
AcDbLine
 62
250
  6
CONTINUOUS
 10
138.6264605033
 20
81.5527832883
 11
138.6264605033
 21
83.1021612213
  0
LINE
  5
2E9
100
AcDbEntity
  8
ASSI
100
AcDbLine
 62
250
  6
CONTINUOUS
 10
138.6264605033
 20
124.2583644508
 11
138.6264605033
 21
125.8077423838
  0
LINE
  5
2EA
100
AcDbEntity
  8
ASSI
100
AcDbLine
 62
250
  6
CONTINUOUS
 10
138.7996655841
 20
81.5580240663
 11
138.7996655841
 21
83.1144396774
  0
LINE
  5
2EB
100
AcDbEntity
  8
ASSI
100
AcDbLine
 62
250
  6
CONTINUOUS
 10
138.7996655841
 20
124.2460859947
 11
138.7996655841
 21
125.8025016059
  0
LINE
  5
2EC
100
AcDbEntity
  8
ASSI
100
AcDbLine
 62
250
  6
CONTINUOUS
 10
138.8478965575
 20
102.4042572309
 11
138.8479198728
 21
100.7661968043
  0
LINE
  5
2ED
100
AcDbEntity
  8
ASSI
100
AcDbLine
 62
250
  6
CONTINUOUS
 10
138.8824941672
 20
99.5235001356
 11
138.882817327
 21
98.0220378483
  0
LINE
  5
2EE
100
AcDbEntity
  8
ASSI
100
AcDbLine
 62
250
  6
CONTINUOUS
 10
138.9858968933
 20
107.8370255366
 11
138.9855737335
 21
109.3384878238
  0
LINE
  5
2EF
100
AcDbEntity
  8
ASSI
100
AcDbLine
 62
250
  6
CONTINUOUS
 10
139.020494503
 20
104.9562684412
 11
139.0204711877
 21
106.5943288679
  0
LINE
  5
2F0
100
AcDbEntity
  8
ASSI
100
AcDbLine
 62
250
  6
CONTINUOUS
 10
139.3203117511
 20
104.9663790569
 11
139.3202121188
 21
106.641218783
  0
LINE
  5
2F1
100
AcDbEntity
  8
ASSI
100
AcDbLine
 62
250
  6
CONTINUOUS
 10
138.5829734536
 20
99.390598771
 11
138.5829907711
 21
98.0117532587
  0
LINE
  5
2F2
100
AcDbEntity
  8
ASSI
100
AcDbLine
 62
250
  6
CONTINUOUS
 10
139.2854176069
 20
107.9699269011
 11
139.2854002894
 21
109.3487724134
  0
LINE
  5
2F3
100
AcDbEntity
  8
ASSI
100
AcDbLine
 62
250
  6
CONTINUOUS
 10
138.5829907711
 20
109.3487724134
 11
138.5829734536
 21
107.969926901
  0
LINE
  5
2F4
100
AcDbEntity
  8
ASSI
100
AcDbLine
 62
250
  6
CONTINUOUS
 10
139.2854002894
 20
98.0117532588
 11
139.2854176069
 21
99.3905987712
  0
LINE
  5
2F5
100
AcDbEntity
  8
ASSI
100
AcDbLine
 62
250
  6
CONTINUOUS
 10
138.8828080036
 20
109.3640709627
 11
138.88257942
 21
107.857970952
  0
LINE
  5
2F6
100
AcDbEntity
  8
ASSI
100
AcDbLine
 62
250
  6
CONTINUOUS
 10
138.9855830569
 20
97.9964547094
 11
138.9858116405
 21
99.5025547201
  0
LINE
  5
2F7
100
AcDbEntity
  8
ASSI
100
AcDbLine
 62
250
  6
CONTINUOUS
 10
138.8479962829
 20
106.615651411
 11
138.8478965575
 21
104.9562684412
  0
LINE
  5
2F8
100
AcDbEntity
  8
ASSI
100
AcDbLine
 62
250
  6
CONTINUOUS
 10
139.0203947776
 20
100.7448742612
 11
139.020494503
 21
102.4042572309
  0
LINE
  5
2F9
100
AcDbEntity
  8
ASSI
100
AcDbLine
 62
250
  6
CONTINUOUS
 10
138.5483083674
 20
106.6753918195
 11
138.5480793094
 21
104.9663790569
  0
LINE
  5
2FA
100
AcDbEntity
  8
ASSI
100
AcDbLine
 62
250
  6
CONTINUOUS
 10
139.3200826931
 20
100.6851338526
 11
139.3203117511
 21
102.3941466152
  0
LINE
  5
2FB
100
AcDbEntity
  8
ASSI
100
AcDbLine
 62
250
  6
CONTINUOUS
 10
138.8828173436
 20
98.0220378483
 11
138.8824905839
 21
97.8708645853
  0
LINE
  5
2FC
100
AcDbEntity
  8
ASSI
100
AcDbLine
 62
250
  6
CONTINUOUS
 10
138.9855737169
 20
109.3384878238
 11
138.9859004766
 21
109.4896610869
  0
LINE
  5
2FD
100
AcDbEntity
  8
ASSI
100
AcDbLine
 62
250
  6
CONTINUOUS
 10
138.5829907711
 20
98.0117532587
 11
138.5828542988
 21
97.9813840461
  0
LINE
  5
2FE
100
AcDbEntity
  8
ASSI
100
AcDbLine
 62
250
  6
CONTINUOUS
 10
139.2854002894
 20
109.3487724134
 11
139.2855367617
 21
109.3791416261
  0
LINE
  5
2FF
100
AcDbEntity
  8
ASSI
100
AcDbLine
 62
250
  6
CONTINUOUS
 10
138.5829734536
 20
107.969926901
 11
138.5828345379
 21
107.9440885139
  0
LINE
  5
300
100
AcDbEntity
  8
ASSI
100
AcDbLine
 62
250
  6
CONTINUOUS
 10
139.2854176069
 20
99.3905987712
 11
139.2855565226
 21
99.4164371582
  0
LINE
  5
301
100
AcDbEntity
  8
ASSI
100
AcDbLine
 62
250
  6
CONTINUOUS
 10
138.88257942
 20
107.857970952
 11
138.8818815251
 21
107.7373654018
  0
LINE
  5
302
100
AcDbEntity
  8
ASSI
100
AcDbLine
 62
250
  6
CONTINUOUS
 10
138.9858116405
 20
99.5025547201
 11
138.9865095354
 21
99.6231602704
  0
LINE
  5
303
100
AcDbEntity
  8
ASSI
100
AcDbLine
 62
250
  6
CONTINUOUS
 10
138.8824905839
 20
97.8708645853
 11
138.8817387659
 21
97.7551098924
  0
LINE
  5
304
100
AcDbEntity
  8
ASSI
100
AcDbLine
 62
250
  6
CONTINUOUS
 10
138.9859004766
 20
109.4896610869
 11
138.9866522946
 21
109.6054157797
  0
LINE
  5
305
100
AcDbEntity
  8
ASSI
100
AcDbLine
 62
250
  6
CONTINUOUS
 10
138.5490150828
 20
106.7784776922
 11
138.5483083674
 21
106.6753918195
  0
LINE
  5
306
100
AcDbEntity
  8
ASSI
100
AcDbLine
 62
250
  6
CONTINUOUS
 10
138.8483080707
 20
106.658578131
 11
138.8479962829
 21
106.615651411
  0
LINE
  5
307
100
AcDbEntity
  8
ASSI
100
AcDbLine
 62
250
  6
CONTINUOUS
 10
139.0200829898
 20
100.7019475411
 11
139.0203947776
 21
100.7448742612
  0
LINE
  5
308
100
AcDbEntity
  8
ASSI
100
AcDbLine
 62
250
  6
CONTINUOUS
 10
139.3193759777
 20
100.58204798
 11
139.3200826931
 21
100.6851338526
  0
LINE
  5
309
100
AcDbEntity
  8
ASSI
100
AcDbLine
 62
250
  6
CONTINUOUS
 10
138.5828345379
 20
107.9440885139
 11
138.5825788421
 21
107.9189656923
  0
LINE
  5
30A
100
AcDbEntity
  8
ASSI
100
AcDbLine
 62
250
  6
CONTINUOUS
 10
139.2855565226
 20
99.4164371582
 11
139.2858122184
 21
99.4415599799
  0
LINE
  5
30B
100
AcDbEntity
  8
ASSI
100
AcDbLine
 62
250
  6
CONTINUOUS
 10
138.5828542988
 20
97.9813840461
 11
138.5825566627
 21
97.9519011568
  0
LINE
  5
30C
100
AcDbEntity
  8
ASSI
100
AcDbLine
 62
250
  6
CONTINUOUS
 10
139.2855367617
 20
109.3791416261
 11
139.2858343978
 21
109.4086245153
  0
LWPOLYLINE
  5
30D
100
AcDbEntity
  8
ASSI
100
AcDbPolyline
 62
250
  6
CONTINUOUS
 90
3
 70
0
 10
138.8818815251
 20
107.7373654018
 10
138.8809830085
 20
107.6495719527
 10
138.8807717157
 20
107.6338162267
  0
LWPOLYLINE
  5
30E
100
AcDbEntity
  8
ASSI
100
AcDbPolyline
 62
250
  6
CONTINUOUS
 90
3
 70
0
 10
138.9865095354
 20
99.6231602704
 10
138.987408052
 20
99.7109537194
 10
138.9876193448
 20
99.7267094455
  0
LINE
  5
30F
100
AcDbEntity
  8
ASSI
100
AcDbLine
 62
250
  6
CONTINUOUS
 10
138.9866522946
 20
109.6054157797
 11
138.9875337634
 21
109.6858226645
  0
LINE
  5
310
100
AcDbEntity
  8
ASSI
100
AcDbLine
 62
250
  6
CONTINUOUS
 10
138.8817387659
 20
97.7551098924
 11
138.8808572971
 21
97.6747030076
  0
LINE
  5
311
100
AcDbEntity
  8
ASSI
100
AcDbLine
 62
250
  6
CONTINUOUS
 10
138.5502048868
 20
106.8792356659
 11
138.5490150828
 21
106.7784776922
  0
LINE
  5
312
100
AcDbEntity
  8
ASSI
100
AcDbLine
 62
250
  6
CONTINUOUS
 10
138.8488324796
 20
106.7014945338
 11
138.8483080707
 21
106.658578131
  0
LINE
  5
313
100
AcDbEntity
  8
ASSI
100
AcDbLine
 62
250
  6
CONTINUOUS
 10
139.0195585809
 20
100.6590311383
 11
139.0200829898
 21
100.7019475411
  0
LINE
  5
314
100
AcDbEntity
  8
ASSI
100
AcDbLine
 62
250
  6
CONTINUOUS
 10
139.3181861737
 20
100.4812900062
 11
139.3193759777
 21
100.58204798
  0
LINE
  5
315
100
AcDbEntity
  8
ASSI
100
AcDbLine
 62
250
  6
CONTINUOUS
 10
138.5825788421
 20
107.9189656923
 11
138.5822107527
 21
107.8950118714
  0
LINE
  5
316
100
AcDbEntity
  8
ASSI
100
AcDbLine
 62
250
  6
CONTINUOUS
 10
139.2858122184
 20
99.4415599799
 11
139.2861803078
 21
99.4655138007
  0
LINE
  5
317
100
AcDbEntity
  8
ASSI
100
AcDbLine
 62
250
  6
CONTINUOUS
 10
138.9875337634
 20
109.6858226645
 11
138.9883352597
 21
109.7367643244
  0
LINE
  5
318
100
AcDbEntity
  8
ASSI
100
AcDbLine
 62
250
  6
CONTINUOUS
 10
138.8808572971
 20
97.6747030076
 11
138.8800558008
 21
97.6237613477
  0
LINE
  5
319
100
AcDbEntity
  8
ASSI
100
AcDbLine
 62
250
  6
CONTINUOUS
 10
138.5825566627
 20
97.9519011568
 11
138.5821049781
 21
97.9240678342
  0
LINE
  5
31A
100
AcDbEntity
  8
ASSI
100
AcDbLine
 62
250
  6
CONTINUOUS
 10
139.2858343978
 20
109.4086245153
 11
139.2862860824
 21
109.4364578379
  0
LINE
  5
31B
100
AcDbEntity
  8
ASSI
100
AcDbLine
 62
250
  6
CONTINUOUS
 10
138.8495738642
 20
106.7437599845
 11
138.8488324796
 21
106.7014945338
  0
LINE
  5
31C
100
AcDbEntity
  8
ASSI
100
AcDbLine
 62
250
  6
CONTINUOUS
 10
139.0188171963
 20
100.6167656876
 11
139.0195585809
 21
100.6590311383
  0
LINE
  5
31D
100
AcDbEntity
  8
ASSI
100
AcDbLine
 62
250
  6
CONTINUOUS
 10
138.5518511887
 20
106.974594704
 11
138.5502048868
 21
106.8792356659
  0
LINE
  5
31E
100
AcDbEntity
  8
ASSI
100
AcDbLine
 62
250
  6
CONTINUOUS
 10
139.3165398718
 20
100.3859309682
 11
139.3181861737
 21
100.4812900062
  0
LINE
  5
31F
100
AcDbEntity
  8
ASSI
100
AcDbLine
 62
250
  6
CONTINUOUS
 10
138.9883352597
 20
109.7367643244
 11
138.9889263584
 21
109.7655805899
  0
LINE
  5
320
100
AcDbEntity
  8
ASSI
100
AcDbLine
 62
250
  6
CONTINUOUS
 10
138.8800558008
 20
97.6237613477
 11
138.8794647021
 21
97.5949450822
  0
LINE
  5
321
100
AcDbEntity
  8
ASSI
100
AcDbLine
 62
250
  6
CONTINUOUS
 10
138.5822107527
 20
107.8950118714
 11
138.581736646
 21
107.8726416069
  0
LINE
  5
322
100
AcDbEntity
  8
ASSI
100
AcDbLine
 62
250
  6
CONTINUOUS
 10
138.5821049781
 20
97.9240678342
 11
138.5817232588
 21
97.9067468328
  0
LINE
  5
323
100
AcDbEntity
  8
ASSI
100
AcDbLine
 62
250
  6
CONTINUOUS
 10
139.2862860824
 20
109.4364578379
 11
139.2866678017
 21
109.4537788394
  0
LINE
  5
324
100
AcDbEntity
  8
ASSI
100
AcDbLine
 62
250
  6
CONTINUOUS
 10
139.2861803078
 20
99.4655138007
 11
139.2866544145
 21
99.4878840652
  0
LINE
  5
325
100
AcDbEntity
  8
ASSI
100
AcDbLine
 62
250
  6
CONTINUOUS
 10
138.5531770301
 20
107.0338229572
 11
138.5518511887
 21
106.974594704
  0
LINE
  5
326
100
AcDbEntity
  8
ASSI
100
AcDbLine
 62
250
  6
CONTINUOUS
 10
139.3152140304
 20
100.3267027149
 11
139.3165398718
 21
100.3859309682
  0
LINE
  5
327
100
AcDbEntity
  8
ASSI
100
AcDbLine
 62
250
  6
CONTINUOUS
 10
138.8505221317
 20
106.7847712183
 11
138.8495738642
 21
106.7437599845
  0
LINE
  5
328
100
AcDbEntity
  8
ASSI
100
AcDbLine
 62
250
  6
CONTINUOUS
 10
139.0178689288
 20
100.5757544538
 11
139.0188171963
 21
100.6167656876
  0
LWPOLYLINE
  5
329
100
AcDbEntity
  8
ASSI
100
AcDbPolyline
 62
250
  6
CONTINUOUS
 90
10
 70
0
 10
138.9889263584
 20
109.7655805899
 10
138.9895547349
 20
109.7899230103
 10
138.9898820407
 20
109.8003348572
 10
138.9902154263
 20
109.8095358657
 10
138.9905548955
 20
109.8175018949
 10
138.9909004444
 20
109.8242123468
 10
138.991249429
 20
109.8296497947
 10
138.9916009681
 20
109.8338000712
 10
138.991955943
 20
109.8366523491
 10
138.9923143535
 20
109.8381992252
  0
LWPOLYLINE
  5
32A
100
AcDbEntity
  8
ASSI
100
AcDbPolyline
 62
250
  6
CONTINUOUS
 90
10
 70
0
 10
138.8794647021
 20
97.5949450822
 10
138.8788363256
 20
97.5706026618
 10
138.8785090198
 20
97.5601908149
 10
138.8781756342
 20
97.5509898065
 10
138.877836165
 20
97.5430237772
 10
138.8774906161
 20
97.5363133254
 10
138.8771416315
 20
97.5308758775
 10
138.8767900924
 20
97.526725601
 10
138.8764351175
 20
97.523873323
 10
138.8760767069
 20
97.522326447
  0
LINE
  5
32B
100
AcDbEntity
  8
ASSI
100
AcDbLine
 62
250
  6
CONTINUOUS
 10
138.5546502583
 20
107.0886515474
 11
138.5531770301
 21
107.0338229572
  0
LINE
  5
32C
100
AcDbEntity
  8
ASSI
100
AcDbLine
 62
250
  6
CONTINUOUS
 10
138.581736646
 20
107.8726416069
 11
138.5813663824
 21
107.8588224294
  0
LINE
  5
32D
100
AcDbEntity
  8
ASSI
100
AcDbLine
 62
250
  6
CONTINUOUS
 10
139.2866544145
 20
99.4878840652
 11
139.2870246781
 21
99.5017032427
  0
LINE
  5
32E
100
AcDbEntity
  8
ASSI
100
AcDbLine
 62
250
  6
CONTINUOUS
 10
139.3137408022
 20
100.2718741248
 11
139.3152140304
 21
100.3267027149
  0
LINE
  5
32F
100
AcDbEntity
  8
ASSI
100
AcDbLine
 62
250
  6
CONTINUOUS
 10
138.5817232588
 20
97.9067468328
 11
138.5812815431
 21
97.8906363869
  0
LINE
  5
330
100
AcDbEntity
  8
ASSI
100
AcDbLine
 62
250
  6
CONTINUOUS
 10
139.2866678017
 20
109.4537788394
 11
139.2871095174
 21
109.4698892852
  0
LWPOLYLINE
  5
331
100
AcDbEntity
  8
ASSI
100
AcDbPolyline
 62
7
  6
CONTINUOUS
 90
28
 70
0
 10
138.5210019063
 20
109.593639212
 10
138.5215100482
 20
109.6109678348
 10
138.5230236089
 20
109.6282796756
 10
138.5255448448
 20
109.6455160583
 10
138.5290788395
 20
109.6626444698
 10
138.5336177005
 20
109.6795780559
 10
138.5391251092
 20
109.6961799493
 10
138.5455586287
 20
109.7123560414
 10
138.5529026647
 20
109.728095971
 10
138.5611504795
 20
109.7433915349
 10
138.5702765122
 20
109.758191877
 10
138.5802507625
 20
109.7724452057
 10
138.5910691307
 20
109.7861363206
 10
138.602735989
 20
109.7992489603
 10
138.6151889274
 20
109.8116926685
 10
138.6283120745
 20
109.8233515337
 10
138.64201587
 20
109.8341634879
 10
138.6562835557
 20
109.8441319876
 10
138.671097564
 20
109.8532513688
 10
138.6864051474
 20
109.8614913579
 10
138.7021560994
 20
109.8688270451
 10
138.7183420085
 20
109.875251931
 10
138.734951226
 20
109.8807502159
 10
138.7518907603
 20
109.8852801785
 10
138.7690273458
 20
109.8888064898
 10
138.7862754438
 20
109.891320987
 10
138.8036013796
 20
109.892827948
 10
138.8209464538
 20
109.8933291607
  0
LWPOLYLINE
  5
332
100
AcDbEntity
  8
ASSI
100
AcDbPolyline
 62
7
  6
CONTINUOUS
 90
28
 70
0
 10
139.3473891542
 20
97.7668864602
 10
139.3468810123
 20
97.7495578373
 10
139.3453674516
 20
97.7322459965
 10
139.3428462157
 20
97.7150096139
 10
139.339312221
 20
97.6978812024
 10
139.33477336
 20
97.6809476163
 10
139.3292659513
 20
97.6643457229
 10
139.3228324318
 20
97.6481696307
 10
139.3154883958
 20
97.6324297011
 10
139.307240581
 20
97.6171341373
 10
139.2981145483
 20
97.6023337952
 10
139.288140298
 20
97.5880804664
 10
139.2773219298
 20
97.5743893515
 10
139.2656550714
 20
97.5612767118
 10
139.2532021331
 20
97.5488330036
 10
139.240078986
 20
97.5371741384
 10
139.2263751905
 20
97.5263621842
 10
139.2121075048
 20
97.5163936845
 10
139.1972934965
 20
97.5072743034
 10
139.1819859131
 20
97.4990343142
 10
139.1662349611
 20
97.491698627
 10
139.1500490519
 20
97.4852737411
 10
139.1334398345
 20
97.4797754562
 10
139.1165003002
 20
97.4752454937
 10
139.0993637147
 20
97.4717191824
 10
139.0821156167
 20
97.4692046852
 10
139.0647896809
 20
97.4676977241
 10
139.0474446067
 20
97.4671965115
  0
LINE
  5
333
100
AcDbEntity
  8
ASSI
100
AcDbLine
 62
250
  6
CONTINUOUS
 10
138.8516680765
 20
106.8240418087
 11
138.8505221317
 21
106.7847712183
  0
LINE
  5
334
100
AcDbEntity
  8
ASSI
100
AcDbLine
 62
250
  6
CONTINUOUS
 10
139.016722984
 20
100.5364838634
 11
139.0178689288
 21
100.5757544538
  0
LINE
  5
335
100
AcDbEntity
  8
ASSI
100
AcDbLine
 62
250
  6
CONTINUOUS
 10
138.5562617547
 20
107.1388414798
 11
138.5546502583
 21
107.0886515474
  0
LINE
  5
336
100
AcDbEntity
  8
ASSI
100
AcDbLine
 62
250
  6
CONTINUOUS
 10
139.3121293058
 20
100.2216841923
 11
139.3137408022
 21
100.2718741248
  0
LWPOLYLINE
  5
337
100
AcDbEntity
  8
ASSI
100
AcDbPolyline
 62
250
  6
CONTINUOUS
 90
15
 70
0
 10
140.134285409
 20
119.5726813099
 10
140.1341486905
 20
119.5684623332
 10
140.1340743564
 20
119.5665309782
 10
140.1339962367
 20
119.5647264966
 10
140.1339143676
 20
119.5630475919
 10
140.1338295596
 20
119.5615108384
 10
140.1337417838
 20
119.5601176639
 10
140.1336510692
 20
119.5588666406
 10
140.1335583132
 20
119.55777006
 10
140.1334634851
 20
119.5568294345
 10
140.1333666156
 20
119.5560432516
 10
140.1332686949
 20
119.5554192651
 10
140.133170053
 20
119.5549600595
 10
140.1330703599
 20
119.5546630502
 10
140.1329696156
 20
119.5545282373
  0
LINE
  5
338
100
AcDbEntity
  8
ASSI
100
AcDbLine
 62
250
  6
CONTINUOUS
 10
138.5813663824
 20
107.8588224294
 11
138.5562617547
 21
107.1388414798
  0
LINE
  5
339
100
AcDbEntity
  8
ASSI
100
AcDbLine
 62
250
  6
CONTINUOUS
 10
138.8807717157
 20
107.6338162267
 11
138.8560792597
 21
106.9267168034
  0
LINE
  5
33A
100
AcDbEntity
  8
ASSI
100
AcDbLine
 62
250
  6
CONTINUOUS
 10
138.9876193448
 20
99.7267094455
 11
139.0123118008
 21
100.4338088688
  0
LINE
  5
33B
100
AcDbEntity
  8
ASSI
100
AcDbLine
 62
250
  6
CONTINUOUS
 10
139.2870246781
 20
99.5017032427
 11
139.3121293058
 21
100.2216841923
  0
LWPOLYLINE
  5
33C
100
AcDbEntity
  8
ASSI
100
AcDbPolyline
 62
250
  6
CONTINUOUS
 90
12
 70
0
 10
140.1936420105
 20
121.299609766
 10
140.1935024928
 20
121.2953767294
 10
140.1934266851
 20
121.2934440186
 10
140.1933470518
 20
121.2916422147
 10
140.1932636302
 20
121.2899699352
 10
140.1931772646
 20
121.2884439899
 10
140.1930879135
 20
121.2870657879
 10
140.1929956184
 20
121.2858339201
 10
140.1929013475
 20
121.2847609696
 10
140.1928054234
 20
121.2838511308
 10
140.1927075234
 20
121.2831002092
 10
140.1926076476
 20
121.282508205
  0
LINE
  5
33D
100
AcDbEntity
  8
ASSI
100
AcDbLine
 62
250
  6
CONTINUOUS
 10
138.5812815431
 20
97.8906363869
 11
138.5807853283
 21
97.8759208479
  0
LINE
  5
33E
100
AcDbEntity
  8
ASSI
100
AcDbLine
 62
250
  6
CONTINUOUS
 10
139.2871095174
 20
109.4698892852
 11
139.2876057321
 21
109.4846048243
  0
LINE
  5
33F
100
AcDbEntity
  8
ASSI
100
AcDbLine
 62
250
  6
CONTINUOUS
 10
138.8529936207
 20
106.8610557043
 11
138.8516680765
 21
106.8240418087
  0
LINE
  5
340
100
AcDbEntity
  8
ASSI
100
AcDbLine
 62
250
  6
CONTINUOUS
 10
139.0153974398
 20
100.4994699678
 11
139.016722984
 21
100.5364838634
  0
LWPOLYLINE
  5
341
100
AcDbEntity
  8
ASSI
100
AcDbPolyline
 62
250
  6
CONTINUOUS
 90
14
 70
0
 10
138.5807853283
 20
97.8759208479
 10
138.5802385061
 20
97.8627157137
 10
138.579948439
 20
97.8567419785
 10
138.5796473238
 20
97.8511852352
 10
138.5793375149
 20
97.846088924
 10
138.5790189381
 20
97.8414566191
 10
138.5786916677
 20
97.8372847461
 10
138.5783582811
 20
97.8336060221
 10
138.578018712
 20
97.8304243532
 10
138.5776730268
 20
97.8277358331
 10
138.5773240022
 20
97.8255614602
 10
138.5769725637
 20
97.8239082338
 10
138.5766177858
 20
97.8227691546
 10
138.5762596685
 20
97.8221442224
  0
LWPOLYLINE
  5
342
100
AcDbEntity
  8
ASSI
100
AcDbPolyline
 62
250
  6
CONTINUOUS
 90
14
 70
0
 10
139.2876057321
 20
109.4846048243
 10
139.2881525544
 20
109.4978099584
 10
139.2884426215
 20
109.5037836937
 10
139.2887437367
 20
109.5093404369
 10
139.2890535455
 20
109.5144367482
 10
139.2893721224
 20
109.5190690531
 10
139.2896993928
 20
109.523240926
 10
139.2900327794
 20
109.5269196501
 10
139.2903723485
 20
109.530101319
 10
139.2907180337
 20
109.532789839
 10
139.2910670583
 20
109.5349642119
 10
139.2914184968
 20
109.5366174383
 10
139.2917732747
 20
109.5377565176
 10
139.292131392
 20
109.5383814497
  0
LWPOLYLINE
  5
343
100
AcDbEntity
  8
ASSI
100
AcDbPolyline
 62
250
  6
CONTINUOUS
 90
4
 70
0
 10
138.8560793864
 20
106.9267168033
 10
138.8552554796
 20
106.9114063664
 10
138.8544670481
 20
106.8953532799
 10
138.8529936207
 20
106.8610557043
  0
LWPOLYLINE
  5
344
100
AcDbEntity
  8
ASSI
100
AcDbPolyline
 62
250
  6
CONTINUOUS
 90
4
 70
0
 10
139.0123116741
 20
100.4338088689
 10
139.0131355809
 20
100.4491193058
 10
139.0139240124
 20
100.4651723923
 10
139.0153974398
 20
100.4994699678
  0
LINE
  5
345
100
AcDbEntity
  8
ASSI
100
AcDbLine
 62
250
  6
CONTINUOUS
 10
136.2469926874
 20
83.5730716969
 11
136.1954500385
 21
83.2105040677
  0
LINE
  5
346
100
AcDbEntity
  8
ASSI
100
AcDbLine
 62
250
  6
CONTINUOUS
 10
136.4469622272
 20
83.3745624723
 11
136.3953588564
 21
83.0115677053
  0
LWPOLYLINE
  5
347
100
AcDbEntity
  8
ASSI
100
AcDbPolyline
 62
250
  6
CONTINUOUS
 90
25
 70
0
 10
153.2923141439
 20
97.5223269743
 10
153.3119079783
 20
97.5229917772
 10
153.3314180378
 20
97.5249356137
 10
153.3507609067
 20
97.5281501727
 10
153.3698538842
 20
97.5326217102
 10
153.3886153378
 20
97.5383311078
 10
153.4069650523
 20
97.5452539545
 10
153.424824573
 20
97.5533606513
 10
153.4421175413
 20
97.5626165376
 10
153.4587700206
 20
97.5729820392
 10
153.474710813
 20
97.5844128381
 10
153.4898717636
 20
97.5968600612
 10
153.5041880514
 20
97.61027049
 10
153.5175984671
 20
97.6245867875
 10
153.5300456746
 20
97.6397477439
 10
153.5414764557
 20
97.655688538
 10
153.5518419382
 20
97.6723410144
 10
153.5610978048
 20
97.689633975
 10
153.569204482
 20
97.7074934832
 10
153.5761273102
 20
97.7258431803
 10
153.581836691
 20
97.7446046117
 10
153.5863082142
 20
97.7636975627
 10
153.5895227622
 20
97.783040401
 10
153.5914665917
 20
97.802550426
 10
153.592131392
 20
97.8221442224
  0
LWPOLYLINE
  5
348
100
AcDbEntity
  8
ASSI
100
AcDbPolyline
 62
7
  6
CONTINUOUS
 90
28
 70
0
 10
138.8209464538
 20
97.4671965115
 10
138.8036013796
 20
97.4676977241
 10
138.7862754438
 20
97.4692046852
 10
138.7690273458
 20
97.4717191824
 10
138.7518907603
 20
97.4752454937
 10
138.734951226
 20
97.4797754562
 10
138.7183420085
 20
97.4852737411
 10
138.7021560994
 20
97.491698627
 10
138.6864051474
 20
97.4990343142
 10
138.671097564
 20
97.5072743034
 10
138.6562835557
 20
97.5163936845
 10
138.64201587
 20
97.5263621842
 10
138.6283120745
 20
97.5371741384
 10
138.6151889274
 20
97.5488330036
 10
138.602735989
 20
97.5612767118
 10
138.5910691307
 20
97.5743893515
 10
138.5802507625
 20
97.5880804664
 10
138.5702765122
 20
97.6023337952
 10
138.5611504795
 20
97.6171341373
 10
138.5529026647
 20
97.6324297011
 10
138.5455586287
 20
97.6481696307
 10
138.5391251092
 20
97.6643457229
 10
138.5336177005
 20
97.6809476163
 10
138.5290788395
 20
97.6978812024
 10
138.5255448448
 20
97.7150096139
 10
138.5230236089
 20
97.7322459965
 10
138.5215100482
 20
97.7495578373
 10
138.5210019063
 20
97.7668864602
  0
LWPOLYLINE
  5
349
100
AcDbEntity
  8
ASSI
100
AcDbPolyline
 62
250
  6
CONTINUOUS
 90
25
 70
0
 10
138.8760769166
 20
97.5223269743
 10
138.8564830987
 20
97.5229917761
 10
138.8369730545
 20
97.5249356094
 10
138.8176301996
 20
97.5281501635
 10
138.7985372346
 20
97.5326216945
 10
138.779775792
 20
97.5383310841
 10
138.7614260865
 20
97.5452539219
 10
138.7435665727
 20
97.5533606091
 10
138.7262736092
 20
97.5626164854
 10
138.7096211325
 20
97.5729819772
 10
138.6936803404
 20
97.5844127666
 10
138.6785193881
 20
97.5968599811
 10
138.6642030965
 20
97.6102704024
 10
138.6507926753
 20
97.6245866939
 10
138.6383454608
 20
97.6397476462
 10
138.6269146714
 20
97.6556884383
 10
138.6165491796
 20
97.6723409151
 10
138.6072933033
 20
97.6896338785
 10
138.5991866161
 20
97.7074933923
 10
138.5922637783
 20
97.7258430978
 10
138.5865543887
 20
97.7446045405
 10
138.5820828577
 20
97.7636975054
 10
138.5788683036
 20
97.7830403603
 10
138.5769244702
 20
97.8025504045
 10
138.5762596685
 20
97.8221442224
  0
LWPOLYLINE
  5
34A
100
AcDbEntity
  8
ASSI
100
AcDbPolyline
 62
7
  6
CONTINUOUS
 90
15
 70
0
 10
136.2540467744
 20
102.3727665505
 10
136.2546852446
 20
102.3723161239
 10
136.2561458856
 20
102.3718704719
 10
136.2584286976
 20
102.3714295944
 10
136.2615557128
 20
102.3709909567
 10
136.265504899
 20
102.3705570935
 10
136.270210159
 20
102.3701356093
 10
136.2756621996
 20
102.369728104
 10
136.2818703142
 20
102.3693329777
 10
136.2887962859
 20
102.3689530351
 10
136.2964689069
 20
102.3685872377
 10
136.304859385
 20
102.368236624
 10
136.3138431272
 20
102.3679071143
 10
136.3234359857
 20
102.3675992707
 10
136.3442293443
 20
102.3670511291
  0
LINE
  5
34B
100
AcDbEntity
  8
ASSI
100
AcDbLine
 62
250
  6
CONTINUOUS
 10
136.1954500385
 20
124.1500216045
 11
136.2469926874
 21
123.7874539753
  0
LINE
  5
34C
100
AcDbEntity
  8
ASSI
100
AcDbLine
 62
250
  6
CONTINUOUS
 10
136.3953588564
 20
124.3489579668
 11
136.4469622272
 21
123.9859631998
  0
LWPOLYLINE
  5
34D
100
AcDbEntity
  8
ASSI
100
AcDbPolyline
 62
250
  6
CONTINUOUS
 90
5
 70
0
 10
140.3828172465
 20
88.0559595875
 10
140.3829180708
 20
88.0551632874
 10
140.383017798
 20
88.0533773193
 10
140.3831164281
 20
88.050607366
 10
140.3832142561
 20
88.0468622696
  0
LWPOLYLINE
  5
34E
100
AcDbEntity
  8
ASSI
100
AcDbPolyline
 62
7
  6
CONTINUOUS
 90
31
 70
0
 10
140.1346851815
 20
120.9900377439
 10
140.1353114633
 20
120.98081996
 10
140.136429421
 20
120.9715376962
 10
140.1380494525
 20
120.9622131461
 10
140.1401816161
 20
120.9528735342
 10
140.1428335908
 20
120.9435389128
 10
140.1460107907
 20
120.9342221635
 10
140.1497185818
 20
120.9249517244
 10
140.1539624387
 20
120.9157517911
 10
140.1587473717
 20
120.9066305816
 10
140.1640755834
 20
120.8976192083
 10
140.1699496093
 20
120.888744829
 10
140.1763758986
 20
120.8800123732
 10
140.1833534482
 20
120.8714563573
 10
140.1908818412
 20
120.863107234
 10
140.1989704641
 20
120.8549680529
 10
140.2076149138
 20
120.8470775142
 10
140.2168111275
 20
120.8394704496
 10
140.2265715854
 20
120.8321504581
 10
140.2368877744
 20
120.8251613784
 10
140.2477502897
 20
120.8185438015
 10
140.2591723664
 20
120.8123051762
 10
140.2711406101
 20
120.8064948749
 10
140.2836364654
 20
120.801160912
 10
140.2966654349
 20
120.7963189091
 10
140.3102069983
 20
120.7920232534
 10
140.3242281293
 20
120.7883291639
 10
140.3387117963
 20
120.785262232
 10
140.3536246587
 20
120.7828707956
 10
140.3689155569
 20
120.7812212669
 10
140.3845328883
 20
120.7803684471
  0
LINE
  5
34F
100
AcDbEntity
  8
ASSI
100
AcDbLine
 62
250
  6
CONTINUOUS
 10
140.4424553543
 20
86.3242194054
 11
140.4425552805
 21
86.3206928136
  0
LINE
  5
350
100
AcDbEntity
  8
ASSI
100
AcDbLine
 62
250
  6
CONTINUOUS
 10
140.5259357062
 20
121.0363062667
 11
140.52583578
 21
121.0398328585
  0
LINE
  5
351
100
AcDbEntity
  8
ASSI
100
AcDbLine
 62
250
  6
CONTINUOUS
 10
140.7748165483
 20
121.2974389645
 11
140.7746861203
 21
121.3018902268
  0
LINE
  5
352
100
AcDbEntity
  8
ASSI
100
AcDbLine
 62
250
  6
CONTINUOUS
 10
140.8341717853
 20
119.5705192652
 11
140.8340440148
 21
119.5749494654
  0
LINE
  5
353
100
AcDbEntity
  8
ASSI
100
AcDbLine
 62
250
  6
CONTINUOUS
 10
140.1936420105
 20
86.0609159061
 11
140.1937633488
 21
86.0562464181
  0
LINE
  5
354
100
AcDbEntity
  8
ASSI
100
AcDbLine
 62
250
  6
CONTINUOUS
 10
140.134285409
 20
87.7878443622
 11
140.1344042314
 21
87.7832029384
  0
LINE
  5
355
100
AcDbEntity
  8
ASSI
100
AcDbLine
 62
250
  6
CONTINUOUS
 10
140.7746861203
 20
121.3018902268
 11
140.7745744149
 21
121.3067526119
  0
LINE
  5
356
100
AcDbEntity
  8
ASSI
100
AcDbLine
 62
250
  6
CONTINUOUS
 10
140.8340440148
 20
119.5749494654
 11
140.8339346574
 21
119.5797776575
  0
LINE
  5
357
100
AcDbEntity
  8
ASSI
100
AcDbLine
 62
250
  6
CONTINUOUS
 10
140.1937633488
 20
86.0562464181
 11
140.1938647775
 21
86.0512145435
  0
LINE
  5
358
100
AcDbEntity
  8
ASSI
100
AcDbLine
 62
250
  6
CONTINUOUS
 10
140.1344042314
 20
87.7832029384
 11
140.1345035107
 21
87.7782106182
  0
LINE
  5
359
100
AcDbEntity
  8
ASSI
100
AcDbLine
 62
250
  6
CONTINUOUS
 10
140.4425552805
 20
86.3206928136
 11
140.4427490898
 21
86.3106918619
  0
LINE
  5
35A
100
AcDbEntity
  8
ASSI
100
AcDbLine
 62
250
  6
CONTINUOUS
 10
140.52583578
 20
121.0398328585
 11
140.5256419707
 21
121.0498338102
  0
LINE
  5
35B
100
AcDbEntity
  8
ASSI
100
AcDbLine
 62
250
  6
CONTINUOUS
 10
140.3832142561
 20
88.0468622696
 11
140.3834057364
 21
88.0364991166
  0
LINE
  5
35C
100
AcDbEntity
  8
ASSI
100
AcDbLine
 62
250
  6
CONTINUOUS
 10
140.5851768044
 20
119.3136634025
 11
140.5849853241
 21
119.3240265555
  0
LINE
  5
35D
100
AcDbEntity
  8
ASSI
100
AcDbLine
 62
250
  6
CONTINUOUS
 10
140.5620877595
 20
83.3213052235
 11
140.5246564543
 21
85.6199857563
  0
LINE
  5
35E
100
AcDbEntity
  8
ASSI
100
AcDbLine
 62
250
  6
CONTINUOUS
 10
140.406303301
 20
124.0392204486
 11
140.4437346062
 21
121.7405399158
  0
LINE
  5
35F
100
AcDbEntity
  8
ASSI
100
AcDbLine
 62
250
  6
CONTINUOUS
 10
140.7745744149
 20
121.3067526119
 11
140.7744832628
 21
121.311953976
  0
LINE
  5
360
100
AcDbEntity
  8
ASSI
100
AcDbLine
 62
250
  6
CONTINUOUS
 10
140.8339346574
 20
119.5797776575
 11
140.8338454563
 21
119.5849341058
  0
LINE
  5
361
100
AcDbEntity
  8
ASSI
100
AcDbLine
 62
250
  6
CONTINUOUS
 10
140.1938647775
 20
86.0512145435
 11
140.1939452749
 21
86.0458712383
  0
LINE
  5
362
100
AcDbEntity
  8
ASSI
100
AcDbLine
 62
250
  6
CONTINUOUS
 10
140.1345035107
 20
87.7782106182
 11
140.1345822703
 21
87.7729167677
  0
LINE
  5
363
100
AcDbEntity
  8
ASSI
100
AcDbLine
 62
250
  6
CONTINUOUS
 10
140.1640631563
 20
123.4663806059
 11
140.1939509536
 21
121.6303949328
  0
LINE
  5
364
100
AcDbEntity
  8
ASSI
100
AcDbLine
 62
250
  6
CONTINUOUS
 10
140.8043279042
 20
83.8941450662
 11
140.7744401069
 21
85.7301307393
  0
LINE
  5
365
100
AcDbEntity
  8
ASSI
100
AcDbLine
 62
250
  6
CONTINUOUS
 10
140.7744832628
 20
121.311953976
 11
140.774413907
 21
121.3174134088
  0
LINE
  5
366
100
AcDbEntity
  8
ASSI
100
AcDbLine
 62
250
  6
CONTINUOUS
 10
140.8338454563
 20
119.5849341058
 11
140.8337776048
 21
119.5903402927
  0
LINE
  5
367
100
AcDbEntity
  8
ASSI
100
AcDbLine
 62
250
  6
CONTINUOUS
 10
140.4427490898
 20
86.3106918619
 11
140.4430246965
 21
86.2885914892
  0
LINE
  5
368
100
AcDbEntity
  8
ASSI
100
AcDbLine
 62
250
  6
CONTINUOUS
 10
140.5256419707
 20
121.0498338102
 11
140.525366364
 21
121.0719341829
  0
LINE
  5
369
100
AcDbEntity
  8
ASSI
100
AcDbLine
 62
250
  6
CONTINUOUS
 10
140.3834057364
 20
88.0364991166
 11
140.3836772109
 21
88.014053863
  0
LINE
  5
36A
100
AcDbEntity
  8
ASSI
100
AcDbLine
 62
250
  6
CONTINUOUS
 10
140.5849853241
 20
119.3240265555
 11
140.5847138496
 21
119.3464718091
  0
LINE
  5
36B
100
AcDbEntity
  8
ASSI
100
AcDbLine
 62
250
  6
CONTINUOUS
 10
140.1939509536
 20
121.6303949328
 11
140.194017761
 21
121.6233870357
  0
LINE
  5
36C
100
AcDbEntity
  8
ASSI
100
AcDbLine
 62
250
  6
CONTINUOUS
 10
140.7744401069
 20
85.7301307393
 11
140.7743732995
 21
85.7371386364
  0
LINE
  5
36D
100
AcDbEntity
  8
ASSI
100
AcDbLine
 62
250
  6
CONTINUOUS
 10
140.1345822703
 20
87.7729167677
 11
140.1346592904
 21
87.7645838002
  0
LINE
  5
36E
100
AcDbEntity
  8
ASSI
100
AcDbLine
 62
250
  6
CONTINUOUS
 10
140.1939452749
 20
86.0458712383
 11
140.1940240171
 21
86.0374509229
  0
LINE
  5
36F
100
AcDbEntity
  8
ASSI
100
AcDbLine
 62
250
  6
CONTINUOUS
 10
140.3836772109
 20
88.014053863
 11
140.3841331811
 21
87.9470499989
  0
LINE
  5
370
100
AcDbEntity
  8
ASSI
100
AcDbLine
 62
250
  6
CONTINUOUS
 10
140.4430246965
 20
86.2885914892
 11
140.4434897303
 21
86.221612922
  0
LINE
  5
371
100
AcDbEntity
  8
ASSI
100
AcDbLine
 62
250
  6
CONTINUOUS
 10
140.525366364
 20
121.0719341829
 11
140.5249013302
 21
121.1389127501
  0
LINE
  5
372
100
AcDbEntity
  8
ASSI
100
AcDbLine
 62
250
  6
CONTINUOUS
 10
140.5847138496
 20
119.3464718091
 11
140.5842578794
 21
119.4134756733
  0
LINE
  5
373
100
AcDbEntity
  8
ASSI
100
AcDbLine
 62
250
  6
CONTINUOUS
 10
140.774413907
 20
121.3174134088
 11
140.7743524115
 21
121.3259378606
  0
LINE
  5
374
100
AcDbEntity
  8
ASSI
100
AcDbLine
 62
250
  6
CONTINUOUS
 10
140.8337776048
 20
119.5903402927
 11
140.8337174587
 21
119.5987741461
  0
LINE
  5
375
100
AcDbEntity
  8
ASSI
100
AcDbLine
 62
250
  6
CONTINUOUS
 10
140.194017761
 20
121.6233870357
 11
140.1940484101
 21
121.6161851077
  0
LINE
  5
376
100
AcDbEntity
  8
ASSI
100
AcDbLine
 62
250
  6
CONTINUOUS
 10
140.7743732995
 20
85.7371386364
 11
140.7743426504
 21
85.7443405645
  0
LINE
  5
377
100
AcDbEntity
  8
ASSI
100
AcDbLine
 62
250
  6
CONTINUOUS
 10
140.1346592904
 20
87.7645838002
 11
140.1346851815
 21
87.7560050501
  0
LINE
  5
378
100
AcDbEntity
  8
ASSI
100
AcDbLine
 62
250
  6
CONTINUOUS
 10
140.1940240171
 20
86.0374509229
 11
140.1940504897
 21
86.0287770795
  0
LINE
  5
379
100
AcDbEntity
  8
ASSI
100
AcDbLine
 62
250
  6
CONTINUOUS
 10
140.4434897303
 20
86.221612922
 11
140.443895171
 21
86.0462107317
  0
LINE
  5
37A
100
AcDbEntity
  8
ASSI
100
AcDbLine
 62
250
  6
CONTINUOUS
 10
140.5249013302
 20
121.1389127501
 11
140.5244958895
 21
121.3143149405
  0
LINE
  5
37B
100
AcDbEntity
  8
ASSI
100
AcDbLine
 62
250
  6
CONTINUOUS
 10
140.3841331811
 20
87.9470499989
 11
140.3845328883
 21
87.7560050501
  0
LINE
  5
37C
100
AcDbEntity
  8
ASSI
100
AcDbLine
 62
250
  6
CONTINUOUS
 10
140.5842578794
 20
119.4134756733
 11
140.5838581722
 21
119.6045206221
  0
LINE
  5
37D
100
AcDbEntity
  8
ASSI
100
AcDbLine
 62
250
  6
CONTINUOUS
 10
140.1346851815
 20
87.7560050501
 11
140.1346851815
 21
86.3704879283
  0
LINE
  5
37E
100
AcDbEntity
  8
ASSI
100
AcDbLine
 62
7
  6
CONTINUOUS
 10
140.1640631563
 20
83.1144396774
 11
140.1640631563
 21
83.8941450662
  0
LINE
  5
37F
100
AcDbEntity
  8
ASSI
100
AcDbLine
 62
7
  6
CONTINUOUS
 10
140.1640631563
 20
123.4663806059
 11
140.1640631563
 21
124.2460859947
  0
LINE
  5
380
100
AcDbEntity
  8
ASSI
100
AcDbLine
 62
250
  6
CONTINUOUS
 10
140.3845328883
 20
87.7560050501
 11
140.3845328883
 21
86.5801572251
  0
LINE
  5
381
100
AcDbEntity
  8
ASSI
100
AcDbLine
 62
250
  6
CONTINUOUS
 10
140.5838581722
 20
119.6045206221
 11
140.5838581722
 21
120.7803684471
  0
LINE
  5
382
100
AcDbEntity
  8
ASSI
100
AcDbLine
 62
7
  6
CONTINUOUS
 10
140.8043279042
 20
124.2460859947
 11
140.8043279042
 21
123.4663806059
  0
LINE
  5
383
100
AcDbEntity
  8
ASSI
100
AcDbLine
 62
7
  6
CONTINUOUS
 10
140.8043279042
 20
83.8941450662
 11
140.8043279042
 21
83.1144396774
  0
LINE
  5
384
100
AcDbEntity
  8
ASSI
100
AcDbLine
 62
250
  6
CONTINUOUS
 10
140.8337174587
 20
119.5987741461
 11
140.833705879
 21
120.9900377439
  0
LINE
  5
385
100
AcDbEntity
  8
ASSI
100
AcDbLine
 62
250
  6
CONTINUOUS
 10
140.7743524115
 20
121.3259378606
 11
140.7743426504
 21
121.6161851079
  0
LINE
  5
386
100
AcDbEntity
  8
ASSI
100
AcDbLine
 62
250
  6
CONTINUOUS
 10
140.4437346062
 20
121.7405399158
 11
140.4438249222
 21
121.2457242569
  0
LINE
  5
387
100
AcDbEntity
  8
ASSI
100
AcDbLine
 62
250
  6
CONTINUOUS
 10
140.5246564543
 20
85.6199857563
 11
140.5245661383
 21
86.1148014152
  0
LINE
  5
388
100
AcDbEntity
  8
ASSI
100
AcDbLine
 62
250
  6
CONTINUOUS
 10
140.5244958895
 20
121.3143149405
 11
140.5246564543
 21
121.7405399158
  0
LINE
  5
389
100
AcDbEntity
  8
ASSI
100
AcDbLine
 62
250
  6
CONTINUOUS
 10
140.443895171
 20
86.0462107317
 11
140.4437346062
 21
85.6199857563
  0
LINE
  5
38A
100
AcDbEntity
  8
ASSI
100
AcDbLine
 62
250
  6
CONTINUOUS
 10
140.1346851815
 20
120.9900377439
 11
140.1346736018
 21
119.5987741461
  0
LINE
  5
38B
100
AcDbEntity
  8
ASSI
100
AcDbLine
 62
250
  6
CONTINUOUS
 10
140.1940484101
 20
121.6161851077
 11
140.194038649
 21
121.3259378606
  0
LINE
  5
38C
100
AcDbEntity
  8
ASSI
100
AcDbLine
 62
250
  6
CONTINUOUS
 10
140.7743426504
 20
85.7443405645
 11
140.7743524115
 21
86.0345878115
  0
LINE
  5
38D
100
AcDbEntity
  8
ASSI
100
AcDbLine
 62
250
  6
CONTINUOUS
 10
140.833705879
 20
86.3704879283
 11
140.8337174587
 21
87.761751526
  0
LINE
  5
38E
100
AcDbEntity
  8
ASSI
100
AcDbLine
 62
250
  6
CONTINUOUS
 10
140.3845328883
 20
120.7803684471
 11
140.3841948184
 21
119.4270931425
  0
LINE
  5
38F
100
AcDbEntity
  8
ASSI
100
AcDbLine
 62
250
  6
CONTINUOUS
 10
140.5838581722
 20
86.5801572251
 11
140.5841962421
 21
87.9334325297
  0
LINE
  5
390
100
AcDbEntity
  8
ASSI
100
AcDbLine
 62
250
  6
CONTINUOUS
 10
140.1940504897
 20
86.0287770795
 11
140.1940320698
 21
85.7395273651
  0
LINE
  5
391
100
AcDbEntity
  8
ASSI
100
AcDbLine
 62
250
  6
CONTINUOUS
 10
140.4438249222
 20
121.2457242569
 11
140.443350196
 21
121.1135337337
  0
LINE
  5
392
100
AcDbEntity
  8
ASSI
100
AcDbLine
 62
250
  6
CONTINUOUS
 10
140.5245661383
 20
86.1148014152
 11
140.5250408645
 21
86.2469919384
  0
LINE
  5
393
100
AcDbEntity
  8
ASSI
100
AcDbLine
 62
250
  6
CONTINUOUS
 10
140.7743426504
 20
121.6161851079
 11
140.7743732995
 21
121.6233870363
  0
LINE
  5
394
100
AcDbEntity
  8
ASSI
100
AcDbLine
 62
250
  6
CONTINUOUS
 10
140.3841948184
 20
119.4270931425
 11
140.383762032
 21
119.3556975832
  0
LINE
  5
395
100
AcDbEntity
  8
ASSI
100
AcDbLine
 62
250
  6
CONTINUOUS
 10
140.5841962421
 20
87.9334325297
 11
140.5846290285
 21
88.004828089
  0
LINE
  5
396
100
AcDbEntity
  8
ASSI
100
AcDbLine
 62
250
  6
CONTINUOUS
 10
140.1346736018
 20
119.5987741461
 11
140.1346134557
 21
119.5903402927
  0
LINE
  5
397
100
AcDbEntity
  8
ASSI
100
AcDbLine
 62
250
  6
CONTINUOUS
 10
140.8337174587
 20
87.761751526
 11
140.8337776048
 21
87.7701853794
  0
LINE
  5
398
100
AcDbEntity
  8
ASSI
100
AcDbLine
 62
250
  6
CONTINUOUS
 10
140.194038649
 20
121.3259378606
 11
140.1939771535
 21
121.3174134088
  0
LINE
  5
399
100
AcDbEntity
  8
ASSI
100
AcDbLine
 62
250
  6
CONTINUOUS
 10
140.7743524115
 20
86.0345878115
 11
140.774413907
 21
86.0431122634
  0
LINE
  5
39A
100
AcDbEntity
  8
ASSI
100
AcDbLine
 62
250
  6
CONTINUOUS
 10
140.1940320698
 20
85.7395273651
 11
140.1939771067
 21
85.7324279215
  0
LINE
  5
39B
100
AcDbEntity
  8
ASSI
100
AcDbLine
 62
250
  6
CONTINUOUS
 10
140.443350196
 20
121.1135337337
 11
140.4429354209
 21
121.0636512128
  0
LINE
  5
39C
100
AcDbEntity
  8
ASSI
100
AcDbLine
 62
250
  6
CONTINUOUS
 10
140.5250408645
 20
86.2469919384
 11
140.5254556396
 21
86.2968744594
  0
LINE
  5
39D
100
AcDbEntity
  8
ASSI
100
AcDbLine
 62
250
  6
CONTINUOUS
 10
140.7743732995
 20
121.6233870363
 11
140.7744401069
 21
121.6303949332
  0
LINE
  5
39E
100
AcDbEntity
  8
ASSI
100
AcDbLine
 62
250
  6
CONTINUOUS
 10
140.383762032
 20
119.3556975832
 11
140.3834985369
 21
119.3306099787
  0
LINE
  5
39F
100
AcDbEntity
  8
ASSI
100
AcDbLine
 62
250
  6
CONTINUOUS
 10
140.5846290285
 20
88.004828089
 11
140.5848925236
 21
88.0299156935
  0
LINE
  5
3A0
100
AcDbEntity
  8
ASSI
100
AcDbLine
 62
250
  6
CONTINUOUS
 10
140.1346134557
 20
119.5903402927
 11
140.1345456042
 21
119.5849341058
  0
LINE
  5
3A1
100
AcDbEntity
  8
ASSI
100
AcDbLine
 62
250
  6
CONTINUOUS
 10
140.8337776048
 20
87.7701853794
 11
140.8338454563
 21
87.7755915663
  0
LINE
  5
3A2
100
AcDbEntity
  8
ASSI
100
AcDbLine
 62
250
  6
CONTINUOUS
 10
140.1939771535
 20
121.3174134088
 11
140.1939077977
 21
121.311953976
  0
LINE
  5
3A3
100
AcDbEntity
  8
ASSI
100
AcDbLine
 62
250
  6
CONTINUOUS
 10
140.774413907
 20
86.0431122634
 11
140.7744832628
 21
86.0485716961
  0
LINE
  5
3A4
100
AcDbEntity
  8
ASSI
100
AcDbLine
 62
250
  6
CONTINUOUS
 10
140.4429354209
 20
121.0636512128
 11
140.4427490898
 21
121.0498338102
  0
LINE
  5
3A5
100
AcDbEntity
  8
ASSI
100
AcDbLine
 62
250
  6
CONTINUOUS
 10
140.5254556396
 20
86.2968744594
 11
140.5256419707
 21
86.310691862
  0
LINE
  5
3A6
100
AcDbEntity
  8
ASSI
100
AcDbLine
 62
250
  6
CONTINUOUS
 10
140.1939771067
 20
85.7324279215
 11
140.1938868994
 21
85.7256403218
  0
LINE
  5
3A7
100
AcDbEntity
  8
ASSI
100
AcDbLine
 62
250
  6
CONTINUOUS
 10
140.5246564543
 20
121.7405399158
 11
140.5620877595
 21
124.0392204486
  0
LINE
  5
3A8
100
AcDbEntity
  8
ASSI
100
AcDbLine
 62
250
  6
CONTINUOUS
 10
140.7744401069
 20
121.6303949332
 11
140.8043279042
 21
123.4663806059
  0
LINE
  5
3A9
100
AcDbEntity
  8
ASSI
100
AcDbLine
 62
250
  6
CONTINUOUS
 10
140.1938868994
 20
85.7256403218
 11
140.1640631563
 21
83.8941450662
  0
LINE
  5
3AA
100
AcDbEntity
  8
ASSI
100
AcDbLine
 62
250
  6
CONTINUOUS
 10
140.4437346062
 20
85.6199857563
 11
140.406303301
 21
83.3213052235
  0
LWPOLYLINE
  5
3AB
100
AcDbEntity
  8
ASSI
100
AcDbPolyline
 62
250
  6
CONTINUOUS
 90
7
 70
0
 10
140.3834985369
 20
119.3306099787
 10
140.383310987
 20
119.3183714166
 10
140.3832142561
 20
119.3136634025
 10
140.3831164281
 20
119.3099183061
 10
140.383017798
 20
119.3071483528
 10
140.3829180708
 20
119.3053623848
 10
140.3828172465
 20
119.3045660847
  0
LWPOLYLINE
  5
3AC
100
AcDbEntity
  8
ASSI
100
AcDbPolyline
 62
250
  6
CONTINUOUS
 90
7
 70
0
 10
140.5848925236
 20
88.0299156935
 10
140.5850800735
 20
88.0421542556
 10
140.5851768044
 20
88.0468622697
 10
140.5852746324
 20
88.050607366
 10
140.5853732625
 20
88.0533773193
 10
140.5854729897
 20
88.0551632874
 10
140.585573814
 20
88.0559595875
  0
LINE
  5
3AD
100
AcDbEntity
  8
ASSI
100
AcDbLine
 62
250
  6
CONTINUOUS
 10
140.1345456042
 20
119.5849341058
 11
140.1344564031
 21
119.5797776575
  0
LINE
  5
3AE
100
AcDbEntity
  8
ASSI
100
AcDbLine
 62
250
  6
CONTINUOUS
 10
140.8338454563
 20
87.7755915663
 11
140.8339346574
 21
87.7807480146
  0
LINE
  5
3AF
100
AcDbEntity
  8
ASSI
100
AcDbLine
 62
250
  6
CONTINUOUS
 10
140.1939077977
 20
121.311953976
 11
140.1938166456
 21
121.3067526119
  0
LINE
  5
3B0
100
AcDbEntity
  8
ASSI
100
AcDbLine
 62
250
  6
CONTINUOUS
 10
140.7744832628
 20
86.0485716961
 11
140.7745744149
 21
86.0537730602
  0
LWPOLYLINE
  5
3B1
100
AcDbEntity
  8
ASSI
100
AcDbPolyline
 62
250
  6
CONTINUOUS
 90
3
 70
0
 10
140.4427490898
 20
121.0498338102
 10
140.4425552805
 20
121.0398328585
 10
140.4424553543
 20
121.0363062667
  0
LWPOLYLINE
  5
3B2
100
AcDbEntity
  8
ASSI
100
AcDbPolyline
 62
250
  6
CONTINUOUS
 90
3
 70
0
 10
140.5256419707
 20
86.310691862
 10
140.52583578
 20
86.3206928136
 10
140.5259357062
 20
86.3242194054
  0
LWPOLYLINE
  5
3B3
100
AcDbEntity
  8
ASSI
100
AcDbPolyline
 62
250
  6
CONTINUOUS
 90
3
 70
0
 10
140.1344564031
 20
119.5797776575
 10
140.1343470457
 20
119.5749494654
 10
140.134285409
 20
119.5726813099
  0
LINE
  5
3B4
100
AcDbEntity
  8
ASSI
100
AcDbLine
 62
250
  6
CONTINUOUS
 10
140.8339346574
 20
87.7807480146
 11
140.8340440148
 21
87.7855762068
  0
LWPOLYLINE
  5
3B5
100
AcDbEntity
  8
ASSI
100
AcDbPolyline
 62
250
  6
CONTINUOUS
 90
3
 70
0
 10
140.1938166456
 20
121.3067526119
 10
140.1937049402
 20
121.3018902268
 10
140.1936420105
 20
121.299609766
  0
LINE
  5
3B6
100
AcDbEntity
  8
ASSI
100
AcDbLine
 62
250
  6
CONTINUOUS
 10
140.7745744149
 20
86.0537730602
 11
140.7746861203
 21
86.0586354454
  0
LWPOLYLINE
  5
3B7
100
AcDbEntity
  8
ASSI
100
AcDbPolyline
 62
7
  6
CONTINUOUS
 90
28
 70
0
 10
140.8898157233
 20
119.5273393845
 10
140.8894132878
 20
119.5128720078
 10
140.8881710477
 20
119.4984215145
 10
140.886087664
 20
119.4840369359
 10
140.8831598021
 20
119.4697466085
 10
140.8793943704
 20
119.4556217054
 10
140.8748207022
 20
119.4417728087
 10
140.8694735889
 20
119.4282773897
 10
140.863366343
 20
119.4151452805
 10
140.8565043353
 20
119.4023832598
 10
140.8489086797
 20
119.3900336815
 10
140.8406044008
 20
119.378140038
 10
140.8315950158
 20
119.3667154794
 10
140.8218765284
 20
119.3557732524
 10
140.8115012809
 20
119.3453893481
 10
140.8005672926
 20
119.3356619079
 10
140.7891499727
 20
119.3266428785
 10
140.7772630888
 20
119.318328703
 10
140.7649215143
 20
119.3107239791
 10
140.7521693006
 20
119.303853619
 10
140.7390485505
 20
119.2977381559
 10
140.7255667511
 20
119.2923829225
 10
140.7117354474
 20
119.2878012057
 10
140.6976305562
 20
119.2840266632
 10
140.6833582304
 20
119.2810875556
 10
140.6689879462
 20
119.2789909544
 10
140.6545493067
 20
119.2777340806
 10
140.6400912023
 20
119.2773158866
  0
LWPOLYLINE
  5
3B8
100
AcDbEntity
  8
ASSI
100
AcDbPolyline
 62
7
  6
CONTINUOUS
 90
28
 70
0
 10
140.0785753372
 20
87.8331862876
 10
140.0789777727
 20
87.8476536643
 10
140.0802200128
 20
87.8621041576
 10
140.0823033965
 20
87.8764887363
 10
140.0852312584
 20
87.8907790637
 10
140.08899669
 20
87.9049039668
 10
140.0935703583
 20
87.9187528634
 10
140.0989174716
 20
87.9322482825
 10
140.1050247175
 20
87.9453803917
 10
140.1118867252
 20
87.9581424123
 10
140.1194823807
 20
87.9704919906
 10
140.1277866597
 20
87.9823856341
 10
140.1367960447
 20
87.9938101928
 10
140.1465145321
 20
88.0047524198
 10
140.1568897796
 20
88.0151363241
 10
140.1678237679
 20
88.0248637642
 10
140.1792410878
 20
88.0338827937
 10
140.1911279717
 20
88.0421969691
 10
140.2034695462
 20
88.049801693
 10
140.2162217599
 20
88.0566720531
 10
140.22934251
 20
88.0627875162
 10
140.2428243094
 20
88.0681427497
 10
140.2566556131
 20
88.0727244664
 10
140.2707605043
 20
88.0764990089
 10
140.2850328301
 20
88.0794381166
 10
140.2994031143
 20
88.0815347177
 10
140.3138417538
 20
88.0827915915
 10
140.3282998582
 20
88.0832097856
  0
LINE
  5
3B9
100
AcDbEntity
  8
ASSI
100
AcDbLine
 62
250
  6
CONTINUOUS
 10
140.8340440148
 20
87.7855762068
 11
140.8341717853
 21
87.790006407
  0
LINE
  5
3BA
100
AcDbEntity
  8
ASSI
100
AcDbLine
 62
250
  6
CONTINUOUS
 10
140.7746861203
 20
86.0586354454
 11
140.7748165483
 21
86.0630867077
  0
LWPOLYLINE
  5
3BB
100
AcDbEntity
  8
ASSI
100
AcDbPolyline
 62
7
  6
CONTINUOUS
 90
31
 70
0
 10
140.1346851815
 20
86.3704879283
 10
140.135310333
 20
86.379744307
 10
140.1364285073
 20
86.3890191729
 10
140.1380494525
 20
86.3983125261
 10
140.1401818157
 20
86.4076453214
 10
140.1428333025
 20
86.4169966039
 10
140.1460107907
 20
86.4263035086
 10
140.1497188046
 20
86.4355663387
 10
140.1539621192
 20
86.4447847909
 10
140.1587473717
 20
86.4538950906
 10
140.1640758248
 20
86.4628982206
 10
140.1699492475
 20
86.471793198
 10
140.1763758986
 20
86.4805132989
 10
140.1833537075
 20
86.4890604613
 10
140.1908814221
 20
86.4974327473
 10
140.1989704641
 20
86.5055576193
 10
140.2076151962
 20
86.5134385125
 10
140.2168106364
 20
86.5210719918
 10
140.2265715854
 20
86.5283752141
 10
140.2368880933
 20
86.5353534058
 10
140.2477497195
 20
86.5420013406
 10
140.2591723664
 20
86.548220496
 10
140.2711409942
 20
86.554017682
 10
140.2836358408
 20
86.5593860886
 10
140.2966654349
 20
86.5642067631
 10
140.310207487
 20
86.5684857322
 10
140.3242275301
 20
86.5722169691
 10
140.3387117963
 20
86.5752634402
 10
140.3536268672
 20
86.5775794676
 10
140.3689183004
 20
86.5792107292
 10
140.3845328883
 20
86.5801572251
  0
LINE
  5
3BC
100
AcDbEntity
  8
ASSI
100
AcDbLine
 62
7
  6
CONTINUOUS
 10
139.3485534733
 20
104.9946207791
 11
139.3203117511
 21
104.9663790569
  0
LWPOLYLINE
  5
3BD
100
AcDbEntity
  8
ASSI
100
AcDbPolyline
 62
250
  6
CONTINUOUS
 90
25
 70
0
 10
138.9923141439
 20
97.5223269743
 10
139.0119079783
 20
97.5229917772
 10
139.0314180378
 20
97.5249356137
 10
139.0507609067
 20
97.5281501727
 10
139.0698538842
 20
97.5326217102
 10
139.0886153378
 20
97.5383311078
 10
139.1069650523
 20
97.5452539545
 10
139.124824573
 20
97.5533606513
 10
139.1421175413
 20
97.5626165376
 10
139.1587700206
 20
97.5729820392
 10
139.174710813
 20
97.5844128381
 10
139.1898717636
 20
97.5968600612
 10
139.2041880514
 20
97.61027049
 10
139.2175984671
 20
97.6245867875
 10
139.2300456746
 20
97.6397477439
 10
139.2414764557
 20
97.655688538
 10
139.2518419382
 20
97.6723410144
 10
139.2610978048
 20
97.689633975
 10
139.269204482
 20
97.7074934832
 10
139.2761273102
 20
97.7258431803
 10
139.281836691
 20
97.7446046117
 10
139.2863082142
 20
97.7636975627
 10
139.2895227622
 20
97.783040401
 10
139.2914665917
 20
97.802550426
 10
139.292131392
 20
97.8221442224
  0
LINE
  5
3BE
100
AcDbEntity
  8
ASSI
100
AcDbLine
 62
7
  6
CONTINUOUS
 10
153.3474446067
 20
97.4671965115
 11
153.1209464538
 21
97.4671965115
  0
LINE
  5
3BF
100
AcDbEntity
  8
ASSI
100
AcDbLine
 62
7
  6
CONTINUOUS
 10
139.0474446067
 20
97.4671965115
 11
138.8209464538
 21
97.4671965115
  0
LINE
  5
3C0
100
AcDbEntity
  8
ASSI
100
AcDbLine
 62
250
  6
CONTINUOUS
 10
138.876076389
 20
97.5223264467
 11
138.9923146715
 21
97.5223264467
  0
LINE
  5
3C1
100
AcDbEntity
  8
ASSI
100
AcDbLine
 62
250
  6
CONTINUOUS
 10
153.176076389
 20
97.5223264467
 11
153.2923146715
 21
97.5223264467
  0
LINE
  5
3C2
100
AcDbEntity
  8
ASSI
100
AcDbLine
 62
250
  6
CONTINUOUS
 10
138.5830000789
 20
98.0220223878
 11
139.2853909816
 21
98.0220223878
  0
LINE
  5
3C3
100
AcDbEntity
  8
ASSI
100
AcDbLine
 62
250
  6
CONTINUOUS
 10
152.8830000789
 20
98.0220223878
 11
153.5853909816
 21
98.0220223878
  0
LWPOLYLINE
  5
3C4
100
AcDbEntity
  8
ASSI
100
AcDbPolyline
 62
7
  6
CONTINUOUS
 90
28
 70
0
 10
153.1209464538
 20
97.4671965115
 10
153.1036013796
 20
97.4676977241
 10
153.0862754438
 20
97.4692046852
 10
153.0690273458
 20
97.4717191824
 10
153.0518907603
 20
97.4752454937
 10
153.034951226
 20
97.4797754562
 10
153.0183420085
 20
97.4852737411
 10
153.0021560994
 20
97.491698627
 10
152.9864051474
 20
97.4990343142
 10
152.971097564
 20
97.5072743034
 10
152.9562835557
 20
97.5163936845
 10
152.94201587
 20
97.5263621842
 10
152.9283120745
 20
97.5371741384
 10
152.9151889274
 20
97.5488330036
 10
152.902735989
 20
97.5612767118
 10
152.8910691307
 20
97.5743893515
 10
152.8802507625
 20
97.5880804664
 10
152.8702765122
 20
97.6023337952
 10
152.8611504795
 20
97.6171341373
 10
152.8529026647
 20
97.6324297011
 10
152.8455586287
 20
97.6481696307
 10
152.8391251092
 20
97.6643457229
 10
152.8336177005
 20
97.6809476163
 10
152.8290788395
 20
97.6978812024
 10
152.8255448448
 20
97.7150096139
 10
152.8230236089
 20
97.7322459965
 10
152.8215100482
 20
97.7495578373
 10
152.8210019063
 20
97.7668864602
  0
LWPOLYLINE
  5
3C5
100
AcDbEntity
  8
ASSI
100
AcDbPolyline
 62
250
  6
CONTINUOUS
 90
25
 70
0
 10
153.1760769166
 20
97.5223269743
 10
153.1564830987
 20
97.5229917761
 10
153.1369730545
 20
97.5249356094
 10
153.1176301996
 20
97.5281501635
 10
153.0985372346
 20
97.5326216945
 10
153.079775792
 20
97.5383310841
 10
153.0614260865
 20
97.5452539219
 10
153.0435665727
 20
97.5533606091
 10
153.0262736092
 20
97.5626164854
 10
153.0096211325
 20
97.5729819772
 10
152.9936803404
 20
97.5844127666
 10
152.9785193881
 20
97.5968599811
 10
152.9642030965
 20
97.6102704024
 10
152.9507926753
 20
97.6245866939
 10
152.9383454608
 20
97.6397476462
 10
152.9269146714
 20
97.6556884383
 10
152.9165491796
 20
97.6723409151
 10
152.9072933033
 20
97.6896338785
 10
152.8991866161
 20
97.7074933923
 10
152.8922637783
 20
97.7258430978
 10
152.8865543887
 20
97.7446045405
 10
152.8820828577
 20
97.7636975054
 10
152.8788683036
 20
97.7830403603
 10
152.8769244702
 20
97.8025504045
 10
152.8762596685
 20
97.8221442224
  0
LINE
  5
3C6
100
AcDbEntity
  8
ASSI
100
AcDbLine
 62
7
  6
CONTINUOUS
 10
139.3203117511
 20
102.3941466152
 11
139.3485534733
 21
102.365904893
  0
LWPOLYLINE
  5
3C7
100
AcDbEntity
  8
ASSI
100
AcDbPolyline
 62
250
  6
CONTINUOUS
 90
13
 70
0
 10
151.3329696156
 20
87.8059974348
 10
151.3330703599
 20
87.8058626219
 10
151.333170053
 20
87.8055656127
 10
151.3332686949
 20
87.8051064071
 10
151.3333666156
 20
87.8044824205
 10
151.3334634851
 20
87.8036962377
 10
151.3335583132
 20
87.8027556122
 10
151.3336510692
 20
87.8016590315
 10
151.3337417838
 20
87.8004080082
 10
151.3338295596
 20
87.7990148337
 10
151.3339143676
 20
87.7974780802
 10
151.3339962367
 20
87.7957991755
 10
151.3340743564
 20
87.7939946939
  0
LWPOLYLINE
  5
3C8
100
AcDbEntity
  8
ASSI
100
AcDbPolyline
 62
250
  6
CONTINUOUS
 90
8
 70
0
 10
138.8760767069
 20
109.8381992252
 10
138.8764351175
 20
109.8366523491
 10
138.8767900924
 20
109.8338000711
 10
138.8771416315
 20
109.8296497946
 10
138.8774906161
 20
109.8242123467
 10
138.877836165
 20
109.8175018948
 10
138.8781756342
 20
109.8095358656
 10
138.8785090198
 20
109.8003348571
  0
LINE
  5
3C9
100
AcDbEntity
  8
ASSI
100
AcDbLine
 62
250
  6
CONTINUOUS
 10
140.7749643754
 20
121.2934440186
 11
140.7748165483
 21
121.2974389645
  0
LINE
  5
3CA
100
AcDbEntity
  8
ASSI
100
AcDbLine
 62
250
  6
CONTINUOUS
 10
140.8343167041
 20
119.5665309782
 11
140.8341717853
 21
119.5705192652
  0
LINE
  5
3CB
100
AcDbEntity
  8
ASSI
100
AcDbLine
 62
250
  6
CONTINUOUS
 10
142.1687254764
 20
125.8025016059
 11
142.1687254764
 21
124.2460859947
  0
LINE
  5
3CC
100
AcDbEntity
  8
ASSI
100
AcDbLine
 62
250
  6
CONTINUOUS
 10
142.1687254764
 20
83.1144396774
 11
142.1687254764
 21
81.5580240663
  0
LINE
  5
3CD
100
AcDbEntity
  8
ASSI
100
AcDbLine
 62
250
  6
CONTINUOUS
 10
142.3419305572
 20
125.8077423838
 11
142.3419305572
 21
124.2583644508
  0
LINE
  5
3CE
100
AcDbEntity
  8
ASSI
100
AcDbLine
 62
250
  6
CONTINUOUS
 10
142.3419305572
 20
83.1021612213
 11
142.3419305572
 21
81.5527832883
  0
LWPOLYLINE
  5
3CF
100
AcDbEntity
  8
ASSI
100
AcDbPolyline
 62
250
  6
CONTINUOUS
 90
14
 70
0
 10
140.8341717853
 20
87.790006407
 10
140.8343167041
 20
87.7939946939
 10
140.8343948238
 20
87.7957991755
 10
140.8344766929
 20
87.7974780802
 10
140.8345615009
 20
87.7990148337
 10
140.8346492767
 20
87.8004080082
 10
140.8347399913
 20
87.8016590315
 10
140.8348327473
 20
87.8027556122
 10
140.8349275754
 20
87.8036962377
 10
140.8350244449
 20
87.8044824205
 10
140.8351223656
 20
87.8051064071
 10
140.8352210075
 20
87.8055656127
 10
140.8353207006
 20
87.8058626219
 10
140.8354214449
 20
87.8059974348
  0
LWPOLYLINE
  5
3D0
100
AcDbEntity
  8
ASSI
100
AcDbPolyline
 62
250
  6
CONTINUOUS
 90
11
 70
0
 10
140.7748165483
 20
86.0630867077
 10
140.7749643754
 20
86.0670816536
 10
140.7750440087
 20
86.0688834574
 10
140.7751274303
 20
86.070555737
 10
140.7752137959
 20
86.0720816823
 10
140.775303147
 20
86.0734598843
 10
140.7753954421
 20
86.074691752
 10
140.775489713
 20
86.0757647025
 10
140.7755856371
 20
86.0766745413
 10
140.7756835371
 20
86.0774254629
 10
140.7757834129
 20
86.0780174672
  0
LINE
  5
3D1
100
AcDbEntity
  8
ASSI
100
AcDbLine
 62
7
  6
CONTINUOUS
 10
138.5198375872
 20
102.365904893
 11
138.5480793094
 21
102.3941466152
  0
LINE
  5
3D2
100
AcDbEntity
  8
ASSI
100
AcDbLine
 62
7
  6
CONTINUOUS
 10
136.2383062315
 20
103.8073161262
 11
136.1841955302
 21
103.7802628361
  0
LWPOLYLINE
  5
3D3
100
AcDbEntity
  8
ASSI
100
AcDbPolyline
 62
250
  6
CONTINUOUS
 90
25
 70
0
 10
153.1807717157
 20
99.7267094455
 10
153.1614645019
 20
99.7259322978
 10
153.1422373887
 20
99.7242783021
 10
153.1231701435
 20
99.7217543203
 10
153.1043418707
 20
99.7183708239
 10
153.0858306831
 20
99.7141418499
 10
153.0677133781
 20
99.7090849434
 10
153.0500651191
 20
99.703221084
 10
153.0329591231
 20
99.6965745992
 10
153.016466358
 20
99.6891730635
 10
153.000655247
 20
99.6810471838
 10
152.9855913856
 20
99.6722306719
 10
152.9713372692
 20
99.6627601052
 10
152.9579520334
 20
99.6526747743
 10
152.9454912095
 20
99.6420165201
 10
152.9340064935
 20
99.6308295609
 10
152.9235455317
 20
99.6191603079
 10
152.9141517231
 20
99.6070571734
 10
152.9058640397
 20
99.5945703697
 10
152.8987168642
 20
99.5817517009
 10
152.8927398477
 20
99.5686543476
 10
152.8879577869
 20
99.5553326468
 10
152.8843905206
 20
99.5418418662
 10
152.8820528482
 20
99.5282379749
 10
152.8809544676
 20
99.5145774111
  0
LWPOLYLINE
  5
3D4
100
AcDbEntity
  8
ASSI
100
AcDbPolyline
 62
250
  6
CONTINUOUS
 90
25
 70
0
 10
138.8807717157
 20
99.7267094455
 10
138.8614645019
 20
99.7259322978
 10
138.8422373887
 20
99.7242783021
 10
138.8231701435
 20
99.7217543203
 10
138.8043418707
 20
99.7183708239
 10
138.7858306831
 20
99.7141418499
 10
138.7677133781
 20
99.7090849434
 10
138.7500651191
 20
99.703221084
 10
138.7329591231
 20
99.6965745992
 10
138.716466358
 20
99.6891730635
 10
138.700655247
 20
99.6810471838
 10
138.6855913856
 20
99.6722306719
 10
138.6713372692
 20
99.6627601052
 10
138.6579520334
 20
99.6526747743
 10
138.6454912095
 20
99.6420165201
 10
138.6340064935
 20
99.6308295609
 10
138.6235455317
 20
99.6191603079
 10
138.6141517231
 20
99.6070571734
 10
138.6058640397
 20
99.5945703697
 10
138.5987168642
 20
99.5817517009
 10
138.5927398477
 20
99.5686543476
 10
138.5879577869
 20
99.5553326468
 10
138.5843905206
 20
99.5418418662
 10
138.5820528482
 20
99.5282379749
 10
138.5809544676
 20
99.5145774111
  0
LWPOLYLINE
  5
3D5
100
AcDbEntity
  8
ASSI
100
AcDbPolyline
 62
250
  6
CONTINUOUS
 90
25
 70
0
 10
153.1560790028
 20
100.4338162267
 10
153.1367718012
 20
100.4330390799
 10
153.1175446993
 20
100.4313850861
 10
153.0984774645
 20
100.4288611072
 10
153.079649201
 20
100.4254776143
 10
153.0611380214
 20
100.4212486446
 10
153.043020723
 20
100.4161917429
 10
153.025372469
 20
100.4103278885
 10
153.0082664765
 20
100.4036814089
 10
152.9917737132
 20
100.3962798783
 10
152.9759626026
 20
100.3881540034
 10
152.9608987399
 20
100.3793374959
 10
152.9466446208
 20
100.369866933
 10
152.9332593811
 20
100.3597816049
 10
152.9207985521
 20
100.3491233528
 10
152.90931383
 20
100.3379363944
 10
152.8988528615
 20
100.3262671411
 10
152.8894590458
 20
100.3141640049
 10
152.8811713552
 20
100.3016771982
 10
152.8740241726
 20
100.2888585249
 10
152.8680471496
 20
100.2757611657
 10
152.863265083
 20
100.2624394576
 10
152.8596978122
 20
100.2489486684
 10
152.8573601367
 20
100.2353447671
 10
152.8562617547
 20
100.2216841923
  0
LINE
  5
3D6
100
AcDbEntity
  8
ASSI
100
AcDbLine
 62
250
  6
CONTINUOUS
 10
138.5830000789
 20
99.3731560549
 11
139.2853909816
 21
99.3731560549
  0
LINE
  5
3D7
100
AcDbEntity
  8
ASSI
100
AcDbLine
 62
250
  6
CONTINUOUS
 10
152.8830000789
 20
99.3731560549
 11
153.5853909816
 21
99.3731560549
  0
LINE
  5
3D8
100
AcDbEntity
  8
ASSI
100
AcDbLine
 62
250
  6
CONTINUOUS
 10
153.2876193448
 20
99.7267094455
 11
153.1807717157
 21
99.7267094455
  0
LINE
  5
3D9
100
AcDbEntity
  8
ASSI
100
AcDbLine
 62
250
  6
CONTINUOUS
 10
138.9876193448
 20
99.7267094455
 11
138.8807717157
 21
99.7267094455
  0
LINE
  5
3DA
100
AcDbEntity
  8
ASSI
100
AcDbLine
 62
250
  6
CONTINUOUS
 10
138.8560792596
 20
100.4338088722
 11
139.0123118008
 21
100.4338088688
  0
LINE
  5
3DB
100
AcDbEntity
  8
ASSI
100
AcDbLine
 62
250
  6
CONTINUOUS
 10
153.1560792596
 20
100.4338088722
 11
153.3123118008
 21
100.4338088688
  0
LWPOLYLINE
  5
3DC
100
AcDbEntity
  8
ASSI
100
AcDbPolyline
 62
250
  6
CONTINUOUS
 90
25
 70
0
 10
138.9876193448
 20
99.7267094455
 10
139.0069265464
 20
99.7259322987
 10
139.0261536483
 20
99.7242783049
 10
139.0452208831
 20
99.721754326
 10
139.0640491466
 20
99.7183708331
 10
139.0825603262
 20
99.7141418635
 10
139.1006776246
 20
99.7090849617
 10
139.1183258786
 20
99.7032211073
 10
139.135431871
 20
99.6965746277
 10
139.1519246343
 20
99.6891730971
 10
139.167735745
 20
99.6810472222
 10
139.1827996076
 20
99.6722307148
 10
139.1970537268
 20
99.6627601518
 10
139.2104389665
 20
99.6526748238
 10
139.2228997955
 20
99.6420165716
 10
139.2343845176
 20
99.6308296132
 10
139.2448454861
 20
99.6191603599
 10
139.2542393017
 20
99.6070572237
 10
139.2625269924
 20
99.594570417
 10
139.269674175
 20
99.5817517437
 10
139.275651198
 20
99.5686543845
 10
139.2804332645
 20
99.5553326764
 10
139.2840005354
 20
99.5418418872
 10
139.2863382109
 20
99.5282379859
 10
139.2874365929
 20
99.5145774111
  0
LWPOLYLINE
  5
3DD
100
AcDbEntity
  8
ASSI
100
AcDbPolyline
 62
250
  6
CONTINUOUS
 90
25
 70
0
 10
153.2876193448
 20
99.7267094455
 10
153.3069265464
 20
99.7259322987
 10
153.3261536483
 20
99.7242783049
 10
153.3452208831
 20
99.721754326
 10
153.3640491466
 20
99.7183708331
 10
153.3825603262
 20
99.7141418635
 10
153.4006776246
 20
99.7090849617
 10
153.4183258786
 20
99.7032211073
 10
153.435431871
 20
99.6965746277
 10
153.4519246343
 20
99.6891730971
 10
153.467735745
 20
99.6810472222
 10
153.4827996076
 20
99.6722307148
 10
153.4970537268
 20
99.6627601518
 10
153.5104389665
 20
99.6526748238
 10
153.5228997955
 20
99.6420165716
 10
153.5343845176
 20
99.6308296132
 10
153.5448454861
 20
99.6191603599
 10
153.5542393017
 20
99.6070572237
 10
153.5625269924
 20
99.594570417
 10
153.569674175
 20
99.5817517437
 10
153.575651198
 20
99.5686543845
 10
153.5804332645
 20
99.5553326764
 10
153.5840005354
 20
99.5418418872
 10
153.5863382109
 20
99.5282379859
 10
153.5874365929
 20
99.5145774111
  0
LWPOLYLINE
  5
3DE
100
AcDbEntity
  8
ASSI
100
AcDbPolyline
 62
250
  6
CONTINUOUS
 90
25
 70
0
 10
139.0123120577
 20
100.4338162267
 10
139.0316192293
 20
100.4330390818
 10
139.0508463029
 20
100.4313850924
 10
139.0699135115
 20
100.4288611203
 10
139.0887417509
 20
100.4254776364
 10
139.1072529091
 20
100.4212486776
 10
139.1253701896
 20
100.416191788
 10
139.1430184294
 20
100.4103279468
 10
139.1601244114
 20
100.403681481
 10
139.1766171685
 20
100.3962799642
 10
139.1924282772
 20
100.3881541025
 10
139.2074921418
 20
100.3793376075
 10
139.2217462669
 20
100.3698670552
 10
139.2351315162
 20
100.3597817359
 10
139.2475923579
 20
100.3491234901
 10
139.2590770955
 20
100.337936535
 10
139.2695380816
 20
100.3262672817
 10
139.2789319161
 20
100.314164142
 10
139.2872196262
 20
100.3016773278
 10
139.2943668281
 20
100.2888586429
 10
139.3003438691
 20
100.2757612681
 10
139.3051259517
 20
100.2624395403
 10
139.3086932354
 20
100.2489487272
 10
139.3110309199
 20
100.2353447983
 10
139.3121293058
 20
100.2216841923
  0
LINE
  5
3DF
100
AcDbEntity
  8
ASSI
100
AcDbLine
 62
7
  6
CONTINUOUS
 10
136.2383062315
 20
103.5532095459
 11
136.1841955302
 21
103.5802628361
  0
LINE
  5
3E0
100
AcDbEntity
  8
ASSI
100
AcDbLine
 62
7
  6
CONTINUOUS
 10
138.5480793094
 20
104.9663790569
 11
138.5198375872
 21
104.9946207791
  0
LWPOLYLINE
  5
3E1
100
AcDbEntity
  8
ASSI
100
AcDbPolyline
 62
250
  6
CONTINUOUS
 90
13
 70
0
 10
138.5762596685
 20
109.5383814497
 10
138.5766177858
 20
109.5377565176
 10
138.5769725637
 20
109.5366174383
 10
138.5773240022
 20
109.5349642119
 10
138.5776730268
 20
109.532789839
 10
138.578018712
 20
109.5301013189
 10
138.5783582811
 20
109.52691965
 10
138.5786916677
 20
109.523240926
 10
138.5790189381
 20
109.519069053
 10
138.579337515
 20
109.5144367481
 10
138.5796473238
 20
109.5093404369
 10
138.579948439
 20
109.5037836936
 10
138.5802385061
 20
109.4978099584
  0
LWPOLYLINE
  5
3E2
100
AcDbEntity
  8
ASSI
100
AcDbPolyline
 62
250
  6
CONTINUOUS
 90
5
 70
0
 10
140.585573814
 20
119.3045660847
 10
140.5854729897
 20
119.3053623848
 10
140.5853732625
 20
119.3071483528
 10
140.5852746324
 20
119.3099183061
 10
140.5851768044
 20
119.3136634025
  0
LINE
  5
3E3
100
AcDbEntity
  8
ASSI
100
AcDbLine
 62
7
  6
CONTINUOUS
 10
142.6926205232
 20
125.8395755418
 11
142.767914007
 21
124.3489579668
  0
LINE
  5
3E4
100
AcDbEntity
  8
ASSI
100
AcDbLine
 62
7
  6
CONTINUOUS
 10
142.6926205232
 20
81.5209501303
 11
142.767914007
 21
83.0115677053
  0
LINE
  5
3E5
100
AcDbEntity
  8
ASSI
100
AcDbLine
 62
250
  6
CONTINUOUS
 10
140.5259357062
 20
86.3242194054
 11
140.5766439618
 21
86.5802628361
  0
LINE
  5
3E6
100
AcDbEntity
  8
ASSI
100
AcDbLine
 62
250
  6
CONTINUOUS
 10
140.7757834129
 20
86.0780174672
 11
140.833705879
 21
86.3704879283
  0
LWPOLYLINE
  5
3E7
100
AcDbEntity
  8
ASSI
100
AcDbPolyline
 62
250
  6
CONTINUOUS
 90
25
 70
0
 10
138.8560790028
 20
100.4338162267
 10
138.8367718012
 20
100.4330390799
 10
138.8175446993
 20
100.4313850861
 10
138.7984774645
 20
100.4288611072
 10
138.779649201
 20
100.4254776143
 10
138.7611380214
 20
100.4212486446
 10
138.743020723
 20
100.4161917429
 10
138.725372469
 20
100.4103278885
 10
138.7082664765
 20
100.4036814089
 10
138.6917737132
 20
100.3962798783
 10
138.6759626026
 20
100.3881540034
 10
138.6608987399
 20
100.3793374959
 10
138.6466446208
 20
100.369866933
 10
138.6332593811
 20
100.3597816049
 10
138.6207985521
 20
100.3491233528
 10
138.60931383
 20
100.3379363944
 10
138.5988528615
 20
100.3262671411
 10
138.5894590458
 20
100.3141640049
 10
138.5811713552
 20
100.3016771982
 10
138.5740241726
 20
100.2888585249
 10
138.5680471496
 20
100.2757611657
 10
138.563265083
 20
100.2624394576
 10
138.5596978122
 20
100.2489486684
 10
138.5573601367
 20
100.2353447671
 10
138.5562617547
 20
100.2216841923
  0
LWPOLYLINE
  5
3E8
100
AcDbEntity
  8
ASSI
100
AcDbPolyline
 62
7
  6
CONTINUOUS
 90
13
 70
0
 10
155.8545479333
 20
102.3679071143
 10
155.8635316755
 20
102.368236624
 10
155.8719221536
 20
102.3685872377
 10
155.8795947746
 20
102.3689530351
 10
155.8865207463
 20
102.3693329777
 10
155.8927288608
 20
102.369728104
 10
155.8981809014
 20
102.3701356093
 10
155.9028861615
 20
102.3705570935
 10
155.9068353477
 20
102.3709909567
 10
155.9099623629
 20
102.3714295944
 10
155.9122451749
 20
102.3718704719
 10
155.9137058159
 20
102.3723161239
 10
155.9143442861
 20
102.3727665505
  0
LINE
  5
3E9
100
AcDbEntity
  8
ASSI
100
AcDbLine
 62
7
  6
CONTINUOUS
 10
155.8347689524
 20
102.3673125311
 11
155.8545479333
 21
102.3679071143
  0
LINE
  5
3EA
100
AcDbEntity
  8
ASSI
100
AcDbLine
 62
7
  6
CONTINUOUS
 10
155.8131649933
 20
102.3668160631
 11
155.8347689524
 21
102.3673125311
  0
LWPOLYLINE
  5
3EB
100
AcDbEntity
  8
ASSI
100
AcDbPolyline
 62
7
  6
CONTINUOUS
 90
3
 70
0
 10
155.7778306767
 20
102.3662662721
 10
155.7899854759
 20
102.3664231814
 10
155.8131649933
 20
102.3668160631
  0
LINE
  5
3EC
100
AcDbEntity
  8
ASSI
100
AcDbLine
 62
250
  6
CONTINUOUS
 10
152.8480793094
 20
100.7873696173
 11
153.6203117511
 21
100.7873696173
  0
LINE
  5
3ED
100
AcDbEntity
  8
ASSI
100
AcDbLine
 62
250
  6
CONTINUOUS
 10
138.5480793094
 20
100.7873696173
 11
139.3203117511
 21
100.7873696173
  0
LINE
  5
3EE
100
AcDbEntity
  8
ASSI
100
AcDbLine
 62
7
  6
CONTINUOUS
 10
136.3666439038
 20
102.3666063347
 11
136.3905603838
 21
102.3662662721
  0
LINE
  5
3EF
100
AcDbEntity
  8
ASSI
100
AcDbLine
 62
7
  6
CONTINUOUS
 10
136.3442293443
 20
102.3670511291
 11
136.3666439038
 21
102.3666063347
  0
LWPOLYLINE
  5
3F0
100
AcDbEntity
  8
ASSI
100
AcDbPolyline
 62
250
  6
CONTINUOUS
 90
25
 70
0
 10
153.3123120577
 20
100.4338162267
 10
153.3316192293
 20
100.4330390818
 10
153.3508463029
 20
100.4313850924
 10
153.3699135115
 20
100.4288611203
 10
153.3887417509
 20
100.4254776364
 10
153.4072529091
 20
100.4212486776
 10
153.4253701896
 20
100.416191788
 10
153.4430184294
 20
100.4103279468
 10
153.4601244114
 20
100.403681481
 10
153.4766171685
 20
100.3962799642
 10
153.4924282772
 20
100.3881541025
 10
153.5074921418
 20
100.3793376075
 10
153.5217462669
 20
100.3698670552
 10
153.5351315162
 20
100.3597817359
 10
153.5475923579
 20
100.3491234901
 10
153.5590770955
 20
100.337936535
 10
153.5695380816
 20
100.3262672817
 10
153.5789319161
 20
100.314164142
 10
153.5872196262
 20
100.3016773278
 10
153.5943668281
 20
100.2888586429
 10
153.6003438691
 20
100.2757612681
 10
153.6051259517
 20
100.2624395403
 10
153.6086932354
 20
100.2489487272
 10
153.6110309199
 20
100.2353447983
 10
153.6121293058
 20
100.2216841923
  0
LINE
  5
3F1
100
AcDbEntity
  8
ASSI
100
AcDbLine
 62
250
  6
CONTINUOUS
 10
140.5766439618
 20
120.7802628361
 11
140.5259357062
 21
121.0363062667
  0
LINE
  5
3F2
100
AcDbEntity
  8
ASSI
100
AcDbLine
 62
250
  6
CONTINUOUS
 10
140.833705879
 20
120.9900377439
 11
140.7757834129
 21
121.282508205
  0
LWPOLYLINE
  5
3F3
100
AcDbEntity
  8
ASSI
100
AcDbPolyline
 62
250
  6
CONTINUOUS
 90
10
 70
0
 10
140.7757834129
 20
121.282508205
 10
140.7756835371
 20
121.2831002092
 10
140.7755856371
 20
121.2838511308
 10
140.775489713
 20
121.2847609696
 10
140.7753954421
 20
121.2858339201
 10
140.7753031469
 20
121.2870657879
 10
140.7752137959
 20
121.2884439899
 10
140.7751274303
 20
121.2899699352
 10
140.7750440087
 20
121.2916422147
 10
140.7749643754
 20
121.2934440186
  0
LINE
  5
3F4
100
AcDbEntity
  8
ASSI
100
AcDbLine
 62
7
  6
CONTINUOUS
 10
151.290082453
 20
123.9859631998
 11
151.3640631563
 21
124.2460859947
  0
LINE
  5
3F5
100
AcDbEntity
  8
ASSI
100
AcDbLine
 62
250
  6
CONTINUOUS
 10
138.5762596685
 20
97.8221442224
 11
138.5210019063
 21
97.7668864602
  0
LINE
  5
3F6
100
AcDbEntity
  8
ASSI
100
AcDbLine
 62
250
  6
CONTINUOUS
 10
138.876076389
 20
97.5223264467
 11
138.8209464538
 21
97.4671965115
  0
LINE
  5
3F7
100
AcDbEntity
  8
ASSI
100
AcDbLine
 62
7
  6
CONTINUOUS
 10
147.9537527267
 20
103.5375011839
 11
148.007209689
 21
103.5505914856
  0
LWPOLYLINE
  5
3F8
100
AcDbEntity
  8
ASSI
100
AcDbPolyline
 62
7
  6
CONTINUOUS
 90
25
 70
0
 10
147.6996084705
 20
103.5375011839
 10
147.6833513464
 20
103.5370641835
 10
147.6671995422
 20
103.5357511555
 10
147.651153058
 20
103.5335621
 10
147.6351432476
 20
103.5304805331
 10
147.6192387572
 20
103.5265229386
 10
147.6036455248
 20
103.5217387679
 10
147.5884091097
 20
103.516135277
 10
147.5734839527
 20
103.5097052099
 10
147.5589393142
 20
103.5024762508
 10
147.5447451221
 20
103.4944273187
 10
147.5309314487
 20
103.4855794947
 10
147.5176577705
 20
103.4760237058
 10
147.5049339394
 20
103.4657469983
 10
147.4927501036
 20
103.4547623259
 10
147.4812361843
 20
103.4431994774
 10
147.4704201538
 20
103.4310811872
 10
147.4602740397
 20
103.4183847209
 10
147.4508438469
 20
103.4051716642
 10
147.4421115477
 20
103.3914017835
 10
147.4340951697
 20
103.3771153126
 10
147.4268947996
 20
103.3624945377
 10
147.4205437996
 20
103.3476002213
 10
147.4150088075
 20
103.332371601
 10
147.4102898233
 20
103.3168086768
  0
LWPOLYLINE
  5
3F9
100
AcDbEntity
  8
ASSI
100
AcDbPolyline
 62
7
  6
CONTINUOUS
 90
25
 70
0
 10
144.46878259
 20
103.8230244882
 10
144.4850397141
 20
103.8234614886
 10
144.5011915183
 20
103.8247745166
 10
144.5172380025
 20
103.8269635721
 10
144.5332478129
 20
103.8300451391
 10
144.5491523033
 20
103.8340027336
 10
144.5647455357
 20
103.8387869042
 10
144.5799819508
 20
103.8443903952
 10
144.5949071078
 20
103.8508204623
 10
144.6094517463
 20
103.8580494213
 10
144.6236459383
 20
103.8660983534
 10
144.6374596118
 20
103.8749461775
 10
144.65073329
 20
103.8845019663
 10
144.6634571211
 20
103.8947786739
 10
144.6756409569
 20
103.9057633462
 10
144.6871548762
 20
103.9173261947
 10
144.6979709067
 20
103.9294444849
 10
144.7081170207
 20
103.9421409513
 10
144.7175472136
 20
103.955354008
 10
144.7262795128
 20
103.9691238886
 10
144.7342958908
 20
103.9834103596
 10
144.7414962609
 20
103.9980311344
 10
144.7478472609
 20
104.0129254509
 10
144.753382253
 20
104.0281540712
 10
144.7581012372
 20
104.0437169953
  0
LINE
  5
3FA
100
AcDbEntity
  8
ASSI
100
AcDbLine
 62
7
  6
CONTINUOUS
 10
155.7527146386
 20
102.36603441
 11
155.7778306767
 21
102.3662662721
  0
LINE
  5
3FB
100
AcDbEntity
  8
ASSI
100
AcDbLine
 62
7
  6
CONTINUOUS
 10
155.7272736564
 20
102.3659192593
 11
155.7527146386
 21
102.36603441
  0
LINE
  5
3FC
100
AcDbEntity
  8
ASSI
100
AcDbLine
 62
7
  6
CONTINUOUS
 10
155.7272736564
 20
102.3659192593
 11
153.6485534733
 21
102.365904893
  0
LINE
  5
3FD
100
AcDbEntity
  8
ASSI
100
AcDbLine
 62
7
  6
CONTINUOUS
 10
152.8198375872
 20
102.365904893
 11
148.725211092
 21
102.365904893
  0
LINE
  5
3FE
100
AcDbEntity
  8
ASSI
100
AcDbLine
 62
7
  6
CONTINUOUS
 10
143.4431799685
 20
102.365904893
 11
139.3485534733
 21
102.365904893
  0
LINE
  5
3FF
100
AcDbEntity
  8
ASSI
100
AcDbLine
 62
7
  6
CONTINUOUS
 10
136.2383062315
 20
102.4042572309
 11
138.8478965575
 21
102.4042572309
  0
LINE
  5
400
100
AcDbEntity
  8
ASSI
100
AcDbLine
 62
7
  6
CONTINUOUS
 10
139.020494503
 20
102.4042572309
 11
143.4244380797
 21
102.4042572309
  0
LINE
  5
401
100
AcDbEntity
  8
ASSI
100
AcDbLine
 62
7
  6
CONTINUOUS
 10
148.7439529808
 20
102.4042572309
 11
153.1478965575
 21
102.4042572309
  0
LINE
  5
402
100
AcDbEntity
  8
ASSI
100
AcDbLine
 62
7
  6
CONTINUOUS
 10
153.320494503
 20
102.4042572309
 11
155.930084829
 21
102.4042572309
  0
LINE
  5
403
100
AcDbEntity
  8
ASSI
100
AcDbLine
 62
7
  6
CONTINUOUS
 10
144.2146383338
 20
103.5375011839
 11
144.46878259
 21
103.5375011839
  0
LINE
  5
404
100
AcDbEntity
  8
ASSI
100
AcDbLine
 62
7
  6
CONTINUOUS
 10
147.6996084705
 20
103.5375011839
 11
147.9537527267
 21
103.5375011839
  0
LINE
  5
405
100
AcDbEntity
  8
ASSI
100
AcDbLine
 62
7
  6
CONTINUOUS
 10
143.7878538003
 20
103.5505914856
 11
144.1611813715
 21
103.5505914856
  0
LINE
  5
406
100
AcDbEntity
  8
ASSI
100
AcDbLine
 62
7
  6
CONTINUOUS
 10
148.007209689
 20
103.5505914856
 11
148.3805372602
 21
103.5505914856
  0
LINE
  5
407
100
AcDbEntity
  8
ASSI
100
AcDbLine
 62
7
  6
CONTINUOUS
 10
155.930084829
 20
103.5532095459
 11
148.3859281108
 21
103.5532095459
  0
LINE
  5
408
100
AcDbEntity
  8
ASSI
100
AcDbLine
 62
7
  6
CONTINUOUS
 10
143.7824629497
 20
103.5532095459
 11
136.2383062315
 21
103.5532095459
  0
LINE
  5
409
100
AcDbEntity
  8
ASSI
100
AcDbLine
 62
7
  6
CONTINUOUS
 10
157.0341955291
 20
103.5802628361
 11
155.9841955302
 21
103.5802628361
  0
LINE
  5
40A
100
AcDbEntity
  8
ASSI
100
AcDbLine
 62
7
  6
CONTINUOUS
 10
136.1841955302
 20
103.5802628361
 11
135.1341955314
 21
103.5802628361
  0
LINE
  5
40B
100
AcDbEntity
  8
ASSI
100
AcDbLine
 62
7
  6
CONTINUOUS
 10
135.1341955314
 20
103.7802628361
 11
136.1841955302
 21
103.7802628361
  0
LINE
  5
40C
100
AcDbEntity
  8
ASSI
100
AcDbLine
 62
7
  6
CONTINUOUS
 10
155.9841955302
 20
103.7802628361
 11
157.0341955291
 21
103.7802628361
  0
LINE
  5
40D
100
AcDbEntity
  8
ASSI
100
AcDbLine
 62
7
  6
CONTINUOUS
 10
136.2383062315
 20
103.8073161262
 11
143.7824629497
 21
103.8073161262
  0
LINE
  5
40E
100
AcDbEntity
  8
ASSI
100
AcDbLine
 62
7
  6
CONTINUOUS
 10
148.3859281108
 20
103.8073161262
 11
155.930084829
 21
103.8073161262
  0
LINE
  5
40F
100
AcDbEntity
  8
ASSI
100
AcDbLine
 62
7
  6
CONTINUOUS
 10
148.3805372602
 20
103.8099341866
 11
148.007209689
 21
103.8099341866
  0
LINE
  5
410
100
AcDbEntity
  8
ASSI
100
AcDbLine
 62
7
  6
CONTINUOUS
 10
144.1611813715
 20
103.8099341866
 11
143.7878538003
 21
103.8099341866
  0
LINE
  5
411
100
AcDbEntity
  8
ASSI
100
AcDbLine
 62
7
  6
CONTINUOUS
 10
147.9537527267
 20
103.8230244882
 11
147.6996084705
 21
103.8230244882
  0
LINE
  5
412
100
AcDbEntity
  8
ASSI
100
AcDbLine
 62
7
  6
CONTINUOUS
 10
144.46878259
 20
103.8230244882
 11
144.2146383338
 21
103.8230244882
  0
LINE
  5
413
100
AcDbEntity
  8
ASSI
100
AcDbLine
 62
7
  6
CONTINUOUS
 10
136.4283375374
 20
102.3659624316
 11
138.5198375872
 21
102.365904893
  0
LWPOLYLINE
  5
414
100
AcDbEntity
  8
ASSI
100
AcDbPolyline
 62
7
  6
CONTINUOUS
 90
3
 70
0
 10
136.3905603838
 20
102.3662662721
 10
136.4030590271
 20
102.366135938
 10
136.4283375374
 20
102.3659624316
  0
LINE
  5
415
100
AcDbEntity
  8
ASSI
100
AcDbLine
 62
7
  6
CONTINUOUS
 10
144.1611813715
 20
103.5505914856
 11
144.2146383338
 21
103.5375011839
  0
LINE
  5
416
100
AcDbEntity
  8
ASSI
100
AcDbLine
 62
250
  6
CONTINUOUS
 10
138.5210019063
 20
109.593639212
 11
138.5762596685
 21
109.5383814497
  0
LINE
  5
417
100
AcDbEntity
  8
ASSI
100
AcDbLine
 62
250
  6
CONTINUOUS
 10
138.8209464538
 20
109.8933291607
 11
138.876076389
 21
109.8381992254
  0
LWPOLYLINE
  5
418
100
AcDbEntity
  8
ASSI
100
AcDbPolyline
 62
7
  6
CONTINUOUS
 90
25
 70
0
 10
144.7581012372
 20
103.3168086768
 10
144.753382253
 20
103.332371601
 10
144.7478472609
 20
103.3476002213
 10
144.7414962609
 20
103.3624945377
 10
144.7342958908
 20
103.3771153126
 10
144.7262795128
 20
103.3914017835
 10
144.7175472136
 20
103.4051716642
 10
144.7081170207
 20
103.4183847209
 10
144.6979709067
 20
103.4310811872
 10
144.6871548762
 20
103.4431994774
 10
144.6756409569
 20
103.4547623259
 10
144.6634571211
 20
103.4657469983
 10
144.65073329
 20
103.4760237058
 10
144.6374596118
 20
103.4855794947
 10
144.6236459383
 20
103.4944273187
 10
144.6094517463
 20
103.5024762508
 10
144.5949071078
 20
103.5097052099
 10
144.5799819508
 20
103.516135277
 10
144.5647455357
 20
103.5217387679
 10
144.5491523033
 20
103.5265229386
 10
144.5332478129
 20
103.5304805331
 10
144.5172380025
 20
103.5335621
 10
144.5011915183
 20
103.5357511555
 10
144.4850397141
 20
103.5370641835
 10
144.46878259
 20
103.5375011839
  0
LINE
  5
419
100
AcDbEntity
  8
ASSI
100
AcDbLine
 62
7
  6
CONTINUOUS
 10
151.3640631563
 20
83.1144396774
 11
151.290082453
 21
83.3745624723
  0
LINE
  5
41A
100
AcDbEntity
  8
ASSI
100
AcDbLine
 62
250
  6
CONTINUOUS
 10
151.3926076476
 20
121.282508205
 11
151.3346851815
 21
120.9900377439
  0
LINE
  5
41B
100
AcDbEntity
  8
ASSI
100
AcDbLine
 62
7
  6
CONTINUOUS
 10
140.8783086075
 20
83.3745624723
 11
140.8043279042
 21
83.1144396774
  0
LINE
  5
41C
100
AcDbEntity
  8
ASSI
100
AcDbLine
 62
250
  6
CONTINUOUS
 10
153.2923146715
 20
109.8381992254
 11
153.3474446067
 21
109.8933291607
  0
LINE
  5
41D
100
AcDbEntity
  8
ASSI
100
AcDbLine
 62
250
  6
CONTINUOUS
 10
153.592131392
 20
109.5383814497
 11
153.6473891542
 21
109.593639212
  0
LINE
  5
41E
100
AcDbEntity
  8
ASSI
100
AcDbLine
 62
7
  6
CONTINUOUS
 10
144.2146383338
 20
103.8230244882
 11
144.1611813715
 21
103.8099341866
  0
LWPOLYLINE
  5
41F
100
AcDbEntity
  8
ASSI
100
AcDbPolyline
 62
7
  6
CONTINUOUS
 90
13
 70
0
 10
136.3138431272
 20
104.9926185579
 10
136.304859385
 20
104.9922890481
 10
136.2964689069
 20
104.9919384344
 10
136.2887962859
 20
104.9915726371
 10
136.2818703142
 20
104.9911926945
 10
136.2756621996
 20
104.9907975681
 10
136.270210159
 20
104.9903900628
 10
136.265504899
 20
104.9899685786
 10
136.2615557128
 20
104.9895347155
 10
136.2584286976
 20
104.9890960777
 10
136.2561458856
 20
104.9886552002
 10
136.2546852446
 20
104.9882095482
 10
136.2540467744
 20
104.9877591216
  0
LINE
  5
420
100
AcDbEntity
  8
ASSI
100
AcDbLine
 62
7
  6
CONTINUOUS
 10
136.3336221081
 20
104.993213141
 11
136.3138431272
 21
104.9926185579
  0
LINE
  5
421
100
AcDbEntity
  8
ASSI
100
AcDbLine
 62
7
  6
CONTINUOUS
 10
136.3552260672
 20
104.993709609
 11
136.3336221081
 21
104.993213141
  0
LINE
  5
422
100
AcDbEntity
  8
ASSI
100
AcDbLine
 62
7
  6
CONTINUOUS
 10
136.3784055846
 20
104.9941024907
 11
136.3552260672
 21
104.993709609
  0
LINE
  5
423
100
AcDbEntity
  8
ASSI
100
AcDbLine
 62
7
  6
CONTINUOUS
 10
136.4030590271
 20
104.9943897341
 11
136.3784055846
 21
104.9941024907
  0
LINE
  5
424
100
AcDbEntity
  8
ASSI
100
AcDbLine
 62
7
  6
CONTINUOUS
 10
136.4283375373
 20
104.9945632405
 11
136.4030590271
 21
104.9943897341
  0
LINE
  5
425
100
AcDbEntity
  8
ASSI
100
AcDbLine
 62
7
  6
CONTINUOUS
 10
155.930084829
 20
104.9562684412
 11
153.320494503
 21
104.9562684412
  0
LINE
  5
426
100
AcDbEntity
  8
ASSI
100
AcDbLine
 62
7
  6
CONTINUOUS
 10
153.1478965575
 20
104.9562684412
 11
148.7439529808
 21
104.9562684412
  0
LINE
  5
427
100
AcDbEntity
  8
ASSI
100
AcDbLine
 62
7
  6
CONTINUOUS
 10
143.4244380797
 20
104.9562684412
 11
139.020494503
 21
104.9562684412
  0
LINE
  5
428
100
AcDbEntity
  8
ASSI
100
AcDbLine
 62
7
  6
CONTINUOUS
 10
138.8478965575
 20
104.9562684412
 11
136.2383062315
 21
104.9562684412
  0
LINE
  5
429
100
AcDbEntity
  8
ASSI
100
AcDbLine
 62
7
  6
CONTINUOUS
 10
136.4283375373
 20
104.9945632405
 11
138.5198375872
 21
104.9946207791
  0
LINE
  5
42A
100
AcDbEntity
  8
ASSI
100
AcDbLine
 62
7
  6
CONTINUOUS
 10
139.3485534733
 20
104.9946207791
 11
143.4431799685
 21
104.9946207791
  0
LINE
  5
42B
100
AcDbEntity
  8
ASSI
100
AcDbLine
 62
7
  6
CONTINUOUS
 10
148.725211092
 20
104.9946207791
 11
152.8198375872
 21
104.9946207791
  0
LINE
  5
42C
100
AcDbEntity
  8
ASSI
100
AcDbLine
 62
7
  6
CONTINUOUS
 10
155.7400535231
 20
104.9945632405
 11
153.6485534733
 21
104.9946207791
  0
LINE
  5
42D
100
AcDbEntity
  8
ASSI
100
AcDbLine
 62
7
  6
CONTINUOUS
 10
155.7653320334
 20
104.9943897341
 11
155.7400535231
 21
104.9945632405
  0
LINE
  5
42E
100
AcDbEntity
  8
ASSI
100
AcDbLine
 62
7
  6
CONTINUOUS
 10
155.7899854759
 20
104.9941024907
 11
155.7653320334
 21
104.9943897341
  0
LINE
  5
42F
100
AcDbEntity
  8
ASSI
100
AcDbLine
 62
7
  6
CONTINUOUS
 10
155.8131649933
 20
104.993709609
 11
155.7899854759
 21
104.9941024907
  0
LINE
  5
430
100
AcDbEntity
  8
ASSI
100
AcDbLine
 62
7
  6
CONTINUOUS
 10
155.8347689524
 20
104.993213141
 11
155.8131649933
 21
104.993709609
  0
LINE
  5
431
100
AcDbEntity
  8
ASSI
100
AcDbLine
 62
7
  6
CONTINUOUS
 10
148.007209689
 20
103.8099341866
 11
147.9537527267
 21
103.8230244882
  0
LINE
  5
432
100
AcDbEntity
  8
ASSI
100
AcDbLine
 62
250
  6
CONTINUOUS
 10
153.3474446067
 20
97.4671965115
 11
153.2923146715
 21
97.5223264467
  0
LINE
  5
433
100
AcDbEntity
  8
ASSI
100
AcDbLine
 62
250
  6
CONTINUOUS
 10
153.6473891542
 20
97.7668864602
 11
153.592131392
 21
97.8221442224
  0
LWPOLYLINE
  5
434
100
AcDbEntity
  8
ASSI
100
AcDbPolyline
 62
7
  6
CONTINUOUS
 90
25
 70
0
 10
147.4102898233
 20
104.0437169953
 10
147.4150088075
 20
104.0281540712
 10
147.4205437996
 20
104.0129254509
 10
147.4268947996
 20
103.9980311344
 10
147.4340951697
 20
103.9834103596
 10
147.4421115477
 20
103.9691238886
 10
147.4508438469
 20
103.955354008
 10
147.4602740397
 20
103.9421409513
 10
147.4704201538
 20
103.9294444849
 10
147.4812361843
 20
103.9173261947
 10
147.4927501036
 20
103.9057633462
 10
147.5049339394
 20
103.8947786739
 10
147.5176577705
 20
103.8845019663
 10
147.5309314487
 20
103.8749461775
 10
147.5447451221
 20
103.8660983534
 10
147.5589393142
 20
103.8580494213
 10
147.5734839527
 20
103.8508204623
 10
147.5884091097
 20
103.8443903952
 10
147.6036455248
 20
103.8387869042
 10
147.6192387572
 20
103.8340027336
 10
147.6351432476
 20
103.8300451391
 10
147.651153058
 20
103.8269635721
 10
147.6671995422
 20
103.8247745166
 10
147.6833513464
 20
103.8234614886
 10
147.6996084705
 20
103.8230244882
  0
LINE
  5
435
100
AcDbEntity
  8
ASSI
100
AcDbLine
 62
7
  6
CONTINUOUS
 10
140.8043279042
 20
124.2460859947
 11
140.8783086075
 21
123.9859631998
  0
LINE
  5
436
100
AcDbEntity
  8
ASSI
100
AcDbLine
 62
250
  6
CONTINUOUS
 10
151.3346851815
 20
86.3704879283
 11
151.3926076476
 21
86.0780174672
  0
LINE
  5
437
100
AcDbEntity
  8
ASSI
100
AcDbLine
 62
7
  6
CONTINUOUS
 10
149.4757705373
 20
81.5209501303
 11
149.4004770534
 21
83.0115677053
  0
LINE
  5
438
100
AcDbEntity
  8
ASSI
100
AcDbLine
 62
7
  6
CONTINUOUS
 10
149.4757705373
 20
125.8395755418
 11
149.4004770534
 21
124.3489579668
  0
LINE
  5
439
100
AcDbEntity
  8
ASSI
100
AcDbLine
 62
250
  6
CONTINUOUS
 10
151.6424553543
 20
121.0363062667
 11
151.5917470987
 21
120.7802628361
  0
LWPOLYLINE
  5
43A
100
AcDbEntity
  8
ASSI
100
AcDbPolyline
 62
250
  6
CONTINUOUS
 90
25
 70
0
 10
153.3123120577
 20
106.9267094455
 10
153.3316192593
 20
106.9274865922
 10
153.3508463612
 20
106.9291405861
 10
153.369913596
 20
106.931664565
 10
153.3887418595
 20
106.9350480578
 10
153.4072530391
 20
106.9392770275
 10
153.4253703375
 20
106.9443339293
 10
153.4430185915
 20
106.9501977836
 10
153.460124584
 20
106.9568442632
 10
153.4766173472
 20
106.9642457938
 10
153.4924284579
 20
106.9723716687
 10
153.5074923206
 20
106.9811881762
 10
153.5217464397
 20
106.9906587392
 10
153.5351316794
 20
107.0007440672
 10
153.5475925084
 20
107.0114023193
 10
153.5590772305
 20
107.0225892777
 10
153.569538199
 20
107.0342585311
 10
153.5789320147
 20
107.0463616672
 10
153.5872197053
 20
107.0588484739
 10
153.5943668879
 20
107.0716671473
 10
153.6003439109
 20
107.0847645065
 10
153.6051259775
 20
107.0980862145
 10
153.6086932483
 20
107.1115770038
 10
153.6110309238
 20
107.125180905
 10
153.6121293058
 20
107.1388414798
  0
LWPOLYLINE
  5
43B
100
AcDbEntity
  8
ASSI
100
AcDbPolyline
 62
250
  6
CONTINUOUS
 90
25
 70
0
 10
139.0123120577
 20
106.9267094455
 10
139.0316192593
 20
106.9274865922
 10
139.0508463612
 20
106.9291405861
 10
139.069913596
 20
106.931664565
 10
139.0887418595
 20
106.9350480578
 10
139.1072530391
 20
106.9392770275
 10
139.1253703375
 20
106.9443339293
 10
139.1430185915
 20
106.9501977836
 10
139.160124584
 20
106.9568442632
 10
139.1766173472
 20
106.9642457938
 10
139.1924284579
 20
106.9723716687
 10
139.2074923206
 20
106.9811881762
 10
139.2217464397
 20
106.9906587392
 10
139.2351316794
 20
107.0007440672
 10
139.2475925084
 20
107.0114023193
 10
139.2590772305
 20
107.0225892777
 10
139.269538199
 20
107.0342585311
 10
139.2789320147
 20
107.0463616672
 10
139.2872197053
 20
107.0588484739
 10
139.2943668879
 20
107.0716671473
 10
139.3003439109
 20
107.0847645065
 10
139.3051259775
 20
107.0980862145
 10
139.3086932483
 20
107.1115770038
 10
139.3110309238
 20
107.125180905
 10
139.3121293058
 20
107.1388414798
  0
LINE
  5
43C
100
AcDbEntity
  8
ASSI
100
AcDbLine
 62
250
  6
CONTINUOUS
 10
138.5480793094
 20
106.5731560549
 11
139.3203117511
 21
106.5731560549
  0
LINE
  5
43D
100
AcDbEntity
  8
ASSI
100
AcDbLine
 62
250
  6
CONTINUOUS
 10
152.8480793094
 20
106.5731560549
 11
153.6203117511
 21
106.5731560549
  0
LINE
  5
43E
100
AcDbEntity
  8
ASSI
100
AcDbLine
 62
250
  6
CONTINUOUS
 10
139.0123118009
 20
106.9267167999
 11
138.8560792597
 21
106.9267168034
  0
LINE
  5
43F
100
AcDbEntity
  8
ASSI
100
AcDbLine
 62
250
  6
CONTINUOUS
 10
153.3123118009
 20
106.9267167999
 11
153.1560792597
 21
106.9267168034
  0
LWPOLYLINE
  5
440
100
AcDbEntity
  8
ASSI
100
AcDbPolyline
 62
250
  6
CONTINUOUS
 90
25
 70
0
 10
138.8560790028
 20
106.9267094455
 10
138.8367718312
 20
106.9274865904
 10
138.8175447576
 20
106.9291405797
 10
138.798477549
 20
106.9316645518
 10
138.7796493096
 20
106.9350480357
 10
138.7611381514
 20
106.9392769945
 10
138.7430208709
 20
106.9443338841
 10
138.7253726311
 20
106.9501977253
 10
138.7082666491
 20
106.9568441911
 10
138.691773892
 20
106.9642457079
 10
138.6759627833
 20
106.9723715696
 10
138.6608989187
 20
106.9811880647
 10
138.6466447936
 20
106.9906586169
 10
138.6332595443
 20
107.0007439362
 10
138.6207987026
 20
107.011402182
 10
138.609313965
 20
107.0225891371
 10
138.5988529789
 20
107.0342583905
 10
138.5894591444
 20
107.0463615301
 10
138.5811714343
 20
107.0588483443
 10
138.5740242324
 20
107.0716670292
 10
138.5680471914
 20
107.084764404
 10
138.5632651088
 20
107.0980861318
 10
138.559697825
 20
107.1115769449
 10
138.5573601406
 20
107.1251808738
 10
138.5562617547
 20
107.1388414798
  0
LWPOLYLINE
  5
441
100
AcDbEntity
  8
ASSI
100
AcDbPolyline
 62
250
  6
CONTINUOUS
 90
25
 70
0
 10
153.1560790028
 20
106.9267094455
 10
153.1367718312
 20
106.9274865904
 10
153.1175447576
 20
106.9291405797
 10
153.098477549
 20
106.9316645518
 10
153.0796493096
 20
106.9350480357
 10
153.0611381514
 20
106.9392769945
 10
153.0430208709
 20
106.9443338841
 10
153.0253726311
 20
106.9501977253
 10
153.0082666491
 20
106.9568441911
 10
152.991773892
 20
106.9642457079
 10
152.9759627833
 20
106.9723715696
 10
152.9608989187
 20
106.9811880647
 10
152.9466447936
 20
106.9906586169
 10
152.9332595443
 20
107.0007439362
 10
152.9207987026
 20
107.011402182
 10
152.909313965
 20
107.0225891371
 10
152.8988529789
 20
107.0342583905
 10
152.8894591444
 20
107.0463615301
 10
152.8811714343
 20
107.0588483443
 10
152.8740242324
 20
107.0716670292
 10
152.8680471914
 20
107.084764404
 10
152.8632651088
 20
107.0980861318
 10
152.859697825
 20
107.1115769449
 10
152.8573601406
 20
107.1251808738
 10
152.8562617547
 20
107.1388414798
  0
LINE
  5
442
100
AcDbEntity
  8
ASSI
100
AcDbLine
 62
250
  6
CONTINUOUS
 10
151.5917470987
 20
86.5802628361
 11
151.6424553543
 21
86.3242194054
  0
LWPOLYLINE
  5
443
100
AcDbEntity
  8
ASSI
100
AcDbPolyline
 62
250
  6
CONTINUOUS
 90
10
 70
0
 10
151.3926076476
 20
86.0780174672
 10
151.3927075234
 20
86.0774254629
 10
151.3928054234
 20
86.0766745413
 10
151.3929013475
 20
86.0757647025
 10
151.3929956184
 20
86.074691752
 10
151.3930879135
 20
86.0734598843
 10
151.3931772646
 20
86.0720816823
 10
151.3932636302
 20
86.070555737
 10
151.3933470518
 20
86.0688834574
 10
151.3934266851
 20
86.0670816536
  0
LWPOLYLINE
  5
444
100
AcDbEntity
  8
ASSI
100
AcDbPolyline
 62
250
  6
CONTINUOUS
 90
6
 70
0
 10
151.5828172465
 20
88.0559595875
 10
151.5829180708
 20
88.0551632874
 10
151.583017798
 20
88.0533773193
 10
151.5831164281
 20
88.050607366
 10
151.5832142561
 20
88.0468622696
 10
151.583310987
 20
88.0421542555
  0
LWPOLYLINE
  5
445
100
AcDbEntity
  8
ASSI
100
AcDbPolyline
 62
7
  6
CONTINUOUS
 90
31
 70
0
 10
152.033705879
 20
86.3704879283
 10
152.0330795972
 20
86.3797057121
 10
152.0319616395
 20
86.3889879759
 10
152.030341608
 20
86.3983125261
 10
152.0282094444
 20
86.4076521379
 10
152.0255574697
 20
86.4169867593
 10
152.0223802698
 20
86.4263035086
 10
152.0186724787
 20
86.4355739478
 10
152.0144286218
 20
86.444773881
 10
152.0096436888
 20
86.4538950906
 10
152.0043154771
 20
86.4629064638
 10
151.9984414512
 20
86.4717808432
 10
151.9920151619
 20
86.4805132989
 10
151.9850376123
 20
86.4890693149
 10
151.9775092193
 20
86.4974184381
 10
151.9694205964
 20
86.5055576193
 10
151.9607761467
 20
86.5134481579
 10
151.951579933
 20
86.5210552225
 10
151.9418194751
 20
86.5283752141
 10
151.9315032861
 20
86.5353642937
 10
151.9206407708
 20
86.5419818707
 10
151.9092186941
 20
86.548220496
 10
151.8972504504
 20
86.5540307973
 10
151.8847545951
 20
86.5593647602
 10
151.8717256256
 20
86.5642067631
 10
151.8581840622
 20
86.5685024187
 10
151.8441629312
 20
86.5721965083
 10
151.8296792642
 20
86.5752634402
 10
151.8147664018
 20
86.5776548766
 10
151.7994755036
 20
86.5793044053
 10
151.7838581722
 20
86.5801572251
  0
LINE
  5
446
100
AcDbEntity
  8
ASSI
100
AcDbLine
 62
250
  6
CONTINUOUS
 10
151.3934266851
 20
86.0670816536
 11
151.3935745122
 21
86.0630867077
  0
LINE
  5
447
100
AcDbEntity
  8
ASSI
100
AcDbLine
 62
250
  6
CONTINUOUS
 10
151.3340743564
 20
87.7939946939
 11
151.3342192752
 21
87.790006407
  0
LWPOLYLINE
  5
448
100
AcDbEntity
  8
ASSI
100
AcDbPolyline
 62
250
  6
CONTINUOUS
 90
3
 70
0
 10
151.6424553543
 20
86.3242194054
 10
151.6425552805
 20
86.3206928136
 10
151.6426531923
 20
86.3161787154
  0
LINE
  5
449
100
AcDbEntity
  8
ASSI
100
AcDbLine
 62
250
  6
CONTINUOUS
 10
151.3935745122
 20
86.0630867077
 11
151.3937049402
 21
86.0586354453
  0
LINE
  5
44A
100
AcDbEntity
  8
ASSI
100
AcDbLine
 62
250
  6
CONTINUOUS
 10
151.3342192752
 20
87.790006407
 11
151.3343470457
 21
87.7855762067
  0
LINE
  5
44B
100
AcDbEntity
  8
ASSI
100
AcDbLine
 62
250
  6
CONTINUOUS
 10
151.3937049402
 20
86.0586354453
 11
151.3938166456
 21
86.0537730602
  0
LINE
  5
44C
100
AcDbEntity
  8
ASSI
100
AcDbLine
 62
250
  6
CONTINUOUS
 10
151.3343470457
 20
87.7855762067
 11
151.3344564031
 21
87.7807480146
  0
LINE
  5
44D
100
AcDbEntity
  8
ASSI
100
AcDbLine
 62
250
  6
CONTINUOUS
 10
151.3938166456
 20
86.0537730602
 11
151.3939077977
 21
86.0485716961
  0
LINE
  5
44E
100
AcDbEntity
  8
ASSI
100
AcDbLine
 62
250
  6
CONTINUOUS
 10
151.3344564031
 20
87.7807480146
 11
151.3345456042
 21
87.7755915663
  0
LINE
  5
44F
100
AcDbEntity
  8
ASSI
100
AcDbLine
 62
250
  6
CONTINUOUS
 10
151.3939077977
 20
86.0485716961
 11
151.3939771535
 21
86.0431122634
  0
LINE
  5
450
100
AcDbEntity
  8
ASSI
100
AcDbLine
 62
250
  6
CONTINUOUS
 10
151.3345456042
 20
87.7755915663
 11
151.3346134557
 21
87.7701853794
  0
LINE
  5
451
100
AcDbEntity
  8
ASSI
100
AcDbLine
 62
250
  6
CONTINUOUS
 10
151.3939771535
 20
86.0431122634
 11
151.3940240171
 21
86.0374509229
  0
LINE
  5
452
100
AcDbEntity
  8
ASSI
100
AcDbLine
 62
250
  6
CONTINUOUS
 10
151.3346134557
 20
87.7701853794
 11
151.3346736018
 21
87.761751526
  0
LINE
  5
453
100
AcDbEntity
  8
ASSI
100
AcDbLine
 62
250
  6
CONTINUOUS
 10
149.8264605033
 20
81.5527832883
 11
149.8264605033
 21
83.1021612213
  0
LINE
  5
454
100
AcDbEntity
  8
ASSI
100
AcDbLine
 62
250
  6
CONTINUOUS
 10
149.8264605033
 20
124.2583644508
 11
149.8264605033
 21
125.8077423838
  0
LINE
  5
455
100
AcDbEntity
  8
ASSI
100
AcDbLine
 62
250
  6
CONTINUOUS
 10
149.9996655841
 20
81.5580240663
 11
149.9996655841
 21
83.1144396774
  0
LINE
  5
456
100
AcDbEntity
  8
ASSI
100
AcDbLine
 62
250
  6
CONTINUOUS
 10
149.9996655841
 20
124.2460859947
 11
149.9996655841
 21
125.8025016059
  0
LINE
  5
457
100
AcDbEntity
  8
ASSI
100
AcDbLine
 62
250
  6
CONTINUOUS
 10
151.3346736018
 20
119.5987741461
 11
151.3346134557
 21
119.5903402927
  0
LINE
  5
458
100
AcDbEntity
  8
ASSI
100
AcDbLine
 62
250
  6
CONTINUOUS
 10
151.3940240171
 20
121.3230747493
 11
151.3939452749
 21
121.3146544338
  0
LINE
  5
459
100
AcDbEntity
  8
ASSI
100
AcDbLine
 62
250
  6
CONTINUOUS
 10
151.3346134557
 20
119.5903402927
 11
151.3345456042
 21
119.5849341058
  0
LINE
  5
45A
100
AcDbEntity
  8
ASSI
100
AcDbLine
 62
250
  6
CONTINUOUS
 10
151.3939452749
 20
121.3146544338
 11
151.3938647775
 21
121.3093111286
  0
LINE
  5
45B
100
AcDbEntity
  8
ASSI
100
AcDbLine
 62
250
  6
CONTINUOUS
 10
151.3345456042
 20
119.5849341058
 11
151.3344564031
 21
119.5797776575
  0
LINE
  5
45C
100
AcDbEntity
  8
ASSI
100
AcDbLine
 62
250
  6
CONTINUOUS
 10
151.3938647775
 20
121.3093111286
 11
151.3937633488
 21
121.304279254
  0
LINE
  5
45D
100
AcDbEntity
  8
ASSI
100
AcDbLine
 62
250
  6
CONTINUOUS
 10
151.3344564031
 20
119.5797776575
 11
151.3343470457
 21
119.5749494654
  0
LINE
  5
45E
100
AcDbEntity
  8
ASSI
100
AcDbLine
 62
250
  6
CONTINUOUS
 10
151.3937633488
 20
121.304279254
 11
151.3936420105
 21
121.299609766
  0
LINE
  5
45F
100
AcDbEntity
  8
ASSI
100
AcDbLine
 62
250
  6
CONTINUOUS
 10
151.3343470457
 20
119.5749494654
 11
151.3342192752
 21
119.5705192651
  0
LWPOLYLINE
  5
460
100
AcDbEntity
  8
ASSI
100
AcDbPolyline
 62
250
  6
CONTINUOUS
 90
12
 70
0
 10
151.3936420105
 20
121.299609766
 10
151.3935024928
 20
121.2953767294
 10
151.3934266851
 20
121.2934440186
 10
151.3933470518
 20
121.2916422147
 10
151.3932636302
 20
121.2899699352
 10
151.3931772646
 20
121.2884439899
 10
151.3930879135
 20
121.2870657879
 10
151.3929956184
 20
121.2858339201
 10
151.3929013475
 20
121.2847609696
 10
151.3928054234
 20
121.2838511308
 10
151.3927075234
 20
121.2831002092
 10
151.3926076476
 20
121.282508205
  0
LWPOLYLINE
  5
461
100
AcDbEntity
  8
ASSI
100
AcDbPolyline
 62
250
  6
CONTINUOUS
 90
14
 70
0
 10
151.3342192752
 20
119.5705192651
 10
151.3340743564
 20
119.5665309782
 10
151.3339962367
 20
119.5647264966
 10
151.3339143676
 20
119.5630475919
 10
151.3338295596
 20
119.5615108384
 10
151.3337417838
 20
119.5601176639
 10
151.3336510692
 20
119.5588666406
 10
151.3335583132
 20
119.55777006
 10
151.3334634851
 20
119.5568294345
 10
151.3333666156
 20
119.5560432516
 10
151.3332686949
 20
119.5554192651
 10
151.333170053
 20
119.5549600595
 10
151.3330703599
 20
119.5546630502
 10
151.3329696156
 20
119.5545282373
  0
LWPOLYLINE
  5
462
100
AcDbEntity
  8
ASSI
100
AcDbPolyline
 62
7
  6
CONTINUOUS
 90
31
 70
0
 10
152.033705879
 20
120.9900377439
 10
152.0330807275
 20
120.9807813651
 10
152.0319625532
 20
120.9715064992
 10
152.030341608
 20
120.9622131461
 10
152.0282092448
 20
120.9528803507
 10
152.025557758
 20
120.9435290682
 10
152.0223802698
 20
120.9342221635
 10
152.0186722559
 20
120.9249593334
 10
152.0144289413
 20
120.9157408812
 10
152.0096436888
 20
120.9066305816
 10
152.0043152357
 20
120.8976274516
 10
151.998441813
 20
120.8887324742
 10
151.9920151619
 20
120.8800123732
 10
151.985037353
 20
120.8714652108
 10
151.9775096384
 20
120.8630929249
 10
151.9694205964
 20
120.8549680529
 10
151.9607758642
 20
120.8470871596
 10
151.9515804241
 20
120.8394536804
 10
151.9418194751
 20
120.8321504581
 10
151.9315029672
 20
120.8251722663
 10
151.920641341
 20
120.8185243315
 10
151.9092186941
 20
120.8123051762
 10
151.8972500663
 20
120.8065079901
 10
151.8847552197
 20
120.8011395835
 10
151.8717256256
 20
120.7963189091
 10
151.8581835735
 20
120.79203994
 10
151.8441635304
 20
120.7883087031
 10
151.8296792642
 20
120.785262232
 10
151.8147641933
 20
120.7829462045
 10
151.7994727601
 20
120.7813149429
 10
151.7838581722
 20
120.7803684471
  0
LINE
  5
463
100
AcDbEntity
  8
ASSI
100
AcDbLine
 62
7
  6
CONTINUOUS
 10
153.6485534733
 20
104.9946207791
 11
153.6203117511
 21
104.9663790569
  0
LINE
  5
464
100
AcDbEntity
  8
ASSI
100
AcDbLine
 62
7
  6
CONTINUOUS
 10
155.930084829
 20
103.5532095459
 11
155.9841955302
 21
103.5802628361
  0
LWPOLYLINE
  5
465
100
AcDbEntity
  8
ASSI
100
AcDbPolyline
 62
250
  6
CONTINUOUS
 90
25
 70
0
 10
153.2876193448
 20
107.6338162267
 10
153.3069265586
 20
107.6345933743
 10
153.3261536718
 20
107.6362473701
 10
153.345220917
 20
107.6387713518
 10
153.3640491898
 20
107.6421548483
 10
153.3825603774
 20
107.6463838222
 10
153.4006776824
 20
107.6514407288
 10
153.4183259414
 20
107.6573045882
 10
153.4354319374
 20
107.6639510729
 10
153.4519247025
 20
107.6713526086
 10
153.4677358135
 20
107.6794784884
 10
153.4827996749
 20
107.6882950002
 10
153.4970537913
 20
107.6977655669
 10
153.5104390271
 20
107.7078508979
 10
153.522899851
 20
107.718509152
 10
153.534384567
 20
107.7296961112
 10
153.5448455288
 20
107.7413653642
 10
153.5542393374
 20
107.7534684987
 10
153.5625270208
 20
107.7659553024
 10
153.5696741963
 20
107.7787739713
 10
153.5756512128
 20
107.7918713246
 10
153.5804332736
 20
107.8051930253
 10
153.5840005399
 20
107.8186838059
 10
153.5863382123
 20
107.8322876973
 10
153.5874365929
 20
107.845948261
  0
LWPOLYLINE
  5
466
100
AcDbEntity
  8
ASSI
100
AcDbPolyline
 62
250
  6
CONTINUOUS
 90
25
 70
0
 10
138.9876193448
 20
107.6338162267
 10
139.0069265586
 20
107.6345933743
 10
139.0261536718
 20
107.6362473701
 10
139.045220917
 20
107.6387713518
 10
139.0640491898
 20
107.6421548483
 10
139.0825603774
 20
107.6463838222
 10
139.1006776824
 20
107.6514407288
 10
139.1183259414
 20
107.6573045882
 10
139.1354319374
 20
107.6639510729
 10
139.1519247025
 20
107.6713526086
 10
139.1677358135
 20
107.6794784884
 10
139.1827996749
 20
107.6882950002
 10
139.1970537913
 20
107.6977655669
 10
139.2104390271
 20
107.7078508979
 10
139.222899851
 20
107.718509152
 10
139.234384567
 20
107.7296961112
 10
139.2448455288
 20
107.7413653642
 10
139.2542393374
 20
107.7534684987
 10
139.2625270208
 20
107.7659553024
 10
139.2696741963
 20
107.7787739713
 10
139.2756512128
 20
107.7918713246
 10
139.2804332736
 20
107.8051930253
 10
139.2840005399
 20
107.8186838059
 10
139.2863382123
 20
107.8322876973
 10
139.2874365929
 20
107.845948261
  0
LINE
  5
467
100
AcDbEntity
  8
ASSI
100
AcDbLine
 62
250
  6
CONTINUOUS
 10
138.8807717157
 20
107.6338162267
 11
138.9876193448
 21
107.6338162267
  0
LINE
  5
468
100
AcDbEntity
  8
ASSI
100
AcDbLine
 62
250
  6
CONTINUOUS
 10
153.1807717157
 20
107.6338162267
 11
153.2876193448
 21
107.6338162267
  0
LINE
  5
469
100
AcDbEntity
  8
ASSI
100
AcDbLine
 62
250
  6
CONTINUOUS
 10
138.5830000789
 20
107.9873696173
 11
139.2853909816
 21
107.9873696173
  0
LINE
  5
46A
100
AcDbEntity
  8
ASSI
100
AcDbLine
 62
250
  6
CONTINUOUS
 10
152.8830000789
 20
107.9873696173
 11
153.5853909816
 21
107.9873696173
  0
LWPOLYLINE
  5
46B
100
AcDbEntity
  8
ASSI
100
AcDbPolyline
 62
250
  6
CONTINUOUS
 90
25
 70
0
 10
138.8807717157
 20
107.6338162267
 10
138.8614645141
 20
107.6345933734
 10
138.8422374122
 20
107.6362473672
 10
138.8231701774
 20
107.6387713462
 10
138.8043419139
 20
107.642154839
 10
138.7858307343
 20
107.6463838087
 10
138.7677134359
 20
107.6514407105
 10
138.7500651819
 20
107.6573045648
 10
138.7329591894
 20
107.6639510444
 10
138.7164664262
 20
107.671352575
 10
138.7006553155
 20
107.6794784499
 10
138.6855914528
 20
107.6882949574
 10
138.6713373337
 20
107.6977655204
 10
138.657952094
 20
107.7078508484
 10
138.645491265
 20
107.7185091005
 10
138.6340065429
 20
107.7296960589
 10
138.6235455744
 20
107.7413653123
 10
138.6141517588
 20
107.7534684484
 10
138.6058640681
 20
107.7659552551
 10
138.5987168855
 20
107.7787739285
 10
138.5927398625
 20
107.7918712876
 10
138.587957796
 20
107.8051929957
 10
138.5843905251
 20
107.818683785
 10
138.5820528496
 20
107.8322876862
 10
138.5809544676
 20
107.845948261
  0
LWPOLYLINE
  5
46C
100
AcDbEntity
  8
ASSI
100
AcDbPolyline
 62
250
  6
CONTINUOUS
 90
25
 70
0
 10
153.1807717157
 20
107.6338162267
 10
153.1614645141
 20
107.6345933734
 10
153.1422374122
 20
107.6362473672
 10
153.1231701774
 20
107.6387713462
 10
153.1043419139
 20
107.642154839
 10
153.0858307343
 20
107.6463838087
 10
153.0677134359
 20
107.6514407105
 10
153.0500651819
 20
107.6573045648
 10
153.0329591894
 20
107.6639510444
 10
153.0164664262
 20
107.671352575
 10
153.0006553155
 20
107.6794784499
 10
152.9855914528
 20
107.6882949574
 10
152.9713373337
 20
107.6977655204
 10
152.957952094
 20
107.7078508484
 10
152.945491265
 20
107.7185091005
 10
152.9340065429
 20
107.7296960589
 10
152.9235455744
 20
107.7413653123
 10
152.9141517588
 20
107.7534684484
 10
152.9058640681
 20
107.7659552551
 10
152.8987168855
 20
107.7787739285
 10
152.8927398625
 20
107.7918712876
 10
152.887957796
 20
107.8051929957
 10
152.8843905251
 20
107.818683785
 10
152.8820528496
 20
107.8322876862
 10
152.8809544676
 20
107.845948261
  0
LINE
  5
46D
100
AcDbEntity
  8
ASSI
100
AcDbLine
 62
7
  6
CONTINUOUS
 10
155.930084829
 20
103.8073161262
 11
155.9841955302
 21
103.7802628361
  0
LINE
  5
46E
100
AcDbEntity
  8
ASSI
100
AcDbLine
 62
7
  6
CONTINUOUS
 10
153.6203117511
 20
102.3941466152
 11
153.6485534733
 21
102.365904893
  0
LWPOLYLINE
  5
46F
100
AcDbEntity
  8
ASSI
100
AcDbPolyline
 62
250
  6
CONTINUOUS
 90
13
 70
0
 10
153.592131392
 20
97.8221442224
 10
153.5917732747
 20
97.8227691546
 10
153.5914184968
 20
97.8239082339
 10
153.5910670583
 20
97.8255614602
 10
153.5907180337
 20
97.8277358332
 10
153.5903723485
 20
97.8304243532
 10
153.5900327794
 20
97.8336060221
 10
153.5896993928
 20
97.8372847462
 10
153.5893721224
 20
97.8414566191
 10
153.5890535455
 20
97.846088924
 10
153.5887437367
 20
97.8511852353
 10
153.5884426215
 20
97.8567419785
 10
153.5881525544
 20
97.8627157138
  0
LWPOLYLINE
  5
470
100
AcDbEntity
  8
ASSI
100
AcDbPolyline
 62
7
  6
CONTINUOUS
 90
31
 70
0
 10
151.3346851815
 20
120.9900377439
 10
151.3353114633
 20
120.98081996
 10
151.336429421
 20
120.9715376962
 10
151.3380494525
 20
120.9622131461
 10
151.3401816161
 20
120.9528735342
 10
151.3428335908
 20
120.9435389128
 10
151.3460107907
 20
120.9342221635
 10
151.3497185818
 20
120.9249517244
 10
151.3539624387
 20
120.9157517911
 10
151.3587473717
 20
120.9066305816
 10
151.3640755834
 20
120.8976192083
 10
151.3699496093
 20
120.888744829
 10
151.3763758986
 20
120.8800123732
 10
151.3833534482
 20
120.8714563573
 10
151.3908818412
 20
120.863107234
 10
151.3989704641
 20
120.8549680529
 10
151.4076149138
 20
120.8470775142
 10
151.4168111275
 20
120.8394704496
 10
151.4265715854
 20
120.8321504581
 10
151.4368877744
 20
120.8251613784
 10
151.4477502897
 20
120.8185438015
 10
151.4591723664
 20
120.8123051762
 10
151.4711406101
 20
120.8064948749
 10
151.4836364654
 20
120.801160912
 10
151.4966654349
 20
120.7963189091
 10
151.5102069983
 20
120.7920232534
 10
151.5242281293
 20
120.7883291639
 10
151.5387117963
 20
120.785262232
 10
151.5536246587
 20
120.7828707956
 10
151.5689155569
 20
120.7812212669
 10
151.5845328883
 20
120.7803684471
  0
LINE
  5
471
100
AcDbEntity
  8
ASSI
100
AcDbLine
 62
250
  6
CONTINUOUS
 10
151.9749643754
 20
121.2934440186
 11
151.9748165483
 21
121.2974389645
  0
LINE
  5
472
100
AcDbEntity
  8
ASSI
100
AcDbLine
 62
250
  6
CONTINUOUS
 10
152.0343167041
 20
119.5665309782
 11
152.0341717853
 21
119.5705192652
  0
LINE
  5
473
100
AcDbEntity
  8
ASSI
100
AcDbLine
 62
250
  6
CONTINUOUS
 10
152.8546502583
 20
100.2718741268
 11
152.8813663824
 21
99.5017032426
  0
LINE
  5
474
100
AcDbEntity
  8
ASSI
100
AcDbLine
 62
250
  6
CONTINUOUS
 10
151.7259357062
 20
121.0363062667
 11
151.72583578
 21
121.0398328585
  0
LINE
  5
475
100
AcDbEntity
  8
ASSI
100
AcDbLine
 62
250
  6
CONTINUOUS
 10
151.9748165483
 20
121.2974389645
 11
151.9746861203
 21
121.3018902268
  0
LINE
  5
476
100
AcDbEntity
  8
ASSI
100
AcDbLine
 62
250
  6
CONTINUOUS
 10
152.0341717853
 20
119.5705192652
 11
152.0340440148
 21
119.5749494654
  0
LINE
  5
477
100
AcDbEntity
  8
ASSI
100
AcDbLine
 62
250
  6
CONTINUOUS
 10
152.8531770301
 20
100.3267027161
 11
152.8546502583
 21
100.2718741268
  0
LINE
  5
478
100
AcDbEntity
  8
ASSI
100
AcDbLine
 62
250
  6
CONTINUOUS
 10
152.8813663824
 20
99.5017032426
 11
152.881736646
 21
99.4878840651
  0
LINE
  5
479
100
AcDbEntity
  8
ASSI
100
AcDbLine
 62
250
  6
CONTINUOUS
 10
151.9746861203
 20
121.3018902268
 11
151.9745744149
 21
121.3067526119
  0
LINE
  5
47A
100
AcDbEntity
  8
ASSI
100
AcDbLine
 62
250
  6
CONTINUOUS
 10
152.0340440148
 20
119.5749494654
 11
152.0339346574
 21
119.5797776575
  0
LINE
  5
47B
100
AcDbEntity
  8
ASSI
100
AcDbLine
 62
250
  6
CONTINUOUS
 10
152.8512558837
 20
100.4169168486
 11
152.8531770301
 21
100.3267027161
  0
LINE
  5
47C
100
AcDbEntity
  8
ASSI
100
AcDbLine
 62
250
  6
CONTINUOUS
 10
152.881736646
 20
99.4878840651
 11
152.8822107527
 21
99.4655138006
  0
LINE
  5
47D
100
AcDbEntity
  8
ASSI
100
AcDbLine
 62
250
  6
CONTINUOUS
 10
151.72583578
 20
121.0398328585
 11
151.7256419707
 21
121.0498338102
  0
LINE
  5
47E
100
AcDbEntity
  8
ASSI
100
AcDbLine
 62
250
  6
CONTINUOUS
 10
151.7851768044
 20
119.3136634025
 11
151.7849853241
 21
119.3240265555
  0
LINE
  5
47F
100
AcDbEntity
  8
ASSI
100
AcDbLine
 62
250
  6
CONTINUOUS
 10
151.7620877595
 20
83.3213052235
 11
151.7246564543
 21
85.6199857563
  0
LINE
  5
480
100
AcDbEntity
  8
ASSI
100
AcDbLine
 62
250
  6
CONTINUOUS
 10
151.606303301
 20
124.0392204486
 11
151.6437346062
 21
121.7405399158
  0
LINE
  5
481
100
AcDbEntity
  8
ASSI
100
AcDbLine
 62
250
  6
CONTINUOUS
 10
151.9745744149
 20
121.3067526119
 11
151.9744832628
 21
121.311953976
  0
LINE
  5
482
100
AcDbEntity
  8
ASSI
100
AcDbLine
 62
250
  6
CONTINUOUS
 10
152.0339346574
 20
119.5797776575
 11
152.0338454563
 21
119.5849341058
  0
LINE
  5
483
100
AcDbEntity
  8
ASSI
100
AcDbLine
 62
250
  6
CONTINUOUS
 10
151.6426531923
 20
86.3161787154
 11
151.6428432625
 21
86.3042499123
  0
LINE
  5
484
100
AcDbEntity
  8
ASSI
100
AcDbLine
 62
250
  6
CONTINUOUS
 10
151.583310987
 20
88.0421542555
 11
151.5834985369
 21
88.0299156934
  0
LINE
  5
485
100
AcDbEntity
  8
ASSI
100
AcDbLine
 62
250
  6
CONTINUOUS
 10
152.8822107527
 20
99.4655138006
 11
152.8825788421
 21
99.4415599797
  0
LINE
  5
486
100
AcDbEntity
  8
ASSI
100
AcDbLine
 62
250
  6
CONTINUOUS
 10
152.8497565787
 20
100.514389853
 11
152.8512558837
 21
100.4169168486
  0
LINE
  5
487
100
AcDbEntity
  8
ASSI
100
AcDbLine
 62
250
  6
CONTINUOUS
 10
151.3640631563
 20
123.4663806059
 11
151.3939509536
 21
121.6303949328
  0
LINE
  5
488
100
AcDbEntity
  8
ASSI
100
AcDbLine
 62
250
  6
CONTINUOUS
 10
152.0043279042
 20
83.8941450662
 11
151.9744401069
 21
85.7301307393
  0
LINE
  5
489
100
AcDbEntity
  8
ASSI
100
AcDbLine
 62
250
  6
CONTINUOUS
 10
151.9744832628
 20
121.311953976
 11
151.974413907
 21
121.3174134088
  0
LINE
  5
48A
100
AcDbEntity
  8
ASSI
100
AcDbLine
 62
250
  6
CONTINUOUS
 10
152.0338454563
 20
119.5849341058
 11
152.0337776048
 21
119.5903402927
  0
LINE
  5
48B
100
AcDbEntity
  8
ASSI
100
AcDbLine
 62
250
  6
CONTINUOUS
 10
151.7256419707
 20
121.0498338102
 11
151.725366364
 21
121.0719341829
  0
LINE
  5
48C
100
AcDbEntity
  8
ASSI
100
AcDbLine
 62
250
  6
CONTINUOUS
 10
151.7849853241
 20
119.3240265555
 11
151.7847138496
 21
119.3464718091
  0
LINE
  5
48D
100
AcDbEntity
  8
ASSI
100
AcDbLine
 62
250
  6
CONTINUOUS
 10
152.8825788421
 20
99.4415599797
 11
152.8828345379
 21
99.4164371581
  0
LINE
  5
48E
100
AcDbEntity
  8
ASSI
100
AcDbLine
 62
250
  6
CONTINUOUS
 10
151.6428432625
 20
86.3042499123
 11
151.6431946377
 21
86.2694192716
  0
LINE
  5
48F
100
AcDbEntity
  8
ASSI
100
AcDbLine
 62
250
  6
CONTINUOUS
 10
152.8487260357
 20
100.6162689778
 11
152.8497565787
 21
100.514389853
  0
LINE
  5
490
100
AcDbEntity
  8
ASSI
100
AcDbLine
 62
250
  6
CONTINUOUS
 10
151.5834985369
 20
88.0299156934
 11
151.5838438891
 21
87.9947788337
  0
LINE
  5
491
100
AcDbEntity
  8
ASSI
100
AcDbLine
 62
250
  6
CONTINUOUS
 10
151.3939509536
 20
121.6303949328
 11
151.394017761
 21
121.6233870357
  0
LINE
  5
492
100
AcDbEntity
  8
ASSI
100
AcDbLine
 62
250
  6
CONTINUOUS
 10
151.9744401069
 20
85.7301307393
 11
151.9743732995
 21
85.7371386364
  0
LINE
  5
493
100
AcDbEntity
  8
ASSI
100
AcDbLine
 62
250
  6
CONTINUOUS
 10
151.725366364
 20
121.0719341829
 11
151.7249013302
 21
121.1389127501
  0
LINE
  5
494
100
AcDbEntity
  8
ASSI
100
AcDbLine
 62
250
  6
CONTINUOUS
 10
151.7847138496
 20
119.3464718091
 11
151.7842578794
 21
119.4134756733
  0
LINE
  5
495
100
AcDbEntity
  8
ASSI
100
AcDbLine
 62
250
  6
CONTINUOUS
 10
151.974413907
 20
121.3174134088
 11
151.9743524115
 21
121.3259378606
  0
LINE
  5
496
100
AcDbEntity
  8
ASSI
100
AcDbLine
 62
250
  6
CONTINUOUS
 10
152.0337776048
 20
119.5903402927
 11
152.0337174587
 21
119.5987741461
  0
LINE
  5
497
100
AcDbEntity
  8
ASSI
100
AcDbLine
 62
250
  6
CONTINUOUS
 10
152.8828345379
 20
99.4164371581
 11
152.8829734536
 21
99.390598771
  0
LINE
  5
498
100
AcDbEntity
  8
ASSI
100
AcDbLine
 62
250
  6
CONTINUOUS
 10
152.8481789417
 20
100.7193068892
 11
152.8487260357
 21
100.6162689778
  0
LINE
  5
499
100
AcDbEntity
  8
ASSI
100
AcDbLine
 62
250
  6
CONTINUOUS
 10
151.6431946377
 20
86.2694192716
 11
151.64371254
 21
86.1634081689
  0
LINE
  5
49A
100
AcDbEntity
  8
ASSI
100
AcDbLine
 62
250
  6
CONTINUOUS
 10
151.5838438891
 20
87.9947788337
 11
151.5843512702
 21
87.8892465961
  0
LINE
  5
49B
100
AcDbEntity
  8
ASSI
100
AcDbLine
 62
250
  6
CONTINUOUS
 10
152.8828542988
 20
109.3791416259
 11
152.8829907711
 21
109.3487724134
  0
LINE
  5
49C
100
AcDbEntity
  8
ASSI
100
AcDbLine
 62
250
  6
CONTINUOUS
 10
151.394017761
 20
121.6233870357
 11
151.3940484101
 21
121.6161851077
  0
LINE
  5
49D
100
AcDbEntity
  8
ASSI
100
AcDbLine
 62
250
  6
CONTINUOUS
 10
151.9743732995
 20
85.7371386364
 11
151.9743426504
 21
85.7443405645
  0
LINE
  5
49E
100
AcDbEntity
  8
ASSI
100
AcDbLine
 62
250
  6
CONTINUOUS
 10
151.3940240171
 20
86.0374509229
 11
151.3940504897
 21
86.0287770795
  0
LINE
  5
49F
100
AcDbEntity
  8
ASSI
100
AcDbLine
 62
250
  6
CONTINUOUS
 10
151.7249013302
 20
121.1389127501
 11
151.7244958895
 21
121.3143149405
  0
LINE
  5
4A0
100
AcDbEntity
  8
ASSI
100
AcDbLine
 62
250
  6
CONTINUOUS
 10
151.7842578794
 20
119.4134756733
 11
151.7838581722
 21
119.6045206221
  0
LINE
  5
4A1
100
AcDbEntity
  8
ASSI
100
AcDbLine
 62
250
  6
CONTINUOUS
 10
151.3346736018
 20
87.761751526
 11
151.3346851815
 21
86.3704879283
  0
LINE
  5
4A2
100
AcDbEntity
  8
ASSI
100
AcDbLine
 62
7
  6
CONTINUOUS
 10
151.3640631563
 20
83.1144396774
 11
151.3640631563
 21
83.8941450662
  0
LINE
  5
4A3
100
AcDbEntity
  8
ASSI
100
AcDbLine
 62
7
  6
CONTINUOUS
 10
151.3640631563
 20
123.4663806059
 11
151.3640631563
 21
124.2460859947
  0
LINE
  5
4A4
100
AcDbEntity
  8
ASSI
100
AcDbLine
 62
250
  6
CONTINUOUS
 10
151.5843512702
 20
87.8892465961
 11
151.5845328883
 21
86.5801572251
  0
LINE
  5
4A5
100
AcDbEntity
  8
ASSI
100
AcDbLine
 62
250
  6
CONTINUOUS
 10
151.7838581722
 20
119.6045206221
 11
151.7838581722
 21
120.7803684471
  0
LINE
  5
4A6
100
AcDbEntity
  8
ASSI
100
AcDbLine
 62
7
  6
CONTINUOUS
 10
152.0043279042
 20
124.2460859947
 11
152.0043279042
 21
123.4663806059
  0
LINE
  5
4A7
100
AcDbEntity
  8
ASSI
100
AcDbLine
 62
7
  6
CONTINUOUS
 10
152.0043279042
 20
83.8941450662
 11
152.0043279042
 21
83.1144396774
  0
LINE
  5
4A8
100
AcDbEntity
  8
ASSI
100
AcDbLine
 62
250
  6
CONTINUOUS
 10
152.0337174587
 20
119.5987741461
 11
152.033705879
 21
120.9900377439
  0
LINE
  5
4A9
100
AcDbEntity
  8
ASSI
100
AcDbLine
 62
250
  6
CONTINUOUS
 10
152.8480793094
 20
102.3941466152
 11
152.8481789417
 21
100.7193068892
  0
LINE
  5
4AA
100
AcDbEntity
  8
ASSI
100
AcDbLine
 62
250
  6
CONTINUOUS
 10
151.9743524115
 20
121.3259378606
 11
151.9743426504
 21
121.6161851079
  0
LINE
  5
4AB
100
AcDbEntity
  8
ASSI
100
AcDbLine
 62
250
  6
CONTINUOUS
 10
152.8829734536
 20
99.390598771
 11
152.8829907711
 21
98.0117532587
  0
LINE
  5
4AC
100
AcDbEntity
  8
ASSI
100
AcDbLine
 62
250
  6
CONTINUOUS
 10
151.6437346062
 20
121.7405399158
 11
151.6438249222
 21
121.2457242569
  0
LINE
  5
4AD
100
AcDbEntity
  8
ASSI
100
AcDbLine
 62
250
  6
CONTINUOUS
 10
151.64371254
 20
86.1634081689
 11
151.6438249209
 21
85.6607324187
  0
LINE
  5
4AE
100
AcDbEntity
  8
ASSI
100
AcDbLine
 62
250
  6
CONTINUOUS
 10
151.7246564543
 20
85.6199857563
 11
151.7245661383
 21
86.1148014152
  0
LINE
  5
4AF
100
AcDbEntity
  8
ASSI
100
AcDbLine
 62
250
  6
CONTINUOUS
 10
152.8829907711
 20
109.3487724134
 11
152.8829734536
 21
107.969926901
  0
LINE
  5
4B0
100
AcDbEntity
  8
ASSI
100
AcDbLine
 62
250
  6
CONTINUOUS
 10
151.7244958895
 20
121.3143149405
 11
151.7246564543
 21
121.7405399158
  0
LINE
  5
4B1
100
AcDbEntity
  8
ASSI
100
AcDbLine
 62
250
  6
CONTINUOUS
 10
151.6438249209
 20
85.6607324187
 11
151.6437346062
 21
85.6199857563
  0
LINE
  5
4B2
100
AcDbEntity
  8
ASSI
100
AcDbLine
 62
250
  6
CONTINUOUS
 10
151.3346851815
 20
120.9900377439
 11
151.3346736018
 21
119.5987741461
  0
LWPOLYLINE
  5
4B3
100
AcDbEntity
  8
ASSI
100
AcDbPolyline
 62
250
  6
CONTINUOUS
 90
3
 70
0
 10
151.3940484101
 20
121.6161851077
 10
151.394038649
 20
121.3259378606
 10
151.3940240171
 20
121.3230747493
  0
LINE
  5
4B4
100
AcDbEntity
  8
ASSI
100
AcDbLine
 62
250
  6
CONTINUOUS
 10
151.9743426504
 20
85.7443405645
 11
151.9743524115
 21
86.0345878115
  0
LINE
  5
4B5
100
AcDbEntity
  8
ASSI
100
AcDbLine
 62
250
  6
CONTINUOUS
 10
152.033705879
 20
86.3704879283
 11
152.0337174587
 21
87.761751526
  0
LINE
  5
4B6
100
AcDbEntity
  8
ASSI
100
AcDbLine
 62
250
  6
CONTINUOUS
 10
152.8483083674
 20
106.6753918195
 11
152.8480793094
 21
104.9663790569
  0
LINE
  5
4B7
100
AcDbEntity
  8
ASSI
100
AcDbLine
 62
250
  6
CONTINUOUS
 10
151.5845328883
 20
120.7803684471
 11
151.5841948184
 21
119.4270931425
  0
LINE
  5
4B8
100
AcDbEntity
  8
ASSI
100
AcDbLine
 62
250
  6
CONTINUOUS
 10
151.7838581722
 20
86.5801572251
 11
151.7841962421
 21
87.9334325297
  0
LINE
  5
4B9
100
AcDbEntity
  8
ASSI
100
AcDbLine
 62
250
  6
CONTINUOUS
 10
151.3940504897
 20
86.0287770795
 11
151.3940320698
 21
85.7395273651
  0
LINE
  5
4BA
100
AcDbEntity
  8
ASSI
100
AcDbLine
 62
250
  6
CONTINUOUS
 10
151.6438249222
 20
121.2457242569
 11
151.643350196
 21
121.1135337337
  0
LINE
  5
4BB
100
AcDbEntity
  8
ASSI
100
AcDbLine
 62
250
  6
CONTINUOUS
 10
151.7245661383
 20
86.1148014152
 11
151.7250408645
 21
86.2469919384
  0
LINE
  5
4BC
100
AcDbEntity
  8
ASSI
100
AcDbLine
 62
250
  6
CONTINUOUS
 10
151.9743426504
 20
121.6161851079
 11
151.9743732995
 21
121.6233870363
  0
LINE
  5
4BD
100
AcDbEntity
  8
ASSI
100
AcDbLine
 62
250
  6
CONTINUOUS
 10
152.8829907711
 20
98.0117532587
 11
152.8828542988
 21
97.9813840461
  0
LINE
  5
4BE
100
AcDbEntity
  8
ASSI
100
AcDbLine
 62
250
  6
CONTINUOUS
 10
152.8829734536
 20
107.969926901
 11
152.8828345379
 21
107.9440885139
  0
LINE
  5
4BF
100
AcDbEntity
  8
ASSI
100
AcDbLine
 62
250
  6
CONTINUOUS
 10
151.5841948184
 20
119.4270931425
 11
151.583762032
 21
119.3556975832
  0
LINE
  5
4C0
100
AcDbEntity
  8
ASSI
100
AcDbLine
 62
250
  6
CONTINUOUS
 10
151.7841962421
 20
87.9334325297
 11
151.7846290285
 21
88.004828089
  0
LINE
  5
4C1
100
AcDbEntity
  8
ASSI
100
AcDbLine
 62
250
  6
CONTINUOUS
 10
152.8490150828
 20
106.7784776922
 11
152.8483083674
 21
106.6753918195
  0
LINE
  5
4C2
100
AcDbEntity
  8
ASSI
100
AcDbLine
 62
250
  6
CONTINUOUS
 10
152.0337174587
 20
87.761751526
 11
152.0337776048
 21
87.7701853794
  0
LINE
  5
4C3
100
AcDbEntity
  8
ASSI
100
AcDbLine
 62
250
  6
CONTINUOUS
 10
151.9743524115
 20
86.0345878115
 11
151.974413907
 21
86.0431122634
  0
LINE
  5
4C4
100
AcDbEntity
  8
ASSI
100
AcDbLine
 62
250
  6
CONTINUOUS
 10
151.3940320698
 20
85.7395273651
 11
151.3939771067
 21
85.7324279215
  0
LINE
  5
4C5
100
AcDbEntity
  8
ASSI
100
AcDbLine
 62
250
  6
CONTINUOUS
 10
151.643350196
 20
121.1135337337
 11
151.6429354209
 21
121.0636512128
  0
LINE
  5
4C6
100
AcDbEntity
  8
ASSI
100
AcDbLine
 62
250
  6
CONTINUOUS
 10
151.7250408645
 20
86.2469919384
 11
151.7254556396
 21
86.2968744594
  0
LINE
  5
4C7
100
AcDbEntity
  8
ASSI
100
AcDbLine
 62
250
  6
CONTINUOUS
 10
151.9743732995
 20
121.6233870363
 11
151.9744401069
 21
121.6303949332
  0
LINE
  5
4C8
100
AcDbEntity
  8
ASSI
100
AcDbLine
 62
250
  6
CONTINUOUS
 10
152.8828345379
 20
107.9440885139
 11
152.8825788421
 21
107.9189656923
  0
LINE
  5
4C9
100
AcDbEntity
  8
ASSI
100
AcDbLine
 62
250
  6
CONTINUOUS
 10
151.583762032
 20
119.3556975832
 11
151.5834985369
 21
119.3306099787
  0
LINE
  5
4CA
100
AcDbEntity
  8
ASSI
100
AcDbLine
 62
250
  6
CONTINUOUS
 10
151.7846290285
 20
88.004828089
 11
151.7848925236
 21
88.0299156935
  0
LINE
  5
4CB
100
AcDbEntity
  8
ASSI
100
AcDbLine
 62
250
  6
CONTINUOUS
 10
152.8502048868
 20
106.8792356659
 11
152.8490150828
 21
106.7784776922
  0
LINE
  5
4CC
100
AcDbEntity
  8
ASSI
100
AcDbLine
 62
250
  6
CONTINUOUS
 10
152.0337776048
 20
87.7701853794
 11
152.0338454563
 21
87.7755915663
  0
LINE
  5
4CD
100
AcDbEntity
  8
ASSI
100
AcDbLine
 62
250
  6
CONTINUOUS
 10
151.974413907
 20
86.0431122634
 11
151.9744832628
 21
86.0485716961
  0
LWPOLYLINE
  5
4CE
100
AcDbEntity
  8
ASSI
100
AcDbPolyline
 62
250
  6
CONTINUOUS
 90
5
 70
0
 10
151.6429354209
 20
121.0636512128
 10
151.6427490898
 20
121.0498338102
 10
151.6426531923
 20
121.0443469567
 10
151.6425552805
 20
121.0398328585
 10
151.6424553543
 20
121.0363062667
  0
LINE
  5
4CF
100
AcDbEntity
  8
ASSI
100
AcDbLine
 62
250
  6
CONTINUOUS
 10
151.7254556396
 20
86.2968744594
 11
151.7256419707
 21
86.310691862
  0
LINE
  5
4D0
100
AcDbEntity
  8
ASSI
100
AcDbLine
 62
250
  6
CONTINUOUS
 10
151.3939771067
 20
85.7324279215
 11
151.3938868994
 21
85.7256403218
  0
LINE
  5
4D1
100
AcDbEntity
  8
ASSI
100
AcDbLine
 62
250
  6
CONTINUOUS
 10
151.7246564543
 20
121.7405399158
 11
151.7620877595
 21
124.0392204486
  0
LINE
  5
4D2
100
AcDbEntity
  8
ASSI
100
AcDbLine
 62
250
  6
CONTINUOUS
 10
151.9744401069
 20
121.6303949332
 11
152.0043279042
 21
123.4663806059
  0
LINE
  5
4D3
100
AcDbEntity
  8
ASSI
100
AcDbLine
 62
250
  6
CONTINUOUS
 10
151.3938868994
 20
85.7256403218
 11
151.3640631563
 21
83.8941450662
  0
LINE
  5
4D4
100
AcDbEntity
  8
ASSI
100
AcDbLine
 62
250
  6
CONTINUOUS
 10
151.6437346062
 20
85.6199857563
 11
151.606303301
 21
83.3213052235
  0
LWPOLYLINE
  5
4D5
100
AcDbEntity
  8
ASSI
100
AcDbPolyline
 62
250
  6
CONTINUOUS
 90
7
 70
0
 10
151.5834985369
 20
119.3306099787
 10
151.583310987
 20
119.3183714166
 10
151.5832142561
 20
119.3136634025
 10
151.5831164281
 20
119.3099183061
 10
151.583017798
 20
119.3071483528
 10
151.5829180708
 20
119.3053623848
 10
151.5828172465
 20
119.3045660847
  0
LWPOLYLINE
  5
4D6
100
AcDbEntity
  8
ASSI
100
AcDbPolyline
 62
250
  6
CONTINUOUS
 90
7
 70
0
 10
151.7848925236
 20
88.0299156935
 10
151.7850800735
 20
88.0421542556
 10
151.7851768044
 20
88.0468622697
 10
151.7852746324
 20
88.050607366
 10
151.7853732625
 20
88.0533773193
 10
151.7854729897
 20
88.0551632874
 10
151.785573814
 20
88.0559595875
  0
LINE
  5
4D7
100
AcDbEntity
  8
ASSI
100
AcDbLine
 62
250
  6
CONTINUOUS
 10
152.8825788421
 20
107.9189656923
 11
152.8822107527
 21
107.8950118714
  0
LINE
  5
4D8
100
AcDbEntity
  8
ASSI
100
AcDbLine
 62
250
  6
CONTINUOUS
 10
152.0338454563
 20
87.7755915663
 11
152.0339346574
 21
87.7807480146
  0
LINE
  5
4D9
100
AcDbEntity
  8
ASSI
100
AcDbLine
 62
250
  6
CONTINUOUS
 10
151.9744832628
 20
86.0485716961
 11
151.9745744149
 21
86.0537730602
  0
LINE
  5
4DA
100
AcDbEntity
  8
ASSI
100
AcDbLine
 62
250
  6
CONTINUOUS
 10
152.8518511887
 20
106.974594704
 11
152.8502048868
 21
106.8792356659
  0
LWPOLYLINE
  5
4DB
100
AcDbEntity
  8
ASSI
100
AcDbPolyline
 62
250
  6
CONTINUOUS
 90
3
 70
0
 10
151.7256419707
 20
86.310691862
 10
151.72583578
 20
86.3206928136
 10
151.7259357062
 20
86.3242194054
  0
LINE
  5
4DC
100
AcDbEntity
  8
ASSI
100
AcDbLine
 62
250
  6
CONTINUOUS
 10
152.8822107527
 20
107.8950118714
 11
152.881736646
 21
107.8726416069
  0
LINE
  5
4DD
100
AcDbEntity
  8
ASSI
100
AcDbLine
 62
250
  6
CONTINUOUS
 10
152.8531770301
 20
107.0338229572
 11
152.8518511887
 21
106.974594704
  0
LINE
  5
4DE
100
AcDbEntity
  8
ASSI
100
AcDbLine
 62
250
  6
CONTINUOUS
 10
152.0339346574
 20
87.7807480146
 11
152.0340440148
 21
87.7855762068
  0
LINE
  5
4DF
100
AcDbEntity
  8
ASSI
100
AcDbLine
 62
250
  6
CONTINUOUS
 10
151.9745744149
 20
86.0537730602
 11
151.9746861203
 21
86.0586354454
  0
LWPOLYLINE
  5
4E0
100
AcDbEntity
  8
ASSI
100
AcDbPolyline
 62
7
  6
CONTINUOUS
 90
28
 70
0
 10
152.0898157233
 20
119.5273393845
 10
152.0894132878
 20
119.5128720078
 10
152.0881710477
 20
119.4984215145
 10
152.086087664
 20
119.4840369359
 10
152.0831598021
 20
119.4697466085
 10
152.0793943704
 20
119.4556217054
 10
152.0748207022
 20
119.4417728087
 10
152.0694735889
 20
119.4282773897
 10
152.063366343
 20
119.4151452805
 10
152.0565043353
 20
119.4023832598
 10
152.0489086797
 20
119.3900336815
 10
152.0406044008
 20
119.378140038
 10
152.0315950158
 20
119.3667154794
 10
152.0218765284
 20
119.3557732524
 10
152.0115012809
 20
119.3453893481
 10
152.0005672926
 20
119.3356619079
 10
151.9891499727
 20
119.3266428785
 10
151.9772630888
 20
119.318328703
 10
151.9649215143
 20
119.3107239791
 10
151.9521693006
 20
119.303853619
 10
151.9390485505
 20
119.2977381559
 10
151.9255667511
 20
119.2923829225
 10
151.9117354474
 20
119.2878012057
 10
151.8976305562
 20
119.2840266632
 10
151.8833582304
 20
119.2810875556
 10
151.8689879462
 20
119.2789909544
 10
151.8545493067
 20
119.2777340806
 10
151.8400912023
 20
119.2773158866
  0
LWPOLYLINE
  5
4E1
100
AcDbEntity
  8
ASSI
100
AcDbPolyline
 62
7
  6
CONTINUOUS
 90
28
 70
0
 10
151.2785753372
 20
87.8331862876
 10
151.2789777727
 20
87.8476536643
 10
151.2802200128
 20
87.8621041576
 10
151.2823033965
 20
87.8764887363
 10
151.2852312584
 20
87.8907790637
 10
151.28899669
 20
87.9049039668
 10
151.2935703583
 20
87.9187528634
 10
151.2989174716
 20
87.9322482825
 10
151.3050247175
 20
87.9453803917
 10
151.3118867252
 20
87.9581424123
 10
151.3194823807
 20
87.9704919906
 10
151.3277866597
 20
87.9823856341
 10
151.3367960447
 20
87.9938101928
 10
151.3465145321
 20
88.0047524198
 10
151.3568897796
 20
88.0151363241
 10
151.3678237679
 20
88.0248637642
 10
151.3792410878
 20
88.0338827937
 10
151.3911279717
 20
88.0421969691
 10
151.4034695462
 20
88.049801693
 10
151.4162217599
 20
88.0566720531
 10
151.42934251
 20
88.0627875162
 10
151.4428243094
 20
88.0681427497
 10
151.4566556131
 20
88.0727244664
 10
151.4707605043
 20
88.0764990089
 10
151.4850328301
 20
88.0794381166
 10
151.4994031143
 20
88.0815347177
 10
151.5138417538
 20
88.0827915915
 10
151.5282998582
 20
88.0832097856
  0
LINE
  5
4E2
100
AcDbEntity
  8
ASSI
100
AcDbLine
 62
250
  6
CONTINUOUS
 10
152.8546502583
 20
107.0886515474
 11
152.8531770301
 21
107.0338229572
  0
LINE
  5
4E3
100
AcDbEntity
  8
ASSI
100
AcDbLine
 62
250
  6
CONTINUOUS
 10
152.881736646
 20
107.8726416069
 11
152.8813663824
 21
107.8588224294
  0
LWPOLYLINE
  5
4E4
100
AcDbEntity
  8
ASSI
100
AcDbPolyline
 62
7
  6
CONTINUOUS
 90
28
 70
0
 10
152.8210019063
 20
109.593639212
 10
152.8215100482
 20
109.6109678348
 10
152.8230236089
 20
109.6282796756
 10
152.8255448448
 20
109.6455160583
 10
152.8290788395
 20
109.6626444698
 10
152.8336177005
 20
109.6795780559
 10
152.8391251092
 20
109.6961799493
 10
152.8455586287
 20
109.7123560414
 10
152.8529026647
 20
109.728095971
 10
152.8611504795
 20
109.7433915349
 10
152.8702765122
 20
109.758191877
 10
152.8802507625
 20
109.7724452057
 10
152.8910691307
 20
109.7861363206
 10
152.902735989
 20
109.7992489603
 10
152.9151889274
 20
109.8116926685
 10
152.9283120745
 20
109.8233515337
 10
152.94201587
 20
109.8341634879
 10
152.9562835557
 20
109.8441319876
 10
152.971097564
 20
109.8532513688
 10
152.9864051474
 20
109.8614913579
 10
153.0021560994
 20
109.8688270451
 10
153.0183420085
 20
109.875251931
 10
153.034951226
 20
109.8807502159
 10
153.0518907603
 20
109.8852801785
 10
153.0690273458
 20
109.8888064898
 10
153.0862754438
 20
109.891320987
 10
153.1036013796
 20
109.892827948
 10
153.1209464538
 20
109.8933291607
  0
LINE
  5
4E5
100
AcDbEntity
  8
ASSI
100
AcDbLine
 62
250
  6
CONTINUOUS
 10
152.0340440148
 20
87.7855762068
 11
152.0341717853
 21
87.790006407
  0
LINE
  5
4E6
100
AcDbEntity
  8
ASSI
100
AcDbLine
 62
250
  6
CONTINUOUS
 10
151.9746861203
 20
86.0586354454
 11
151.9748165483
 21
86.0630867077
  0
LINE
  5
4E7
100
AcDbEntity
  8
ASSI
100
AcDbLine
 62
250
  6
CONTINUOUS
 10
152.8562617547
 20
107.1388414798
 11
152.8546502583
 21
107.0886515474
  0
LINE
  5
4E8
100
AcDbEntity
  8
ASSI
100
AcDbLine
 62
250
  6
CONTINUOUS
 10
152.8813663824
 20
107.8588224294
 11
152.8562617547
 21
107.1388414798
  0
LWPOLYLINE
  5
4E9
100
AcDbEntity
  8
ASSI
100
AcDbPolyline
 62
250
  6
CONTINUOUS
 90
14
 70
0
 10
152.0341717853
 20
87.790006407
 10
152.0343167041
 20
87.7939946939
 10
152.0343948238
 20
87.7957991755
 10
152.0344766929
 20
87.7974780802
 10
152.0345615009
 20
87.7990148337
 10
152.0346492767
 20
87.8004080082
 10
152.0347399913
 20
87.8016590315
 10
152.0348327473
 20
87.8027556122
 10
152.0349275754
 20
87.8036962377
 10
152.0350244449
 20
87.8044824205
 10
152.0351223656
 20
87.8051064071
 10
152.0352210075
 20
87.8055656127
 10
152.0353207006
 20
87.8058626219
 10
152.0354214449
 20
87.8059974348
  0
LWPOLYLINE
  5
4EA
100
AcDbEntity
  8
ASSI
100
AcDbPolyline
 62
250
  6
CONTINUOUS
 90
11
 70
0
 10
151.9748165483
 20
86.0630867077
 10
151.9749643754
 20
86.0670816536
 10
151.9750440087
 20
86.0688834574
 10
151.9751274303
 20
86.070555737
 10
151.9752137959
 20
86.0720816823
 10
151.975303147
 20
86.0734598843
 10
151.9753954421
 20
86.074691752
 10
151.975489713
 20
86.0757647025
 10
151.9755856371
 20
86.0766745413
 10
151.9756835371
 20
86.0774254629
 10
151.9757834129
 20
86.0780174672
  0
LINE
  5
4EB
100
AcDbEntity
  8
ASSI
100
AcDbLine
 62
250
  6
CONTINUOUS
 10
155.7214288333
 20
123.9859631998
 11
155.7730322041
 21
124.3489579668
  0
LINE
  5
4EC
100
AcDbEntity
  8
ASSI
100
AcDbLine
 62
7
  6
CONTINUOUS
 10
152.8198375872
 20
102.365904893
 11
152.8480793094
 21
102.3941466152
  0
LWPOLYLINE
  5
4ED
100
AcDbEntity
  8
ASSI
100
AcDbPolyline
 62
250
  6
CONTINUOUS
 90
25
 70
0
 10
153.1760769166
 20
109.8381986979
 10
153.1564830822
 20
109.837533895
 10
153.1369730227
 20
109.8355900585
 10
153.1176301538
 20
109.8323754994
 10
153.0985371763
 20
109.8279039619
 10
153.0797757226
 20
109.8221945643
 10
153.0614260082
 20
109.8152717176
 10
153.0435664875
 20
109.8071650209
 10
153.0262735192
 20
109.7979091346
 10
153.0096210399
 20
109.7875436329
 10
152.9936802475
 20
109.7761128341
 10
152.9785192969
 20
109.7636656109
 10
152.9642030091
 20
109.7502551822
 10
152.9507925934
 20
109.7359388847
 10
152.9383453859
 20
109.7207779282
 10
152.9269146048
 20
109.7048371341
 10
152.9165491223
 20
109.6881846577
 10
152.9072932557
 20
109.6708916971
 10
152.8991865785
 20
109.6530321889
 10
152.8922637503
 20
109.6346824919
 10
152.8865543695
 20
109.6159210604
 10
152.8820828463
 20
109.5968281095
 10
152.8788682982
 20
109.5774852712
 10
152.8769244688
 20
109.5579752462
 10
152.8762596685
 20
109.5383814497
  0
LWPOLYLINE
  5
4EE
100
AcDbEntity
  8
ASSI
100
AcDbPolyline
 62
250
  6
CONTINUOUS
 90
25
 70
0
 10
138.8760769166
 20
109.8381986979
 10
138.8564830822
 20
109.837533895
 10
138.8369730227
 20
109.8355900585
 10
138.8176301538
 20
109.8323754994
 10
138.7985371763
 20
109.8279039619
 10
138.7797757226
 20
109.8221945643
 10
138.7614260082
 20
109.8152717176
 10
138.7435664875
 20
109.8071650209
 10
138.7262735192
 20
109.7979091346
 10
138.7096210399
 20
109.7875436329
 10
138.6936802475
 20
109.7761128341
 10
138.6785192969
 20
109.7636656109
 10
138.6642030091
 20
109.7502551822
 10
138.6507925934
 20
109.7359388847
 10
138.6383453859
 20
109.7207779282
 10
138.6269146048
 20
109.7048371341
 10
138.6165491223
 20
109.6881846577
 10
138.6072932557
 20
109.6708916971
 10
138.5991865785
 20
109.6530321889
 10
138.5922637503
 20
109.6346824919
 10
138.5865543695
 20
109.6159210604
 10
138.5820828463
 20
109.5968281095
 10
138.5788682982
 20
109.5774852712
 10
138.5769244688
 20
109.5579752462
 10
138.5762596685
 20
109.5383814497
  0
LINE
  5
4EF
100
AcDbEntity
  8
ASSI
100
AcDbLine
 62
250
  6
CONTINUOUS
 10
138.5830000789
 20
109.3385032843
 11
139.2853909816
 21
109.3385032843
  0
LINE
  5
4F0
100
AcDbEntity
  8
ASSI
100
AcDbLine
 62
250
  6
CONTINUOUS
 10
152.8830000789
 20
109.3385032843
 11
153.5853909816
 21
109.3385032843
  0
LINE
  5
4F1
100
AcDbEntity
  8
ASSI
100
AcDbLine
 62
250
  6
CONTINUOUS
 10
153.2923146715
 20
109.8381992254
 11
153.176076389
 21
109.8381992254
  0
LINE
  5
4F2
100
AcDbEntity
  8
ASSI
100
AcDbLine
 62
250
  6
CONTINUOUS
 10
138.9923146715
 20
109.8381992254
 11
138.876076389
 21
109.8381992254
  0
LINE
  5
4F3
100
AcDbEntity
  8
ASSI
100
AcDbLine
 62
7
  6
CONTINUOUS
 10
138.8209464538
 20
109.8933291607
 11
139.0474446067
 21
109.8933291607
  0
LINE
  5
4F4
100
AcDbEntity
  8
ASSI
100
AcDbLine
 62
7
  6
CONTINUOUS
 10
153.1209464538
 20
109.8933291607
 11
153.3474446067
 21
109.8933291607
  0
LWPOLYLINE
  5
4F5
100
AcDbEntity
  8
ASSI
100
AcDbPolyline
 62
7
  6
CONTINUOUS
 90
28
 70
0
 10
139.0474446067
 20
109.8933291607
 10
139.0647896809
 20
109.892827948
 10
139.0821156167
 20
109.891320987
 10
139.0993637147
 20
109.8888064898
 10
139.1165003002
 20
109.8852801785
 10
139.1334398345
 20
109.8807502159
 10
139.1500490519
 20
109.875251931
 10
139.1662349611
 20
109.8688270451
 10
139.1819859131
 20
109.8614913579
 10
139.1972934965
 20
109.8532513688
 10
139.2121075048
 20
109.8441319876
 10
139.2263751905
 20
109.8341634879
 10
139.240078986
 20
109.8233515337
 10
139.2532021331
 20
109.8116926685
 10
139.2656550714
 20
109.7992489603
 10
139.2773219298
 20
109.7861363206
 10
139.288140298
 20
109.7724452057
 10
139.2981145483
 20
109.758191877
 10
139.307240581
 20
109.7433915349
 10
139.3154883958
 20
109.728095971
 10
139.3228324318
 20
109.7123560414
 10
139.3292659513
 20
109.6961799493
 10
139.33477336
 20
109.6795780559
 10
139.339312221
 20
109.6626444698
 10
139.3428462157
 20
109.6455160583
 10
139.3453674516
 20
109.6282796756
 10
139.3468810123
 20
109.6109678348
 10
139.3473891542
 20
109.593639212
  0
LWPOLYLINE
  5
4F6
100
AcDbEntity
  8
ASSI
100
AcDbPolyline
 62
7
  6
CONTINUOUS
 90
28
 70
0
 10
153.3474446067
 20
109.8933291607
 10
153.3647896809
 20
109.892827948
 10
153.3821156167
 20
109.891320987
 10
153.3993637147
 20
109.8888064898
 10
153.4165003002
 20
109.8852801785
 10
153.4334398345
 20
109.8807502159
 10
153.4500490519
 20
109.875251931
 10
153.4662349611
 20
109.8688270451
 10
153.4819859131
 20
109.8614913579
 10
153.4972934965
 20
109.8532513688
 10
153.5121075048
 20
109.8441319876
 10
153.5263751905
 20
109.8341634879
 10
153.540078986
 20
109.8233515337
 10
153.5532021331
 20
109.8116926685
 10
153.5656550714
 20
109.7992489603
 10
153.5773219298
 20
109.7861363206
 10
153.588140298
 20
109.7724452057
 10
153.5981145483
 20
109.758191877
 10
153.607240581
 20
109.7433915349
 10
153.6154883958
 20
109.728095971
 10
153.6228324318
 20
109.7123560414
 10
153.6292659513
 20
109.6961799493
 10
153.63477336
 20
109.6795780559
 10
153.639312221
 20
109.6626444698
 10
153.6428462157
 20
109.6455160583
 10
153.6453674516
 20
109.6282796756
 10
153.6468810123
 20
109.6109678348
 10
153.6473891542
 20
109.593639212
  0
LWPOLYLINE
  5
4F7
100
AcDbEntity
  8
ASSI
100
AcDbPolyline
 62
250
  6
CONTINUOUS
 90
25
 70
0
 10
138.9923141439
 20
109.8381986979
 10
139.0119079618
 20
109.8375338961
 10
139.031418006
 20
109.8355900627
 10
139.0507608609
 20
109.8323755086
 10
139.0698538258
 20
109.8279039777
 10
139.0886152685
 20
109.822194588
 10
139.106964974
 20
109.8152717502
 10
139.1248244878
 20
109.807165063
 10
139.1421174513
 20
109.7979091867
 10
139.158769928
 20
109.7875436949
 10
139.1747107201
 20
109.7761129055
 10
139.1898716724
 20
109.763665691
 10
139.2041879639
 20
109.7502552698
 10
139.2175983852
 20
109.7359389782
 10
139.2300455997
 20
109.7207780259
 10
139.2414763891
 20
109.7048372338
 10
139.2518418809
 20
109.6881847571
 10
139.2610977572
 20
109.6708917936
 10
139.2692044444
 20
109.6530322798
 10
139.2761272822
 20
109.6346825743
 10
139.2818366718
 20
109.6159211317
 10
139.2863082028
 20
109.5968281667
 10
139.2895227569
 20
109.5774853118
 10
139.2914665903
 20
109.5579752676
 10
139.292131392
 20
109.5383814497
  0
LWPOLYLINE
  5
4F8
100
AcDbEntity
  8
ASSI
100
AcDbPolyline
 62
250
  6
CONTINUOUS
 90
25
 70
0
 10
153.2923141439
 20
109.8381986979
 10
153.3119079618
 20
109.8375338961
 10
153.331418006
 20
109.8355900627
 10
153.3507608609
 20
109.8323755086
 10
153.3698538258
 20
109.8279039777
 10
153.3886152685
 20
109.822194588
 10
153.406964974
 20
109.8152717502
 10
153.4248244878
 20
109.807165063
 10
153.4421174513
 20
109.7979091867
 10
153.458769928
 20
109.7875436949
 10
153.4747107201
 20
109.7761129055
 10
153.4898716724
 20
109.763665691
 10
153.5041879639
 20
109.7502552698
 10
153.5175983852
 20
109.7359389782
 10
153.5300455997
 20
109.7207780259
 10
153.5414763891
 20
109.7048372338
 10
153.5518418809
 20
109.6881847571
 10
153.5610977572
 20
109.6708917936
 10
153.5692044444
 20
109.6530322798
 10
153.5761272822
 20
109.6346825743
 10
153.5818366718
 20
109.6159211317
 10
153.5863082028
 20
109.5968281667
 10
153.5895227569
 20
109.5774853118
 10
153.5914665903
 20
109.5579752676
 10
153.592131392
 20
109.5383814497
  0
LWPOLYLINE
  5
4F9
100
AcDbEntity
  8
ASSI
100
AcDbPolyline
 62
7
  6
CONTINUOUS
 90
14
 70
0
 10
155.9143442861
 20
104.9877591216
 10
155.9137058159
 20
104.9882095482
 10
155.9122451749
 20
104.9886552002
 10
155.9099623629
 20
104.9890960777
 10
155.9068353477
 20
104.9895347155
 10
155.9028861615
 20
104.9899685786
 10
155.8981809014
 20
104.9903900628
 10
155.8927288608
 20
104.9907975681
 10
155.8865207463
 20
104.9911926945
 10
155.8795947746
 20
104.9915726371
 10
155.8719221536
 20
104.9919384344
 10
155.8635316755
 20
104.9922890481
 10
155.8545479333
 20
104.9926185579
 10
155.8347689524
 20
104.993213141
  0
LINE
  5
4FA
100
AcDbEntity
  8
ASSI
100
AcDbLine
 62
7
  6
CONTINUOUS
 10
152.8480793094
 20
104.9663790569
 11
152.8198375872
 21
104.9946207791
  0
LWPOLYLINE
  5
4FB
100
AcDbEntity
  8
ASSI
100
AcDbPolyline
 62
250
  6
CONTINUOUS
 90
13
 70
0
 10
140.8354214449
 20
119.5545282373
 10
140.8353207006
 20
119.5546630502
 10
140.8352210075
 20
119.5549600595
 10
140.8351223656
 20
119.5554192651
 10
140.8350244449
 20
119.5560432516
 10
140.8349275754
 20
119.5568294345
 10
140.8348327473
 20
119.55777006
 10
140.8347399913
 20
119.5588666406
 10
140.8346492767
 20
119.5601176639
 10
140.8345615009
 20
119.5615108384
 10
140.8344766929
 20
119.5630475919
 10
140.8343948238
 20
119.5647264966
 10
140.8343167041
 20
119.5665309782
  0
LWPOLYLINE
  5
4FC
100
AcDbEntity
  8
ASSI
100
AcDbPolyline
 62
250
  6
CONTINUOUS
 90
8
 70
0
 10
153.2923143535
 20
97.522326447
 10
153.291955943
 20
97.523873323
 10
153.2916009681
 20
97.526725601
 10
153.291249429
 20
97.5308758775
 10
153.2909004444
 20
97.5363133255
 10
153.2905548955
 20
97.5430237773
 10
153.2902154262
 20
97.5509898066
 10
153.2898820407
 20
97.560190815
  0
LINE
  5
4FD
100
AcDbEntity
  8
ASSI
100
AcDbLine
 62
250
  6
CONTINUOUS
 10
155.7730322041
 20
83.0115677053
 11
155.7214288333
 21
83.3745624723
  0
LINE
  5
4FE
100
AcDbEntity
  8
ASSI
100
AcDbLine
 62
250
  6
CONTINUOUS
 10
153.1552554797
 20
100.4491193082
 11
153.1560793863
 21
100.4338088723
  0
LINE
  5
4FF
100
AcDbEntity
  8
ASSI
100
AcDbLine
 62
250
  6
CONTINUOUS
 10
153.3131355808
 20
106.911406364
 11
153.3123116742
 21
106.9267167998
  0
LINE
  5
500
100
AcDbEntity
  8
ASSI
100
AcDbLine
 62
250
  6
CONTINUOUS
 10
153.1537140924
 20
100.4819536238
 11
153.1552554797
 21
100.4491193082
  0
LINE
  5
501
100
AcDbEntity
  8
ASSI
100
AcDbLine
 62
250
  6
CONTINUOUS
 10
153.3146769681
 20
106.8785720483
 11
153.3131355808
 21
106.911406364
  0
LINE
  5
502
100
AcDbEntity
  8
ASSI
100
AcDbLine
 62
250
  6
CONTINUOUS
 10
152.8802385061
 20
109.4978099584
 11
152.8807853284
 21
109.4846048242
  0
LINE
  5
503
100
AcDbEntity
  8
ASSI
100
AcDbLine
 62
250
  6
CONTINUOUS
 10
153.5881525544
 20
97.8627157138
 11
153.5876057321
 21
97.875920848
  0
LINE
  5
504
100
AcDbEntity
  8
ASSI
100
AcDbLine
 62
250
  6
CONTINUOUS
 10
153.1523086246
 20
100.5176794359
 11
153.1537140924
 21
100.4819536238
  0
LINE
  5
505
100
AcDbEntity
  8
ASSI
100
AcDbLine
 62
250
  6
CONTINUOUS
 10
153.3160824359
 20
106.8428462362
 11
153.3146769681
 21
106.8785720483
  0
LINE
  5
506
100
AcDbEntity
  8
ASSI
100
AcDbLine
 62
250
  6
CONTINUOUS
 10
153.1560792596
 20
100.4338088722
 11
153.1807717157
 21
99.7267094455
  0
LINE
  5
507
100
AcDbEntity
  8
ASSI
100
AcDbLine
 62
250
  6
CONTINUOUS
 10
153.3123118009
 20
106.9267167999
 11
153.2876193448
 21
107.6338162267
  0
LINE
  5
508
100
AcDbEntity
  8
ASSI
100
AcDbLine
 62
250
  6
CONTINUOUS
 10
152.8807853284
 20
109.4846048242
 11
152.8812815431
 21
109.4698892851
  0
LINE
  5
509
100
AcDbEntity
  8
ASSI
100
AcDbLine
 62
250
  6
CONTINUOUS
 10
153.5876057321
 20
97.875920848
 11
153.5871095174
 21
97.890636387
  0
LINE
  5
50A
100
AcDbEntity
  8
ASSI
100
AcDbLine
 62
250
  6
CONTINUOUS
 10
153.15107288
 20
100.5558530482
 11
153.1523086246
 21
100.5176794359
  0
LINE
  5
50B
100
AcDbEntity
  8
ASSI
100
AcDbLine
 62
250
  6
CONTINUOUS
 10
153.3173181805
 20
106.8046726239
 11
153.3160824359
 21
106.8428462362
  0
LINE
  5
50C
100
AcDbEntity
  8
ASSI
100
AcDbLine
 62
250
  6
CONTINUOUS
 10
153.6137408022
 20
107.0886515453
 11
153.5870246781
 21
107.8588224295
  0
LINE
  5
50D
100
AcDbEntity
  8
ASSI
100
AcDbLine
 62
250
  6
CONTINUOUS
 10
153.2898820407
 20
97.560190815
 11
153.2892361407
 21
97.5821976447
  0
LINE
  5
50E
100
AcDbEntity
  8
ASSI
100
AcDbLine
 62
250
  6
CONTINUOUS
 10
153.1785090198
 20
109.8003348571
 11
153.1791549198
 21
109.7783280275
  0
LINE
  5
50F
100
AcDbEntity
  8
ASSI
100
AcDbLine
 62
250
  6
CONTINUOUS
 10
152.8812815431
 20
109.4698892851
 11
152.8817232588
 21
109.4537788393
  0
LINE
  5
510
100
AcDbEntity
  8
ASSI
100
AcDbLine
 62
250
  6
CONTINUOUS
 10
153.5871095174
 20
97.890636387
 11
153.5866678017
 21
97.9067468329
  0
LINE
  5
511
100
AcDbEntity
  8
ASSI
100
AcDbLine
 62
250
  6
CONTINUOUS
 10
153.6152140304
 20
107.0338229561
 11
153.6137408022
 21
107.0886515453
  0
LINE
  5
512
100
AcDbEntity
  8
ASSI
100
AcDbLine
 62
250
  6
CONTINUOUS
 10
153.5870246781
 20
107.8588224295
 11
153.5866544145
 21
107.872641607
  0
LINE
  5
513
100
AcDbEntity
  8
ASSI
100
AcDbLine
 62
250
  6
CONTINUOUS
 10
153.1500220916
 20
100.5960720125
 11
153.15107288
 21
100.5558530482
  0
LINE
  5
514
100
AcDbEntity
  8
ASSI
100
AcDbLine
 62
250
  6
CONTINUOUS
 10
153.3183689689
 20
106.7644536596
 11
153.3173181805
 21
106.8046726239
  0
LINE
  5
515
100
AcDbEntity
  8
ASSI
100
AcDbLine
 62
250
  6
CONTINUOUS
 10
153.2892361407
 20
97.5821976447
 11
153.2886252876
 21
97.608811717
  0
LINE
  5
516
100
AcDbEntity
  8
ASSI
100
AcDbLine
 62
250
  6
CONTINUOUS
 10
153.1791549198
 20
109.7783280275
 11
153.1797657728
 21
109.7517139551
  0
LINE
  5
517
100
AcDbEntity
  8
ASSI
100
AcDbLine
 62
250
  6
CONTINUOUS
 10
152.8817232588
 20
109.4537788393
 11
152.8821049781
 21
109.4364578378
  0
LINE
  5
518
100
AcDbEntity
  8
ASSI
100
AcDbLine
 62
250
  6
CONTINUOUS
 10
153.5866678017
 20
97.9067468329
 11
153.5862860824
 21
97.9240678343
  0
LINE
  5
519
100
AcDbEntity
  8
ASSI
100
AcDbLine
 62
250
  6
CONTINUOUS
 10
153.6171351768
 20
106.9436088236
 11
153.6152140304
 21
107.0338229561
  0
LINE
  5
51A
100
AcDbEntity
  8
ASSI
100
AcDbLine
 62
250
  6
CONTINUOUS
 10
153.5866544145
 20
107.872641607
 11
153.5861803078
 21
107.8950118716
  0
LINE
  5
51B
100
AcDbEntity
  8
ASSI
100
AcDbLine
 62
250
  6
CONTINUOUS
 10
153.1491763452
 20
100.6377945527
 11
153.1500220916
 21
100.5960720125
  0
LINE
  5
51C
100
AcDbEntity
  8
ASSI
100
AcDbLine
 62
250
  6
CONTINUOUS
 10
153.3192147153
 20
106.7227311195
 11
153.3183689689
 21
106.7644536596
  0
LINE
  5
51D
100
AcDbEntity
  8
ASSI
100
AcDbLine
 62
250
  6
CONTINUOUS
 10
153.2886252876
 20
97.608811717
 11
153.2877884819
 21
97.6567503039
  0
LINE
  5
51E
100
AcDbEntity
  8
ASSI
100
AcDbLine
 62
250
  6
CONTINUOUS
 10
153.1797657728
 20
109.7517139551
 11
153.1806025786
 21
109.7037753682
  0
LINE
  5
51F
100
AcDbEntity
  8
ASSI
100
AcDbLine
 62
250
  6
CONTINUOUS
 10
152.8821049781
 20
109.4364578378
 11
152.8825566627
 21
109.4086245152
  0
LINE
  5
520
100
AcDbEntity
  8
ASSI
100
AcDbLine
 62
250
  6
CONTINUOUS
 10
153.5862860824
 20
97.9240678343
 11
153.5858343978
 21
97.9519011569
  0
LINE
  5
521
100
AcDbEntity
  8
ASSI
100
AcDbLine
 62
250
  6
CONTINUOUS
 10
153.5861803078
 20
107.8950118716
 11
153.5858122184
 21
107.9189656924
  0
LINE
  5
522
100
AcDbEntity
  8
ASSI
100
AcDbLine
 62
250
  6
CONTINUOUS
 10
153.1485434484
 20
100.6804300516
 11
153.1491763452
 21
100.6377945527
  0
LINE
  5
523
100
AcDbEntity
  8
ASSI
100
AcDbLine
 62
250
  6
CONTINUOUS
 10
153.3198476121
 20
106.6800956206
 11
153.3192147153
 21
106.7227311195
  0
LINE
  5
524
100
AcDbEntity
  8
ASSI
100
AcDbLine
 62
250
  6
CONTINUOUS
 10
153.6186344818
 20
106.8461358191
 11
153.6171351768
 21
106.9436088236
  0
LINE
  5
525
100
AcDbEntity
  8
ASSI
100
AcDbLine
 62
250
  6
CONTINUOUS
 10
153.2877884819
 20
97.6567503039
 11
153.2868506091
 21
97.7338222273
  0
LINE
  5
526
100
AcDbEntity
  8
ASSI
100
AcDbLine
 62
250
  6
CONTINUOUS
 10
153.1806025786
 20
109.7037753682
 11
153.1815404514
 21
109.6267034448
  0
LINE
  5
527
100
AcDbEntity
  8
ASSI
100
AcDbLine
 62
250
  6
CONTINUOUS
 10
153.1807717157
 20
99.7267094455
 11
153.1817235157
 21
99.6418113032
  0
LINE
  5
528
100
AcDbEntity
  8
ASSI
100
AcDbLine
 62
250
  6
CONTINUOUS
 10
153.2876193448
 20
107.6338162267
 11
153.2866675448
 21
107.718714369
  0
LINE
  5
529
100
AcDbEntity
  8
ASSI
100
AcDbLine
 62
250
  6
CONTINUOUS
 10
153.5858122184
 20
107.9189656924
 11
153.5855565226
 21
107.9440885141
  0
LINE
  5
52A
100
AcDbEntity
  8
ASSI
100
AcDbLine
 62
250
  6
CONTINUOUS
 10
153.1481257487
 20
100.7234533213
 11
153.1485434484
 21
100.6804300516
  0
LINE
  5
52B
100
AcDbEntity
  8
ASSI
100
AcDbLine
 62
250
  6
CONTINUOUS
 10
153.3202653118
 20
106.6370723508
 11
153.3198476121
 21
106.6800956206
  0
LINE
  5
52C
100
AcDbEntity
  8
ASSI
100
AcDbLine
 62
250
  6
CONTINUOUS
 10
153.6196650248
 20
106.7442566943
 11
153.6186344818
 21
106.8461358191
  0
LINE
  5
52D
100
AcDbEntity
  8
ASSI
100
AcDbLine
 62
250
  6
CONTINUOUS
 10
152.8825566627
 20
109.4086245152
 11
152.8828542988
 21
109.3791416259
  0
LINE
  5
52E
100
AcDbEntity
  8
ASSI
100
AcDbLine
 62
250
  6
CONTINUOUS
 10
153.5858343978
 20
97.9519011569
 11
153.5855367617
 21
97.9813840462
  0
LINE
  5
52F
100
AcDbEntity
  8
ASSI
100
AcDbLine
 62
250
  6
CONTINUOUS
 10
153.1815404514
 20
109.6267034448
 11
153.1823738455
 21
109.513853746
  0
LINE
  5
530
100
AcDbEntity
  8
ASSI
100
AcDbLine
 62
250
  6
CONTINUOUS
 10
153.2868506091
 20
97.7338222273
 11
153.286017215
 21
97.8466719261
  0
LINE
  5
531
100
AcDbEntity
  8
ASSI
100
AcDbLine
 62
250
  6
CONTINUOUS
 10
153.1817235157
 20
99.6418113032
 11
153.1824941672
 21
99.5235001356
  0
LINE
  5
532
100
AcDbEntity
  8
ASSI
100
AcDbLine
 62
250
  6
CONTINUOUS
 10
153.2866675448
 20
107.718714369
 11
153.2858968933
 21
107.8370255366
  0
LINE
  5
533
100
AcDbEntity
  8
ASSI
100
AcDbLine
 62
250
  6
CONTINUOUS
 10
153.5855565226
 20
107.9440885141
 11
153.5854176069
 21
107.9699269011
  0
LINE
  5
534
100
AcDbEntity
  8
ASSI
100
AcDbLine
 62
250
  6
CONTINUOUS
 10
153.6202121188
 20
106.641218783
 11
153.6196650248
 21
106.7442566943
  0
LINE
  5
535
100
AcDbEntity
  8
ASSI
100
AcDbLine
 62
250
  6
CONTINUOUS
 10
153.1479198728
 20
100.7661968043
 11
153.1481257487
 21
100.7234533213
  0
LINE
  5
536
100
AcDbEntity
  8
ASSI
100
AcDbLine
 62
250
  6
CONTINUOUS
 10
153.3204711877
 20
106.5943288679
 11
153.3202653118
 21
106.6370723508
  0
LINE
  5
537
100
AcDbEntity
  8
ASSI
100
AcDbLine
 62
250
  6
CONTINUOUS
 10
153.5855367617
 20
97.9813840462
 11
153.5854002894
 21
98.0117532588
  0
LINE
  5
538
100
AcDbEntity
  8
ASSI
100
AcDbLine
 62
250
  6
CONTINUOUS
 10
153.1823738455
 20
109.513853746
 11
153.1828080036
 21
109.3640709627
  0
LINE
  5
539
100
AcDbEntity
  8
ASSI
100
AcDbLine
 62
250
  6
CONTINUOUS
 10
153.286017215
 20
97.8466719261
 11
153.2855830569
 21
97.9964547094
  0
LINE
  5
53A
100
AcDbEntity
  8
ASSI
100
AcDbLine
 62
250
  6
CONTINUOUS
 10
153.1478965575
 20
102.4042572309
 11
153.1479198728
 21
100.7661968043
  0
LINE
  5
53B
100
AcDbEntity
  8
ASSI
100
AcDbLine
 62
250
  6
CONTINUOUS
 10
153.1824941672
 20
99.5235001356
 11
153.182817327
 21
98.0220378483
  0
LINE
  5
53C
100
AcDbEntity
  8
ASSI
100
AcDbLine
 62
250
  6
CONTINUOUS
 10
153.2858968933
 20
107.8370255366
 11
153.2855737335
 21
109.3384878238
  0
LINE
  5
53D
100
AcDbEntity
  8
ASSI
100
AcDbLine
 62
250
  6
CONTINUOUS
 10
153.320494503
 20
104.9562684412
 11
153.3204711877
 21
106.5943288679
  0
LINE
  5
53E
100
AcDbEntity
  8
ASSI
100
AcDbLine
 62
250
  6
CONTINUOUS
 10
153.3687254764
 20
125.8025016059
 11
153.3687254764
 21
124.2460859947
  0
LINE
  5
53F
100
AcDbEntity
  8
ASSI
100
AcDbLine
 62
250
  6
CONTINUOUS
 10
153.3687254764
 20
83.1144396774
 11
153.3687254764
 21
81.5580240663
  0
LINE
  5
540
100
AcDbEntity
  8
ASSI
100
AcDbLine
 62
250
  6
CONTINUOUS
 10
153.5419305572
 20
125.8077423838
 11
153.5419305572
 21
124.2583644508
  0
LINE
  5
541
100
AcDbEntity
  8
ASSI
100
AcDbLine
 62
250
  6
CONTINUOUS
 10
153.5419305572
 20
83.1021612213
 11
153.5419305572
 21
81.5527832883
  0
LINE
  5
542
100
AcDbEntity
  8
ASSI
100
AcDbLine
 62
250
  6
CONTINUOUS
 10
153.6203117511
 20
104.9663790569
 11
153.6202121188
 21
106.641218783
  0
LINE
  5
543
100
AcDbEntity
  8
ASSI
100
AcDbLine
 62
250
  6
CONTINUOUS
 10
153.5854176069
 20
107.9699269011
 11
153.5854002894
 21
109.3487724134
  0
LINE
  5
544
100
AcDbEntity
  8
ASSI
100
AcDbLine
 62
250
  6
CONTINUOUS
 10
153.5854002894
 20
98.0117532588
 11
153.5854176069
 21
99.3905987712
  0
LINE
  5
545
100
AcDbEntity
  8
ASSI
100
AcDbLine
 62
250
  6
CONTINUOUS
 10
153.1828080036
 20
109.3640709627
 11
153.18257942
 21
107.857970952
  0
LINE
  5
546
100
AcDbEntity
  8
ASSI
100
AcDbLine
 62
250
  6
CONTINUOUS
 10
153.2855830569
 20
97.9964547094
 11
153.2858116405
 21
99.5025547201
  0
LINE
  5
547
100
AcDbEntity
  8
ASSI
100
AcDbLine
 62
250
  6
CONTINUOUS
 10
153.1479962829
 20
106.615651411
 11
153.1478965575
 21
104.9562684412
  0
LINE
  5
548
100
AcDbEntity
  8
ASSI
100
AcDbLine
 62
250
  6
CONTINUOUS
 10
153.3203947776
 20
100.7448742612
 11
153.320494503
 21
102.4042572309
  0
LINE
  5
549
100
AcDbEntity
  8
ASSI
100
AcDbLine
 62
250
  6
CONTINUOUS
 10
153.6200826931
 20
100.6851338526
 11
153.6203117511
 21
102.3941466152
  0
LINE
  5
54A
100
AcDbEntity
  8
ASSI
100
AcDbLine
 62
250
  6
CONTINUOUS
 10
153.1828173436
 20
98.0220378483
 11
153.1824905839
 21
97.8708645853
  0
LINE
  5
54B
100
AcDbEntity
  8
ASSI
100
AcDbLine
 62
250
  6
CONTINUOUS
 10
153.2855737169
 20
109.3384878238
 11
153.2859004766
 21
109.4896610869
  0
LINE
  5
54C
100
AcDbEntity
  8
ASSI
100
AcDbLine
 62
250
  6
CONTINUOUS
 10
153.5854002894
 20
109.3487724134
 11
153.5855367617
 21
109.3791416261
  0
LINE
  5
54D
100
AcDbEntity
  8
ASSI
100
AcDbLine
 62
250
  6
CONTINUOUS
 10
153.5854176069
 20
99.3905987712
 11
153.5855565226
 21
99.4164371582
  0
LINE
  5
54E
100
AcDbEntity
  8
ASSI
100
AcDbLine
 62
250
  6
CONTINUOUS
 10
153.18257942
 20
107.857970952
 11
153.1818815251
 21
107.7373654018
  0
LINE
  5
54F
100
AcDbEntity
  8
ASSI
100
AcDbLine
 62
250
  6
CONTINUOUS
 10
153.2858116405
 20
99.5025547201
 11
153.2865095354
 21
99.6231602704
  0
LINE
  5
550
100
AcDbEntity
  8
ASSI
100
AcDbLine
 62
250
  6
CONTINUOUS
 10
153.1824905839
 20
97.8708645853
 11
153.1817387659
 21
97.7551098924
  0
LINE
  5
551
100
AcDbEntity
  8
ASSI
100
AcDbLine
 62
250
  6
CONTINUOUS
 10
153.2859004766
 20
109.4896610869
 11
153.2866522946
 21
109.6054157797
  0
LINE
  5
552
100
AcDbEntity
  8
ASSI
100
AcDbLine
 62
250
  6
CONTINUOUS
 10
153.1483080707
 20
106.658578131
 11
153.1479962829
 21
106.615651411
  0
LINE
  5
553
100
AcDbEntity
  8
ASSI
100
AcDbLine
 62
250
  6
CONTINUOUS
 10
153.3200829898
 20
100.7019475411
 11
153.3203947776
 21
100.7448742612
  0
LINE
  5
554
100
AcDbEntity
  8
ASSI
100
AcDbLine
 62
250
  6
CONTINUOUS
 10
153.6193759777
 20
100.58204798
 11
153.6200826931
 21
100.6851338526
  0
LINE
  5
555
100
AcDbEntity
  8
ASSI
100
AcDbLine
 62
250
  6
CONTINUOUS
 10
153.5855565226
 20
99.4164371582
 11
153.5858122184
 21
99.4415599799
  0
LINE
  5
556
100
AcDbEntity
  8
ASSI
100
AcDbLine
 62
250
  6
CONTINUOUS
 10
152.8828542988
 20
97.9813840461
 11
152.8825566627
 21
97.9519011568
  0
LINE
  5
557
100
AcDbEntity
  8
ASSI
100
AcDbLine
 62
250
  6
CONTINUOUS
 10
153.5855367617
 20
109.3791416261
 11
153.5858343978
 21
109.4086245153
  0
LWPOLYLINE
  5
558
100
AcDbEntity
  8
ASSI
100
AcDbPolyline
 62
250
  6
CONTINUOUS
 90
3
 70
0
 10
153.1818815251
 20
107.7373654018
 10
153.1809830085
 20
107.6495719527
 10
153.1807717157
 20
107.6338162267
  0
LWPOLYLINE
  5
559
100
AcDbEntity
  8
ASSI
100
AcDbPolyline
 62
250
  6
CONTINUOUS
 90
3
 70
0
 10
153.2865095354
 20
99.6231602704
 10
153.287408052
 20
99.7109537194
 10
153.2876193448
 20
99.7267094455
  0
LINE
  5
55A
100
AcDbEntity
  8
ASSI
100
AcDbLine
 62
250
  6
CONTINUOUS
 10
153.2866522946
 20
109.6054157797
 11
153.2875337634
 21
109.6858226645
  0
LINE
  5
55B
100
AcDbEntity
  8
ASSI
100
AcDbLine
 62
250
  6
CONTINUOUS
 10
153.1817387659
 20
97.7551098924
 11
153.1808572971
 21
97.6747030076
  0
LINE
  5
55C
100
AcDbEntity
  8
ASSI
100
AcDbLine
 62
250
  6
CONTINUOUS
 10
153.1488324796
 20
106.7014945338
 11
153.1483080707
 21
106.658578131
  0
LINE
  5
55D
100
AcDbEntity
  8
ASSI
100
AcDbLine
 62
250
  6
CONTINUOUS
 10
153.3195585809
 20
100.6590311383
 11
153.3200829898
 21
100.7019475411
  0
LINE
  5
55E
100
AcDbEntity
  8
ASSI
100
AcDbLine
 62
250
  6
CONTINUOUS
 10
153.6181861737
 20
100.4812900062
 11
153.6193759777
 21
100.58204798
  0
LINE
  5
55F
100
AcDbEntity
  8
ASSI
100
AcDbLine
 62
250
  6
CONTINUOUS
 10
153.5858122184
 20
99.4415599799
 11
153.5861803078
 21
99.4655138007
  0
LINE
  5
560
100
AcDbEntity
  8
ASSI
100
AcDbLine
 62
250
  6
CONTINUOUS
 10
153.2875337634
 20
109.6858226645
 11
153.2883352597
 21
109.7367643244
  0
LINE
  5
561
100
AcDbEntity
  8
ASSI
100
AcDbLine
 62
250
  6
CONTINUOUS
 10
153.1808572971
 20
97.6747030076
 11
153.1800558008
 21
97.6237613477
  0
LINE
  5
562
100
AcDbEntity
  8
ASSI
100
AcDbLine
 62
250
  6
CONTINUOUS
 10
152.8825566627
 20
97.9519011568
 11
152.8821049781
 21
97.9240678342
  0
LINE
  5
563
100
AcDbEntity
  8
ASSI
100
AcDbLine
 62
250
  6
CONTINUOUS
 10
153.5858343978
 20
109.4086245153
 11
153.5862860824
 21
109.4364578379
  0
LINE
  5
564
100
AcDbEntity
  8
ASSI
100
AcDbLine
 62
250
  6
CONTINUOUS
 10
153.1495738642
 20
106.7437599845
 11
153.1488324796
 21
106.7014945338
  0
LINE
  5
565
100
AcDbEntity
  8
ASSI
100
AcDbLine
 62
250
  6
CONTINUOUS
 10
153.3188171963
 20
100.6167656876
 11
153.3195585809
 21
100.6590311383
  0
LINE
  5
566
100
AcDbEntity
  8
ASSI
100
AcDbLine
 62
250
  6
CONTINUOUS
 10
153.6165398718
 20
100.3859309682
 11
153.6181861737
 21
100.4812900062
  0
LINE
  5
567
100
AcDbEntity
  8
ASSI
100
AcDbLine
 62
250
  6
CONTINUOUS
 10
153.2883352597
 20
109.7367643244
 11
153.2889263584
 21
109.7655805899
  0
LINE
  5
568
100
AcDbEntity
  8
ASSI
100
AcDbLine
 62
250
  6
CONTINUOUS
 10
153.1800558008
 20
97.6237613477
 11
153.1794647021
 21
97.5949450822
  0
LINE
  5
569
100
AcDbEntity
  8
ASSI
100
AcDbLine
 62
250
  6
CONTINUOUS
 10
152.8821049781
 20
97.9240678342
 11
152.8817232588
 21
97.9067468328
  0
LINE
  5
56A
100
AcDbEntity
  8
ASSI
100
AcDbLine
 62
250
  6
CONTINUOUS
 10
153.5862860824
 20
109.4364578379
 11
153.5866678017
 21
109.4537788394
  0
LINE
  5
56B
100
AcDbEntity
  8
ASSI
100
AcDbLine
 62
250
  6
CONTINUOUS
 10
153.5861803078
 20
99.4655138007
 11
153.5866544145
 21
99.4878840652
  0
LINE
  5
56C
100
AcDbEntity
  8
ASSI
100
AcDbLine
 62
250
  6
CONTINUOUS
 10
153.6152140304
 20
100.3267027149
 11
153.6165398718
 21
100.3859309682
  0
LINE
  5
56D
100
AcDbEntity
  8
ASSI
100
AcDbLine
 62
250
  6
CONTINUOUS
 10
153.1505221317
 20
106.7847712183
 11
153.1495738642
 21
106.7437599845
  0
LINE
  5
56E
100
AcDbEntity
  8
ASSI
100
AcDbLine
 62
250
  6
CONTINUOUS
 10
153.3178689288
 20
100.5757544538
 11
153.3188171963
 21
100.6167656876
  0
LWPOLYLINE
  5
56F
100
AcDbEntity
  8
ASSI
100
AcDbPolyline
 62
250
  6
CONTINUOUS
 90
10
 70
0
 10
153.2889263584
 20
109.7655805899
 10
153.2895547349
 20
109.7899230103
 10
153.2898820407
 20
109.8003348572
 10
153.2902154263
 20
109.8095358657
 10
153.2905548955
 20
109.8175018949
 10
153.2909004444
 20
109.8242123468
 10
153.291249429
 20
109.8296497947
 10
153.2916009681
 20
109.8338000712
 10
153.291955943
 20
109.8366523491
 10
153.2923143535
 20
109.8381992252
  0
LWPOLYLINE
  5
570
100
AcDbEntity
  8
ASSI
100
AcDbPolyline
 62
250
  6
CONTINUOUS
 90
10
 70
0
 10
153.1794647021
 20
97.5949450822
 10
153.1788363256
 20
97.5706026618
 10
153.1785090198
 20
97.5601908149
 10
153.1781756342
 20
97.5509898065
 10
153.177836165
 20
97.5430237772
 10
153.1774906161
 20
97.5363133254
 10
153.1771416315
 20
97.5308758775
 10
153.1767900924
 20
97.526725601
 10
153.1764351175
 20
97.523873323
 10
153.1760767069
 20
97.522326447
  0
LINE
  5
571
100
AcDbEntity
  8
ASSI
100
AcDbLine
 62
250
  6
CONTINUOUS
 10
153.5866544145
 20
99.4878840652
 11
153.5870246781
 21
99.5017032427
  0
LINE
  5
572
100
AcDbEntity
  8
ASSI
100
AcDbLine
 62
250
  6
CONTINUOUS
 10
153.6137408022
 20
100.2718741248
 11
153.6152140304
 21
100.3267027149
  0
LINE
  5
573
100
AcDbEntity
  8
ASSI
100
AcDbLine
 62
250
  6
CONTINUOUS
 10
152.8817232588
 20
97.9067468328
 11
152.8812815431
 21
97.8906363869
  0
LINE
  5
574
100
AcDbEntity
  8
ASSI
100
AcDbLine
 62
250
  6
CONTINUOUS
 10
153.5866678017
 20
109.4537788394
 11
153.5871095174
 21
109.4698892852
  0
LWPOLYLINE
  5
575
100
AcDbEntity
  8
ASSI
100
AcDbPolyline
 62
7
  6
CONTINUOUS
 90
28
 70
0
 10
153.6473891542
 20
97.7668864602
 10
153.6468810123
 20
97.7495578373
 10
153.6453674516
 20
97.7322459965
 10
153.6428462157
 20
97.7150096139
 10
153.639312221
 20
97.6978812024
 10
153.63477336
 20
97.6809476163
 10
153.6292659513
 20
97.6643457229
 10
153.6228324318
 20
97.6481696307
 10
153.6154883958
 20
97.6324297011
 10
153.607240581
 20
97.6171341373
 10
153.5981145483
 20
97.6023337952
 10
153.588140298
 20
97.5880804664
 10
153.5773219298
 20
97.5743893515
 10
153.5656550714
 20
97.5612767118
 10
153.5532021331
 20
97.5488330036
 10
153.540078986
 20
97.5371741384
 10
153.5263751905
 20
97.5263621842
 10
153.5121075048
 20
97.5163936845
 10
153.4972934965
 20
97.5072743034
 10
153.4819859131
 20
97.4990343142
 10
153.4662349611
 20
97.491698627
 10
153.4500490519
 20
97.4852737411
 10
153.4334398345
 20
97.4797754562
 10
153.4165003002
 20
97.4752454937
 10
153.3993637147
 20
97.4717191824
 10
153.3821156167
 20
97.4692046852
 10
153.3647896809
 20
97.4676977241
 10
153.3474446067
 20
97.4671965115
  0
LINE
  5
576
100
AcDbEntity
  8
ASSI
100
AcDbLine
 62
250
  6
CONTINUOUS
 10
153.1516680765
 20
106.8240418087
 11
153.1505221317
 21
106.7847712183
  0
LINE
  5
577
100
AcDbEntity
  8
ASSI
100
AcDbLine
 62
250
  6
CONTINUOUS
 10
153.316722984
 20
100.5364838634
 11
153.3178689288
 21
100.5757544538
  0
LINE
  5
578
100
AcDbEntity
  8
ASSI
100
AcDbLine
 62
250
  6
CONTINUOUS
 10
153.6121293058
 20
100.2216841923
 11
153.6137408022
 21
100.2718741248
  0
LINE
  5
579
100
AcDbEntity
  8
ASSI
100
AcDbLine
 62
250
  6
CONTINUOUS
 10
153.1807717157
 20
107.6338162267
 11
153.1560792597
 21
106.9267168034
  0
LINE
  5
57A
100
AcDbEntity
  8
ASSI
100
AcDbLine
 62
250
  6
CONTINUOUS
 10
153.2876193448
 20
99.7267094455
 11
153.3123118008
 21
100.4338088688
  0
LINE
  5
57B
100
AcDbEntity
  8
ASSI
100
AcDbLine
 62
250
  6
CONTINUOUS
 10
153.5870246781
 20
99.5017032427
 11
153.6121293058
 21
100.2216841923
  0
LINE
  5
57C
100
AcDbEntity
  8
ASSI
100
AcDbLine
 62
250
  6
CONTINUOUS
 10
152.8812815431
 20
97.8906363869
 11
152.8807853283
 21
97.8759208479
  0
LINE
  5
57D
100
AcDbEntity
  8
ASSI
100
AcDbLine
 62
250
  6
CONTINUOUS
 10
153.5871095174
 20
109.4698892852
 11
153.5876057321
 21
109.4846048243
  0
LINE
  5
57E
100
AcDbEntity
  8
ASSI
100
AcDbLine
 62
250
  6
CONTINUOUS
 10
153.1529936207
 20
106.8610557043
 11
153.1516680765
 21
106.8240418087
  0
LINE
  5
57F
100
AcDbEntity
  8
ASSI
100
AcDbLine
 62
250
  6
CONTINUOUS
 10
153.3153974398
 20
100.4994699678
 11
153.316722984
 21
100.5364838634
  0
LWPOLYLINE
  5
580
100
AcDbEntity
  8
ASSI
100
AcDbPolyline
 62
250
  6
CONTINUOUS
 90
14
 70
0
 10
152.8807853283
 20
97.8759208479
 10
152.8802385061
 20
97.8627157137
 10
152.879948439
 20
97.8567419785
 10
152.8796473238
 20
97.8511852352
 10
152.8793375149
 20
97.846088924
 10
152.8790189381
 20
97.8414566191
 10
152.8786916677
 20
97.8372847461
 10
152.8783582811
 20
97.8336060221
 10
152.878018712
 20
97.8304243532
 10
152.8776730268
 20
97.8277358331
 10
152.8773240022
 20
97.8255614602
 10
152.8769725637
 20
97.8239082338
 10
152.8766177858
 20
97.8227691546
 10
152.8762596685
 20
97.8221442224
  0
LWPOLYLINE
  5
581
100
AcDbEntity
  8
ASSI
100
AcDbPolyline
 62
250
  6
CONTINUOUS
 90
14
 70
0
 10
153.5876057321
 20
109.4846048243
 10
153.5881525544
 20
109.4978099584
 10
153.5884426215
 20
109.5037836937
 10
153.5887437367
 20
109.5093404369
 10
153.5890535455
 20
109.5144367482
 10
153.5893721224
 20
109.5190690531
 10
153.5896993928
 20
109.523240926
 10
153.5900327794
 20
109.5269196501
 10
153.5903723485
 20
109.530101319
 10
153.5907180337
 20
109.532789839
 10
153.5910670583
 20
109.5349642119
 10
153.5914184968
 20
109.5366174383
 10
153.5917732747
 20
109.5377565176
 10
153.592131392
 20
109.5383814497
  0
LWPOLYLINE
  5
582
100
AcDbEntity
  8
ASSI
100
AcDbPolyline
 62
250
  6
CONTINUOUS
 90
4
 70
0
 10
153.1560793864
 20
106.9267168033
 10
153.1552554796
 20
106.9114063664
 10
153.1544670481
 20
106.8953532799
 10
153.1529936207
 20
106.8610557043
  0
LWPOLYLINE
  5
583
100
AcDbEntity
  8
ASSI
100
AcDbPolyline
 62
250
  6
CONTINUOUS
 90
4
 70
0
 10
153.3123116741
 20
100.4338088689
 10
153.3131355809
 20
100.4491193058
 10
153.3139240124
 20
100.4651723923
 10
153.3153974398
 20
100.4994699678
  0
LINE
  5
584
100
AcDbEntity
  8
ASSI
100
AcDbLine
 62
250
  6
CONTINUOUS
 10
155.9213983731
 20
123.7874539753
 11
155.972941022
 21
124.1500216045
  0
LWPOLYLINE
  5
585
100
AcDbEntity
  8
ASSI
100
AcDbPolyline
 62
250
  6
CONTINUOUS
 90
8
 70
0
 10
153.1760767069
 20
109.8381992252
 10
153.1764351175
 20
109.8366523491
 10
153.1767900924
 20
109.8338000711
 10
153.1771416315
 20
109.8296497946
 10
153.1774906161
 20
109.8242123467
 10
153.177836165
 20
109.8175018948
 10
153.1781756342
 20
109.8095358656
 10
153.1785090198
 20
109.8003348571
  0
LINE
  5
586
100
AcDbEntity
  8
ASSI
100
AcDbLine
 62
250
  6
CONTINUOUS
 10
155.972941022
 20
83.2105040677
 11
155.9213983731
 21
83.5730716969
  0
LWPOLYLINE
  5
587
100
AcDbEntity
  8
ASSI
100
AcDbPolyline
 62
250
  6
CONTINUOUS
 90
5
 70
0
 10
151.785573814
 20
119.3045660847
 10
151.7854729897
 20
119.3053623848
 10
151.7853732625
 20
119.3071483528
 10
151.7852746324
 20
119.3099183061
 10
151.7851768044
 20
119.3136634025
  0
LINE
  5
588
100
AcDbEntity
  8
ASSI
100
AcDbLine
 62
7
  6
CONTINUOUS
 10
153.8926205232
 20
125.8395755418
 11
153.967914007
 21
124.3489579668
  0
LINE
  5
589
100
AcDbEntity
  8
ASSI
100
AcDbLine
 62
7
  6
CONTINUOUS
 10
155.972941022
 20
124.1500216045
 11
155.9841955302
 21
116.7802628361
  0
LINE
  5
58A
100
AcDbEntity
  8
ASSI
100
AcDbLine
 62
250
  6
CONTINUOUS
 10
155.9213983731
 20
83.5730716969
 11
155.9177971218
 21
89.5802628361
  0
LINE
  5
58B
100
AcDbEntity
  8
ASSI
100
AcDbLine
 62
7
  6
CONTINUOUS
 10
155.5841955302
 20
117.7802628361
 11
155.5841955302
 21
113.9802628361
  0
LINE
  5
58C
100
AcDbEntity
  8
ASSI
100
AcDbLine
 62
7
  6
CONTINUOUS
 10
155.5841955302
 20
89.5802628361
 11
155.5841955302
 21
93.3802628361
  0
LINE
  5
58D
100
AcDbEntity
  8
ASSI
100
AcDbLine
 62
250
  6
CONTINUOUS
 10
155.7162016379
 20
93.3802628361
 11
155.7143750378
 21
102.365904893
  0
LINE
  5
58E
100
AcDbEntity
  8
ASSI
100
AcDbLine
 62
250
  6
CONTINUOUS
 10
155.7214288333
 20
83.3745624723
 11
155.7178247882
 21
89.5802628361
  0
LINE
  5
58F
100
AcDbEntity
  8
ASSI
100
AcDbLine
 62
250
  6
CONTINUOUS
 10
155.9161726679
 20
93.3802628361
 11
155.9143442861
 21
102.3727665505
  0
LINE
  5
590
100
AcDbEntity
  8
ASSI
100
AcDbLine
 62
7
  6
CONTINUOUS
 10
155.930084829
 20
103.5532095459
 11
155.930084829
 21
102.4042572309
  0
LINE
  5
591
100
AcDbEntity
  8
ASSI
100
AcDbLine
 62
7
  6
CONTINUOUS
 10
155.930084829
 20
103.8073161262
 11
155.930084829
 21
104.9562684412
  0
LINE
  5
592
100
AcDbEntity
  8
ASSI
100
AcDbLine
 62
7
  6
CONTINUOUS
 10
155.9673186312
 20
117.7802628361
 11
155.9673186312
 21
113.9802628361
  0
LINE
  5
593
100
AcDbEntity
  8
ASSI
100
AcDbLine
 62
7
  6
CONTINUOUS
 10
155.9673186312
 20
89.5802628361
 11
155.9673186312
 21
93.3802628361
  0
LINE
  5
594
100
AcDbEntity
  8
ASSI
100
AcDbLine
 62
7
  6
CONTINUOUS
 10
155.9841955302
 20
103.5802628361
 11
155.9841955302
 21
90.5802628361
  0
LINE
  5
595
100
AcDbEntity
  8
ASSI
100
AcDbLine
 62
7
  6
CONTINUOUS
 10
155.9841955302
 20
103.7802628361
 11
155.9841955302
 21
116.7802628361
  0
LINE
  5
596
100
AcDbEntity
  8
ASSI
100
AcDbLine
 62
250
  6
CONTINUOUS
 10
155.7143750378
 20
104.9946207791
 11
155.7162016379
 21
113.9802628361
  0
LINE
  5
597
100
AcDbEntity
  8
ASSI
100
AcDbLine
 62
250
  6
CONTINUOUS
 10
155.9143442861
 20
104.9877591216
 11
155.9161726679
 21
113.9802628361
  0
LINE
  5
598
100
AcDbEntity
  8
ASSI
100
AcDbLine
 62
250
  6
CONTINUOUS
 10
155.7178247882
 20
117.7802628361
 11
155.7214288333
 21
123.9859631998
  0
LINE
  5
599
100
AcDbEntity
  8
ASSI
100
AcDbLine
 62
250
  6
CONTINUOUS
 10
155.9177971218
 20
117.7802628361
 11
155.9213983731
 21
123.7874539753
  0
LINE
  5
59A
100
AcDbEntity
  8
ASSI
100
AcDbLine
 62
7
  6
CONTINUOUS
 10
155.972941022
 20
83.2105040677
 11
155.9841955302
 21
90.5802628361
  0
LINE
  5
59B
100
AcDbEntity
  8
ASSI
100
AcDbLine
 62
7
  6
CONTINUOUS
 10
153.8926205232
 20
81.5209501303
 11
153.967914007
 21
83.0115677053
  0
LINE
  5
59C
100
AcDbEntity
  8
ASSI
100
AcDbLine
 62
250
  6
CONTINUOUS
 10
151.7259357062
 20
86.3242194054
 11
151.7766439618
 21
86.5802628361
  0
LINE
  5
59D
100
AcDbEntity
  8
ASSI
100
AcDbLine
 62
250
  6
CONTINUOUS
 10
151.9757834129
 20
86.0780174672
 11
152.033705879
 21
86.3704879283
  0
LINE
  5
59E
100
AcDbEntity
  8
ASSI
100
AcDbLine
 62
7
  6
CONTINUOUS
 10
155.9143442861
 20
102.3727665505
 11
155.930084829
 21
102.4042572309
  0
LINE
  5
59F
100
AcDbEntity
  8
ASSI
100
AcDbLine
 62
250
  6
CONTINUOUS
 10
152.8762596685
 20
97.8221442224
 11
152.8210019063
 21
97.7668864602
  0
LINE
  5
5A0
100
AcDbEntity
  8
ASSI
100
AcDbLine
 62
250
  6
CONTINUOUS
 10
153.176076389
 20
97.5223264467
 11
153.1209464538
 21
97.4671965115
  0
LINE
  5
5A1
100
AcDbEntity
  8
ASSI
100
AcDbLine
 62
250
  6
CONTINUOUS
 10
152.8210019063
 20
109.593639212
 11
152.8762596685
 21
109.5383814497
  0
LINE
  5
5A2
100
AcDbEntity
  8
ASSI
100
AcDbLine
 62
250
  6
CONTINUOUS
 10
153.1209464538
 20
109.8933291607
 11
153.176076389
 21
109.8381992254
  0
LWPOLYLINE
  5
5A3
100
AcDbEntity
  8
ASSI
100
AcDbPolyline
 62
250
  6
CONTINUOUS
 90
13
 70
0
 10
152.8762596685
 20
109.5383814497
 10
152.8766177858
 20
109.5377565176
 10
152.8769725637
 20
109.5366174383
 10
152.8773240022
 20
109.5349642119
 10
152.8776730268
 20
109.532789839
 10
152.878018712
 20
109.5301013189
 10
152.8783582811
 20
109.52691965
 10
152.8786916677
 20
109.523240926
 10
152.8790189381
 20
109.519069053
 10
152.879337515
 20
109.5144367481
 10
152.8796473238
 20
109.5093404369
 10
152.879948439
 20
109.5037836936
 10
152.8802385061
 20
109.4978099584
  0
LINE
  5
5A4
100
AcDbEntity
  8
ASSI
100
AcDbLine
 62
7
  6
CONTINUOUS
 10
155.930084829
 20
104.9562684412
 11
155.9143442861
 21
104.9877591216
  0
LINE
  5
5A5
100
AcDbEntity
  8
ASSI
100
AcDbLine
 62
250
  6
CONTINUOUS
 10
151.7766439618
 20
120.7802628361
 11
151.7259357062
 21
121.0363062667
  0
LINE
  5
5A6
100
AcDbEntity
  8
ASSI
100
AcDbLine
 62
250
  6
CONTINUOUS
 10
152.033705879
 20
120.9900377439
 11
151.9757834129
 21
121.282508205
  0
LWPOLYLINE
  5
5A7
100
AcDbEntity
  8
ASSI
100
AcDbPolyline
 62
250
  6
CONTINUOUS
 90
10
 70
0
 10
151.9757834129
 20
121.282508205
 10
151.9756835371
 20
121.2831002092
 10
151.9755856371
 20
121.2838511308
 10
151.975489713
 20
121.2847609696
 10
151.9753954421
 20
121.2858339201
 10
151.9753031469
 20
121.2870657879
 10
151.9752137959
 20
121.2884439899
 10
151.9751274303
 20
121.2899699352
 10
151.9750440087
 20
121.2916422147
 10
151.9749643754
 20
121.2934440186
  0
LINE
  5
5A8
100
AcDbEntity
  8
ASSI
100
AcDbLine
 62
7
  6
CONTINUOUS
 10
157.2341955302
 20
116.7802628361
 11
157.2211212929
 21
125.341629814
  0
LINE
  5
5A9
100
AcDbEntity
  8
ASSI
100
AcDbLine
 62
7
  6
CONTINUOUS
 10
157.2341955302
 20
103.3802856814
 11
157.2341955302
 21
90.5802628361
  0
LINE
  5
5AA
100
AcDbEntity
  8
ASSI
100
AcDbLine
 62
7
  6
CONTINUOUS
 10
157.2341955302
 20
103.9802399908
 11
157.2341955302
 21
116.7802628361
  0
LINE
  5
5AB
100
AcDbEntity
  8
ASSI
100
AcDbLine
 62
7
  6
CONTINUOUS
 10
157.2341955302
 20
90.5802628361
 11
157.2211212929
 21
82.0188958581
  0
LWPOLYLINE
  5
5AC
100
AcDbEntity
  8
ASSI
100
AcDbPolyline
 62
250
  6
CONTINUOUS
 90
25
 70
0
 10
155.9213983723
 20
83.5730717027
 10
155.9209488043
 20
83.5601827567
 10
155.9196548117
 20
83.547330148
 10
155.9175183135
 20
83.5345686157
 10
155.9145436641
 20
83.5219485295
 10
155.9107406402
 20
83.5095289224
 10
155.9061272826
 20
83.4973763987
 10
155.9007236294
 20
83.4855455922
 10
155.8945510884
 20
83.4740849525
 10
155.8876384059
 20
83.4630486192
 10
155.8800170019
 20
83.4524858878
 10
155.8717182286
 20
83.4424394234
 10
155.8627758339
 20
83.4329501888
 10
155.8532266094
 20
83.4240579299
 10
155.8431122378
 20
83.4158021213
 10
155.8324775821
 20
83.4082195329
 10
155.8213690415
 20
83.4013430167
 10
155.8098334133
 20
83.3952013206
 10
155.7979193808
 20
83.3898203425
 10
155.7856775319
 20
83.3852230305
 10
155.7731605523
 20
83.3814292676
 10
155.7604223252
 20
83.3784554065
 10
155.7475174678
 20
83.3763141717
 10
155.7345010754
 20
83.3750146786
 10
155.7214288333
 20
83.3745624723
  0
LINE
  5
5AD
100
AcDbEntity
  8
ASSI
100
AcDbLine
 62
7
  6
CONTINUOUS
 10
152.0783086075
 20
83.3745624723
 11
152.0043279042
 21
83.1144396774
  0
LINE
  5
5AE
100
AcDbEntity
  8
ASSI
100
AcDbLine
 62
250
  6
CONTINUOUS
 10
140.5855741965
 20
88.0559595878
 11
140.6400912023
 21
88.0832097856
  0
LINE
  5
5AF
100
AcDbEntity
  8
ASSI
100
AcDbLine
 62
7
  6
CONTINUOUS
 10
155.9673186312
 20
113.9802628361
 11
155.5841955302
 21
113.9802628361
  0
LINE
  5
5B0
100
AcDbEntity
  8
ASSI
100
AcDbLine
 62
7
  6
CONTINUOUS
 10
136.5841955302
 20
113.9802628361
 11
136.2010724293
 21
113.9802628361
  0
LINE
  5
5B1
100
AcDbEntity
  8
ASSI
100
AcDbLine
 62
250
  6
CONTINUOUS
 10
140.6400912023
 20
119.2773158866
 11
140.5855741965
 21
119.3045660844
  0
LINE
  5
5B2
100
AcDbEntity
  8
ASSI
100
AcDbLine
 62
7
  6
CONTINUOUS
 10
152.0043279042
 20
124.2460859947
 11
152.0783086075
 21
123.9859631998
  0
LINE
  5
5B3
100
AcDbEntity
  8
ASSI
100
AcDbLine
 62
250
  6
CONTINUOUS
 10
140.8354214449
 20
87.8059974348
 11
140.8898157233
 21
87.8331862876
  0
LINE
  5
5B4
100
AcDbEntity
  8
ASSI
100
AcDbLine
 62
7
  6
CONTINUOUS
 10
134.9341955302
 20
116.7802628361
 11
136.1841955302
 21
116.7802628361
  0
LINE
  5
5B5
100
AcDbEntity
  8
ASSI
100
AcDbLine
 62
7
  6
CONTINUOUS
 10
155.9841955302
 20
116.7802628361
 11
157.2341955302
 21
116.7802628361
  0
LINE
  5
5B6
100
AcDbEntity
  8
ASSI
100
AcDbLine
 62
250
  6
CONTINUOUS
 10
140.8898157233
 20
119.5273393845
 11
140.8354214449
 21
119.5545282373
  0
LINE
  5
5B7
100
AcDbEntity
  8
ASSI
100
AcDbLine
 62
7
  6
CONTINUOUS
 10
155.9673186312
 20
117.7802628361
 11
155.5841955302
 21
117.7802628361
  0
LINE
  5
5B8
100
AcDbEntity
  8
ASSI
100
AcDbLine
 62
7
  6
CONTINUOUS
 10
136.5841955302
 20
117.7802628361
 11
136.2010724293
 21
117.7802628361
  0
LWPOLYLINE
  5
5B9
100
AcDbEntity
  8
ASSI
100
AcDbPolyline
 62
250
  6
CONTINUOUS
 90
13
 70
0
 10
152.0354214449
 20
119.5545282373
 10
152.0353207006
 20
119.5546630502
 10
152.0352210075
 20
119.5549600595
 10
152.0351223656
 20
119.5554192651
 10
152.0350244449
 20
119.5560432516
 10
152.0349275754
 20
119.5568294345
 10
152.0348327473
 20
119.55777006
 10
152.0347399913
 20
119.5588666406
 10
152.0346492767
 20
119.5601176639
 10
152.0345615009
 20
119.5615108384
 10
152.0344766929
 20
119.5630475919
 10
152.0343948238
 20
119.5647264966
 10
152.0343167041
 20
119.5665309782
  0
LINE
  5
5BA
100
AcDbEntity
  8
ASSI
100
AcDbLine
 62
250
  6
CONTINUOUS
 10
151.7855741965
 20
88.0559595878
 11
151.8400912023
 21
88.0832097856
  0
LWPOLYLINE
  5
5BB
100
AcDbEntity
  8
ASSI
100
AcDbPolyline
 62
250
  6
CONTINUOUS
 90
25
 70
0
 10
151.7855737381
 20
119.3045663135
 10
151.8019082642
 20
119.3051110418
 10
151.8181728953
 20
119.3067229885
 10
151.8342980375
 20
119.3093952558
 10
151.8502146942
 20
119.3131164092
 10
151.8658547602
 20
119.3178705261
 10
151.881151314
 20
119.3236372638
 10
151.896038904
 20
119.330391947
 10
151.9104538289
 20
119.3381056728
 10
151.9243344095
 20
119.346745435
 10
151.9376212533
 20
119.356274265
 10
151.9502575082
 20
119.36665139
 10
151.962189106
 20
119.3778324074
 10
151.9733649938
 20
119.389769475
 10
151.9837373522
 20
119.4024115159
 10
151.9932618
 20
119.4157044363
 10
152.0018975841
 20
119.4295913578
 10
152.009607754
 20
119.4440128603
 10
152.0163593198
 20
119.4589072364
 10
152.0221233931
 20
119.4742107554
 10
152.0268753111
 20
119.4898579361
 10
152.0305947416
 20
119.5057818269
 10
152.0332657705
 20
119.5219142922
 10
152.0348769694
 20
119.538186304
 10
152.0354214449
 20
119.5545282373
  0
LWPOLYLINE
  5
5BC
100
AcDbEntity
  8
ASSI
100
AcDbPolyline
 62
250
  6
CONTINUOUS
 90
25
 70
0
 10
140.5855737381
 20
119.3045663135
 10
140.6019082642
 20
119.3051110418
 10
140.6181728953
 20
119.3067229885
 10
140.6342980375
 20
119.3093952558
 10
140.6502146942
 20
119.3131164092
 10
140.6658547602
 20
119.3178705261
 10
140.681151314
 20
119.3236372638
 10
140.696038904
 20
119.330391947
 10
140.7104538289
 20
119.3381056728
 10
140.7243344095
 20
119.346745435
 10
140.7376212533
 20
119.356274265
 10
140.7502575082
 20
119.36665139
 10
140.762189106
 20
119.3778324074
 10
140.7733649938
 20
119.389769475
 10
140.7837373522
 20
119.4024115159
 10
140.7932618
 20
119.4157044363
 10
140.8018975841
 20
119.4295913578
 10
140.809607754
 20
119.4440128603
 10
140.8163593198
 20
119.4589072364
 10
140.8221233931
 20
119.4742107554
 10
140.8268753111
 20
119.4898579361
 10
140.8305947416
 20
119.5057818269
 10
140.8332657705
 20
119.5219142922
 10
140.8348769694
 20
119.538186304
 10
140.8354214449
 20
119.5545282373
  0
LINE
  5
5BD
100
AcDbEntity
  8
ASSI
100
AcDbLine
 62
7
  6
CONTINUOUS
 10
140.3282998582
 20
119.2773158866
 11
140.6400912023
 21
119.2773158866
  0
LINE
  5
5BE
100
AcDbEntity
  8
ASSI
100
AcDbLine
 62
7
  6
CONTINUOUS
 10
151.5282998582
 20
119.2773158866
 11
151.8400912023
 21
119.2773158866
  0
LINE
  5
5BF
100
AcDbEntity
  8
ASSI
100
AcDbLine
 62
250
  6
CONTINUOUS
 10
140.382816864
 20
119.3045660844
 11
140.5855741965
 21
119.3045660844
  0
LINE
  5
5C0
100
AcDbEntity
  8
ASSI
100
AcDbLine
 62
250
  6
CONTINUOUS
 10
151.582816864
 20
119.3045660844
 11
151.7855741965
 21
119.3045660844
  0
LINE
  5
5C1
100
AcDbEntity
  8
ASSI
100
AcDbLine
 62
250
  6
CONTINUOUS
 10
140.1346851815
 20
119.6045206221
 11
140.833705879
 21
119.6045206221
  0
LINE
  5
5C2
100
AcDbEntity
  8
ASSI
100
AcDbLine
 62
250
  6
CONTINUOUS
 10
151.3346851815
 20
119.6045206221
 11
152.033705879
 21
119.6045206221
  0
LWPOLYLINE
  5
5C3
100
AcDbEntity
  8
ASSI
100
AcDbPolyline
 62
7
  6
CONTINUOUS
 90
28
 70
0
 10
140.3282998582
 20
119.2773158866
 10
140.3138411959
 20
119.277734113
 10
140.299402004
 20
119.2789910836
 10
140.2850311787
 20
119.2810878457
 10
140.2707583267
 20
119.2840271783
 10
140.2566529317
 20
119.287802008
 10
140.2428211581
 20
119.2923840694
 10
140.2293389368
 20
119.2977396969
 10
140.2162178071
 20
119.3038556029
 10
140.2034652388
 20
119.3107264637
 10
140.1911233259
 20
119.3183317554
 10
140.179236142
 20
119.3266465565
 10
140.1678185894
 20
119.3356662498
 10
140.1568844466
 20
119.3453943805
 10
140.1465091173
 20
119.3557790005
 10
140.1367906213
 20
119.3667219591
 10
140.1277812683
 20
119.3781473009
 10
140.1194771002
 20
119.3900417337
 10
140.1118817163
 20
119.4023919606
 10
140.1050200887
 20
119.4151545231
 10
140.0989133377
 20
119.4282869988
 10
140.0935669245
 20
119.4417822698
 10
140.0889941498
 20
119.4556302246
 10
140.0852296092
 20
119.4697536121
 10
140.0823024649
 20
119.4840422706
 10
140.0802195897
 20
119.4984251857
 10
140.0789776655
 20
119.5128738951
 10
140.0785753372
 20
119.5273393845
  0
LWPOLYLINE
  5
5C4
100
AcDbEntity
  8
ASSI
100
AcDbPolyline
 62
7
  6
CONTINUOUS
 90
28
 70
0
 10
151.5282998582
 20
119.2773158866
 10
151.5138411959
 20
119.277734113
 10
151.499402004
 20
119.2789910836
 10
151.4850311787
 20
119.2810878457
 10
151.4707583267
 20
119.2840271783
 10
151.4566529317
 20
119.287802008
 10
151.4428211581
 20
119.2923840694
 10
151.4293389368
 20
119.2977396969
 10
151.4162178071
 20
119.3038556029
 10
151.4034652388
 20
119.3107264637
 10
151.3911233259
 20
119.3183317554
 10
151.379236142
 20
119.3266465565
 10
151.3678185894
 20
119.3356662498
 10
151.3568844466
 20
119.3453943805
 10
151.3465091173
 20
119.3557790005
 10
151.3367906213
 20
119.3667219591
 10
151.3277812683
 20
119.3781473009
 10
151.3194771002
 20
119.3900417337
 10
151.3118817163
 20
119.4023919606
 10
151.3050200887
 20
119.4151545231
 10
151.2989133377
 20
119.4282869988
 10
151.2935669245
 20
119.4417822698
 10
151.2889941498
 20
119.4556302246
 10
151.2852296092
 20
119.4697536121
 10
151.2823024649
 20
119.4840422706
 10
151.2802195897
 20
119.4984251857
 10
151.2789776655
 20
119.5128738951
 10
151.2785753372
 20
119.5273393845
  0
LWPOLYLINE
  5
5C5
100
AcDbEntity
  8
ASSI
100
AcDbPolyline
 62
250
  6
CONTINUOUS
 90
25
 70
0
 10
140.3828173224
 20
119.3045663135
 10
140.3664828246
 20
119.3051110399
 10
140.3502182195
 20
119.3067229813
 10
140.3340931006
 20
119.3093952403
 10
140.3181764645
 20
119.3131163828
 10
140.302536416
 20
119.3178704868
 10
140.2872398761
 20
119.32363721
 10
140.2723522964
 20
119.3303918778
 10
140.2579373782
 20
119.338105588
 10
140.2440568006
 20
119.3467453348
 10
140.2307699564
 20
119.3562741504
 10
140.2181336977
 20
119.3666512623
 10
140.2062020929
 20
119.3778322688
 10
140.1950261955
 20
119.389769328
 10
140.1846538252
 20
119.4024113634
 10
140.1751293638
 20
119.4157042817
 10
140.1664935647
 20
119.4295912047
 10
140.1587833792
 20
119.4440127126
 10
140.1520317979
 20
119.4589070982
 10
140.1462677097
 20
119.4742106307
 10
140.1415157781
 20
119.4898578291
 10
140.1377963359
 20
119.5057817414
 10
140.1351252979
 20
119.5219142319
 10
140.1335140931
 20
119.5381862723
 10
140.1329696156
 20
119.5545282373
  0
LWPOLYLINE
  5
5C6
100
AcDbEntity
  8
ASSI
100
AcDbPolyline
 62
250
  6
CONTINUOUS
 90
25
 70
0
 10
151.5828173224
 20
119.3045663135
 10
151.5664828246
 20
119.3051110399
 10
151.5502182195
 20
119.3067229813
 10
151.5340931006
 20
119.3093952403
 10
151.5181764645
 20
119.3131163828
 10
151.502536416
 20
119.3178704868
 10
151.4872398761
 20
119.32363721
 10
151.4723522964
 20
119.3303918778
 10
151.4579373782
 20
119.338105588
 10
151.4440568006
 20
119.3467453348
 10
151.4307699564
 20
119.3562741504
 10
151.4181336977
 20
119.3666512623
 10
151.4062020929
 20
119.3778322688
 10
151.3950261955
 20
119.389769328
 10
151.3846538252
 20
119.4024113634
 10
151.3751293638
 20
119.4157042817
 10
151.3664935647
 20
119.4295912047
 10
151.3587833792
 20
119.4440127126
 10
151.3520317979
 20
119.4589070982
 10
151.3462677097
 20
119.4742106307
 10
151.3415157781
 20
119.4898578291
 10
151.3377963359
 20
119.5057817414
 10
151.3351252979
 20
119.5219142319
 10
151.3335140931
 20
119.5381862723
 10
151.3329696156
 20
119.5545282373
  0
LINE
  5
5C7
100
AcDbEntity
  8
ASSI
100
AcDbLine
 62
250
  6
CONTINUOUS
 10
151.8400912023
 20
119.2773158866
 11
151.7855741965
 21
119.3045660844
  0
LINE
  5
5C8
100
AcDbEntity
  8
ASSI
100
AcDbLine
 62
250
  6
CONTINUOUS
 10
152.0354214449
 20
87.8059974348
 11
152.0898157233
 21
87.8331862876
  0
LWPOLYLINE
  5
5C9
100
AcDbEntity
  8
ASSI
100
AcDbPolyline
 62
7
  6
CONTINUOUS
 90
31
 70
0
 10
140.5838581722
 20
120.7803684471
 10
140.5994727601
 20
120.7813149429
 10
140.6147641933
 20
120.7829462045
 10
140.6296792642
 20
120.785262232
 10
140.6441635304
 20
120.7883087031
 10
140.6581835735
 20
120.79203994
 10
140.6717256256
 20
120.7963189091
 10
140.6847552197
 20
120.8011395835
 10
140.6972500663
 20
120.8065079901
 10
140.7092186941
 20
120.8123051762
 10
140.720641341
 20
120.8185243315
 10
140.7315029672
 20
120.8251722663
 10
140.7418194751
 20
120.8321504581
 10
140.7515804241
 20
120.8394536804
 10
140.7607758642
 20
120.8470871596
 10
140.7694205964
 20
120.8549680529
 10
140.7775096384
 20
120.8630929249
 10
140.785037353
 20
120.8714652108
 10
140.7920151619
 20
120.8800123732
 10
140.798441813
 20
120.8887324742
 10
140.8043152357
 20
120.8976274516
 10
140.8096436888
 20
120.9066305816
 10
140.8144289413
 20
120.9157408812
 10
140.8186722559
 20
120.9249593334
 10
140.8223802698
 20
120.9342221635
 10
140.825557758
 20
120.9435290682
 10
140.8282092448
 20
120.9528803507
 10
140.830341608
 20
120.9622131461
 10
140.8319625532
 20
120.9715064992
 10
140.8330807275
 20
120.9807813651
 10
140.833705879
 20
120.9900377439
  0
LWPOLYLINE
  5
5CA
100
AcDbEntity
  8
ASSI
100
AcDbPolyline
 62
250
  6
CONTINUOUS
 90
25
 70
0
 10
151.7259357062
 20
121.0363062667
 10
151.7422139284
 20
121.0369265598
 10
151.7584229783
 20
121.0385903821
 10
151.7744939801
 20
121.0412906631
 10
151.7903586455
 20
121.0450159286
 10
151.8059495617
 20
121.0497503483
 10
151.8212004775
 20
121.0554738035
 10
151.8360465888
 20
121.062161973
 10
151.8504248119
 20
121.0697864365
 10
151.8642740502
 20
121.0783147946
 10
151.8775354558
 20
121.0877108073
 10
151.8901526795
 20
121.0979345482
 10
151.9020721084
 20
121.1089425732
 10
151.9132430955
 20
121.120688106
 10
151.9236181744
 20
121.133121237
 10
151.9331532608
 20
121.1461891348
 10
151.9418078393
 20
121.1598362707
 10
151.9495451364
 20
121.1740046552
 10
151.9563322766
 20
121.1886340849
 10
151.9621404212
 20
121.2036623963
 10
151.9669448913
 20
121.2190257314
 10
151.9707252735
 20
121.2346588106
 10
151.9734655051
 20
121.2504952069
 10
151.9751539428
 20
121.2664676281
 10
151.9757834129
 20
121.282508205
  0
LWPOLYLINE
  5
5CB
100
AcDbEntity
  8
ASSI
100
AcDbPolyline
 62
250
  6
CONTINUOUS
 90
25
 70
0
 10
140.5259357062
 20
121.0363062667
 10
140.5422139284
 20
121.0369265598
 10
140.5584229783
 20
121.0385903821
 10
140.5744939801
 20
121.0412906631
 10
140.5903586455
 20
121.0450159286
 10
140.6059495617
 20
121.0497503483
 10
140.6212004775
 20
121.0554738035
 10
140.6360465888
 20
121.062161973
 10
140.6504248119
 20
121.0697864365
 10
140.6642740502
 20
121.0783147946
 10
140.6775354558
 20
121.0877108073
 10
140.6901526795
 20
121.0979345482
 10
140.7020721084
 20
121.1089425732
 10
140.7132430955
 20
121.120688106
 10
140.7236181744
 20
121.133121237
 10
140.7331532608
 20
121.1461891348
 10
140.7418078393
 20
121.1598362707
 10
140.7495451364
 20
121.1740046552
 10
140.7563322766
 20
121.1886340849
 10
140.7621404212
 20
121.2036623963
 10
140.7669448913
 20
121.2190257314
 10
140.7707252735
 20
121.2346588106
 10
140.7734655051
 20
121.2504952069
 10
140.7751539428
 20
121.2664676281
 10
140.7757834129
 20
121.282508205
  0
LWPOLYLINE
  5
5CC
100
AcDbEntity
  8
ASSI
100
AcDbPolyline
 62
250
  6
CONTINUOUS
 90
25
 70
0
 10
151.6437346062
 20
121.7405399158
 10
151.6277143483
 20
121.7401084376
 10
151.6117599607
 20
121.739244335
 10
151.5959370398
 20
121.737951161
 10
151.5803106406
 20
121.7362342327
 10
151.5649450117
 20
121.7341006094
 10
151.5499033306
 20
121.7315590643
 10
151.5352474409
 20
121.7286200472
 10
151.5210375994
 20
121.7252956423
 10
151.5073322304
 20
121.7215995185
 10
151.494187683
 20
121.717546873
 10
151.4816579995
 20
121.7131543685
 10
151.4697946951
 20
121.7084400653
 10
151.4586465447
 20
121.7034233465
 10
151.4482593822
 20
121.6981248386
 10
151.4386759128
 20
121.6925663264
 10
151.4299355376
 20
121.6867706639
 10
151.4220741909
 20
121.68076168
 10
151.4151241927
 20
121.67456408
 10
151.4091141166
 20
121.6682033452
 10
151.4040686717
 20
121.6617056277
 10
151.4000086006
 20
121.6550976416
 10
151.3969505952
 20
121.6484065551
 10
151.394907228
 20
121.6416598785
 10
151.3938868994
 20
121.6348853504
  0
LWPOLYLINE
  5
5CD
100
AcDbEntity
  8
ASSI
100
AcDbPolyline
 62
250
  6
CONTINUOUS
 90
25
 70
0
 10
140.4437346062
 20
121.7405399158
 10
140.4277143483
 20
121.7401084376
 10
140.4117599607
 20
121.739244335
 10
140.3959370398
 20
121.737951161
 10
140.3803106406
 20
121.7362342327
 10
140.3649450117
 20
121.7341006094
 10
140.3499033306
 20
121.7315590643
 10
140.3352474409
 20
121.7286200472
 10
140.3210375994
 20
121.7252956423
 10
140.3073322304
 20
121.7215995185
 10
140.294187683
 20
121.717546873
 10
140.2816579995
 20
121.7131543685
 10
140.2697946951
 20
121.7084400653
 10
140.2586465447
 20
121.7034233465
 10
140.2482593822
 20
121.6981248386
 10
140.2386759128
 20
121.6925663264
 10
140.2299355376
 20
121.6867706639
 10
140.2220741909
 20
121.68076168
 10
140.2151241927
 20
121.67456408
 10
140.2091141166
 20
121.6682033452
 10
140.2040686717
 20
121.6617056277
 10
140.2000086006
 20
121.6550976416
 10
140.1969505952
 20
121.6484065551
 10
140.194907228
 20
121.6416598785
 10
140.1938868994
 20
121.6348853504
  0
LINE
  5
5CE
100
AcDbEntity
  8
ASSI
100
AcDbLine
 62
7
  6
CONTINUOUS
 10
151.7766439618
 20
120.7802628361
 11
151.5917470987
 21
120.7802628361
  0
LINE
  5
5CF
100
AcDbEntity
  8
ASSI
100
AcDbLine
 62
7
  6
CONTINUOUS
 10
140.3917470987
 20
120.7802628361
 11
140.5766439618
 21
120.7802628361
  0
LINE
  5
5D0
100
AcDbEntity
  8
ASSI
100
AcDbLine
 62
250
  6
CONTINUOUS
 10
140.4424553543
 20
121.0363062667
 11
140.5259357062
 21
121.0363062667
  0
LINE
  5
5D1
100
AcDbEntity
  8
ASSI
100
AcDbLine
 62
250
  6
CONTINUOUS
 10
151.6424553543
 20
121.0363062667
 11
151.7259357062
 21
121.0363062667
  0
LINE
  5
5D2
100
AcDbEntity
  8
ASSI
100
AcDbLine
 62
250
  6
CONTINUOUS
 10
140.1940504897
 20
121.3317485926
 11
140.7743405708
 21
121.3317485926
  0
LINE
  5
5D3
100
AcDbEntity
  8
ASSI
100
AcDbLine
 62
250
  6
CONTINUOUS
 10
151.3940504897
 20
121.3317485926
 11
151.9743405708
 21
121.3317485926
  0
LINE
  5
5D4
100
AcDbEntity
  8
ASSI
100
AcDbLine
 62
250
  6
CONTINUOUS
 10
140.1940504897
 20
121.6137544373
 11
140.7743405708
 21
121.6137544373
  0
LINE
  5
5D5
100
AcDbEntity
  8
ASSI
100
AcDbLine
 62
250
  6
CONTINUOUS
 10
151.3940504897
 20
121.6137544373
 11
151.9743405708
 21
121.6137544373
  0
LINE
  5
5D6
100
AcDbEntity
  8
ASSI
100
AcDbLine
 62
250
  6
CONTINUOUS
 10
140.4437346062
 20
121.7405399158
 11
140.5246564543
 21
121.7405399158
  0
LINE
  5
5D7
100
AcDbEntity
  8
ASSI
100
AcDbLine
 62
250
  6
CONTINUOUS
 10
151.6437346062
 20
121.7405399158
 11
151.7246564543
 21
121.7405399158
  0
LWPOLYLINE
  5
5D8
100
AcDbEntity
  8
ASSI
100
AcDbPolyline
 62
250
  6
CONTINUOUS
 90
25
 70
0
 10
140.5246564543
 20
121.7405399158
 10
140.5406766527
 20
121.7401084411
 10
140.5566309845
 20
121.7392443449
 10
140.572453854
 20
121.7379511801
 10
140.5880802061
 20
121.7362342632
 10
140.6034457934
 20
121.7341006536
 10
140.6184874408
 20
121.7315591233
 10
140.633143305
 20
121.7286201218
 10
140.647353129
 20
121.7252957328
 10
140.6610584895
 20
121.7215996243
 10
140.6742030373
 20
121.7175469929
 10
140.686732729
 20
121.7131545007
 10
140.6985960493
 20
121.7084402073
 10
140.7097442223
 20
121.7034234955
 10
140.7201314129
 20
121.6981249912
 10
140.7297149143
 20
121.6925664792
 10
140.7384553243
 20
121.686770813
 10
140.7463167069
 20
121.6807618214
 10
140.7532667405
 20
121.6745642101
 10
140.75927685
 20
121.6682034604
 10
140.7643223252
 20
121.6617057243
 10
140.7683824216
 20
121.6550977172
 10
140.7714404465
 20
121.6484066075
 10
140.7734838267
 20
121.6416599056
 10
140.774504161
 20
121.6348853504
  0
LWPOLYLINE
  5
5D9
100
AcDbEntity
  8
ASSI
100
AcDbPolyline
 62
250
  6
CONTINUOUS
 90
25
 70
0
 10
151.7246564543
 20
121.7405399158
 10
151.7406766527
 20
121.7401084411
 10
151.7566309845
 20
121.7392443449
 10
151.772453854
 20
121.7379511801
 10
151.7880802061
 20
121.7362342632
 10
151.8034457934
 20
121.7341006536
 10
151.8184874408
 20
121.7315591233
 10
151.833143305
 20
121.7286201218
 10
151.847353129
 20
121.7252957328
 10
151.8610584895
 20
121.7215996243
 10
151.8742030373
 20
121.7175469929
 10
151.886732729
 20
121.7131545007
 10
151.8985960493
 20
121.7084402073
 10
151.9097442223
 20
121.7034234955
 10
151.9201314129
 20
121.6981249912
 10
151.9297149143
 20
121.6925664792
 10
151.9384553243
 20
121.686770813
 10
151.9463167069
 20
121.6807618214
 10
151.9532667405
 20
121.6745642101
 10
151.95927685
 20
121.6682034604
 10
151.9643223252
 20
121.6617057243
 10
151.9683824216
 20
121.6550977172
 10
151.9714404465
 20
121.6484066075
 10
151.9734838267
 20
121.6416599056
 10
151.974504161
 20
121.6348853504
  0
LWPOLYLINE
  5
5DA
100
AcDbEntity
  8
ASSI
100
AcDbPolyline
 62
250
  6
CONTINUOUS
 90
25
 70
0
 10
140.4424553543
 20
121.0363062667
 10
140.4261771884
 20
121.0369265558
 10
140.4099681914
 20
121.0385903672
 10
140.3938972384
 20
121.0412906311
 10
140.378032618
 20
121.0450158737
 10
140.3624417418
 20
121.0497502656
 10
140.3471908584
 20
121.0554736895
 10
140.3323447717
 20
121.0621618256
 10
140.3179665655
 20
121.0697862547
 10
140.3041173354
 20
121.0783145791
 10
140.2908559294
 20
121.0877105604
 10
140.2782386978
 20
121.0979342734
 10
140.2663192534
 20
121.1089422756
 10
140.2551482444
 20
121.1206877918
 10
140.2447731382
 20
121.1331209133
 10
140.2352380208
 20
121.1461888093
 10
140.2265834086
 20
121.1598359519
 10
140.2188460767
 20
121.1740043519
 10
140.2120589024
 20
121.1886338051
 10
140.2062507258
 20
121.2036621481
 10
140.2014462268
 20
121.2190255228
 10
140.1976658207
 20
121.2346586473
 10
140.1949255711
 20
121.2504950935
 10
140.1932371219
 20
121.2664675694
 10
140.1926076476
 20
121.282508205
  0
LWPOLYLINE
  5
5DB
100
AcDbEntity
  8
ASSI
100
AcDbPolyline
 62
250
  6
CONTINUOUS
 90
25
 70
0
 10
151.6424553543
 20
121.0363062667
 10
151.6261771884
 20
121.0369265558
 10
151.6099681914
 20
121.0385903672
 10
151.5938972384
 20
121.0412906311
 10
151.578032618
 20
121.0450158737
 10
151.5624417418
 20
121.0497502656
 10
151.5471908584
 20
121.0554736895
 10
151.5323447717
 20
121.0621618256
 10
151.5179665655
 20
121.0697862547
 10
151.5041173354
 20
121.0783145791
 10
151.4908559294
 20
121.0877105604
 10
151.4782386978
 20
121.0979342734
 10
151.4663192534
 20
121.1089422756
 10
151.4551482444
 20
121.1206877918
 10
151.4447731382
 20
121.1331209133
 10
151.4352380208
 20
121.1461888093
 10
151.4265834086
 20
121.1598359519
 10
151.4188460767
 20
121.1740043519
 10
151.4120589024
 20
121.1886338051
 10
151.4062507258
 20
121.2036621481
 10
151.4014462268
 20
121.2190255228
 10
151.3976658207
 20
121.2346586473
 10
151.3949255711
 20
121.2504950935
 10
151.3932371219
 20
121.2664675694
 10
151.3926076476
 20
121.282508205
  0
LINE
  5
5DC
100
AcDbEntity
  8
ASSI
100
AcDbLine
 62
250
  6
CONTINUOUS
 10
152.0898157233
 20
119.5273393845
 11
152.0354214449
 21
119.5545282373
  0
LINE
  5
5DD
100
AcDbEntity
  8
ASSI
100
AcDbLine
 62
7
  6
CONTINUOUS
 10
153.5419305572
 20
124.2583644508
 11
153.967914007
 21
124.3489579668
  0
LINE
  5
5DE
100
AcDbEntity
  8
ASSI
100
AcDbLine
 62
7
  6
CONTINUOUS
 10
138.6264605033
 20
124.2583644508
 11
138.2004770534
 21
124.3489579668
  0
LINE
  5
5DF
100
AcDbEntity
  8
ASSI
100
AcDbLine
 62
7
  6
CONTINUOUS
 10
142.3419305572
 20
124.2583644508
 11
142.767914007
 21
124.3489579668
  0
LINE
  5
5E0
100
AcDbEntity
  8
ASSI
100
AcDbLine
 62
7
  6
CONTINUOUS
 10
153.8926205232
 20
125.8395755418
 11
153.5419305572
 21
125.8077423838
  0
LWPOLYLINE
  5
5E1
100
AcDbEntity
  8
ASSI
100
AcDbPolyline
 62
250
  6
CONTINUOUS
 90
13
 70
0
 10
136.3234364329
 20
123.7937134838
 10
136.3121498885
 20
123.793319811
 10
136.3016006298
 20
123.7928940669
 10
136.2918463502
 20
123.7924385799
 10
136.2829403958
 20
123.79195584
 10
136.274931473
 20
123.7914484877
 10
136.2678633824
 20
123.7909192993
 10
136.2617747792
 20
123.7903711663
 10
136.2566989619
 20
123.7898070867
 10
136.2526636899
 20
123.7892301496
 10
136.2496910321
 20
123.7886435095
 10
136.2477972458
 20
123.7880503693
 10
136.2469926882
 20
123.7874539695
  0
LINE
  5
5E2
100
AcDbEntity
  8
ASSI
100
AcDbLine
 62
250
  6
CONTINUOUS
 10
136.3479707803
 20
123.794396188
 11
136.3234364329
 21
123.7937134838
  0
LINE
  5
5E3
100
AcDbEntity
  8
ASSI
100
AcDbLine
 62
250
  6
CONTINUOUS
 10
136.3746676947
 20
123.7949272676
 11
136.3479707803
 21
123.794396188
  0
LINE
  5
5E4
100
AcDbEntity
  8
ASSI
100
AcDbLine
 62
250
  6
CONTINUOUS
 10
136.4029439554
 20
123.7952951192
 11
136.3746676947
 21
123.7949272676
  0
LINE
  5
5E5
100
AcDbEntity
  8
ASSI
100
AcDbLine
 62
250
  6
CONTINUOUS
 10
136.4321818391
 20
123.7954917119
 11
136.4029439554
 21
123.7952951192
  0
LINE
  5
5E6
100
AcDbEntity
  8
ASSI
100
AcDbLine
 62
250
  6
CONTINUOUS
 10
155.7214288229
 20
123.795524285
 11
152.0844359188
 21
123.795524285
  0
LINE
  5
5E7
100
AcDbEntity
  8
ASSI
100
AcDbLine
 62
250
  6
CONTINUOUS
 10
151.2839551417
 20
123.795524285
 11
140.8844359188
 21
123.795524285
  0
LINE
  5
5E8
100
AcDbEntity
  8
ASSI
100
AcDbLine
 62
250
  6
CONTINUOUS
 10
140.0839551417
 20
123.795524285
 11
136.4321818391
 21
123.7954917119
  0
LINE
  5
5E9
100
AcDbEntity
  8
ASSI
100
AcDbLine
 62
250
  6
CONTINUOUS
 10
155.7214288333
 20
123.9859631998
 11
152.0783086075
 21
123.9859631998
  0
LINE
  5
5EA
100
AcDbEntity
  8
ASSI
100
AcDbLine
 62
250
  6
CONTINUOUS
 10
151.290082453
 20
123.9859631998
 11
140.8783086075
 21
123.9859631998
  0
LINE
  5
5EB
100
AcDbEntity
  8
ASSI
100
AcDbLine
 62
250
  6
CONTINUOUS
 10
140.090082453
 20
123.9859631998
 11
136.4469622272
 21
123.9859631998
  0
LINE
  5
5EC
100
AcDbEntity
  8
ASSI
100
AcDbLine
 62
7
  6
CONTINUOUS
 10
140.5620877595
 20
124.0392204486
 11
140.406303301
 21
124.0392204486
  0
LINE
  5
5ED
100
AcDbEntity
  8
ASSI
100
AcDbLine
 62
7
  6
CONTINUOUS
 10
151.606303301
 20
124.0392204486
 11
151.7620877595
 21
124.0392204486
  0
LINE
  5
5EE
100
AcDbEntity
  8
ASSI
100
AcDbLine
 62
7
  6
CONTINUOUS
 10
138.7996655841
 20
124.2460859947
 11
140.1640631563
 21
124.2460859947
  0
LINE
  5
5EF
100
AcDbEntity
  8
ASSI
100
AcDbLine
 62
7
  6
CONTINUOUS
 10
140.8043279042
 20
124.2460859947
 11
142.1687254764
 21
124.2460859947
  0
LINE
  5
5F0
100
AcDbEntity
  8
ASSI
100
AcDbLine
 62
7
  6
CONTINUOUS
 10
149.9996655841
 20
124.2460859947
 11
151.3640631563
 21
124.2460859947
  0
LINE
  5
5F1
100
AcDbEntity
  8
ASSI
100
AcDbLine
 62
7
  6
CONTINUOUS
 10
152.0043279042
 20
124.2460859947
 11
153.3687254764
 21
124.2460859947
  0
LINE
  5
5F2
100
AcDbEntity
  8
ASSI
100
AcDbLine
 62
7
  6
CONTINUOUS
 10
136.3953588564
 20
124.3489579668
 11
138.2004770534
 21
124.3489579668
  0
LINE
  5
5F3
100
AcDbEntity
  8
ASSI
100
AcDbLine
 62
7
  6
CONTINUOUS
 10
142.767914007
 20
124.3489579668
 11
149.4004770534
 21
124.3489579668
  0
LINE
  5
5F4
100
AcDbEntity
  8
ASSI
100
AcDbLine
 62
7
  6
CONTINUOUS
 10
153.967914007
 20
124.3489579668
 11
155.7730322041
 21
124.3489579668
  0
LWPOLYLINE
  5
5F5
100
AcDbEntity
  8
ASSI
100
AcDbPolyline
 62
250
  6
CONTINUOUS
 90
3
 70
0
 10
155.7654471051
 20
123.7952951192
 10
155.736175414
 20
123.7953890819
 10
155.7214288333
 20
123.795524285
  0
LINE
  5
5F6
100
AcDbEntity
  8
ASSI
100
AcDbLine
 62
250
  6
CONTINUOUS
 10
155.7797511339
 20
123.7951501161
 11
155.7654471051
 21
123.7952951192
  0
LWPOLYLINE
  5
5F7
100
AcDbEntity
  8
ASSI
100
AcDbPolyline
 62
250
  6
CONTINUOUS
 90
3
 70
0
 10
155.8449546276
 20
123.7937134838
 10
155.8204269686
 20
123.7944131782
 10
155.7797511339
 20
123.7951501161
  0
LWPOLYLINE
  5
5F8
100
AcDbEntity
  8
ASSI
100
AcDbPolyline
 62
250
  6
CONTINUOUS
 90
25
 70
0
 10
155.7214288333
 20
123.9859631998
 10
155.7344898127
 20
123.9855117494
 10
155.7474950144
 20
123.9842144796
 10
155.7603888986
 20
123.9820769304
 10
155.7731164011
 20
123.9791082304
 10
155.7856231683
 20
123.9753210576
 10
155.7978557892
 20
123.9707315854
 10
155.8097620235
 20
123.9653594135
 10
155.8212910248
 20
123.9592274842
 10
155.8323935577
 20
123.9523619841
 10
155.843022208
 20
123.944792233
 10
155.8531315855
 20
123.9365505579
 10
155.8626785172
 20
123.9276721556
 10
155.8716222324
 20
123.9181949418
 10
155.8799245364
 20
123.9081593897
 10
155.8875499734
 20
123.8976083567
 10
155.8944659787
 20
123.8865869017
 10
155.9006430168
 20
123.8751420928
 10
155.9060547085
 20
123.8633228056
 10
155.9106779425
 20
123.8511795154
 10
155.9144929751
 20
123.8387640808
 10
155.917483514
 20
123.8261295228
 10
155.9196367878
 20
123.8133297982
 10
155.9209436009
 20
123.8004195691
 10
155.9213983723
 20
123.7874539695
  0
LWPOLYLINE
  5
5F9
100
AcDbEntity
  8
ASSI
100
AcDbPolyline
 62
250
  6
CONTINUOUS
 90
3
 70
0
 10
155.8765447103
 20
123.7924385799
 10
155.8562492688
 20
123.7933394706
 10
155.8449546276
 20
123.7937134838
  0
LINE
  5
5FA
100
AcDbEntity
  8
ASSI
100
AcDbLine
 62
250
  6
CONTINUOUS
 10
155.8854608507
 20
123.7919832351
 11
155.8765447103
 21
123.7924385799
  0
LINE
  5
5FB
100
AcDbEntity
  8
ASSI
100
AcDbLine
 62
7
  6
CONTINUOUS
 10
138.2757705373
 20
125.8395755418
 11
138.6264605033
 21
125.8077423838
  0
LINE
  5
5FC
100
AcDbEntity
  8
ASSI
100
AcDbLine
 62
7
  6
CONTINUOUS
 10
149.8264605033
 20
124.2583644508
 11
149.4004770534
 21
124.3489579668
  0
LWPOLYLINE
  5
5FD
100
AcDbEntity
  8
ASSI
100
AcDbPolyline
 62
250
  6
CONTINUOUS
 90
8
 70
0
 10
155.9213983723
 20
123.7874539695
 10
155.9205827051
 20
123.7881631847
 10
155.9186845513
 20
123.7887318799
 10
155.9157273706
 20
123.7892301496
 10
155.9117078843
 20
123.7897959699
 10
155.9066256235
 20
123.7904101786
 10
155.9005276781
 20
123.7909192993
 10
155.8854608507
 20
123.7919832351
  0
LINE
  5
5FE
100
AcDbEntity
  8
ASSI
100
AcDbLine
 62
7
  6
CONTINUOUS
 10
142.6926205232
 20
125.8395755418
 11
142.3419305572
 21
125.8077423838
  0
LINE
  5
5FF
100
AcDbEntity
  8
ASSI
100
AcDbLine
 62
7
  6
CONTINUOUS
 10
138.7996655841
 20
125.8025016059
 11
142.1687254764
 21
125.8025016059
  0
LINE
  5
600
100
AcDbEntity
  8
ASSI
100
AcDbLine
 62
7
  6
CONTINUOUS
 10
149.9996655841
 20
125.8025016059
 11
153.3687254764
 21
125.8025016059
  0
LINE
  5
601
100
AcDbEntity
  8
ASSI
100
AcDbLine
 62
7
  6
CONTINUOUS
 10
135.4476495909
 20
125.8395755418
 11
138.2757705373
 21
125.8395755418
  0
LINE
  5
602
100
AcDbEntity
  8
ASSI
100
AcDbLine
 62
7
  6
CONTINUOUS
 10
142.6926205232
 20
125.8395755418
 11
149.4757705373
 21
125.8395755418
  0
LINE
  5
603
100
AcDbEntity
  8
ASSI
100
AcDbLine
 62
7
  6
CONTINUOUS
 10
153.8926205232
 20
125.8395755418
 11
156.7207414696
 21
125.8395755418
  0
LINE
  5
604
100
AcDbEntity
  8
ASSI
100
AcDbLine
 62
7
  6
CONTINUOUS
 10
149.4757705373
 20
125.8395755418
 11
149.8264605033
 21
125.8077423838
  0
ARC
  5
605
100
AcDbEntity
  8
ASSI
100
AcDbCircle
 62
7
  6
CONTINUOUS
 10
146.0841955302
 20
103.6802628361
 40
2.95
100
AcDbArc
 50
25.6291347882
 51
154.3708652118
  0
ARC
  5
606
100
AcDbEntity
  8
ASSI
100
AcDbCircle
 62
7
  6
CONTINUOUS
 10
146.0841955302
 20
103.6802628361
 40
2.95
100
AcDbArc
 50
205.6291347882
 51
334.3708652118
  0
ARC
  5
607
100
AcDbEntity
  8
ASSI
100
AcDbCircle
 62
7
  6
CONTINUOUS
 10
146.0841955302
 20
103.6802628361
 40
2.3052365195
100
AcDbArc
 50
3.1594622934
 51
176.8405377066
  0
ARC
  5
608
100
AcDbEntity
  8
ASSI
100
AcDbCircle
 62
7
  6
CONTINUOUS
 10
146.0841955302
 20
103.6802628361
 40
2.3052365195
100
AcDbArc
 50
183.1594622934
 51
356.8405377066
  0
ARC
  5
609
100
AcDbEntity
  8
ASSI
100
AcDbCircle
 62
7
  6
CONTINUOUS
 10
146.0841955302
 20
103.6802628361
 40
2.3
100
AcDbArc
 50
3.2319837745
 51
176.7680162255
  0
ARC
  5
60A
100
AcDbEntity
  8
ASSI
100
AcDbCircle
 62
7
  6
CONTINUOUS
 10
146.0841955302
 20
103.6802628361
 40
2.3
100
AcDbArc
 50
183.2319837745
 51
356.7680162255
  0
ARC
  5
60B
100
AcDbEntity
  8
ASSI
100
AcDbCircle
 62
7
  6
CONTINUOUS
 10
146.0841955302
 20
103.6802628361
 40
1.9273811542
100
AcDbArc
 50
3.8576891981
 51
176.1423108019
  0
ARC
  5
60C
100
AcDbEntity
  8
ASSI
100
AcDbCircle
 62
7
  6
CONTINUOUS
 10
146.0841955302
 20
103.6802628361
 40
1.9273811542
100
AcDbArc
 50
183.8576891981
 51
356.1423108019
  0
ARC
  5
60D
100
AcDbEntity
  8
ASSI
100
AcDbCircle
 62
7
  6
CONTINUOUS
 10
146.0841955302
 20
103.6802628361
 40
1.875
100
AcDbArc
 50
4.3667008241
 51
175.6332991759
  0
ARC
  5
60E
100
AcDbEntity
  8
ASSI
100
AcDbCircle
 62
7
  6
CONTINUOUS
 10
146.0841955302
 20
103.6802628361
 40
1.875
100
AcDbArc
 50
184.3667008241
 51
355.6332991759
  0
ARC
  5
60F
100
AcDbEntity
  8
ASSI
100
AcDbCircle
 62
7
  6
CONTINUOUS
 10
146.0841955302
 20
103.6802628361
 40
1.375
100
AcDbArc
 50
15.3271627815
 51
164.6728372185
  0
ARC
  5
610
100
AcDbEntity
  8
ASSI
100
AcDbCircle
 62
7
  6
CONTINUOUS
 10
146.0841955302
 20
103.6802628361
 40
1.375
100
AcDbArc
 50
195.3271627815
 51
344.6728372185
  0
ELLIPSE
  5
611
100
AcDbEntity
  8
ASSI
100
AcDbEllipse
 62
7
  6
CONTINUOUS
 10
135.4473452364
 20
125.3411745803
 30
0.0
 11
0.498078285
 21
0.0448076117
 31
0.0
 40
0.9965957691
 41
1.4807720384
 42
3.0506549766
  0
ELLIPSE
  5
612
100
AcDbEntity
  8
ASSI
100
AcDbEllipse
 62
7
  6
CONTINUOUS
 10
156.7210458241
 20
125.3411745803
 30
0.0
 11
0.498078285
 21
-0.0448076117
 31
0.0
 40
0.9965957691
 41
0.0909376769
 42
1.6608206152
  0
ELLIPSE
  5
613
100
AcDbEntity
  8
ASSI
100
AcDbEllipse
 62
7
  6
CONTINUOUS
 10
135.1342259959
 20
103.9802704517
 30
0.0
 11
0.1789222233
 21
0.0894542984
 31
0.0
 40
0.9998096356
 41
2.6780516535
 42
4.2486956813
  0
ELLIPSE
  5
614
100
AcDbEntity
  8
ASSI
100
AcDbEllipse
 62
7
  6
CONTINUOUS
 10
157.0341650646
 20
103.9802704517
 30
0.0
 11
0.1789222233
 21
-0.0894542984
 31
0.0
 40
0.9998096356
 41
-1.1071030277
 42
0.4635410001
  0
ELLIPSE
  5
615
100
AcDbEntity
  8
ASSI
100
AcDbEllipse
 62
7
  6
CONTINUOUS
 10
153.3687254764
 20
125.8129831617
 30
0.0
 11
0.2
 21
0.0
 31
0.0
 40
0.0524077793
 41
-1.5707963268
 42
-0.5235987756
  0
ELLIPSE
  5
616
100
AcDbEntity
  8
ASSI
100
AcDbEllipse
 62
7
  6
CONTINUOUS
 10
149.9996655841
 20
125.8129831617
 30
0.0
 11
0.2
 21
-0.0
 31
0.0
 40
0.0524077793
 41
-2.617993878
 42
-1.5707963268
  0
ELLIPSE
  5
617
100
AcDbEntity
  8
ASSI
100
AcDbEllipse
 62
7
  6
CONTINUOUS
 10
142.1687254764
 20
125.8129831617
 30
0.0
 11
0.2
 21
0.0
 31
0.0
 40
0.0524077793
 41
-1.5707963268
 42
-0.5235987756
  0
ELLIPSE
  5
618
100
AcDbEntity
  8
ASSI
100
AcDbEllipse
 62
7
  6
CONTINUOUS
 10
138.7996655841
 20
125.8129831617
 30
0.0
 11
0.2
 21
0.0
 31
0.0
 40
0.0524077793
 41
-2.617993878
 42
-1.5707963268
  0
ELLIPSE
  5
619
100
AcDbEntity
  8
ASSI
100
AcDbEllipse
 62
7
  6
CONTINUOUS
 10
140.5541755182
 20
123.4476700528
 30
0.0
 11
0.0096324734
 21
0.5915363915
 31
0.0
 40
0.4225722455
 41
-1.5322803821
 42
0.0068809827
  0
ELLIPSE
  5
61A
100
AcDbEntity
  8
ASSI
100
AcDbEllipse
 62
7
  6
CONTINUOUS
 10
170.2277806703
 20
103.6802628361
 30
0.0
 11
0.0
 21
498.5
 31
0.0
 40
0.0349207695
 41
1.5589337088
 42
1.568159698
  0
ELLIPSE
  5
61B
100
AcDbEntity
  8
ASSI
100
AcDbEllipse
 62
7
  6
CONTINUOUS
 10
151.6142155423
 20
123.4476700528
 30
0.0
 11
-0.0096324734
 21
0.5915363915
 31
0.0
 40
0.4225722455
 41
-0.0068809827
 42
1.5322803821
  0
ELLIPSE
  5
61C
100
AcDbEntity
  8
ASSI
100
AcDbEllipse
 62
7
  6
CONTINUOUS
 10
151.7541755182
 20
123.4476700528
 30
0.0
 11
0.0096324734
 21
0.5915363915
 31
0.0
 40
0.4225722455
 41
-1.5322803821
 42
0.0068809827
  0
ELLIPSE
  5
61D
100
AcDbEntity
  8
ASSI
100
AcDbEllipse
 62
7
  6
CONTINUOUS
 10
151.5932630806
 20
121.034119489
 30
0.0
 11
0.0493464685
 21
0.2491672984
 31
0.0
 40
0.9842259085
 41
-2.97793128
 42
-2.9490849661
  0
ELLIPSE
  5
61E
100
AcDbEntity
  8
ASSI
100
AcDbEllipse
 62
7
  6
CONTINUOUS
 10
151.7751279798
 20
121.034119489
 30
0.0
 11
-0.0493464685
 21
0.2491672984
 31
0.0
 40
0.9842259085
 41
-3.3341003411
 42
-3.3052540272
  0
ELLIPSE
  5
61F
100
AcDbEntity
  8
ASSI
100
AcDbEllipse
 62
7
  6
CONTINUOUS
 10
140.3932630806
 20
121.034119489
 30
0.0
 11
0.0493464685
 21
0.2491672984
 31
0.0
 40
0.9842259085
 41
-2.97793128
 42
-2.9490849661
  0
ELLIPSE
  5
620
100
AcDbEntity
  8
ASSI
100
AcDbEllipse
 62
7
  6
CONTINUOUS
 10
140.5751279798
 20
121.034119489
 30
0.0
 11
-0.0493464685
 21
0.2491672984
 31
0.0
 40
0.9842259085
 41
-3.3341003411
 42
-3.3052540272
  0
ELLIPSE
  5
621
100
AcDbEntity
  8
ASSI
100
AcDbEllipse
 62
7
  6
CONTINUOUS
 10
121.9406103902
 20
103.6802628361
 30
0.0
 11
0.0
 21
498.5
 31
0.0
 40
0.0349207695
 41
-1.568159698
 42
-1.5589337088
  0
ELLIPSE
  5
622
100
AcDbEntity
  8
ASSI
100
AcDbEllipse
 62
7
  6
CONTINUOUS
 10
155.9277806703
 20
103.6802628361
 30
0.0
 11
0.0
 21
498.5
 31
0.0
 40
0.0349207695
 41
1.5589337088
 42
1.568159698
  0
ELLIPSE
  5
623
100
AcDbEntity
  8
ASSI
100
AcDbEllipse
 62
7
  6
CONTINUOUS
 10
140.4142155423
 20
123.4476700528
 30
0.0
 11
-0.0096324734
 21
0.5915363915
 31
0.0
 40
0.4225722455
 41
-0.0068809827
 42
1.5322803821
  0
ELLIPSE
  5
624
100
AcDbEntity
  8
ASSI
100
AcDbEllipse
 62
7
  6
CONTINUOUS
 10
168.6777806703
 20
103.6802628361
 30
0.0
 11
0.0
 21
498.5
 31
0.0
 40
0.0349207695
 41
1.5304337907
 42
1.5390014484
  0
ELLIPSE
  5
625
100
AcDbEntity
  8
ASSI
100
AcDbEllipse
 62
7
  6
CONTINUOUS
 10
151.2909336073
 20
123.7874539695
 30
0.0
 11
0.0
 21
0.2
 31
0.0
 40
0.0349207695
 41
0.1221730476
 42
1.5304337907
  0
ELLIPSE
  5
626
100
AcDbEntity
  8
ASSI
100
AcDbEllipse
 62
7
  6
CONTINUOUS
 10
152.0774574532
 20
123.7874539695
 30
0.0
 11
0.0
 21
0.2
 31
0.0
 40
0.0349207695
 41
-1.5304337907
 42
-0.1221730476
  0
ELLIPSE
  5
627
100
AcDbEntity
  8
ASSI
100
AcDbEllipse
 62
7
  6
CONTINUOUS
 10
134.6906103902
 20
103.6802628361
 30
0.0
 11
0.0
 21
498.5
 31
0.0
 40
0.0349207695
 41
-1.5390014484
 42
-1.5304337907
  0
ELLIPSE
  5
628
100
AcDbEntity
  8
ASSI
100
AcDbEllipse
 62
7
  6
CONTINUOUS
 10
157.4777806703
 20
103.6802628361
 30
0.0
 11
0.0
 21
498.5
 31
0.0
 40
0.0349207695
 41
1.5304337907
 42
1.5390014484
  0
ELLIPSE
  5
629
100
AcDbEntity
  8
ASSI
100
AcDbEllipse
 62
7
  6
CONTINUOUS
 10
140.0909336073
 20
123.7874539695
 30
0.0
 11
0.0
 21
0.2
 31
0.0
 40
0.0349207695
 41
0.1221730476
 42
1.5304337907
  0
ELLIPSE
  5
62A
100
AcDbEntity
  8
ASSI
100
AcDbEllipse
 62
7
  6
CONTINUOUS
 10
140.8774574532
 20
123.7874539695
 30
0.0
 11
0.0
 21
0.2
 31
0.0
 40
0.0349207695
 41
-1.5304337907
 42
-0.1221730476
  0
ELLIPSE
  5
62B
100
AcDbEntity
  8
ASSI
100
AcDbEllipse
 62
7
  6
CONTINUOUS
 10
123.4906103902
 20
103.6802628361
 30
0.0
 11
0.0
 21
498.5
 31
0.0
 40
0.0349207695
 41
-1.5390014484
 42
-1.5304337907
  0
ELLIPSE
  5
62C
100
AcDbEntity
  8
ASSI
100
AcDbEllipse
 62
7
  6
CONTINUOUS
 10
139.020494503
 20
104.9667446721
 30
0.0
 11
0.3
 21
0.0
 31
0.0
 40
0.0349207695
 41
-1.5707963268
 42
-0.034906585
  0
ELLIPSE
  5
62D
100
AcDbEntity
  8
ASSI
100
AcDbEllipse
 62
7
  6
CONTINUOUS
 10
153.3687254764
 20
124.2706429069
 30
0.0
 11
0.2
 21
0.0
 31
0.0
 40
0.1227845609
 41
-1.5707963268
 42
-0.5235987756
  0
ELLIPSE
  5
62E
100
AcDbEntity
  8
ASSI
100
AcDbEllipse
 62
7
  6
CONTINUOUS
 10
149.9996655841
 20
124.2706429069
 30
0.0
 11
0.2
 21
0.0
 31
0.0
 40
0.1227845609
 41
-2.617993878
 42
-1.5707963268
  0
ELLIPSE
  5
62F
100
AcDbEntity
  8
ASSI
100
AcDbEllipse
 62
7
  6
CONTINUOUS
 10
142.1687254764
 20
124.2706429069
 30
0.0
 11
0.2
 21
0.0
 31
0.0
 40
0.1227845609
 41
-1.5707963268
 42
-0.5235987756
  0
ELLIPSE
  5
630
100
AcDbEntity
  8
ASSI
100
AcDbEllipse
 62
7
  6
CONTINUOUS
 10
138.7996655841
 20
124.2706429069
 30
0.0
 11
0.2
 21
0.0
 31
0.0
 40
0.1227845609
 41
-2.617993878
 42
-1.5707963268
  0
ELLIPSE
  5
631
100
AcDbEntity
  8
ASSI
100
AcDbEllipse
 62
7
  6
CONTINUOUS
 10
136.3954798566
 20
124.1495975822
 30
0.0
 11
0.1992395838
 21
-0.0178260286
 31
0.0
 40
0.9965982379
 41
1.6603320108
 42
3.2290014227
  0
ELLIPSE
  5
632
100
AcDbEntity
  8
ASSI
100
AcDbEllipse
 62
7
  6
CONTINUOUS
 10
155.7729112039
 20
124.1495975822
 30
0.0
 11
0.1992395838
 21
0.0178260286
 31
0.0
 40
0.9965982379
 41
-0.0874087691
 42
1.4812606428
  0
ELLIPSE
  5
633
100
AcDbEntity
  8
ASSI
100
AcDbEllipse
 62
7
  6
CONTINUOUS
 10
136.2406103902
 20
103.6802628361
 30
0.0
 11
0.0
 21
498.5
 31
0.0
 40
0.0349207695
 41
-1.568159698
 42
-1.5589337088
  0
ELLIPSE
  5
634
100
AcDbEntity
  8
ASSI
100
AcDbEllipse
 62
7
  6
CONTINUOUS
 10
153.320494503
 20
104.9667446721
 30
0.0
 11
0.3
 21
0.0
 31
0.0
 40
0.0349207695
 41
-1.5707963268
 42
-0.034906585
  0
ELLIPSE
  5
635
100
AcDbEntity
  8
ASSI
100
AcDbEllipse
 62
7
  6
CONTINUOUS
 10
156.7210458241
 20
82.0193510918
 30
0.0
 11
0.498078285
 21
0.0448076117
 31
0.0
 40
0.9965957691
 41
-1.6608206152
 42
-0.0909376769
  0
ELLIPSE
  5
636
100
AcDbEntity
  8
ASSI
100
AcDbEllipse
 62
7
  6
CONTINUOUS
 10
135.4473452364
 20
82.0193510918
 30
0.0
 11
0.498078285
 21
-0.0448076117
 31
0.0
 40
0.9965957691
 41
-3.0506549766
 42
-1.4807720383
  0
ELLIPSE
  5
637
100
AcDbEntity
  8
ASSI
100
AcDbEllipse
 62
7
  6
CONTINUOUS
 10
157.0341650646
 20
103.3802552204
 30
0.0
 11
-0.1789222233
 21
-0.0894542984
 31
0.0
 40
0.9998096356
 41
2.6780516535
 42
4.2486956813
  0
ELLIPSE
  5
638
100
AcDbEntity
  8
ASSI
100
AcDbEllipse
 62
7
  6
CONTINUOUS
 10
135.1342259959
 20
103.3802552204
 30
0.0
 11
-0.1789222233
 21
0.0894542984
 31
0.0
 40
0.9998096356
 41
-1.1071030277
 42
0.4635410001
  0
ELLIPSE
  5
639
100
AcDbEntity
  8
ASSI
100
AcDbEllipse
 62
7
  6
CONTINUOUS
 10
138.7996655841
 20
81.5475425104
 30
0.0
 11
0.2
 21
-0.0
 31
0.0
 40
0.0524077793
 41
1.5707963268
 42
2.617993878
  0
ELLIPSE
  5
63A
100
AcDbEntity
  8
ASSI
100
AcDbEllipse
 62
7
  6
CONTINUOUS
 10
142.1687254764
 20
81.5475425104
 30
0.0
 11
0.2
 21
0.0
 31
0.0
 40
0.0524077793
 41
0.5235987756
 42
1.5707963268
  0
ELLIPSE
  5
63B
100
AcDbEntity
  8
ASSI
100
AcDbEllipse
 62
7
  6
CONTINUOUS
 10
149.9996655841
 20
81.5475425104
 30
0.0
 11
0.2
 21
-0.0
 31
0.0
 40
0.0524077793
 41
1.5707963268
 42
2.617993878
  0
ELLIPSE
  5
63C
100
AcDbEntity
  8
ASSI
100
AcDbEllipse
 62
7
  6
CONTINUOUS
 10
153.3687254764
 20
81.5475425104
 30
0.0
 11
0.2
 21
0.0
 31
0.0
 40
0.0524077793
 41
0.5235987756
 42
1.5707963268
  0
ELLIPSE
  5
63D
100
AcDbEntity
  8
ASSI
100
AcDbEllipse
 62
7
  6
CONTINUOUS
 10
121.9406103902
 20
103.6802628361
 30
0.0
 11
0.0
 21
498.5
 31
0.0
 40
0.0349207695
 41
-1.5826589448
 42
-1.5734329556
  0
ELLIPSE
  5
63E
100
AcDbEntity
  8
ASSI
100
AcDbEllipse
 62
7
  6
CONTINUOUS
 10
170.2277806703
 20
103.6802628361
 30
0.0
 11
0.0
 21
498.5
 31
0.0
 40
0.0349207695
 41
-4.7097523516
 42
-4.7005263624
  0
ELLIPSE
  5
63F
100
AcDbEntity
  8
ASSI
100
AcDbEllipse
 62
7
  6
CONTINUOUS
 10
136.2406103902
 20
103.6802628361
 30
0.0
 11
0.0
 21
498.5
 31
0.0
 40
0.0349207695
 41
-1.5826589448
 42
-1.5734329556
  0
ELLIPSE
  5
640
100
AcDbEntity
  8
ASSI
100
AcDbEllipse
 62
7
  6
CONTINUOUS
 10
151.7541755182
 20
83.9128556193
 30
0.0
 11
-0.0096324734
 21
0.5915363915
 31
0.0
 40
0.4225722455
 41
-3.1484736363
 42
-1.6093122714
  0
ELLIPSE
  5
641
100
AcDbEntity
  8
ASSI
100
AcDbEllipse
 62
7
  6
CONTINUOUS
 10
140.5541755182
 20
83.9128556193
 30
0.0
 11
-0.0096324734
 21
0.5915363915
 31
0.0
 40
0.4225722455
 41
-3.1484736363
 42
-1.6093122714
  0
ELLIPSE
  5
642
100
AcDbEntity
  8
ASSI
100
AcDbEllipse
 62
7
  6
CONTINUOUS
 10
140.4142155423
 20
83.9128556193
 30
0.0
 11
0.0096324734
 21
0.5915363915
 31
0.0
 40
0.4225722455
 41
-4.6738730357
 42
-3.1347116709
  0
ELLIPSE
  5
643
100
AcDbEntity
  8
ASSI
100
AcDbEllipse
 62
7
  6
CONTINUOUS
 10
140.5751279798
 20
86.3264061831
 30
0.0
 11
0.0493464685
 21
0.2491672984
 31
0.0
 40
0.9842259085
 41
0.1636613736
 42
0.1925076875
  0
ELLIPSE
  5
644
100
AcDbEntity
  8
ASSI
100
AcDbEllipse
 62
7
  6
CONTINUOUS
 10
140.3932630806
 20
86.3264061831
 30
0.0
 11
-0.0493464685
 21
0.2491672984
 31
0.0
 40
0.9842259085
 41
-0.1925076875
 42
-0.1636613736
  0
ELLIPSE
  5
645
100
AcDbEntity
  8
ASSI
100
AcDbEllipse
 62
7
  6
CONTINUOUS
 10
151.7751279798
 20
86.3264061831
 30
0.0
 11
0.0493464685
 21
0.2491672984
 31
0.0
 40
0.9842259085
 41
0.1636613736
 42
0.1925076875
  0
ELLIPSE
  5
646
100
AcDbEntity
  8
ASSI
100
AcDbEllipse
 62
7
  6
CONTINUOUS
 10
151.5932630806
 20
86.3264061831
 30
0.0
 11
-0.0493464685
 21
0.2491672984
 31
0.0
 40
0.9842259085
 41
-0.1925076875
 42
-0.1636613736
  0
ELLIPSE
  5
647
100
AcDbEntity
  8
ASSI
100
AcDbEllipse
 62
7
  6
CONTINUOUS
 10
151.6142155423
 20
83.9128556193
 30
0.0
 11
0.0096324734
 21
0.5915363915
 31
0.0
 40
0.4225722455
 41
-4.6738730357
 42
-3.1347116709
  0
ELLIPSE
  5
648
100
AcDbEntity
  8
ASSI
100
AcDbEllipse
 62
7
  6
CONTINUOUS
 10
153.1478965575
 20
102.3937810001
 30
0.0
 11
0.3
 21
-0.0
 31
0.0
 40
0.0349207695
 41
1.5707963268
 42
3.1066860686
  0
ELLIPSE
  5
649
100
AcDbEntity
  8
ASSI
100
AcDbEllipse
 62
7
  6
CONTINUOUS
 10
123.4906103902
 20
103.6802628361
 30
0.0
 11
0.0
 21
498.5
 31
0.0
 40
0.0349207695
 41
-1.6111588629
 42
-1.6025912052
  0
ELLIPSE
  5
64A
100
AcDbEntity
  8
ASSI
100
AcDbEllipse
 62
7
  6
CONTINUOUS
 10
140.8774574532
 20
83.5730717027
 30
0.0
 11
0.0
 21
0.2
 31
0.0
 40
0.0349207695
 41
-3.0194196059
 42
-1.6111588629
  0
ELLIPSE
  5
64B
100
AcDbEntity
  8
ASSI
100
AcDbEllipse
 62
7
  6
CONTINUOUS
 10
140.0909336073
 20
83.5730717027
 30
0.0
 11
0.0
 21
0.2
 31
0.0
 40
0.0349207695
 41
-4.6720264443
 42
-3.2637657012
  0
ELLIPSE
  5
64C
100
AcDbEntity
  8
ASSI
100
AcDbEllipse
 62
7
  6
CONTINUOUS
 10
157.4777806703
 20
103.6802628361
 30
0.0
 11
0.0
 21
498.5
 31
0.0
 40
0.0349207695
 41
-4.680594102
 42
-4.6720264443
  0
ELLIPSE
  5
64D
100
AcDbEntity
  8
ASSI
100
AcDbEllipse
 62
7
  6
CONTINUOUS
 10
134.6906103902
 20
103.6802628361
 30
0.0
 11
0.0
 21
498.5
 31
0.0
 40
0.0349207695
 41
-1.6111588629
 42
-1.6025912052
  0
ELLIPSE
  5
64E
100
AcDbEntity
  8
ASSI
100
AcDbEllipse
 62
7
  6
CONTINUOUS
 10
152.0774574532
 20
83.5730717027
 30
0.0
 11
0.0
 21
0.2
 31
0.0
 40
0.0349207695
 41
-3.0194196059
 42
-1.6111588629
  0
ELLIPSE
  5
64F
100
AcDbEntity
  8
ASSI
100
AcDbEllipse
 62
7
  6
CONTINUOUS
 10
151.2909336073
 20
83.5730717027
 30
0.0
 11
0.0
 21
0.2
 31
0.0
 40
0.0349207695
 41
-4.6720264443
 42
-3.2637657012
  0
ELLIPSE
  5
650
100
AcDbEntity
  8
ASSI
100
AcDbEllipse
 62
7
  6
CONTINUOUS
 10
168.6777806703
 20
103.6802628361
 30
0.0
 11
0.0
 21
498.5
 31
0.0
 40
0.0349207695
 41
-4.680594102
 42
-4.6720264443
  0
ELLIPSE
  5
651
100
AcDbEntity
  8
ASSI
100
AcDbEllipse
 62
7
  6
CONTINUOUS
 10
138.7996655841
 20
83.0898827652
 30
0.0
 11
0.2
 21
0.0
 31
0.0
 40
0.1227845609
 41
1.5707963268
 42
2.617993878
  0
ELLIPSE
  5
652
100
AcDbEntity
  8
ASSI
100
AcDbEllipse
 62
7
  6
CONTINUOUS
 10
142.1687254764
 20
83.0898827652
 30
0.0
 11
0.2
 21
0.0
 31
0.0
 40
0.1227845609
 41
0.5235987756
 42
1.5707963268
  0
ELLIPSE
  5
653
100
AcDbEntity
  8
ASSI
100
AcDbEllipse
 62
7
  6
CONTINUOUS
 10
149.9996655841
 20
83.0898827652
 30
0.0
 11
0.2
 21
0.0
 31
0.0
 40
0.1227845609
 41
1.5707963268
 42
2.617993878
  0
ELLIPSE
  5
654
100
AcDbEntity
  8
ASSI
100
AcDbEllipse
 62
7
  6
CONTINUOUS
 10
153.3687254764
 20
83.0898827652
 30
0.0
 11
0.2
 21
-0.0
 31
0.0
 40
0.1227845609
 41
0.5235987756
 42
1.5707963268
  0
ELLIPSE
  5
655
100
AcDbEntity
  8
ASSI
100
AcDbEllipse
 62
7
  6
CONTINUOUS
 10
138.8478965575
 20
102.3937810001
 30
0.0
 11
0.3
 21
-0.0
 31
0.0
 40
0.0349207695
 41
1.5707963268
 42
3.1066860686
  0
ELLIPSE
  5
656
100
AcDbEntity
  8
ASSI
100
AcDbEllipse
 62
7
  6
CONTINUOUS
 10
155.7729112039
 20
83.2109280899
 30
0.0
 11
0.1992395838
 21
-0.0178260286
 31
0.0
 40
0.9965982379
 41
-1.4812606428
 42
0.0874087691
  0
ELLIPSE
  5
657
100
AcDbEntity
  8
ASSI
100
AcDbEllipse
 62
7
  6
CONTINUOUS
 10
136.3954798566
 20
83.2109280899
 30
0.0
 11
0.1992395838
 21
0.0178260286
 31
0.0
 40
0.9965982379
 41
3.0541838845
 42
4.6228532964
  0
ELLIPSE
  5
658
100
AcDbEntity
  8
ASSI
100
AcDbEllipse
 62
7
  6
CONTINUOUS
 10
155.9277806703
 20
103.6802628361
 30
0.0
 11
0.0
 21
498.5
 31
0.0
 40
0.0349207695
 41
-4.7097523516
 42
-4.7005263624
  0
ENDSEC
  0
SECTION
  2
OBJECTS
  0
DICTIONARY
  5
C
100
AcDbDictionary
280
0
281
1
  3
ACAD_GROUP
350
D
  3
ACAD_MLINESTYLE
350
17
  3
ACAD_LAYOUT
350
1A
  3
ACAD_PLOTSETTINGS
350
19
  3
ACAD_PLOTSTYLENAME
350
E
  0
DICTIONARY
  5
D
102
{ACAD_REACTORS
330
C
102
}
100
AcDbDictionary
280
0
281
1
  0
ACDBDICTIONARYWDFLT
  5
E
102
{ACAD_REACTORS
330
C
102
}
100
AcDbDictionary
281
1
  3
Normal
350
F
100
AcDbDictionaryWithDefault
340
F
  0
DICTIONARY
  5
17
102
{ACAD_REACTORS
330
C
102
}
100
AcDbDictionary
280
0
281
1
  3
Standard
350
18
  0
DICTIONARY
  5
19
102
{ACAD_REACTORS
330
C
102
}
100
AcDbDictionary
281
1
  0
DICTIONARY
  5
1A
102
{ACAD_REACTORS
330
C
102
}
100
AcDbDictionary
281
1
  3
Model
350
659
  3
Layout1
350
65A
  0
ACDBPLACEHOLDER
  5
F
102
{ACAD_REACTORS
330
E
102
}
  0
MLINESTYLE
  5
18
102
{ACAD_REACTORS
330
17
102
}
100
AcDbMlineStyle
  2
STANDARD
 70
0
  3

 62
256
 51
90.0
 52
90.0
 71
2
 49
0.5
 62
256
  6
BYLAYER
 49
-0.5
 62
256
  6
BYLAYER
  0
LAYOUT
  5
659
102
{ACAD_REACTORS
330
1A
102
}
100
AcDbPlotSettings
  1

  2
none_device
  4
ISO_A4_(297.00_x_210.00_MM)
  6

 40
0.0
 41
0.0
 42
0.0
 43
0.0
 44
297.0
 45
210.0
 46
0.0
 47
0.0
 48
0.0
 49
0.0
140
0.0
141
0.0
142
1.0
143
1.0
 70
1024
 72
1
 73
0
 74
0
  7

 75
0
147
1.0
148
0.0
149
0.0
100
AcDbLayout
  1
Model
 70
0
 71
0
 10
0.0
 20
0.0
 11
297.0
 21
210.0
 12
0.0
 22
0.0
 32
0.0
 14
0.0
 24
0.0
 34
0.0
 15
0.0
 25
0.0
 35
0.0
146
0.0
 13
0.0
 23
0.0
 33
0.0
 16
1.0
 26
0.0
 36
0.0
 17
0.0
 27
1.0
 37
0.0
 76
0
330
217
345
0
346
0
  0
LAYOUT
  5
65A
102
{ACAD_REACTORS
330
1A
102
}
100
AcDbPlotSettings
  1

  2
none_device
  4
ISO_A4_(297.00_x_210.00_MM)
  6

 40
0.0
 41
0.0
 42
0.0
 43
0.0
 44
297.0
 45
210.0
 46
0.0
 47
0.0
 48
0.0
 49
0.0
140
0.0
141
0.0
142
1.0
143
1.0
 70
0
 72
1
 73
0
 74
0
  7

 75
0
147
1.0
148
0.0
149
0.0
100
AcDbLayout
  1
Layout1
 70
0
 71
1
 10
0.0
 20
0.0
 11
297.0
 21
210.0
 12
0.0
 22
0.0
 32
0.0
 14
0.0
 24
0.0
 34
0.0
 15
0.0
 25
0.0
 35
0.0
146
0.0
 13
0.0
 23
0.0
 33
0.0
 16
1.0
 26
0.0
 36
0.0
 17
0.0
 27
1.0
 37
0.0
 76
0
330
218
345
0
346
0
  0
ENDSEC
  0
EOF
