  0
SECTION
  2
HEADER
  9
$ACADVER
  1
AC1024
  9
$DWGCODEPAGE
  3
ANSI_1252
  9
$EXTMAX
 10
297.0
 20
210.0
 30
0.0
  9
$EXTMIN
 10
0.0
 20
0.0
 30
0.0
  9
$LIMMIN
 10
0.0
 20
0.0
  9
$LIMMAX
 10
297.0
 20
210.0
  9
$VIEWCTR
 10
148.5
 20
105.0
  9
$VIEWSIZE
 40
210.0
  9
$CLAYER
  8
0
  9
$LTSCALE
 40
16.335
  9
$CELTYPE
  6
BYLAYER
  9
$DIMSCALE
 40
1.0
  9
$DIMASZ
 40
3.0
  9
$DIMEXO
 40
0.5
  9
$DIMDLI
 40
11.286
  9
$DIMEXE
 40
1.5
  9
$DIMCEN
 40
2.673
  9
$DIMLFAC
 40
1.0
  9
$DIMBLK
  1
_FILLED
  9
$DIMALT
 70
0
  9
$DIMALTF
 40
0.0393700787
  9
$DIMTXT
 40
3.0
  9
$DIMTOL
 70
1
  9
$DIMLIM
 70
0
  9
$DIMTFAC
 40
1.0
  9
$DIMTP
 40
0.01
  9
$DIMTM
 40
0.01
  9
$DIMGAP
 40
0.625
  9
$DIMDSEP
 70
44
  9
$AUNITS
 70
0
  9
$PDMODE
 70
3
  9
$PDSIZE
 40
3.0
  9
$HANDSEED
  5
66F
  9
$TILEMODE
 70
1
  9
$MEASUREMENT
 70
1
  9
$INSUNITS
 70
4
  0
ENDSEC
  0
SECTION
  2
CLASSES
  0
CLASS
  1
ACDBDICTIONARYWDFLT
  2
AcDbDictionaryWithDefault
  3
AutoCAD 2000
 90
0
 91
1
280
0
281
0
  0
CLASS
  1
ACDBPLACEHOLDER
  2
AcDbPlaceHolder
  3
AutoCAD 2000
 90
0
 91
1
280
0
281
0
  0
CLASS
  1
LAYOUT
  2
AcDbLayout
  3
AutoCAD 2000
 90
0
 91
0
280
0
281
0
  0
ENDSEC
  0
SECTION
  2
TABLES
  0
TABLE
  2
VPORT
  5
8
100
AcDbSymbolTable
 70
2
  0
VPORT
  5
1F4
100
AcDbSymbolTableRecord
100
AcDbViewportTableRecord
  2
*ACTIVE
 70
0
 10
0.0
 20
0.0
 11
1.0
 21
1.0
 12
148.5
 22
105.0
 13
0.0
 23
0.0
 14
1.0
 24
1.0
 15
0.0
 25
0.0
 16
0.0
 26
0.0
 36
1.0
 17
0.0
 27
0.0
 37
0.0
 40
210.0
 41
1.4142857143
 42
50.0
 43
0.0
 44
0.0
 50
0.0
 51
0.0
 71
0
 72
100
 73
1
 74
1
 75
0
 76
0
 77
0
 78
0
  0
ENDTAB
  0
TABLE
  2
LTYPE
  5
5
100
AcDbSymbolTable
 70
6
  0
LTYPE
  5
14
100
AcDbSymbolTableRecord
100
AcDbLinetypeTableRecord
  2
BYBLOCK
 70
0
  3

 72
65
 73
0
 40
0.0
  0
LTYPE
  5
15
100
AcDbSymbolTableRecord
100
AcDbLinetypeTableRecord
  2
BYLAYER
 70
0
  3

 72
65
 73
0
 40
0.0
  0
LTYPE
  5
16
100
AcDbSymbolTableRecord
100
AcDbLinetypeTableRecord
  2
CONTINUOUS
 70
64
  3
Solid line
 72
65
 73
0
 40
0.0
  0
LTYPE
  5
1F5
100
AcDbSymbolTableRecord
100
AcDbLinetypeTableRecord
  2
CENTER
 70
64
  3
____ _ ____ _ ____ _ ____ _ ____ _ ____ _ ____
 72
65
 73
4
 40
0.6
 49
0.375
 74
0
 49
-0.075
 74
0
 49
0.075
 74
0
 49
-0.075
 74
0
  0
LTYPE
  5
1F6
100
AcDbSymbolTableRecord
100
AcDbLinetypeTableRecord
  2
HIDDEN
 70
64
  3
- - - - - - - - - - - - - - - - - - - -
 72
65
 73
2
 40
0.2
 49
0.1
 74
0
 49
-0.1
 74
0
  0
LTYPE
  5
1F7
100
AcDbSymbolTableRecord
100
AcDbLinetypeTableRecord
  2
PHANTOM
 70
64
  3
_____ _ _ _____ _ _ _____ _ _ _____
 72
65
 73
6
 40
0.8
 49
0.45
 74
0
 49
-0.05
 74
0
 49
0.1
 74
0
 49
-0.05
 74
0
 49
0.1
 74
0
 49
-0.05
 74
0
  0
LTYPE
  5
1F8
100
AcDbSymbolTableRecord
100
AcDbLinetypeTableRecord
  2
DOT
 70
64
  3
. . . . . . . . . . . . . . . . . . . .
 72
65
 73
2
 40
0.2
 49
0.1
 74
0
 49
-0.1
 74
0
  0
LTYPE
  5
1F9
100
AcDbSymbolTableRecord
100
AcDbLinetypeTableRecord
  2
DASHED
 70
64
  3
- - - - - - - - - - - - - - - - - - - -
 72
65
 73
2
 40
0.2
 49
0.1
 74
0
 49
-0.1
 74
0
  0
ENDTAB
  0
TABLE
  2
LAYER
  5
2
100
AcDbSymbolTable
 70
36
  0
LAYER
  5
10
100
AcDbSymbolTableRecord
100
AcDbLayerTableRecord
  2
0
 70
0
 62
7
  6
CONTINUOUS
370
-3
390
F
  0
LAYER
  5
1FA
100
AcDbSymbolTableRecord
100
AcDbLayerTableRecord
  2
DEFAULT_1
 70
0
 62
7
  6
CENTER
370
-3
390
F
  0
LAYER
  5
1FB
100
AcDbSymbolTableRecord
100
AcDbLayerTableRecord
  2
DEFAULT_2
 70
0
 62
7
  6
HIDDEN
370
-3
390
F
  0
LAYER
  5
1FC
100
AcDbSymbolTableRecord
100
AcDbLayerTableRecord
  2
DEFAULT_3
 70
0
 62
7
  6
PHANTOM
370
-3
390
F
  0
LAYER
  5
1FD
100
AcDbSymbolTableRecord
100
AcDbLayerTableRecord
  2
ASSI
 70
0
 62
7
  6
CONTINUOUS
370
-3
390
F
  0
LAYER
  5
1FE
100
AcDbSymbolTableRecord
100
AcDbLayerTableRecord
  2
COORDINATE
 70
0
 62
7
  6
CONTINUOUS
370
-3
390
F
  0
LAYER
  5
1FF
100
AcDbSymbolTableRecord
100
AcDbLayerTableRecord
  2
COORD_ORIGINE
 70
0
 62
7
  6
CONTINUOUS
370
-3
390
F
  0
LAYER
  5
200
100
AcDbSymbolTableRecord
100
AcDbLayerTableRecord
  2
COSMETICI
 70
0
 62
7
  6
CONTINUOUS
370
-3
390
F
  0
LAYER
  5
201
100
AcDbSymbolTableRecord
100
AcDbLayerTableRecord
  2
CURVE
 70
0
 62
7
  6
CONTINUOUS
370
-3
390
F
  0
LAYER
  5
202
100
AcDbSymbolTableRecord
100
AcDbLayerTableRecord
  2
DRAFT
 70
0
 62
7
  6
CONTINUOUS
370
-3
390
F
  0
LAYER
  5
203
100
AcDbSymbolTableRecord
100
AcDbLayerTableRecord
  2
IGES
 70
0
 62
7
  6
CONTINUOUS
370
-3
390
F
  0
LAYER
  5
204
100
AcDbSymbolTableRecord
100
AcDbLayerTableRecord
  2
NOTE
 70
0
 62
7
  6
CONTINUOUS
370
-3
390
F
  0
LAYER
  5
205
100
AcDbSymbolTableRecord
100
AcDbLayerTableRecord
  2
PIANI
 70
0
 62
7
  6
CONTINUOUS
370
-3
390
F
  0
LAYER
  5
206
100
AcDbSymbolTableRecord
100
AcDbLayerTableRecord
  2
PIANI_ORIGINE
 70
0
 62
7
  6
CONTINUOUS
370
-3
390
F
  0
LAYER
  5
207
100
AcDbSymbolTableRecord
100
AcDbLayerTableRecord
  2
PIANI_RIFERIMENTO
 70
0
 62
7
  6
CONTINUOUS
370
-3
390
F
  0
LAYER
  5
208
100
AcDbSymbolTableRecord
100
AcDbLayerTableRecord
  2
PUNTI
 70
0
 62
7
  6
CONTINUOUS
370
-3
390
F
  0
LAYER
  5
209
100
AcDbSymbolTableRecord
100
AcDbLayerTableRecord
  2
RACCORDO
 70
0
 62
7
  6
CONTINUOUS
370
-3
390
F
  0
LAYER
  5
20A
100
AcDbSymbolTableRecord
100
AcDbLayerTableRecord
  2
SIMBOLI
 70
0
 62
7
  6
CONTINUOUS
370
-3
390
F
  0
LAYER
  5
20B
100
AcDbSymbolTableRecord
100
AcDbLayerTableRecord
  2
SMUSSO
 70
0
 62
7
  6
CONTINUOUS
370
-3
390
F
  0
LAYER
  5
20C
100
AcDbSymbolTableRecord
100
AcDbLayerTableRecord
  2
SNAPLINE
 70
0
 62
7
  6
CONTINUOUS
370
-3
390
F
  0
LAYER
  5
20D
100
AcDbSymbolTableRecord
100
AcDbLayerTableRecord
  2
SUPERFICI
 70
0
 62
7
  6
CONTINUOUS
370
-3
390
F
  0
LAYER
  5
20E
100
AcDbSymbolTableRecord
100
AcDbLayerTableRecord
  2
TRASH
 70
0
 62
7
  6
CONTINUOUS
370
-3
390
F
  0
LAYER
  5
20F
100
AcDbSymbolTableRecord
100
AcDbLayerTableRecord
  2
XSEC_DATUMS
 70
0
 62
7
  6
CONTINUOUS
370
-3
390
F
  0
ENDTAB
  0
TABLE
  2
STYLE
  5
3
100
AcDbSymbolTable
 70
1
  0
STYLE
  5
11
100
AcDbSymbolTableRecord
100
AcDbTextStyleTableRecord
  2
STANDARD
 70
0
 40
0.0
 41
0.8
 50
0.0
 71
0
 42
0.2
  3
txt
  4

  0
STYLE
  5
210
100
AcDbSymbolTableRecord
100
AcDbTextStyleTableRecord
  2
TEXTSTYLE_1
 70
0
 40
0.0
 41
0.8
 50
0.0
 71
0
 42
0.2
  3
gdt
  4

  0
ENDTAB
  0
TABLE
  2
VIEW
  5
6
100
AcDbSymbolTable
 70
0
  0
ENDTAB
  0
TABLE
  2
UCS
  5
7
100
AcDbSymbolTable
 70
0
  0
ENDTAB
  0
TABLE
  2
APPID
  5
9
100
AcDbSymbolTable
 70
1
  0
APPID
  5
211
100
AcDbSymbolTableRecord
100
AcDbRegAppTableRecord
  2
ACAD
 70
0
  0
ENDTAB
  0
TABLE
  2
BLOCK_RECORD
  5
1
100
AcDbSymbolTable
 70
0
  0
BLOCK_RECORD
  5
212
100
AcDbSymbolTableRecord
100
AcDbBlockTableRecord
  2
*Model_Space
  0
BLOCK_RECORD
  5
213
100
AcDbSymbolTableRecord
100
AcDbBlockTableRecord
  2
*Paper_Space
  0
BLOCK_RECORD
  5
214
100
AcDbSymbolTableRecord
100
AcDbBlockTableRecord
  2
_FILLED
  0
ENDTAB
  0
TABLE
  2
DIMSTYLE
  5
A
100
AcDbSymbolTable
 70
1
100
AcDbDimStyleTable
 71
0
  0
DIMSTYLE
105
215
100
AcDbSymbolTableRecord
100
AcDbDimStyleTableRecord
  2
STANDARD
 70
0
  3

  4

 40
1.0
 41
3.0
 42
0.5
 43
0.38
 44
1.5
 45
0.0
 46
0.0
 47
0.01
 48
0.01
140
3.0
141
0.09
142
0.0
143
25.4
144
1.0
145
0.0
146
1.0
147
0.625
 71
1
 72
0
 73
0
 74
0
 75
0
 76
0
 77
1
 78
8
 79
2
170
0
171
1
172
0
173
0
174
0
175
0
176
0
177
0
178
0
270
2
179
2
271
2
272
2
273
2
274
2
275
0
280
0
281
0
282
0
283
1
284
8
285
0
286
0
287
3
288
0
340
11
278
44
341
214
342
214
343
214
344
214
  0
ENDTAB
  0
ENDSEC
  0
SECTION
  2
BLOCKS
  0
BLOCK
  5
20
100
AcDbEntity
  8
0
100
AcDbBlockBegin
  2
*Model_Space
 70
0
 10
0.0
 20
0.0
 30
0.0
  3
*Model_Space
  1

  0
ENDBLK
  5
21
100
AcDbEntity
  8
0
100
AcDbBlockEnd
  0
BLOCK
  5
1C
100
AcDbEntity
  8
0
100
AcDbBlockBegin
  2
*Paper_Space
 70
0
 10
0.0
 20
0.0
 30
0.0
  3
*Paper_Space
  1

  0
ENDBLK
  5
1D
100
AcDbEntity
  8
0
100
AcDbBlockEnd
  0
BLOCK
  5
216
100
AcDbEntity
  8
0
100
AcDbBlockBegin
  2
_FILLED
 70
64
 10
0.0
 20
0.0
  3
_FILLED
  1

  0
SOLID
  5
217
100
AcDbEntity
  8
0
  6
BYBLOCK
 62
0
100
AcDbTrace
 10
0.0
 20
0.0
 11
-1.0
 21
0.3166666667
 12
-1.0
 22
-0.3166666667
 13
-1.0
 23
-0.3166666667
  0
ENDBLK
  5
218
100
AcDbEntity
  8
0
  6
BYBLOCK
 62
0
100
AcDbBlockEnd
  0
ENDSEC
  0
SECTION
  2
ENTITIES
  0
LINE
  5
219
100
AcDbEntity
  8
RACCORDO
100
AcDbLine
 62
7
  6
CONTINUOUS
 10
150.6145546057
 20
82.2143753798
 11
150.9652445718
 21
82.2462085378
  0
LINE
  5
21A
100
AcDbEntity
  8
RACCORDO
100
AcDbLine
 62
7
  6
CONTINUOUS
 10
139.4145546057
 20
82.2143753798
 11
139.7652445718
 21
82.2462085378
  0
LINE
  5
21B
100
AcDbEntity
  8
RACCORDO
100
AcDbLine
 62
7
  6
CONTINUOUS
 10
157.8595255381
 20
82.2143753798
 11
155.0314045917
 21
82.2143753798
  0
LINE
  5
21C
100
AcDbEntity
  8
DRAFT
100
AcDbLine
 62
7
  6
CONTINUOUS
 10
150.6145546057
 20
82.2143753798
 11
143.8314045917
 21
82.2143753798
  0
LINE
  5
21D
100
AcDbEntity
  8
RACCORDO
100
AcDbLine
 62
7
  6
CONTINUOUS
 10
139.4145546057
 20
82.2143753798
 11
136.5864336593
 21
82.2143753798
  0
LINE
  5
21E
100
AcDbEntity
  8
RACCORDO
100
AcDbLine
 62
7
  6
CONTINUOUS
 10
154.5075095448
 20
82.2514493157
 11
151.1384496525
 21
82.2514493157
  0
LINE
  5
21F
100
AcDbEntity
  8
RACCORDO
100
AcDbLine
 62
7
  6
CONTINUOUS
 10
143.3075095448
 20
82.2514493157
 11
139.9384496525
 21
82.2514493157
  0
LINE
  5
220
100
AcDbEntity
  8
RACCORDO
100
AcDbLine
 62
7
  6
CONTINUOUS
 10
143.8314045917
 20
82.2143753798
 11
143.4807146256
 21
82.2462085378
  0
LINE
  5
221
100
AcDbEntity
  8
RACCORDO
100
AcDbLine
 62
7
  6
CONTINUOUS
 10
155.0314045917
 20
82.2143753798
 11
154.6807146256
 21
82.2462085378
  0
LWPOLYLINE
  5
222
100
AcDbEntity
  8
RACCORDO
100
AcDbPolyline
 62
250
  6
CONTINUOUS
 90
8
 70
0
 10
137.3857767566
 20
84.2664969521
 10
137.3865924238
 20
84.2657877369
 10
137.3884905776
 20
84.2652190417
 10
137.3914477584
 20
84.264720772
 10
137.3954672447
 20
84.2641549517
 10
137.4005495054
 20
84.2635407429
 10
137.4066474508
 20
84.2630316223
 10
137.4217142783
 20
84.2619676865
  0
LINE
  5
223
100
AcDbEntity
  8
RACCORDO
100
AcDbLine
 62
7
  6
CONTINUOUS
 10
150.9652445718
 20
83.7955864708
 11
150.5392611219
 21
83.7049929548
  0
LWPOLYLINE
  5
224
100
AcDbEntity
  8
RACCORDO
100
AcDbPolyline
 62
250
  6
CONTINUOUS
 90
13
 70
0
 10
156.9837386961
 20
84.2602374378
 10
156.9950252404
 20
84.2606311106
 10
157.0055744992
 20
84.2610568547
 10
157.0153287787
 20
84.2615123417
 10
157.0242347331
 20
84.2619950816
 10
157.0322436559
 20
84.2625024339
 10
157.0393117465
 20
84.2630316223
 10
157.0454003497
 20
84.2635797552
 10
157.050476167
 20
84.2641438349
 10
157.054511439
 20
84.264720772
 10
157.0574840968
 20
84.2653074121
 10
157.0593778831
 20
84.2659005523
 10
157.0601824408
 20
84.2664969521
  0
LINE
  5
225
100
AcDbEntity
  8
RACCORDO
100
AcDbLine
 62
250
  6
CONTINUOUS
 10
156.9592043486
 20
84.2595547336
 11
156.9837386961
 21
84.2602374378
  0
LINE
  5
226
100
AcDbEntity
  8
RACCORDO
100
AcDbLine
 62
250
  6
CONTINUOUS
 10
156.9325074342
 20
84.259023654
 11
156.9592043486
 21
84.2595547336
  0
LINE
  5
227
100
AcDbEntity
  8
RACCORDO
100
AcDbLine
 62
250
  6
CONTINUOUS
 10
156.9042311736
 20
84.2586558024
 11
156.9325074342
 21
84.259023654
  0
LINE
  5
228
100
AcDbEntity
  8
RACCORDO
100
AcDbLine
 62
250
  6
CONTINUOUS
 10
156.8749932898
 20
84.2584592097
 11
156.9042311736
 21
84.2586558024
  0
LINE
  5
229
100
AcDbEntity
  8
RACCORDO
100
AcDbLine
 62
7
  6
CONTINUOUS
 10
156.9118162725
 20
83.7049929548
 11
155.1066980755
 21
83.7049929548
  0
LINE
  5
22A
100
AcDbEntity
  8
DRAFT
100
AcDbLine
 62
7
  6
CONTINUOUS
 10
150.5392611219
 20
83.7049929548
 11
143.9066980755
 21
83.7049929548
  0
LINE
  5
22B
100
AcDbEntity
  8
RACCORDO
100
AcDbLine
 62
7
  6
CONTINUOUS
 10
139.3392611219
 20
83.7049929548
 11
137.5341429248
 21
83.7049929548
  0
LINE
  5
22C
100
AcDbEntity
  8
RACCORDO
100
AcDbLine
 62
7
  6
CONTINUOUS
 10
154.5075095448
 20
83.8078649269
 11
153.1431119727
 21
83.8078649269
  0
LINE
  5
22D
100
AcDbEntity
  8
RACCORDO
100
AcDbLine
 62
7
  6
CONTINUOUS
 10
152.5028472247
 20
83.8078649269
 11
151.1384496525
 21
83.8078649269
  0
LINE
  5
22E
100
AcDbEntity
  8
RACCORDO
100
AcDbLine
 62
7
  6
CONTINUOUS
 10
143.3075095448
 20
83.8078649269
 11
141.9431119727
 21
83.8078649269
  0
LINE
  5
22F
100
AcDbEntity
  8
RACCORDO
100
AcDbLine
 62
7
  6
CONTINUOUS
 10
141.3028472247
 20
83.8078649269
 11
139.9384496525
 21
83.8078649269
  0
LINE
  5
230
100
AcDbEntity
  8
RACCORDO
100
AcDbLine
 62
7
  6
CONTINUOUS
 10
141.7008718279
 20
84.014730473
 11
141.5450873694
 21
84.014730473
  0
LINE
  5
231
100
AcDbEntity
  8
RACCORDO
100
AcDbLine
 62
7
  6
CONTINUOUS
 10
152.7450873694
 20
84.014730473
 11
152.9008718279
 21
84.014730473
  0
LINE
  5
232
100
AcDbEntity
  8
RACCORDO
100
AcDbLine
 62
250
  6
CONTINUOUS
 10
137.5857462956
 20
84.0679877218
 11
141.2288665215
 21
84.0679877218
  0
LINE
  5
233
100
AcDbEntity
  8
RACCORDO
100
AcDbLine
 62
250
  6
CONTINUOUS
 10
142.0170926759
 20
84.0679877218
 11
152.4288665215
 21
84.0679877218
  0
LINE
  5
234
100
AcDbEntity
  8
RACCORDO
100
AcDbLine
 62
250
  6
CONTINUOUS
 10
153.2170926759
 20
84.0679877218
 11
156.8602129017
 21
84.0679877218
  0
LINE
  5
235
100
AcDbEntity
  8
RACCORDO
100
AcDbLine
 62
250
  6
CONTINUOUS
 10
137.585746306
 20
84.2584266366
 11
141.2227392101
 21
84.2584266366
  0
LINE
  5
236
100
AcDbEntity
  8
RACCORDO
100
AcDbLine
 62
250
  6
CONTINUOUS
 10
142.0232199873
 20
84.2584266366
 11
152.4227392101
 21
84.2584266366
  0
LINE
  5
237
100
AcDbEntity
  8
RACCORDO
100
AcDbLine
 62
250
  6
CONTINUOUS
 10
153.2232199873
 20
84.2584266366
 11
156.8749932898
 21
84.2584592097
  0
LWPOLYLINE
  5
238
100
AcDbEntity
  8
RACCORDO
100
AcDbPolyline
 62
250
  6
CONTINUOUS
 90
3
 70
0
 10
137.5417280238
 20
84.2586558024
 10
137.570999715
 20
84.2585618397
 10
137.5857462956
 20
84.2584266366
  0
LINE
  5
239
100
AcDbEntity
  8
RACCORDO
100
AcDbLine
 62
250
  6
CONTINUOUS
 10
137.5274239951
 20
84.2588008055
 11
137.5417280238
 21
84.2586558024
  0
LWPOLYLINE
  5
23A
100
AcDbEntity
  8
RACCORDO
100
AcDbPolyline
 62
250
  6
CONTINUOUS
 90
3
 70
0
 10
137.4622205013
 20
84.2602374378
 10
137.4867481603
 20
84.2595377434
 10
137.5274239951
 20
84.2588008055
  0
LWPOLYLINE
  5
23B
100
AcDbEntity
  8
RACCORDO
100
AcDbPolyline
 62
250
  6
CONTINUOUS
 90
25
 70
0
 10
137.5857462956
 20
84.0679877218
 10
137.5726853162
 20
84.0684391722
 10
137.5596801146
 20
84.069736442
 10
137.5467862304
 20
84.0718739912
 10
137.5340587278
 20
84.0748426912
 10
137.5215519606
 20
84.078629864
 10
137.5093193397
 20
84.0832193362
 10
137.4974131054
 20
84.0885915081
 10
137.4858841042
 20
84.0947234374
 10
137.4747815713
 20
84.1015889375
 10
137.4641529209
 20
84.1091586886
 10
137.4540435434
 20
84.1174003637
 10
137.4444966117
 20
84.126278766
 10
137.4355528965
 20
84.1357559798
 10
137.4272505926
 20
84.1457915319
 10
137.4196251555
 20
84.1563425649
 10
137.4127091502
 20
84.1673640199
 10
137.4065321121
 20
84.1788088288
 10
137.4011204205
 20
84.190628116
 10
137.3964971864
 20
84.2027714062
 10
137.3926821538
 20
84.2151868408
 10
137.3896916149
 20
84.2278213988
 10
137.3875383411
 20
84.2406211234
 10
137.3862315281
 20
84.2535313525
 10
137.3857767566
 20
84.2664969521
  0
LWPOLYLINE
  5
23C
100
AcDbEntity
  8
RACCORDO
100
AcDbPolyline
 62
250
  6
CONTINUOUS
 90
3
 70
0
 10
137.4306304186
 20
84.2615123417
 10
137.4509258601
 20
84.260611451
 10
137.4622205013
 20
84.2602374378
  0
LINE
  5
23D
100
AcDbEntity
  8
RACCORDO
100
AcDbLine
 62
250
  6
CONTINUOUS
 10
137.4217142783
 20
84.2619676865
 11
137.4306304186
 21
84.2615123417
  0
LINE
  5
23E
100
AcDbEntity
  8
RACCORDO
100
AcDbLine
 62
7
  6
CONTINUOUS
 10
143.4807146256
 20
83.7955864708
 11
143.9066980755
 21
83.7049929548
  0
LINE
  5
23F
100
AcDbEntity
  8
RACCORDO
100
AcDbLine
 62
7
  6
CONTINUOUS
 10
139.7652445718
 20
83.7955864708
 11
139.3392611219
 21
83.7049929548
  0
LWPOLYLINE
  5
240
100
AcDbEntity
  8
RACCORDO
100
AcDbPolyline
 62
250
  6
CONTINUOUS
 90
25
 70
0
 10
152.8634405227
 20
86.3134110058
 10
152.8794607807
 20
86.313842484
 10
152.8954151683
 20
86.3147065866
 10
152.9112380892
 20
86.3159997606
 10
152.9268644883
 20
86.3177166889
 10
152.9422301172
 20
86.3198503122
 10
152.9572717983
 20
86.3223918573
 10
152.971927688
 20
86.3253308744
 10
152.9861375296
 20
86.3286552793
 10
152.9998428985
 20
86.3323514031
 10
153.0129874459
 20
86.3364040485
 10
153.0255171294
 20
86.3407965531
 10
153.0373804338
 20
86.3455108563
 10
153.0485285842
 20
86.3505275751
 10
153.0589157467
 20
86.355826083
 10
153.0684992161
 20
86.3613845952
 10
153.0772395914
 20
86.3671802577
 10
153.085100938
 20
86.3731892416
 10
153.0920509362
 20
86.3793868416
 10
153.0980610123
 20
86.3857475763
 10
153.1031064572
 20
86.3922452939
 10
153.1071665284
 20
86.39885328
 10
153.1102245337
 20
86.4055443665
 10
153.112267901
 20
86.4122910431
 10
153.1132882295
 20
86.4190655712
  0
LINE
  5
241
100
AcDbEntity
  8
RACCORDO
100
AcDbLine
 62
250
  6
CONTINUOUS
 10
152.8634405227
 20
86.3134110058
 11
152.7825186746
 21
86.3134110058
  0
LINE
  5
242
100
AcDbEntity
  8
RACCORDO
100
AcDbLine
 62
250
  6
CONTINUOUS
 10
141.6634405227
 20
86.3134110058
 11
141.5825186746
 21
86.3134110058
  0
LWPOLYLINE
  5
243
100
AcDbEntity
  8
RACCORDO
100
AcDbPolyline
 62
250
  6
CONTINUOUS
 90
25
 70
0
 10
141.5825186746
 20
86.3134110058
 10
141.5664984763
 20
86.3138424805
 10
141.5505441444
 20
86.3147065767
 10
141.5347212749
 20
86.3159997415
 10
141.5190949228
 20
86.3177166584
 10
141.5037293356
 20
86.319850268
 10
141.4886876882
 20
86.3223917983
 10
141.4740318239
 20
86.3253307998
 10
141.4598219999
 20
86.3286551888
 10
141.4461166394
 20
86.3323512973
 10
141.4329720916
 20
86.3364039287
 10
141.4204423999
 20
86.3407964209
 10
141.4085790797
 20
86.3455107143
 10
141.3974309066
 20
86.3505274261
 10
141.3870437161
 20
86.3558259304
 10
141.3774602147
 20
86.3613844424
 10
141.3687198047
 20
86.3671801086
 10
141.360858422
 20
86.3731891002
 10
141.3539083885
 20
86.3793867115
 10
141.3478982789
 20
86.3857474612
 10
141.3428528038
 20
86.3922451972
 10
141.3387927073
 20
86.3988532044
 10
141.3357346824
 20
86.4055443141
 10
141.3336913022
 20
86.412291016
 10
141.3326709679
 20
86.4190655712
  0
LINE
  5
244
100
AcDbEntity
  8
RACCORDO
100
AcDbLine
 62
7
  6
CONTINUOUS
 10
154.6807146256
 20
83.7955864708
 11
155.1066980755
 21
83.7049929548
  0
LINE
  5
245
100
AcDbEntity
  8
RACCORDO
100
AcDbLine
 62
250
  6
CONTINUOUS
 10
141.2717536841
 20
120.2479534868
 11
141.2173594057
 21
120.220764634
  0
LINE
  5
246
100
AcDbEntity
  8
RACCORDO
100
AcDbLine
 62
250
  6
CONTINUOUS
 10
141.5216009324
 20
119.9979913338
 11
141.4670839266
 21
119.970741136
  0
LWPOLYLINE
  5
247
100
AcDbEntity
  8
RACCORDO
100
AcDbPolyline
 62
7
  6
CONTINUOUS
 90
31
 70
0
 10
152.7233169567
 20
87.2735824745
 10
152.7077023688
 20
87.2726359787
 10
152.6924109356
 20
87.2710047171
 10
152.6774958647
 20
87.2686886896
 10
152.6630115985
 20
87.2656422185
 10
152.6489915554
 20
87.2619109816
 10
152.6354495034
 20
87.2576320125
 10
152.6224199092
 20
87.2528113381
 10
152.6099250626
 20
87.2474429315
 10
152.5979564349
 20
87.2416457454
 10
152.5865337879
 20
87.2354265901
 10
152.5756721617
 20
87.2287786553
 10
152.5653556539
 20
87.2218004635
 10
152.5555947049
 20
87.2144972412
 10
152.5463992647
 20
87.2068637619
 10
152.5377545325
 20
87.1989828687
 10
152.5296654906
 20
87.1908579967
 10
152.522137776
 20
87.1824857108
 10
152.515159967
 20
87.1739385484
 10
152.5087333159
 20
87.1652184474
 10
152.5028598932
 20
87.15632347
 10
152.4975314401
 20
87.14732034
 10
152.4927461877
 20
87.1382100404
 10
152.4885028731
 20
87.1289915882
 10
152.4847948591
 20
87.1197287581
 10
152.4816173709
 20
87.1104218534
 10
152.4789658842
 20
87.1010705709
 10
152.4768335209
 20
87.0917377755
 10
152.4752125758
 20
87.0824444224
 10
152.4740944014
 20
87.0731695565
 10
152.47346925
 20
87.0639131777
  0
LWPOLYLINE
  5
248
100
AcDbEntity
  8
RACCORDO
100
AcDbPolyline
 62
250
  6
CONTINUOUS
 90
25
 70
0
 10
152.7812394228
 20
87.0176446549
 10
152.7649612005
 20
87.0170243618
 10
152.7487521507
 20
87.0153605395
 10
152.7326811488
 20
87.0126602585
 10
152.7168164834
 20
87.008934993
 10
152.7012255673
 20
87.0042005733
 10
152.6859746515
 20
86.9984771181
 10
152.6711285402
 20
86.9917889486
 10
152.656750317
 20
86.984164485
 10
152.6429010787
 20
86.975636127
 10
152.6296396731
 20
86.9662401143
 10
152.6170224495
 20
86.9560163734
 10
152.6051030205
 20
86.9450083484
 10
152.5939320334
 20
86.9332628156
 10
152.5835569545
 20
86.9208296846
 10
152.5740218681
 20
86.9077617868
 10
152.5653672896
 20
86.8941146509
 10
152.5576299925
 20
86.8799462664
 10
152.5508428523
 20
86.8653168367
 10
152.5450347078
 20
86.8502885253
 10
152.5402302376
 20
86.8349251902
 10
152.5364498554
 20
86.819292111
 10
152.5337096238
 20
86.8034557147
 10
152.5320211861
 20
86.7874832935
 10
152.531391716
 20
86.7714427166
  0
LWPOLYLINE
  5
249
100
AcDbEntity
  8
RACCORDO
100
AcDbPolyline
 62
250
  6
CONTINUOUS
 90
25
 70
0
 10
141.5812394228
 20
87.0176446549
 10
141.5649612005
 20
87.0170243618
 10
141.5487521507
 20
87.0153605395
 10
141.5326811488
 20
87.0126602585
 10
141.5168164834
 20
87.008934993
 10
141.5012255673
 20
87.0042005733
 10
141.4859746515
 20
86.9984771181
 10
141.4711285402
 20
86.9917889486
 10
141.456750317
 20
86.984164485
 10
141.4429010787
 20
86.975636127
 10
141.4296396731
 20
86.9662401143
 10
141.4170224495
 20
86.9560163734
 10
141.4051030205
 20
86.9450083484
 10
141.3939320334
 20
86.9332628156
 10
141.3835569545
 20
86.9208296846
 10
141.3740218681
 20
86.9077617868
 10
141.3653672896
 20
86.8941146509
 10
141.3576299925
 20
86.8799462664
 10
141.3508428523
 20
86.8653168367
 10
141.3450347078
 20
86.8502885253
 10
141.3402302376
 20
86.8349251902
 10
141.3364498554
 20
86.819292111
 10
141.3337096238
 20
86.8034557147
 10
141.3320211861
 20
86.7874832935
 10
141.331391716
 20
86.7714427166
  0
LWPOLYLINE
  5
24A
100
AcDbEntity
  8
RACCORDO
100
AcDbPolyline
 62
250
  6
CONTINUOUS
 90
25
 70
0
 10
141.6634405227
 20
86.3134110058
 10
141.6794607807
 20
86.313842484
 10
141.6954151683
 20
86.3147065866
 10
141.7112380892
 20
86.3159997606
 10
141.7268644883
 20
86.3177166889
 10
141.7422301172
 20
86.3198503122
 10
141.7572717983
 20
86.3223918573
 10
141.771927688
 20
86.3253308744
 10
141.7861375296
 20
86.3286552793
 10
141.7998428985
 20
86.3323514031
 10
141.8129874459
 20
86.3364040485
 10
141.8255171294
 20
86.3407965531
 10
141.8373804338
 20
86.3455108563
 10
141.8485285842
 20
86.3505275751
 10
141.8589157467
 20
86.355826083
 10
141.8684992161
 20
86.3613845952
 10
141.8772395914
 20
86.3671802577
 10
141.885100938
 20
86.3731892416
 10
141.8920509362
 20
86.3793868416
 10
141.8980610123
 20
86.3857475763
 10
141.9031064572
 20
86.3922452939
 10
141.9071665284
 20
86.39885328
 10
141.9102245337
 20
86.4055443665
 10
141.912267901
 20
86.4122910431
 10
141.9132882295
 20
86.4190655712
  0
LINE
  5
24B
100
AcDbEntity
  8
RACCORDO
100
AcDbLine
 62
250
  6
CONTINUOUS
 10
141.3328345581
 20
86.4401964843
 11
141.9131246393
 21
86.4401964843
  0
LINE
  5
24C
100
AcDbEntity
  8
RACCORDO
100
AcDbLine
 62
250
  6
CONTINUOUS
 10
152.5328345581
 20
86.4401964843
 11
153.1131246393
 21
86.4401964843
  0
LINE
  5
24D
100
AcDbEntity
  8
RACCORDO
100
AcDbLine
 62
250
  6
CONTINUOUS
 10
141.3328345581
 20
86.722202329
 11
141.9131246393
 21
86.722202329
  0
LINE
  5
24E
100
AcDbEntity
  8
RACCORDO
100
AcDbLine
 62
250
  6
CONTINUOUS
 10
152.5328345581
 20
86.722202329
 11
153.1131246393
 21
86.722202329
  0
LINE
  5
24F
100
AcDbEntity
  8
RACCORDO
100
AcDbLine
 62
250
  6
CONTINUOUS
 10
152.8647197746
 20
87.0176446549
 11
152.7812394228
 21
87.0176446549
  0
LINE
  5
250
100
AcDbEntity
  8
RACCORDO
100
AcDbLine
 62
250
  6
CONTINUOUS
 10
141.6647197746
 20
87.0176446549
 11
141.5812394228
 21
87.0176446549
  0
LINE
  5
251
100
AcDbEntity
  8
RACCORDO
100
AcDbLine
 62
7
  6
CONTINUOUS
 10
152.9154280303
 20
87.2736880855
 11
152.7305311671
 21
87.2736880855
  0
LINE
  5
252
100
AcDbEntity
  8
RACCORDO
100
AcDbLine
 62
7
  6
CONTINUOUS
 10
141.5305311671
 20
87.2736880855
 11
141.7154280303
 21
87.2736880855
  0
LWPOLYLINE
  5
253
100
AcDbEntity
  8
RACCORDO
100
AcDbPolyline
 62
250
  6
CONTINUOUS
 90
25
 70
0
 10
152.7825186746
 20
86.3134110058
 10
152.7664984763
 20
86.3138424805
 10
152.7505441444
 20
86.3147065767
 10
152.7347212749
 20
86.3159997415
 10
152.7190949228
 20
86.3177166584
 10
152.7037293356
 20
86.319850268
 10
152.6886876882
 20
86.3223917983
 10
152.6740318239
 20
86.3253307998
 10
152.6598219999
 20
86.3286551888
 10
152.6461166394
 20
86.3323512973
 10
152.6329720916
 20
86.3364039287
 10
152.6204423999
 20
86.3407964209
 10
152.6085790797
 20
86.3455107143
 10
152.5974309066
 20
86.3505274261
 10
152.5870437161
 20
86.3558259304
 10
152.5774602147
 20
86.3613844424
 10
152.5687198047
 20
86.3671801086
 10
152.560858422
 20
86.3731891002
 10
152.5539083885
 20
86.3793867115
 10
152.5478982789
 20
86.3857474612
 10
152.5428528038
 20
86.3922451972
 10
152.5387927073
 20
86.3988532044
 10
152.5357346824
 20
86.4055443141
 10
152.5336913022
 20
86.412291016
 10
152.5326709679
 20
86.4190655712
  0
LWPOLYLINE
  5
254
100
AcDbEntity
  8
RACCORDO
100
AcDbPolyline
 62
250
  6
CONTINUOUS
 90
25
 70
0
 10
141.6647197746
 20
87.0176446549
 10
141.6809979406
 20
87.0170243658
 10
141.6972069376
 20
87.0153605544
 10
141.7132778905
 20
87.0126602905
 10
141.729142511
 20
87.0089350479
 10
141.7447333871
 20
87.004200656
 10
141.7599842705
 20
86.9984772321
 10
141.7748303572
 20
86.991789096
 10
141.7892085635
 20
86.9841646669
 10
141.8030577935
 20
86.9756363425
 10
141.8163191995
 20
86.9662403612
 10
141.8289364311
 20
86.9560166482
 10
141.8408558755
 20
86.945008646
 10
141.8520268846
 20
86.9332631298
 10
141.8624019907
 20
86.9208300083
 10
141.8719371081
 20
86.9077621123
 10
141.8805917203
 20
86.8941149697
 10
141.8883290523
 20
86.8799465697
 10
141.8951162265
 20
86.8653171165
 10
141.9009244032
 20
86.8502887735
 10
141.9057289021
 20
86.8349253988
 10
141.9095093082
 20
86.8192922743
 10
141.9122495578
 20
86.8034558281
 10
141.913938007
 20
86.7874833522
 10
141.9145674814
 20
86.7714427166
  0
LWPOLYLINE
  5
255
100
AcDbEntity
  8
RACCORDO
100
AcDbPolyline
 62
250
  6
CONTINUOUS
 90
25
 70
0
 10
152.8647197746
 20
87.0176446549
 10
152.8809979406
 20
87.0170243658
 10
152.8972069376
 20
87.0153605544
 10
152.9132778905
 20
87.0126602905
 10
152.929142511
 20
87.0089350479
 10
152.9447333871
 20
87.004200656
 10
152.9599842705
 20
86.9984772321
 10
152.9748303572
 20
86.991789096
 10
152.9892085635
 20
86.9841646669
 10
153.0030577935
 20
86.9756363425
 10
153.0163191995
 20
86.9662403612
 10
153.0289364311
 20
86.9560166482
 10
153.0408558755
 20
86.945008646
 10
153.0520268846
 20
86.9332631298
 10
153.0624019907
 20
86.9208300083
 10
153.0719371081
 20
86.9077621123
 10
153.0805917203
 20
86.8941149697
 10
153.0883290523
 20
86.8799465697
 10
153.0951162265
 20
86.8653171165
 10
153.1009244032
 20
86.8502887735
 10
153.1057289021
 20
86.8349253988
 10
153.1095093082
 20
86.8192922743
 10
153.1122495578
 20
86.8034558281
 10
153.113938007
 20
86.7874833522
 10
153.1145674814
 20
86.7714427166
  0
LINE
  5
256
100
AcDbEntity
  8
RACCORDO
100
AcDbLine
 62
250
  6
CONTINUOUS
 10
141.2173594057
 20
88.5266115371
 11
141.2717536841
 21
88.4994226843
  0
LINE
  5
257
100
AcDbEntity
  8
RACCORDO
100
AcDbLine
 62
250
  6
CONTINUOUS
 10
141.4670839266
 20
88.776635035
 11
141.5216009324
 21
88.7493848372
  0
LWPOLYLINE
  5
258
100
AcDbEntity
  8
RACCORDO
100
AcDbPolyline
 62
250
  6
CONTINUOUS
 90
25
 70
0
 10
152.7216013908
 20
88.7493846081
 10
152.7052668648
 20
88.7488398798
 10
152.6890022337
 20
88.7472279331
 10
152.6728770914
 20
88.7445556658
 10
152.6569604347
 20
88.7408345124
 10
152.6413203687
 20
88.7360803955
 10
152.626023815
 20
88.7303136577
 10
152.6111362249
 20
88.7235589746
 10
152.5967213
 20
88.7158452488
 10
152.5828407194
 20
88.7072054866
 10
152.5695538757
 20
88.6976766566
 10
152.5569176208
 20
88.6872995316
 10
152.5449860229
 20
88.6761185142
 10
152.5338101351
 20
88.6641814465
 10
152.5234377767
 20
88.6515394057
 10
152.513913329
 20
88.6382464853
 10
152.5052775448
 20
88.6243595638
 10
152.4975673749
 20
88.6099380613
 10
152.4908158092
 20
88.5950436852
 10
152.4850517358
 20
88.5797401662
 10
152.4802998179
 20
88.5640929855
 10
152.4765803873
 20
88.5481690947
 10
152.4739093584
 20
88.5320366294
 10
152.4722981595
 20
88.5157646176
 10
152.4717536841
 20
88.4994226843
  0
LWPOLYLINE
  5
259
100
AcDbEntity
  8
RACCORDO
100
AcDbPolyline
 62
250
  6
CONTINUOUS
 90
25
 70
0
 10
141.5216013908
 20
88.7493846081
 10
141.5052668648
 20
88.7488398798
 10
141.4890022337
 20
88.7472279331
 10
141.4728770914
 20
88.7445556658
 10
141.4569604347
 20
88.7408345124
 10
141.4413203687
 20
88.7360803955
 10
141.426023815
 20
88.7303136577
 10
141.4111362249
 20
88.7235589746
 10
141.3967213
 20
88.7158452488
 10
141.3828407194
 20
88.7072054866
 10
141.3695538757
 20
88.6976766566
 10
141.3569176208
 20
88.6872995316
 10
141.3449860229
 20
88.6761185142
 10
141.3338101351
 20
88.6641814465
 10
141.3234377767
 20
88.6515394057
 10
141.313913329
 20
88.6382464853
 10
141.3052775448
 20
88.6243595638
 10
141.2975673749
 20
88.6099380613
 10
141.2908158092
 20
88.5950436852
 10
141.2850517358
 20
88.5797401662
 10
141.2802998179
 20
88.5640929855
 10
141.2765803873
 20
88.5481690947
 10
141.2739093584
 20
88.5320366294
 10
141.2722981595
 20
88.5157646176
 10
141.2717536841
 20
88.4994226843
  0
LINE
  5
25A
100
AcDbEntity
  8
RACCORDO
100
AcDbLine
 62
250
  6
CONTINUOUS
 10
141.27346925
 20
88.4494302995
 11
141.9724899474
 21
88.4494302995
  0
LINE
  5
25B
100
AcDbEntity
  8
RACCORDO
100
AcDbLine
 62
250
  6
CONTINUOUS
 10
152.47346925
 20
88.4494302995
 11
153.1724899474
 21
88.4494302995
  0
LINE
  5
25C
100
AcDbEntity
  8
RACCORDO
100
AcDbLine
 62
250
  6
CONTINUOUS
 10
152.924358265
 20
88.7493848372
 11
152.7216009324
 21
88.7493848372
  0
LINE
  5
25D
100
AcDbEntity
  8
RACCORDO
100
AcDbLine
 62
250
  6
CONTINUOUS
 10
141.724358265
 20
88.7493848372
 11
141.5216009324
 21
88.7493848372
  0
LINE
  5
25E
100
AcDbEntity
  8
RACCORDO
100
AcDbLine
 62
7
  6
CONTINUOUS
 10
152.9788752708
 20
88.776635035
 11
152.6670839266
 21
88.776635035
  0
LINE
  5
25F
100
AcDbEntity
  8
RACCORDO
100
AcDbLine
 62
7
  6
CONTINUOUS
 10
141.7788752708
 20
88.776635035
 11
141.4670839266
 21
88.776635035
  0
LWPOLYLINE
  5
260
100
AcDbEntity
  8
RACCORDO
100
AcDbPolyline
 62
7
  6
CONTINUOUS
 90
28
 70
0
 10
141.7788752708
 20
88.776635035
 10
141.7933339331
 20
88.7762168086
 10
141.8077731249
 20
88.774959838
 10
141.8221439502
 20
88.7728630759
 10
141.8364168023
 20
88.7699237433
 10
141.8505221973
 20
88.7661489136
 10
141.8643539708
 20
88.7615668522
 10
141.8778361922
 20
88.7562112247
 10
141.8909573218
 20
88.7500953187
 10
141.9037098901
 20
88.7432244579
 10
141.916051803
 20
88.7356191662
 10
141.9279389869
 20
88.7273043651
 10
141.9393565395
 20
88.7182846718
 10
141.9502906823
 20
88.7085565411
 10
141.9606660117
 20
88.6981719211
 10
141.9703845076
 20
88.6872289625
 10
141.9793938607
 20
88.6758036207
 10
141.9876980288
 20
88.6639091879
 10
141.9952934126
 20
88.651558961
 10
142.0021550402
 20
88.6387963984
 10
142.0082617913
 20
88.6256639228
 10
142.0136082044
 20
88.6121686518
 10
142.0181809791
 20
88.598320697
 10
142.0219455198
 20
88.5841973095
 10
142.0248726641
 20
88.569908651
 10
142.0269555392
 20
88.5555257359
 10
142.0281974634
 20
88.5410770265
 10
142.0285997917
 20
88.5266115371
  0
LWPOLYLINE
  5
261
100
AcDbEntity
  8
RACCORDO
100
AcDbPolyline
 62
7
  6
CONTINUOUS
 90
28
 70
0
 10
152.9788752708
 20
88.776635035
 10
152.9933339331
 20
88.7762168086
 10
153.0077731249
 20
88.774959838
 10
153.0221439502
 20
88.7728630759
 10
153.0364168023
 20
88.7699237433
 10
153.0505221973
 20
88.7661489136
 10
153.0643539708
 20
88.7615668522
 10
153.0778361922
 20
88.7562112247
 10
153.0909573218
 20
88.7500953187
 10
153.1037098901
 20
88.7432244579
 10
153.116051803
 20
88.7356191662
 10
153.1279389869
 20
88.7273043651
 10
153.1393565395
 20
88.7182846718
 10
153.1502906823
 20
88.7085565411
 10
153.1606660117
 20
88.6981719211
 10
153.1703845076
 20
88.6872289625
 10
153.1793938607
 20
88.6758036207
 10
153.1876980288
 20
88.6639091879
 10
153.1952934126
 20
88.651558961
 10
153.2021550402
 20
88.6387963984
 10
153.2082617913
 20
88.6256639228
 10
153.2136082044
 20
88.6121686518
 10
153.2181809791
 20
88.598320697
 10
153.2219455198
 20
88.5841973095
 10
153.2248726641
 20
88.569908651
 10
153.2269555392
 20
88.5555257359
 10
153.2281974634
 20
88.5410770265
 10
153.2285997917
 20
88.5266115371
  0
LWPOLYLINE
  5
262
100
AcDbEntity
  8
RACCORDO
100
AcDbPolyline
 62
250
  6
CONTINUOUS
 90
25
 70
0
 10
141.7243578066
 20
88.7493846081
 10
141.7406923043
 20
88.7488398817
 10
141.7569569094
 20
88.7472279403
 10
141.7730820284
 20
88.7445556813
 10
141.7889986644
 20
88.7408345388
 10
141.804638713
 20
88.7360804348
 10
141.8199352528
 20
88.7303137116
 10
141.8348228325
 20
88.7235590438
 10
141.8492377507
 20
88.7158453336
 10
141.8631183283
 20
88.7072055868
 10
141.8764051725
 20
88.6976767712
 10
141.8890414313
 20
88.6872996593
 10
141.900973036
 20
88.6761186528
 10
141.9121489335
 20
88.6641815936
 10
141.9225213037
 20
88.6515395582
 10
141.9320457652
 20
88.6382466399
 10
141.9406815642
 20
88.6243597169
 10
141.9483917497
 20
88.609938209
 10
141.955143331
 20
88.5950438234
 10
141.9609074192
 20
88.5797402909
 10
141.9656593508
 20
88.5640930925
 10
141.9693787931
 20
88.5481691802
 10
141.972049831
 20
88.5320366897
 10
141.9736610358
 20
88.5157646493
 10
141.9742055133
 20
88.4994226843
  0
LWPOLYLINE
  5
263
100
AcDbEntity
  8
RACCORDO
100
AcDbPolyline
 62
250
  6
CONTINUOUS
 90
25
 70
0
 10
152.9243578066
 20
88.7493846081
 10
152.9406923043
 20
88.7488398817
 10
152.9569569094
 20
88.7472279403
 10
152.9730820284
 20
88.7445556813
 10
152.9889986644
 20
88.7408345388
 10
153.004638713
 20
88.7360804348
 10
153.0199352528
 20
88.7303137116
 10
153.0348228325
 20
88.7235590438
 10
153.0492377507
 20
88.7158453336
 10
153.0631183283
 20
88.7072055868
 10
153.0764051725
 20
88.6976767712
 10
153.0890414313
 20
88.6872996593
 10
153.100973036
 20
88.6761186528
 10
153.1121489335
 20
88.6641815936
 10
153.1225213037
 20
88.6515395582
 10
153.1320457652
 20
88.6382466399
 10
153.1406815642
 20
88.6243597169
 10
153.1483917497
 20
88.609938209
 10
153.155143331
 20
88.5950438234
 10
153.1609074192
 20
88.5797402909
 10
153.1656593508
 20
88.5640930925
 10
153.1693787931
 20
88.5481691802
 10
153.172049831
 20
88.5320366897
 10
153.1736610358
 20
88.5157646493
 10
153.1742055133
 20
88.4994226843
  0
LINE
  5
264
100
AcDbEntity
  8
DRAFT
100
AcDbLine
 62
7
  6
CONTINUOUS
 10
137.3398564977
 20
90.2736880855
 11
137.7229795987
 21
90.2736880855
  0
LINE
  5
265
100
AcDbEntity
  8
DRAFT
100
AcDbLine
 62
7
  6
CONTINUOUS
 10
156.7229795987
 20
90.2736880855
 11
157.1061026996
 21
90.2736880855
  0
LINE
  5
266
100
AcDbEntity
  8
DRAFT
100
AcDbLine
 62
7
  6
CONTINUOUS
 10
158.3729795987
 20
91.2736880855
 11
157.1229795987
 21
91.2736880855
  0
LINE
  5
267
100
AcDbEntity
  8
DRAFT
100
AcDbLine
 62
7
  6
CONTINUOUS
 10
137.3229795987
 20
91.2736880855
 11
136.0729795987
 21
91.2736880855
  0
LWPOLYLINE
  5
268
100
AcDbEntity
  8
RACCORDO
100
AcDbPolyline
 62
250
  6
CONTINUOUS
 90
13
 70
0
 10
141.2717536841
 20
88.4994226843
 10
141.2718544284
 20
88.4992878714
 10
141.2719541215
 20
88.4989908621
 10
141.2720527633
 20
88.4985316565
 10
141.272150684
 20
88.49790767
 10
141.2722475535
 20
88.4971214871
 10
141.2723423816
 20
88.4961808616
 10
141.2724351376
 20
88.495084281
 10
141.2725258523
 20
88.4938332577
 10
141.2726136281
 20
88.4924400831
 10
141.272698436
 20
88.4909033297
 10
141.2727803051
 20
88.489224425
 10
141.2728584248
 20
88.4874199434
  0
LINE
  5
269
100
AcDbEntity
  8
RACCORDO
100
AcDbLine
 62
250
  6
CONTINUOUS
 10
152.4717536841
 20
120.2479534868
 11
152.4173594057
 21
120.220764634
  0
LINE
  5
26A
100
AcDbEntity
  8
RACCORDO
100
AcDbLine
 62
250
  6
CONTINUOUS
 10
152.7216009324
 20
119.9979913338
 11
152.6670839266
 21
119.970741136
  0
LINE
  5
26B
100
AcDbEntity
  8
RACCORDO
100
AcDbLine
 62
250
  6
CONTINUOUS
 10
152.4173594057
 20
88.5266115371
 11
152.4717536841
 21
88.4994226843
  0
LINE
  5
26C
100
AcDbEntity
  8
RACCORDO
100
AcDbLine
 62
250
  6
CONTINUOUS
 10
152.6670839266
 20
88.776635035
 11
152.7216009324
 21
88.7493848372
  0
LINE
  5
26D
100
AcDbEntity
  8
RACCORDO
100
AcDbLine
 62
7
  6
CONTINUOUS
 10
136.0729795987
 20
91.2736880855
 11
136.086053836
 21
82.7123211076
  0
LINE
  5
26E
100
AcDbEntity
  8
RACCORDO
100
AcDbLine
 62
7
  6
CONTINUOUS
 10
137.3342341069
 20
83.9039293171
 11
137.3229795987
 21
91.2736880855
  0
LINE
  5
26F
100
AcDbEntity
  8
RACCORDO
100
AcDbLine
 62
250
  6
CONTINUOUS
 10
137.3857767558
 20
124.4808792247
 11
137.3893780072
 21
118.4736880855
  0
LINE
  5
270
100
AcDbEntity
  8
RACCORDO
100
AcDbLine
 62
250
  6
CONTINUOUS
 10
137.391002461
 20
114.6736880855
 11
137.3919266628
 21
111.6765180854
  0
LINE
  5
271
100
AcDbEntity
  8
RACCORDO
100
AcDbLine
 62
7
  6
CONTINUOUS
 10
136.0729795987
 20
104.0737109308
 11
136.0729795987
 21
91.2736880855
  0
LINE
  5
272
100
AcDbEntity
  8
RACCORDO
100
AcDbLine
 62
7
  6
CONTINUOUS
 10
136.0729795987
 20
104.6736652402
 11
136.0729795987
 21
117.4736880855
  0
LINE
  5
273
100
AcDbEntity
  8
DRAFT
100
AcDbLine
 62
7
  6
CONTINUOUS
 10
137.3229795987
 20
104.2736880855
 11
137.3229795987
 21
91.2736880855
  0
LINE
  5
274
100
AcDbEntity
  8
DRAFT
100
AcDbLine
 62
7
  6
CONTINUOUS
 10
137.3229795987
 20
104.4736880855
 11
137.3229795987
 21
117.4736880855
  0
LINE
  5
275
100
AcDbEntity
  8
DRAFT
100
AcDbLine
 62
7
  6
CONTINUOUS
 10
137.3398564977
 20
118.4736880855
 11
137.3398564977
 21
114.6736880855
  0
LINE
  5
276
100
AcDbEntity
  8
DRAFT
100
AcDbLine
 62
7
  6
CONTINUOUS
 10
137.3398564977
 20
90.2736880855
 11
137.3398564977
 21
94.0736880855
  0
LINE
  5
277
100
AcDbEntity
  8
DRAFT
100
AcDbLine
 62
7
  6
CONTINUOUS
 10
137.3770903
 20
104.2466347954
 11
137.3770903
 21
103.0976824804
  0
LINE
  5
278
100
AcDbEntity
  8
DRAFT
100
AcDbLine
 62
7
  6
CONTINUOUS
 10
137.3770903
 20
104.5007413757
 11
137.3770903
 21
105.6496936907
  0
LINE
  5
279
100
AcDbEntity
  8
RACCORDO
100
AcDbLine
 62
250
  6
CONTINUOUS
 10
137.3919266628
 20
111.6765180854
 11
137.3928308429
 21
105.6811843711
  0
LINE
  5
27A
100
AcDbEntity
  8
RACCORDO
100
AcDbLine
 62
250
  6
CONTINUOUS
 10
137.3928308429
 20
103.0661918
 11
137.3922707358
 21
98.5695672958
  0
LINE
  5
27B
100
AcDbEntity
  8
RACCORDO
100
AcDbLine
 62
250
  6
CONTINUOUS
 10
137.3922707358
 20
98.5695672958
 11
137.391002461
 21
94.0736880855
  0
LINE
  5
27C
100
AcDbEntity
  8
RACCORDO
100
AcDbLine
 62
250
  6
CONTINUOUS
 10
137.3893780072
 20
90.2736880855
 11
137.3871177197
 21
86.2686338318
  0
LINE
  5
27D
100
AcDbEntity
  8
RACCORDO
100
AcDbLine
 62
250
  6
CONTINUOUS
 10
137.3871177197
 20
86.2686338318
 11
137.3857767558
 21
84.2664969463
  0
LINE
  5
27E
100
AcDbEntity
  8
RACCORDO
100
AcDbLine
 62
7
  6
CONTINUOUS
 10
136.0729795987
 20
117.4736880855
 11
136.086053836
 21
126.0350550635
  0
LINE
  5
27F
100
AcDbEntity
  8
RACCORDO
100
AcDbLine
 62
7
  6
CONTINUOUS
 10
137.3342341069
 20
124.8434468539
 11
137.3229795987
 21
117.4736880855
  0
LWPOLYLINE
  5
280
100
AcDbEntity
  8
RACCORDO
100
AcDbPolyline
 62
250
  6
CONTINUOUS
 90
25
 70
0
 10
137.3857767566
 20
124.4808792189
 10
137.3862263246
 20
124.4937681649
 10
137.3875203172
 20
124.5066207736
 10
137.3896568154
 20
124.5193823059
 10
137.3926314648
 20
124.5320023921
 10
137.3964344887
 20
124.5444219992
 10
137.4010478463
 20
124.5565745228
 10
137.4064514995
 20
124.5684053294
 10
137.4126240406
 20
124.5798659691
 10
137.4195367231
 20
124.5909023024
 10
137.427158127
 20
124.6014650338
 10
137.4354569003
 20
124.6115114982
 10
137.4443992951
 20
124.6210007328
 10
137.4539485195
 20
124.6298929917
 10
137.4640628912
 20
124.6381488003
 10
137.4746975468
 20
124.6457313887
 10
137.4858060874
 20
124.6526079049
 10
137.4973417157
 20
124.658749601
 10
137.5092557482
 20
124.6641305791
 10
137.521497597
 20
124.6687278911
 10
137.5340145766
 20
124.672521654
 10
137.5467528037
 20
124.6754955151
 10
137.5596576611
 20
124.6776367499
 10
137.5726740536
 20
124.6789362429
 10
137.5857462956
 20
124.6793884492
  0
LINE
  5
281
100
AcDbEntity
  8
RACCORDO
100
AcDbLine
 62
7
  6
CONTINUOUS
 10
141.2288665215
 20
124.6793884492
 11
141.3028472247
 21
124.9395112442
  0
LINE
  5
282
100
AcDbEntity
  8
DRAFT
100
AcDbLine
 62
7
  6
CONTINUOUS
 10
137.3398564977
 20
94.0736880855
 11
137.7229795987
 21
94.0736880855
  0
LINE
  5
283
100
AcDbEntity
  8
DRAFT
100
AcDbLine
 62
7
  6
CONTINUOUS
 10
156.7229795987
 20
94.0736880855
 11
157.1061026996
 21
94.0736880855
  0
LINE
  5
284
100
AcDbEntity
  8
RACCORDO
100
AcDbLine
 62
7
  6
CONTINUOUS
 10
141.3028472247
 20
83.8078649269
 11
141.2288665215
 21
84.0679877218
  0
LINE
  5
285
100
AcDbEntity
  8
DRAFT
100
AcDbLine
 62
7
  6
CONTINUOUS
 10
139.4145546057
 20
82.2143753798
 11
139.3392611219
 21
83.7049929548
  0
LINE
  5
286
100
AcDbEntity
  8
RACCORDO
100
AcDbLine
 62
250
  6
CONTINUOUS
 10
137.590973491
 20
114.6736880855
 11
137.5918963668
 21
111.6788219505
  0
LINE
  5
287
100
AcDbEntity
  8
RACCORDO
100
AcDbLine
 62
250
  6
CONTINUOUS
 10
137.5857462956
 20
124.6793884492
 11
137.5893503408
 21
118.4736880855
  0
LINE
  5
288
100
AcDbEntity
  8
RACCORDO
100
AcDbLine
 62
250
  6
CONTINUOUS
 10
137.5918963668
 20
111.6788219505
 11
137.5928000911
 21
105.6880460286
  0
LINE
  5
289
100
AcDbEntity
  8
0
100
AcDbLine
 62
7
  6
CONTINUOUS
 10
137.7229795987
 20
118.4736880855
 11
137.7229795987
 21
114.6736880855
  0
LINE
  5
28A
100
AcDbEntity
  8
0
100
AcDbLine
 62
7
  6
CONTINUOUS
 10
137.7229795987
 20
90.2736880855
 11
137.7229795987
 21
94.0736880855
  0
LINE
  5
28B
100
AcDbEntity
  8
RACCORDO
100
AcDbLine
 62
250
  6
CONTINUOUS
 10
137.5928000911
 20
103.0593301425
 11
137.5922400513
 21
98.566138032
  0
LINE
  5
28C
100
AcDbEntity
  8
RACCORDO
100
AcDbLine
 62
250
  6
CONTINUOUS
 10
137.5922400513
 20
98.566138032
 11
137.590973491
 21
94.0736880855
  0
LINE
  5
28D
100
AcDbEntity
  8
RACCORDO
100
AcDbLine
 62
250
  6
CONTINUOUS
 10
137.5893503408
 20
90.2736880855
 11
137.5870884419
 21
86.2632213858
  0
LINE
  5
28E
100
AcDbEntity
  8
RACCORDO
100
AcDbLine
 62
250
  6
CONTINUOUS
 10
137.5870884419
 20
86.2632213858
 11
137.5857462956
 21
84.0679877218
  0
LINE
  5
28F
100
AcDbEntity
  8
DRAFT
100
AcDbLine
 62
7
  6
CONTINUOUS
 10
139.4145546057
 20
126.5330007912
 11
139.3392611219
 21
125.0423832163
  0
LINE
  5
290
100
AcDbEntity
  8
RACCORDO
100
AcDbLine
 62
250
  6
CONTINUOUS
 10
141.331391716
 20
121.9759334544
 11
141.27346925
 21
121.6834629933
  0
LINE
  5
291
100
AcDbEntity
  8
RACCORDO
100
AcDbLine
 62
250
  6
CONTINUOUS
 10
141.5812394228
 20
121.7297315162
 11
141.5305311671
 21
121.4736880855
  0
LINE
  5
292
100
AcDbEntity
  8
RACCORDO
100
AcDbLine
 62
7
  6
CONTINUOUS
 10
137.3928308429
 20
105.6811843711
 11
137.3770903
 21
105.6496936907
  0
LINE
  5
293
100
AcDbEntity
  8
RACCORDO
100
AcDbLine
 62
250
  6
CONTINUOUS
 10
140.1310987399
 20
110.5316244749
 11
140.1862286752
 21
110.5867544101
  0
LINE
  5
294
100
AcDbEntity
  8
RACCORDO
100
AcDbLine
 62
250
  6
CONTINUOUS
 10
140.4309154605
 20
110.2318066992
 11
140.4861732227
 21
110.2870644614
  0
LINE
  5
295
100
AcDbEntity
  8
RACCORDO
100
AcDbLine
 62
250
  6
CONTINUOUS
 10
140.1862286752
 20
98.1606217609
 11
140.1310987399
 21
98.2157516962
  0
LINE
  5
296
100
AcDbEntity
  8
RACCORDO
100
AcDbLine
 62
250
  6
CONTINUOUS
 10
140.4861732227
 20
98.4603117096
 11
140.4309154605
 21
98.5155694719
  0
LWPOLYLINE
  5
297
100
AcDbEntity
  8
RACCORDO
100
AcDbPolyline
 62
250
  6
CONTINUOUS
 90
13
 70
0
 10
140.4309154605
 20
98.5155694719
 10
140.4305573432
 20
98.516194404
 10
140.4302025653
 20
98.5173334833
 10
140.4298511268
 20
98.5189867097
 10
140.4295021021
 20
98.5211610826
 10
140.4291564169
 20
98.5238496027
 10
140.4288168478
 20
98.5270312716
 10
140.4284834612
 20
98.5307099956
 10
140.4281561908
 20
98.5348818686
 10
140.427837614
 20
98.5395141735
 10
140.4275278051
 20
98.5446104847
 10
140.4272266899
 20
98.550167228
 10
140.4269366228
 20
98.5561409632
  0
LINE
  5
298
100
AcDbEntity
  8
RACCORDO
100
AcDbLine
 62
7
  6
CONTINUOUS
 10
137.3770903
 20
103.0976824804
 11
137.3928308429
 21
103.0661918
  0
LWPOLYLINE
  5
299
100
AcDbEntity
  8
RACCORDO
100
AcDbPolyline
 62
250
  6
CONTINUOUS
 90
8
 70
0
 10
140.131098422
 20
98.2157516964
 10
140.1307400114
 20
98.2172985725
 10
140.1303850366
 20
98.2201508505
 10
140.1300334975
 20
98.224301127
 10
140.1296845128
 20
98.2297385749
 10
140.1293389639
 20
98.2364490268
 10
140.1289994947
 20
98.244415056
 10
140.1286661092
 20
98.2536160645
  0
LINE
  5
29A
100
AcDbEntity
  8
RACCORDO
100
AcDbLine
 62
250
  6
CONTINUOUS
 10
141.27346925
 20
87.0639131777
 11
141.331391716
 21
86.7714427166
  0
LINE
  5
29B
100
AcDbEntity
  8
RACCORDO
100
AcDbLine
 62
250
  6
CONTINUOUS
 10
141.5305311671
 20
87.2736880855
 11
141.5812394228
 21
87.0176446549
  0
LWPOLYLINE
  5
29C
100
AcDbEntity
  8
RACCORDO
100
AcDbPolyline
 62
250
  6
CONTINUOUS
 90
10
 70
0
 10
141.331391716
 20
86.7714427166
 10
141.3314915918
 20
86.7708507124
 10
141.3315894918
 20
86.7700997908
 10
141.3316854159
 20
86.769189952
 10
141.3317796869
 20
86.7681170015
 10
141.331871982
 20
86.7668851337
 10
141.331961333
 20
86.7655069317
 10
141.3320476987
 20
86.7639809864
 10
141.3321311203
 20
86.7623087069
 10
141.3322107535
 20
86.760506903
  0
LWPOLYLINE
  5
29D
100
AcDbEntity
  8
RACCORDO
100
AcDbPolyline
 62
7
  6
CONTINUOUS
 90
31
 70
0
 10
141.9724899474
 20
87.0639131777
 10
141.9718636656
 20
87.0731309616
 10
141.9707457079
 20
87.0824132254
 10
141.9691256764
 20
87.0917377755
 10
141.9669935128
 20
87.1010773874
 10
141.9643415381
 20
87.1104120088
 10
141.9611643383
 20
87.1197287581
 10
141.9574565472
 20
87.1289991972
 10
141.9532126902
 20
87.1381991305
 10
141.9484277573
 20
87.14732034
 10
141.9430995456
 20
87.1563317133
 10
141.9372255196
 20
87.1652060926
 10
141.9307992304
 20
87.1739385484
 10
141.9238216807
 20
87.1824945643
 10
141.9162932877
 20
87.1908436876
 10
141.9082046649
 20
87.1989828687
 10
141.8995602152
 20
87.2068734074
 10
141.8903640014
 20
87.214480472
 10
141.8806035435
 20
87.2218004635
 10
141.8702873545
 20
87.2287895432
 10
141.8594248392
 20
87.2354071201
 10
141.8480027625
 20
87.2416457454
 10
141.8360345189
 20
87.2474560467
 10
141.8235386635
 20
87.2527900096
 10
141.810509694
 20
87.2576320125
 10
141.7969681307
 20
87.2619276682
 10
141.7829469996
 20
87.2656217577
 10
141.7684633326
 20
87.2686886896
 10
141.7535504702
 20
87.271080126
 10
141.7382595721
 20
87.2727296547
 10
141.7226422407
 20
87.2735824745
  0
LINE
  5
29E
100
AcDbEntity
  8
RACCORDO
100
AcDbLine
 62
250
  6
CONTINUOUS
 10
139.9940395481
 20
101.1425445576
 11
139.9948634547
 21
101.1272341217
  0
LINE
  5
29F
100
AcDbEntity
  8
RACCORDO
100
AcDbLine
 62
250
  6
CONTINUOUS
 10
140.1519196492
 20
107.6048316134
 11
140.1510957427
 21
107.6201420493
  0
LINE
  5
2A0
100
AcDbEntity
  8
RACCORDO
100
AcDbLine
 62
250
  6
CONTINUOUS
 10
139.9924981609
 20
101.1753788733
 11
139.9940395481
 21
101.1425445576
  0
LINE
  5
2A1
100
AcDbEntity
  8
RACCORDO
100
AcDbLine
 62
250
  6
CONTINUOUS
 10
140.1534610365
 20
107.5719972978
 11
140.1519196492
 21
107.6048316134
  0
LINE
  5
2A2
100
AcDbEntity
  8
RACCORDO
100
AcDbLine
 62
250
  6
CONTINUOUS
 10
139.7190225746
 20
110.1912352078
 11
139.7195693968
 21
110.1780300736
  0
LINE
  5
2A3
100
AcDbEntity
  8
RACCORDO
100
AcDbLine
 62
250
  6
CONTINUOUS
 10
140.4269366228
 20
98.5561409632
 11
140.4263898006
 21
98.5693460974
  0
LINE
  5
2A4
100
AcDbEntity
  8
RACCORDO
100
AcDbLine
 62
250
  6
CONTINUOUS
 10
139.991092693
 20
101.2111046853
 11
139.9924981609
 21
101.1753788733
  0
LINE
  5
2A5
100
AcDbEntity
  8
RACCORDO
100
AcDbLine
 62
250
  6
CONTINUOUS
 10
140.1548665044
 20
107.5362714857
 11
140.1534610365
 21
107.5719972978
  0
LINE
  5
2A6
100
AcDbEntity
  8
RACCORDO
100
AcDbLine
 62
250
  6
CONTINUOUS
 10
139.994863328
 20
101.1272341217
 11
140.0195557841
 21
100.4201346949
  0
LINE
  5
2A7
100
AcDbEntity
  8
RACCORDO
100
AcDbLine
 62
250
  6
CONTINUOUS
 10
140.1510958693
 20
107.6201420494
 11
140.1264034132
 21
108.3272414761
  0
LWPOLYLINE
  5
2A8
100
AcDbEntity
  8
RACCORDO
100
AcDbPolyline
 62
250
  6
CONTINUOUS
 90
3
 70
0
 10
141.3322107535
 20
86.760506903
 10
141.3323585806
 20
86.7565119571
 10
141.3324260789
 20
86.7543411556
  0
LWPOLYLINE
  5
2A9
100
AcDbEntity
  8
RACCORDO
100
AcDbPolyline
 62
250
  6
CONTINUOUS
 90
3
 70
0
 10
141.2728584248
 20
88.4874199434
 10
141.2730033436
 20
88.4834316564
 10
141.2730694774
 20
88.4812696116
  0
LINE
  5
2AA
100
AcDbEntity
  8
RACCORDO
100
AcDbLine
 62
250
  6
CONTINUOUS
 10
139.7195693968
 20
110.1780300736
 11
139.7200656116
 21
110.1633145346
  0
LINE
  5
2AB
100
AcDbEntity
  8
RACCORDO
100
AcDbLine
 62
250
  6
CONTINUOUS
 10
140.4263898006
 20
98.5693460974
 11
140.4258935858
 21
98.5840616365
  0
LINE
  5
2AC
100
AcDbEntity
  8
RACCORDO
100
AcDbLine
 62
250
  6
CONTINUOUS
 10
139.9898569484
 20
101.2492782977
 11
139.991092693
 21
101.2111046853
  0
LINE
  5
2AD
100
AcDbEntity
  8
RACCORDO
100
AcDbLine
 62
250
  6
CONTINUOUS
 10
140.1561022489
 20
107.4980978734
 11
140.1548665044
 21
107.5362714857
  0
LINE
  5
2AE
100
AcDbEntity
  8
RACCORDO
100
AcDbLine
 62
250
  6
CONTINUOUS
 10
139.6934343268
 20
100.9652993763
 11
139.7201504508
 21
100.1951284921
  0
LINE
  5
2AF
100
AcDbEntity
  8
RACCORDO
100
AcDbLine
 62
250
  6
CONTINUOUS
 10
140.4525248706
 20
107.7820767948
 11
140.4258087466
 21
108.552247679
  0
LINE
  5
2B0
100
AcDbEntity
  8
RACCORDO
100
AcDbLine
 62
250
  6
CONTINUOUS
 10
140.1286661092
 20
98.2536160645
 11
140.1280202091
 21
98.2756228941
  0
LINE
  5
2B1
100
AcDbEntity
  8
RACCORDO
100
AcDbLine
 62
250
  6
CONTINUOUS
 10
140.0172930882
 20
110.4937601066
 11
140.0179389882
 21
110.4717532769
  0
LINE
  5
2B2
100
AcDbEntity
  8
RACCORDO
100
AcDbLine
 62
250
  6
CONTINUOUS
 10
139.7200656116
 20
110.1633145346
 11
139.7205073273
 21
110.1472040887
  0
LINE
  5
2B3
100
AcDbEntity
  8
RACCORDO
100
AcDbLine
 62
250
  6
CONTINUOUS
 10
140.4258935858
 20
98.5840616365
 11
140.4254518701
 21
98.6001720823
  0
LINE
  5
2B4
100
AcDbEntity
  8
RACCORDO
100
AcDbLine
 62
250
  6
CONTINUOUS
 10
139.6919610986
 20
101.0201279655
 11
139.6934343268
 21
100.9652993763
  0
LINE
  5
2B5
100
AcDbEntity
  8
RACCORDO
100
AcDbLine
 62
250
  6
CONTINUOUS
 10
140.4539980988
 20
107.7272482055
 11
140.4525248706
 21
107.7820767948
  0
LINE
  5
2B6
100
AcDbEntity
  8
RACCORDO
100
AcDbLine
 62
250
  6
CONTINUOUS
 10
139.7201504508
 20
100.1951284921
 11
139.7205207144
 21
100.1813093146
  0
LINE
  5
2B7
100
AcDbEntity
  8
RACCORDO
100
AcDbLine
 62
250
  6
CONTINUOUS
 10
140.4258087466
 20
108.552247679
 11
140.4254384829
 21
108.5660668565
  0
LINE
  5
2B8
100
AcDbEntity
  8
RACCORDO
100
AcDbLine
 62
250
  6
CONTINUOUS
 10
139.98880616
 20
101.289497262
 11
139.9898569484
 21
101.2492782977
  0
LINE
  5
2B9
100
AcDbEntity
  8
RACCORDO
100
AcDbLine
 62
250
  6
CONTINUOUS
 10
140.1571530374
 20
107.4578789091
 11
140.1561022489
 21
107.4980978734
  0
LINE
  5
2BA
100
AcDbEntity
  8
RACCORDO
100
AcDbLine
 62
250
  6
CONTINUOUS
 10
140.1280202091
 20
98.2756228941
 11
140.1274093561
 21
98.3022369665
  0
LINE
  5
2BB
100
AcDbEntity
  8
RACCORDO
100
AcDbLine
 62
250
  6
CONTINUOUS
 10
140.0179389882
 20
110.4717532769
 11
140.0185498413
 21
110.4451392046
  0
LINE
  5
2BC
100
AcDbEntity
  8
RACCORDO
100
AcDbLine
 62
250
  6
CONTINUOUS
 10
139.7205073273
 20
110.1472040887
 11
139.7208890465
 21
110.1298830873
  0
LINE
  5
2BD
100
AcDbEntity
  8
RACCORDO
100
AcDbLine
 62
250
  6
CONTINUOUS
 10
140.4254518701
 20
98.6001720823
 11
140.4250701509
 21
98.6174930838
  0
LINE
  5
2BE
100
AcDbEntity
  8
RACCORDO
100
AcDbLine
 62
250
  6
CONTINUOUS
 10
139.6900399522
 20
101.110342098
 11
139.6919610986
 21
101.0201279655
  0
LINE
  5
2BF
100
AcDbEntity
  8
RACCORDO
100
AcDbLine
 62
250
  6
CONTINUOUS
 10
140.4559192452
 20
107.637034073
 11
140.4539980988
 21
107.7272482055
  0
LINE
  5
2C0
100
AcDbEntity
  8
RACCORDO
100
AcDbLine
 62
250
  6
CONTINUOUS
 10
139.7205207144
 20
100.1813093146
 11
139.7209948211
 21
100.15893905
  0
LINE
  5
2C1
100
AcDbEntity
  8
RACCORDO
100
AcDbLine
 62
250
  6
CONTINUOUS
 10
140.4254384829
 20
108.5660668565
 11
140.4249643762
 21
108.588437121
  0
LINE
  5
2C2
100
AcDbEntity
  8
RACCORDO
100
AcDbLine
 62
250
  6
CONTINUOUS
 10
139.9879604137
 20
101.3312198021
 11
139.98880616
 21
101.289497262
  0
LINE
  5
2C3
100
AcDbEntity
  8
RACCORDO
100
AcDbLine
 62
250
  6
CONTINUOUS
 10
140.1579987837
 20
107.4161563689
 11
140.1571530374
 21
107.4578789091
  0
LINE
  5
2C4
100
AcDbEntity
  8
RACCORDO
100
AcDbLine
 62
250
  6
CONTINUOUS
 10
140.1274093561
 20
98.3022369665
 11
140.1265725503
 21
98.3501755534
  0
LINE
  5
2C5
100
AcDbEntity
  8
RACCORDO
100
AcDbLine
 62
250
  6
CONTINUOUS
 10
140.0185498413
 20
110.4451392046
 11
140.0193866471
 21
110.3972006177
  0
LINE
  5
2C6
100
AcDbEntity
  8
RACCORDO
100
AcDbLine
 62
250
  6
CONTINUOUS
 10
139.7208890465
 20
110.1298830873
 11
139.7213407312
 21
110.1020497647
  0
LINE
  5
2C7
100
AcDbEntity
  8
RACCORDO
100
AcDbLine
 62
250
  6
CONTINUOUS
 10
140.4250701509
 20
98.6174930838
 11
140.4246184662
 21
98.6453264064
  0
LINE
  5
2C8
100
AcDbEntity
  8
RACCORDO
100
AcDbLine
 62
250
  6
CONTINUOUS
 10
139.7209948211
 20
100.15893905
 11
139.7213629106
 21
100.1349852292
  0
LINE
  5
2C9
100
AcDbEntity
  8
RACCORDO
100
AcDbLine
 62
250
  6
CONTINUOUS
 10
140.4249643762
 20
108.588437121
 11
140.4245962868
 21
108.6123909419
  0
LINE
  5
2CA
100
AcDbEntity
  8
RACCORDO
100
AcDbLine
 62
250
  6
CONTINUOUS
 10
139.6885406471
 20
101.2078151025
 11
139.6900399522
 21
101.110342098
  0
LINE
  5
2CB
100
AcDbEntity
  8
RACCORDO
100
AcDbLine
 62
250
  6
CONTINUOUS
 10
139.9873275169
 20
101.373855301
 11
139.9879604137
 21
101.3312198021
  0
LINE
  5
2CC
100
AcDbEntity
  8
RACCORDO
100
AcDbLine
 62
250
  6
CONTINUOUS
 10
140.1586316805
 20
107.37352087
 11
140.1579987837
 21
107.4161563689
  0
LINE
  5
2CD
100
AcDbEntity
  8
RACCORDO
100
AcDbLine
 62
250
  6
CONTINUOUS
 10
140.4574185503
 20
107.5395610686
 11
140.4559192452
 21
107.637034073
  0
LINE
  5
2CE
100
AcDbEntity
  8
RACCORDO
100
AcDbLine
 62
250
  6
CONTINUOUS
 10
140.1265725503
 20
98.3501755534
 11
140.1256346775
 21
98.4272474768
  0
LINE
  5
2CF
100
AcDbEntity
  8
RACCORDO
100
AcDbLine
 62
250
  6
CONTINUOUS
 10
140.0193866471
 20
110.3972006177
 11
140.0203245198
 21
110.3201286943
  0
LINE
  5
2D0
100
AcDbEntity
  8
RACCORDO
100
AcDbLine
 62
250
  6
CONTINUOUS
 10
140.0195557841
 20
100.4201346949
 11
140.0205075841
 21
100.3352365526
  0
LINE
  5
2D1
100
AcDbEntity
  8
RACCORDO
100
AcDbLine
 62
250
  6
CONTINUOUS
 10
140.1264034132
 20
108.3272414761
 11
140.1254516133
 21
108.4121396184
  0
LINE
  5
2D2
100
AcDbEntity
  8
RACCORDO
100
AcDbLine
 62
250
  6
CONTINUOUS
 10
139.7213629106
 20
100.1349852292
 11
139.7216186063
 21
100.1098624075
  0
LINE
  5
2D3
100
AcDbEntity
  8
RACCORDO
100
AcDbLine
 62
250
  6
CONTINUOUS
 10
140.4245962868
 20
108.6123909419
 11
140.4243405911
 21
108.6375137635
  0
LINE
  5
2D4
100
AcDbEntity
  8
RACCORDO
100
AcDbLine
 62
250
  6
CONTINUOUS
 10
139.6875101041
 20
101.3096942273
 11
139.6885406471
 21
101.2078151025
  0
LINE
  5
2D5
100
AcDbEntity
  8
RACCORDO
100
AcDbLine
 62
250
  6
CONTINUOUS
 10
139.9869098171
 20
101.4168785708
 11
139.9873275169
 21
101.373855301
  0
LINE
  5
2D6
100
AcDbEntity
  8
RACCORDO
100
AcDbLine
 62
250
  6
CONTINUOUS
 10
140.1590493803
 20
107.3304976003
 11
140.1586316805
 21
107.37352087
  0
LINE
  5
2D7
100
AcDbEntity
  8
RACCORDO
100
AcDbLine
 62
250
  6
CONTINUOUS
 10
140.4584490932
 20
107.4376819438
 11
140.4574185503
 21
107.5395610686
  0
LINE
  5
2D8
100
AcDbEntity
  8
RACCORDO
100
AcDbLine
 62
250
  6
CONTINUOUS
 10
139.7213407312
 20
110.1020497647
 11
139.7216383672
 21
110.0725668754
  0
LINE
  5
2D9
100
AcDbEntity
  8
RACCORDO
100
AcDbLine
 62
250
  6
CONTINUOUS
 10
140.4246184662
 20
98.6453264064
 11
140.4243208301
 21
98.6748092957
  0
LINE
  5
2DA
100
AcDbEntity
  8
RACCORDO
100
AcDbLine
 62
250
  6
CONTINUOUS
 10
140.0203245198
 20
110.3201286943
 11
140.021157914
 21
110.2072789955
  0
LINE
  5
2DB
100
AcDbEntity
  8
RACCORDO
100
AcDbLine
 62
250
  6
CONTINUOUS
 10
140.1256346775
 20
98.4272474768
 11
140.1248012834
 21
98.5400971756
  0
LINE
  5
2DC
100
AcDbEntity
  8
RACCORDO
100
AcDbLine
 62
250
  6
CONTINUOUS
 10
140.0205075841
 20
100.3352365526
 11
140.0212782356
 21
100.216925385
  0
LINE
  5
2DD
100
AcDbEntity
  8
RACCORDO
100
AcDbLine
 62
250
  6
CONTINUOUS
 10
140.1254516133
 20
108.4121396184
 11
140.1246809617
 21
108.530450786
  0
LINE
  5
2DE
100
AcDbEntity
  8
RACCORDO
100
AcDbLine
 62
250
  6
CONTINUOUS
 10
139.7216186063
 20
100.1098624075
 11
139.721757522
 21
100.0840240205
  0
LINE
  5
2DF
100
AcDbEntity
  8
RACCORDO
100
AcDbLine
 62
250
  6
CONTINUOUS
 10
140.4243405911
 20
108.6375137635
 11
140.4242016753
 21
108.6633521506
  0
LINE
  5
2E0
100
AcDbEntity
  8
RACCORDO
100
AcDbLine
 62
250
  6
CONTINUOUS
 10
139.6869630101
 20
101.4127321386
 11
139.6875101041
 21
101.3096942273
  0
LINE
  5
2E1
100
AcDbEntity
  8
RACCORDO
100
AcDbLine
 62
250
  6
CONTINUOUS
 10
140.4589961872
 20
107.3346440324
 11
140.4584490932
 21
107.4376819438
  0
LINE
  5
2E2
100
AcDbEntity
  8
RACCORDO
100
AcDbLine
 62
250
  6
CONTINUOUS
 10
139.9867039413
 20
101.4596220537
 11
139.9869098171
 21
101.4168785708
  0
LINE
  5
2E3
100
AcDbEntity
  8
RACCORDO
100
AcDbLine
 62
250
  6
CONTINUOUS
 10
140.1592552561
 20
107.2877541173
 11
140.1590493803
 21
107.3304976003
  0
LINE
  5
2E4
100
AcDbEntity
  8
RACCORDO
100
AcDbLine
 62
250
  6
CONTINUOUS
 10
139.7216383672
 20
110.0725668754
 11
139.7217748396
 21
110.0421976628
  0
LINE
  5
2E5
100
AcDbEntity
  8
RACCORDO
100
AcDbLine
 62
250
  6
CONTINUOUS
 10
140.4243208301
 20
98.6748092957
 11
140.4241843578
 21
98.7051785082
  0
LINE
  5
2E6
100
AcDbEntity
  8
RACCORDO
100
AcDbLine
 62
250
  6
CONTINUOUS
 10
140.021157914
 20
110.2072789955
 11
140.021592072
 21
110.0574962122
  0
LINE
  5
2E7
100
AcDbEntity
  8
RACCORDO
100
AcDbLine
 62
250
  6
CONTINUOUS
 10
140.1248012834
 20
98.5400971756
 11
140.1243671254
 21
98.6898799589
  0
LINE
  5
2E8
100
AcDbEntity
  8
RACCORDO
100
AcDbLine
 62
250
  6
CONTINUOUS
 10
139.6868633779
 20
103.0875718647
 11
139.6869630101
 21
101.4127321386
  0
LINE
  5
2E9
100
AcDbEntity
  8
RACCORDO
100
AcDbLine
 62
250
  6
CONTINUOUS
 10
139.7217748396
 20
110.0421976628
 11
139.7217841473
 21
108.6807948667
  0
LINE
  5
2EA
100
AcDbEntity
  8
RACCORDO
100
AcDbLine
 62
250
  6
CONTINUOUS
 10
139.721757522
 20
100.0840240205
 11
139.7217841473
 21
98.7154476373
  0
LINE
  5
2EB
100
AcDbEntity
  8
RACCORDO
100
AcDbLine
 62
250
  6
CONTINUOUS
 10
139.7652445718
 20
82.2462085378
 11
139.7652445718
 21
83.7955864708
  0
LINE
  5
2EC
100
AcDbEntity
  8
RACCORDO
100
AcDbLine
 62
250
  6
CONTINUOUS
 10
139.7652445718
 20
124.9517897003
 11
139.7652445718
 21
126.5011676333
  0
LINE
  5
2ED
100
AcDbEntity
  8
RACCORDO
100
AcDbLine
 62
250
  6
CONTINUOUS
 10
139.9384496525
 20
82.2514493157
 11
139.9384496525
 21
83.8078649269
  0
LINE
  5
2EE
100
AcDbEntity
  8
RACCORDO
100
AcDbLine
 62
250
  6
CONTINUOUS
 10
139.9384496525
 20
124.9395112442
 11
139.9384496525
 21
126.4959268553
  0
LINE
  5
2EF
100
AcDbEntity
  8
RACCORDO
100
AcDbLine
 62
250
  6
CONTINUOUS
 10
139.986680626
 20
103.0976824804
 11
139.9867039413
 21
101.4596220537
  0
LINE
  5
2F0
100
AcDbEntity
  8
RACCORDO
100
AcDbLine
 62
250
  6
CONTINUOUS
 10
140.021592072
 20
110.0574962122
 11
140.0216013955
 21
108.6807948667
  0
LINE
  5
2F1
100
AcDbEntity
  8
RACCORDO
100
AcDbLine
 62
250
  6
CONTINUOUS
 10
140.0212782356
 20
100.216925385
 11
140.0216013955
 21
98.7154630978
  0
LINE
  5
2F2
100
AcDbEntity
  8
RACCORDO
100
AcDbLine
 62
250
  6
CONTINUOUS
 10
140.1243671254
 20
98.6898799589
 11
140.1243578019
 21
100.0665813043
  0
LINE
  5
2F3
100
AcDbEntity
  8
RACCORDO
100
AcDbLine
 62
250
  6
CONTINUOUS
 10
140.1246809617
 20
108.530450786
 11
140.1243578019
 21
110.0319130733
  0
LINE
  5
2F4
100
AcDbEntity
  8
RACCORDO
100
AcDbLine
 62
250
  6
CONTINUOUS
 10
140.1592785714
 20
105.6496936907
 11
140.1592552561
 21
107.2877541173
  0
LINE
  5
2F5
100
AcDbEntity
  8
RACCORDO
100
AcDbLine
 62
250
  6
CONTINUOUS
 10
140.4241843578
 20
98.7051785082
 11
140.42417505
 21
100.0665813043
  0
LINE
  5
2F6
100
AcDbEntity
  8
RACCORDO
100
AcDbLine
 62
250
  6
CONTINUOUS
 10
140.4242016753
 20
108.6633521506
 11
140.42417505
 21
110.0319285338
  0
LINE
  5
2F7
100
AcDbEntity
  8
RACCORDO
100
AcDbLine
 62
250
  6
CONTINUOUS
 10
140.4590958195
 20
105.6598043064
 11
140.4589961872
 21
107.3346440324
  0
LINE
  5
2F8
100
AcDbEntity
  8
RACCORDO
100
AcDbLine
 62
250
  6
CONTINUOUS
 10
139.9867803513
 20
107.3090766604
 11
139.986680626
 21
105.6496936907
  0
LINE
  5
2F9
100
AcDbEntity
  8
RACCORDO
100
AcDbLine
 62
250
  6
CONTINUOUS
 10
140.1591788461
 20
101.4382995106
 11
140.1592785714
 21
103.0976824804
  0
LINE
  5
2FA
100
AcDbEntity
  8
RACCORDO
100
AcDbLine
 62
250
  6
CONTINUOUS
 10
139.6870924359
 20
107.368817069
 11
139.6868633779
 21
105.6598043064
  0
LINE
  5
2FB
100
AcDbEntity
  8
RACCORDO
100
AcDbLine
 62
250
  6
CONTINUOUS
 10
139.7217841473
 20
108.6807948667
 11
139.7217244581
 21
108.6547025936
  0
LINE
  5
2FC
100
AcDbEntity
  8
RACCORDO
100
AcDbLine
 62
250
  6
CONTINUOUS
 10
140.42417505
 20
100.0665813043
 11
140.4242347393
 21
100.0926735775
  0
LINE
  5
2FD
100
AcDbEntity
  8
RACCORDO
100
AcDbLine
 62
250
  6
CONTINUOUS
 10
140.4588667615
 20
101.378559102
 11
140.4590958195
 21
103.0875718647
  0
LINE
  5
2FE
100
AcDbEntity
  8
RACCORDO
100
AcDbLine
 62
250
  6
CONTINUOUS
 10
140.021601412
 20
98.7154630978
 11
140.0212746523
 21
98.5642898347
  0
LINE
  5
2FF
100
AcDbEntity
  8
RACCORDO
100
AcDbLine
 62
250
  6
CONTINUOUS
 10
140.1243577854
 20
110.0319130733
 11
140.1246845451
 21
110.1830863363
  0
LINE
  5
300
100
AcDbEntity
  8
RACCORDO
100
AcDbLine
 62
250
  6
CONTINUOUS
 10
140.0216013955
 20
108.6807948667
 11
140.0212782356
 21
108.5304507856
  0
LINE
  5
301
100
AcDbEntity
  8
RACCORDO
100
AcDbLine
 62
250
  6
CONTINUOUS
 10
140.1243578019
 20
100.0665813043
 11
140.1246809617
 21
100.2169253854
  0
LINE
  5
302
100
AcDbEntity
  8
RACCORDO
100
AcDbLine
 62
250
  6
CONTINUOUS
 10
139.7217841473
 20
98.7154476373
 11
139.7217020553
 21
98.6848727071
  0
LINE
  5
303
100
AcDbEntity
  8
RACCORDO
100
AcDbLine
 62
250
  6
CONTINUOUS
 10
140.42417505
 20
110.0319285338
 11
140.4242571421
 21
110.0625034639
  0
LINE
  5
304
100
AcDbEntity
  8
RACCORDO
100
AcDbLine
 62
250
  6
CONTINUOUS
 10
140.0212746523
 20
98.5642898347
 11
140.0205228344
 21
98.4485351419
  0
LINE
  5
305
100
AcDbEntity
  8
RACCORDO
100
AcDbLine
 62
250
  6
CONTINUOUS
 10
140.1246845451
 20
110.1830863363
 11
140.125436363
 21
110.2988410292
  0
LINE
  5
306
100
AcDbEntity
  8
RACCORDO
100
AcDbLine
 62
250
  6
CONTINUOUS
 10
139.6877991512
 20
107.4719029416
 11
139.6870924359
 21
107.368817069
  0
LINE
  5
307
100
AcDbEntity
  8
RACCORDO
100
AcDbLine
 62
250
  6
CONTINUOUS
 10
139.7217244581
 20
108.6547025936
 11
139.7215462608
 21
108.6290411281
  0
LINE
  5
308
100
AcDbEntity
  8
RACCORDO
100
AcDbLine
 62
250
  6
CONTINUOUS
 10
139.9870921391
 20
107.3520033805
 11
139.9867803513
 21
107.3090766604
  0
LINE
  5
309
100
AcDbEntity
  8
RACCORDO
100
AcDbLine
 62
250
  6
CONTINUOUS
 10
140.0212782356
 20
108.5304507856
 11
140.0205075841
 21
108.4121396181
  0
LINE
  5
30A
100
AcDbEntity
  8
RACCORDO
100
AcDbLine
 62
250
  6
CONTINUOUS
 10
140.1246809617
 20
100.2169253854
 11
140.1254516133
 21
100.335236553
  0
LINE
  5
30B
100
AcDbEntity
  8
RACCORDO
100
AcDbLine
 62
250
  6
CONTINUOUS
 10
140.1588670582
 20
101.3953727906
 11
140.1591788461
 21
101.4382995106
  0
LINE
  5
30C
100
AcDbEntity
  8
RACCORDO
100
AcDbLine
 62
250
  6
CONTINUOUS
 10
140.4242347393
 20
100.0926735775
 11
140.4244129366
 21
100.1183350429
  0
LINE
  5
30D
100
AcDbEntity
  8
RACCORDO
100
AcDbLine
 62
250
  6
CONTINUOUS
 10
140.4581600461
 20
101.2754732294
 11
140.4588667615
 21
101.378559102
  0
LINE
  5
30E
100
AcDbEntity
  8
RACCORDO
100
AcDbLine
 62
250
  6
CONTINUOUS
 10
139.7217020553
 20
98.6848727071
 11
139.7214574571
 21
98.6549951481
  0
LINE
  5
30F
100
AcDbEntity
  8
RACCORDO
100
AcDbLine
 62
250
  6
CONTINUOUS
 10
140.4242571421
 20
110.0625034639
 11
140.4245017403
 21
110.092381023
  0
LINE
  5
310
100
AcDbEntity
  8
RACCORDO
100
AcDbLine
 62
250
  6
CONTINUOUS
 10
140.125436363
 20
110.2988410292
 11
140.1263178319
 21
110.379247914
  0
LINE
  5
311
100
AcDbEntity
  8
RACCORDO
100
AcDbLine
 62
250
  6
CONTINUOUS
 10
140.0205228344
 20
98.4485351419
 11
140.0196413655
 21
98.3681282571
  0
LINE
  5
312
100
AcDbEntity
  8
RACCORDO
100
AcDbLine
 62
250
  6
CONTINUOUS
 10
140.0205075841
 20
108.4121396181
 11
140.0195557841
 21
108.3272414761
  0
LINE
  5
313
100
AcDbEntity
  8
RACCORDO
100
AcDbLine
 62
250
  6
CONTINUOUS
 10
140.1254516133
 20
100.335236553
 11
140.1264034132
 21
100.4201346949
  0
LINE
  5
314
100
AcDbEntity
  8
RACCORDO
100
AcDbLine
 62
250
  6
CONTINUOUS
 10
139.6889889552
 20
107.5726609154
 11
139.6877991512
 21
107.4719029416
  0
LINE
  5
315
100
AcDbEntity
  8
RACCORDO
100
AcDbLine
 62
250
  6
CONTINUOUS
 10
139.7215462608
 20
108.6290411281
 11
139.7212525406
 21
108.6042602779
  0
LINE
  5
316
100
AcDbEntity
  8
RACCORDO
100
AcDbLine
 62
250
  6
CONTINUOUS
 10
139.987616548
 20
107.3949197833
 11
139.9870921391
 21
107.3520033805
  0
LINE
  5
317
100
AcDbEntity
  8
RACCORDO
100
AcDbLine
 62
250
  6
CONTINUOUS
 10
140.1583426493
 20
101.3524563878
 11
140.1588670582
 21
101.3953727906
  0
LINE
  5
318
100
AcDbEntity
  8
RACCORDO
100
AcDbLine
 62
250
  6
CONTINUOUS
 10
140.4244129366
 20
100.1183350429
 11
140.4247066568
 21
100.1431158932
  0
LINE
  5
319
100
AcDbEntity
  8
RACCORDO
100
AcDbLine
 62
250
  6
CONTINUOUS
 10
140.4569702422
 20
101.1747152557
 11
140.4581600461
 21
101.2754732294
  0
LINE
  5
31A
100
AcDbEntity
  8
RACCORDO
100
AcDbLine
 62
250
  6
CONTINUOUS
 10
139.7214574571
 20
98.6549951481
 11
139.7210560646
 21
98.6265369284
  0
LINE
  5
31B
100
AcDbEntity
  8
RACCORDO
100
AcDbLine
 62
250
  6
CONTINUOUS
 10
140.4245017403
 20
110.092381023
 11
140.4249031328
 21
110.1208392427
  0
LINE
  5
31C
100
AcDbEntity
  8
RACCORDO
100
AcDbLine
 62
250
  6
CONTINUOUS
 10
140.1263178319
 20
110.379247914
 11
140.1271193281
 21
110.4301895739
  0
LINE
  5
31D
100
AcDbEntity
  8
RACCORDO
100
AcDbLine
 62
250
  6
CONTINUOUS
 10
140.0196413655
 20
98.3681282571
 11
140.0188398692
 21
98.3171865972
  0
LINE
  5
31E
100
AcDbEntity
  8
RACCORDO
100
AcDbLine
 62
250
  6
CONTINUOUS
 10
139.9883579326
 20
107.437185234
 11
139.987616548
 21
107.3949197833
  0
LINE
  5
31F
100
AcDbEntity
  8
RACCORDO
100
AcDbLine
 62
250
  6
CONTINUOUS
 10
140.1576012648
 20
101.3101909371
 11
140.1583426493
 21
101.3524563878
  0
LINE
  5
320
100
AcDbEntity
  8
RACCORDO
100
AcDbLine
 62
250
  6
CONTINUOUS
 10
139.6906352572
 20
107.6680199534
 11
139.6889889552
 21
107.5726609154
  0
LINE
  5
321
100
AcDbEntity
  8
RACCORDO
100
AcDbLine
 62
250
  6
CONTINUOUS
 10
139.7212525406
 20
108.6042602779
 11
139.7208483283
 21
108.5807889838
  0
LINE
  5
322
100
AcDbEntity
  8
RACCORDO
100
AcDbLine
 62
250
  6
CONTINUOUS
 10
140.4247066568
 20
100.1431158932
 11
140.4251108691
 21
100.1665871873
  0
LINE
  5
323
100
AcDbEntity
  8
RACCORDO
100
AcDbLine
 62
250
  6
CONTINUOUS
 10
140.4553239402
 20
101.0793562176
 11
140.4569702422
 21
101.1747152557
  0
LINE
  5
324
100
AcDbEntity
  8
RACCORDO
100
AcDbLine
 62
250
  6
CONTINUOUS
 10
139.7210560646
 20
98.6265369284
 11
139.7207056568
 21
98.608681836
  0
LINE
  5
325
100
AcDbEntity
  8
RACCORDO
100
AcDbLine
 62
250
  6
CONTINUOUS
 10
140.4249031328
 20
110.1208392427
 11
140.4252535406
 21
110.138694335
  0
LINE
  5
326
100
AcDbEntity
  8
RACCORDO
100
AcDbLine
 62
250
  6
CONTINUOUS
 10
140.1271193281
 20
110.4301895739
 11
140.1277104268
 21
110.4590058394
  0
LINE
  5
327
100
AcDbEntity
  8
RACCORDO
100
AcDbLine
 62
250
  6
CONTINUOUS
 10
140.0188398692
 20
98.3171865972
 11
140.0182487706
 21
98.2883703317
  0
LINE
  5
328
100
AcDbEntity
  8
RACCORDO
100
AcDbLine
 62
250
  6
CONTINUOUS
 10
139.7208483283
 20
108.5807889838
 11
139.7205207144
 21
108.5660668564
  0
LINE
  5
329
100
AcDbEntity
  8
RACCORDO
100
AcDbLine
 62
250
  6
CONTINUOUS
 10
140.4251108691
 20
100.1665871873
 11
140.4254384829
 21
100.1813093147
  0
LINE
  5
32A
100
AcDbEntity
  8
RACCORDO
100
AcDbLine
 62
250
  6
CONTINUOUS
 10
139.6919610986
 20
107.7272482067
 11
139.6906352572
 21
107.6680199534
  0
LINE
  5
32B
100
AcDbEntity
  8
RACCORDO
100
AcDbLine
 62
250
  6
CONTINUOUS
 10
140.4539980988
 20
101.0201279644
 11
140.4553239402
 21
101.0793562176
  0
LINE
  5
32C
100
AcDbEntity
  8
RACCORDO
100
AcDbLine
 62
250
  6
CONTINUOUS
 10
139.9893062001
 20
107.4781964678
 11
139.9883579326
 21
107.437185234
  0
LINE
  5
32D
100
AcDbEntity
  8
RACCORDO
100
AcDbLine
 62
250
  6
CONTINUOUS
 10
140.1566529973
 20
101.2691797033
 11
140.1576012648
 21
101.3101909371
  0
LINE
  5
32E
100
AcDbEntity
  8
RACCORDO
100
AcDbLine
 62
250
  6
CONTINUOUS
 10
139.7207056568
 20
98.608681836
 11
139.7202939393
 21
98.5919661124
  0
LINE
  5
32F
100
AcDbEntity
  8
RACCORDO
100
AcDbLine
 62
250
  6
CONTINUOUS
 10
140.4252535406
 20
110.138694335
 11
140.4256652581
 21
110.1554100587
  0
LWPOLYLINE
  5
330
100
AcDbEntity
  8
RACCORDO
100
AcDbPolyline
 62
250
  6
CONTINUOUS
 90
10
 70
0
 10
140.1277104268
 20
110.4590058394
 10
140.1283388033
 20
110.4833482598
 10
140.1286661092
 20
110.4937601067
 10
140.1289994947
 20
110.5029611151
 10
140.1293389639
 20
110.5109271444
 10
140.1296845128
 20
110.5176375962
 10
140.1300334975
 20
110.5230750441
 10
140.1303850366
 20
110.5272253206
 10
140.1307400114
 20
110.5300775986
 10
140.131098422
 20
110.5316244746
  0
LWPOLYLINE
  5
331
100
AcDbEntity
  8
RACCORDO
100
AcDbPolyline
 62
250
  6
CONTINUOUS
 90
10
 70
0
 10
140.0182487706
 20
98.2883703317
 10
140.017620394
 20
98.2640279113
 10
140.0172930882
 20
98.2536160644
 10
140.0169597027
 20
98.2444150559
 10
140.0166202335
 20
98.2364490267
 10
140.0162746846
 20
98.2297385748
 10
140.0159256999
 20
98.2243011269
 10
140.0155741608
 20
98.2201508504
 10
140.015219186
 20
98.2172985725
 10
140.0148607754
 20
98.2157516964
  0
LINE
  5
332
100
AcDbEntity
  8
RACCORDO
100
AcDbLine
 62
250
  6
CONTINUOUS
 10
139.6934343268
 20
107.7820767968
 11
139.6919610986
 21
107.7272482067
  0
LINE
  5
333
100
AcDbEntity
  8
RACCORDO
100
AcDbLine
 62
250
  6
CONTINUOUS
 10
139.7205207144
 20
108.5660668564
 11
139.7201504508
 21
108.5522476789
  0
LINE
  5
334
100
AcDbEntity
  8
RACCORDO
100
AcDbLine
 62
250
  6
CONTINUOUS
 10
140.4254384829
 20
100.1813093147
 11
140.4258087466
 21
100.1951284922
  0
LINE
  5
335
100
AcDbEntity
  8
RACCORDO
100
AcDbLine
 62
250
  6
CONTINUOUS
 10
140.4525248706
 20
100.9652993742
 11
140.4539980988
 21
101.0201279644
  0
LWPOLYLINE
  5
336
100
AcDbEntity
  8
RACCORDO
100
AcDbPolyline
 62
7
  6
CONTINUOUS
 90
28
 70
0
 10
139.6597859747
 20
110.2870644614
 10
139.6602941167
 20
110.3043930843
 10
139.6618076773
 20
110.3217049251
 10
139.6643289132
 20
110.3389413077
 10
139.667862908
 20
110.3560697192
 10
139.6724017689
 20
110.3730033053
 10
139.6779091776
 20
110.3896051987
 10
139.6843426971
 20
110.4057812909
 10
139.6916867332
 20
110.4215212205
 10
139.699934548
 20
110.4368167843
 10
139.7090605806
 20
110.4516171264
 10
139.7190348309
 20
110.4658704551
 10
139.7298531991
 20
110.47956157
 10
139.7415200575
 20
110.4926742098
 10
139.7539729959
 20
110.505117918
 10
139.7670961429
 20
110.5167767832
 10
139.7807999385
 20
110.5275887374
 10
139.7950676241
 20
110.5375572371
 10
139.8098816324
 20
110.5466766182
 10
139.8251892158
 20
110.5549166074
 10
139.8409401678
 20
110.5622522946
 10
139.857126077
 20
110.5686771804
 10
139.8737352944
 20
110.5741754654
 10
139.8906748288
 20
110.5787054279
 10
139.9078114143
 20
110.5822317392
 10
139.9250595122
 20
110.5847462364
 10
139.942385448
 20
110.5862531975
 10
139.9597305222
 20
110.5867544101
  0
LWPOLYLINE
  5
337
100
AcDbEntity
  8
RACCORDO
100
AcDbPolyline
 62
7
  6
CONTINUOUS
 90
28
 70
0
 10
140.4861732227
 20
98.4603117096
 10
140.4856650807
 20
98.4429830867
 10
140.4841515201
 20
98.425671246
 10
140.4816302842
 20
98.4084348633
 10
140.4780962894
 20
98.3913064518
 10
140.4735574284
 20
98.3743728657
 10
140.4680500198
 20
98.3577709723
 10
140.4616165003
 20
98.3415948802
 10
140.4542724642
 20
98.3258549506
 10
140.4460246494
 20
98.3105593867
 10
140.4368986167
 20
98.2957590446
 10
140.4269243664
 20
98.2815057159
 10
140.4161059982
 20
98.267814601
 10
140.4044391399
 20
98.2547019613
 10
140.3919862015
 20
98.2422582531
 10
140.3788630544
 20
98.2305993879
 10
140.3651592589
 20
98.2197874337
 10
140.3508915732
 20
98.209818934
 10
140.336077565
 20
98.2006995528
 10
140.3207699815
 20
98.1924595637
 10
140.3050190296
 20
98.1851238765
 10
140.2888331204
 20
98.1786989906
 10
140.272223903
 20
98.1732007057
 10
140.2552843686
 20
98.1686707431
 10
140.2381477831
 20
98.1651444318
 10
140.2208996851
 20
98.1626299346
 10
140.2035737494
 20
98.1611229736
 10
140.1862286752
 20
98.1606217609
  0
LINE
  5
338
100
AcDbEntity
  8
RACCORDO
100
AcDbLine
 62
250
  6
CONTINUOUS
 10
139.9904521449
 20
107.5174670582
 11
139.9893062001
 21
107.4781964678
  0
LINE
  5
339
100
AcDbEntity
  8
RACCORDO
100
AcDbLine
 62
250
  6
CONTINUOUS
 10
140.1555070524
 20
101.2299091129
 11
140.1566529973
 21
101.2691797033
  0
LINE
  5
33A
100
AcDbEntity
  8
RACCORDO
100
AcDbLine
 62
250
  6
CONTINUOUS
 10
139.7202939393
 20
98.5919661124
 11
139.7198241324
 21
98.5765206808
  0
LINE
  5
33B
100
AcDbEntity
  8
RACCORDO
100
AcDbLine
 62
250
  6
CONTINUOUS
 10
140.4256652581
 20
110.1554100587
 11
140.426135065
 21
110.1708554902
  0
LINE
  5
33C
100
AcDbEntity
  8
RACCORDO
100
AcDbLine
 62
250
  6
CONTINUOUS
 10
139.6950458231
 20
107.8322667293
 11
139.6934343268
 21
107.7820767968
  0
LINE
  5
33D
100
AcDbEntity
  8
RACCORDO
100
AcDbLine
 62
250
  6
CONTINUOUS
 10
140.4509133743
 20
100.9151094418
 11
140.4525248706
 21
100.9652993742
  0
LWPOLYLINE
  5
33E
100
AcDbEntity
  8
RACCORDO
100
AcDbPolyline
 62
250
  6
CONTINUOUS
 90
15
 70
0
 10
141.2730694774
 20
120.2661065594
 10
141.2729327589
 20
120.2618875827
 10
141.2728584248
 20
120.2599562277
 10
141.2727803051
 20
120.2581517461
 10
141.272698436
 20
120.2564728413
 10
141.2726136281
 20
120.2549360879
 10
141.2725258523
 20
120.2535429134
 10
141.2724351376
 20
120.2522918901
 10
141.2723423816
 20
120.2511953094
 10
141.2722475535
 20
120.2502546839
 10
141.272150684
 20
120.249468501
 10
141.2720527633
 20
120.2488445145
 10
141.2719541215
 20
120.2483853089
 10
141.2718544284
 20
120.2480882997
 10
141.2717536841
 20
120.2479534868
  0
LINE
  5
33F
100
AcDbEntity
  8
RACCORDO
100
AcDbLine
 62
250
  6
CONTINUOUS
 10
139.7201504508
 20
108.5522476789
 11
139.6950458231
 21
107.8322667293
  0
LINE
  5
340
100
AcDbEntity
  8
RACCORDO
100
AcDbLine
 62
250
  6
CONTINUOUS
 10
140.0195557841
 20
108.3272414761
 11
139.9948633282
 21
107.6201420528
  0
LINE
  5
341
100
AcDbEntity
  8
RACCORDO
100
AcDbLine
 62
250
  6
CONTINUOUS
 10
140.1264034132
 20
100.4201346949
 11
140.1510958692
 21
101.1272341182
  0
LINE
  5
342
100
AcDbEntity
  8
RACCORDO
100
AcDbLine
 62
250
  6
CONTINUOUS
 10
140.4258087466
 20
100.1951284922
 11
140.4509133743
 21
100.9151094418
  0
LWPOLYLINE
  5
343
100
AcDbEntity
  8
RACCORDO
100
AcDbPolyline
 62
250
  6
CONTINUOUS
 90
12
 70
0
 10
141.3324260789
 20
121.9930350155
 10
141.3322865612
 20
121.9888019788
 10
141.3322107535
 20
121.986869268
 10
141.3321311203
 20
121.9850674642
 10
141.3320476987
 20
121.9833951846
 10
141.331961333
 20
121.9818692393
 10
141.331871982
 20
121.9804910373
 10
141.3317796869
 20
121.9792591696
 10
141.3316854159
 20
121.9781862191
 10
141.3315894918
 20
121.9772763803
 10
141.3314915918
 20
121.9765254587
 10
141.331391716
 20
121.9759334544
  0
LINE
  5
344
100
AcDbEntity
  8
RACCORDO
100
AcDbLine
 62
250
  6
CONTINUOUS
 10
139.9917776891
 20
107.5544809538
 11
139.9904521449
 21
107.5174670582
  0
LINE
  5
345
100
AcDbEntity
  8
RACCORDO
100
AcDbLine
 62
250
  6
CONTINUOUS
 10
140.1541815083
 20
101.1928952173
 11
140.1555070524
 21
101.2299091129
  0
LWPOLYLINE
  5
346
100
AcDbEntity
  8
RACCORDO
100
AcDbPolyline
 62
250
  6
CONTINUOUS
 90
15
 70
0
 10
139.7198241324
 20
98.5765206808
 10
139.7193015097
 20
98.5625350342
 10
139.7190225746
 20
98.5561409631
 10
139.7187325075
 20
98.5501672279
 10
139.7184313922
 20
98.5446104847
 10
139.7181215834
 20
98.5395141734
 10
139.7178030066
 20
98.5348818685
 10
139.7174757361
 20
98.5307099956
 10
139.7171423496
 20
98.5270312715
 10
139.7168027805
 20
98.5238496026
 10
139.7164570952
 20
98.5211610826
 10
139.7161080706
 20
98.5189867097
 10
139.7157566321
 20
98.5173334833
 10
139.7154018542
 20
98.516194404
 10
139.7150437369
 20
98.5155694719
  0
LWPOLYLINE
  5
347
100
AcDbEntity
  8
RACCORDO
100
AcDbPolyline
 62
250
  6
CONTINUOUS
 90
15
 70
0
 10
140.426135065
 20
110.1708554902
 10
140.4266576876
 20
110.1848411368
 10
140.4269366228
 20
110.1912352079
 10
140.4272266899
 20
110.1972089431
 10
140.4275278051
 20
110.2027656864
 10
140.427837614
 20
110.2078619976
 10
140.4281561908
 20
110.2124943025
 10
140.4284834612
 20
110.2166661755
 10
140.4288168478
 20
110.2203448995
 10
140.4291564169
 20
110.2235265684
 10
140.4295021021
 20
110.2262150885
 10
140.4298511268
 20
110.2283894614
 10
140.4302025653
 20
110.2300426878
 10
140.4305573432
 20
110.231181767
 10
140.4309154605
 20
110.2318066992
  0
LWPOLYLINE
  5
348
100
AcDbEntity
  8
RACCORDO
100
AcDbPolyline
 62
250
  6
CONTINUOUS
 90
4
 70
0
 10
139.9948634549
 20
107.6201420527
 10
139.994039548
 20
107.6048316158
 10
139.9932511166
 20
107.5887785293
 10
139.9917776891
 20
107.5544809538
  0
LWPOLYLINE
  5
349
100
AcDbEntity
  8
RACCORDO
100
AcDbPolyline
 62
250
  6
CONTINUOUS
 90
4
 70
0
 10
140.1510957425
 20
101.1272341183
 10
140.1519196494
 20
101.1425445552
 10
140.1527080808
 20
101.1585976417
 10
140.1541815083
 20
101.1928952173
  0
LINE
  5
34A
100
AcDbEntity
  8
RACCORDO
100
AcDbLine
 62
250
  6
CONTINUOUS
 10
137.3857767558
 20
84.2664969463
 11
137.3342341069
 21
83.9039293171
  0
LINE
  5
34B
100
AcDbEntity
  8
RACCORDO
100
AcDbLine
 62
250
  6
CONTINUOUS
 10
137.5857462956
 20
84.0679877218
 11
137.5341429248
 21
83.7049929548
  0
LWPOLYLINE
  5
34C
100
AcDbEntity
  8
RACCORDO
100
AcDbPolyline
 62
250
  6
CONTINUOUS
 90
25
 70
0
 10
154.4310982124
 20
98.2157522237
 10
154.4506920467
 20
98.2164170266
 10
154.4702021062
 20
98.2183608631
 10
154.4895449751
 20
98.2215754222
 10
154.5086379526
 20
98.2260469597
 10
154.5273994063
 20
98.2317563573
 10
154.5457491207
 20
98.238679204
 10
154.5636086414
 20
98.2467859007
 10
154.5809016097
 20
98.256041787
 10
154.597554089
 20
98.2664072887
 10
154.6134948814
 20
98.2778380875
 10
154.628655832
 20
98.2902853107
 10
154.6429721198
 20
98.3036957394
 10
154.6563825356
 20
98.3180120369
 10
154.668829743
 20
98.3331729934
 10
154.6802605241
 20
98.3491137875
 10
154.6906260066
 20
98.3657662639
 10
154.6998818732
 20
98.3830592245
 10
154.7079885505
 20
98.4009187327
 10
154.7149113786
 20
98.4192684297
 10
154.7206207594
 20
98.4380298612
 10
154.7250922826
 20
98.4571228121
 10
154.7283068307
 20
98.4764656504
 10
154.7302506601
 20
98.4959756754
 10
154.7309154605
 20
98.5155694719
  0
LWPOLYLINE
  5
34D
100
AcDbEntity
  8
RACCORDO
100
AcDbPolyline
 62
7
  6
CONTINUOUS
 90
28
 70
0
 10
139.9597305222
 20
98.1606217609
 10
139.942385448
 20
98.1611229736
 10
139.9250595122
 20
98.1626299346
 10
139.9078114143
 20
98.1651444318
 10
139.8906748288
 20
98.1686707431
 10
139.8737352944
 20
98.1732007057
 10
139.857126077
 20
98.1786989906
 10
139.8409401678
 20
98.1851238765
 10
139.8251892158
 20
98.1924595637
 10
139.8098816324
 20
98.2006995528
 10
139.7950676241
 20
98.209818934
 10
139.7807999385
 20
98.2197874337
 10
139.7670961429
 20
98.2305993879
 10
139.7539729959
 20
98.2422582531
 10
139.7415200575
 20
98.2547019613
 10
139.7298531991
 20
98.267814601
 10
139.7190348309
 20
98.2815057159
 10
139.7090605806
 20
98.2957590446
 10
139.699934548
 20
98.3105593867
 10
139.6916867332
 20
98.3258549506
 10
139.6843426971
 20
98.3415948802
 10
139.6779091776
 20
98.3577709723
 10
139.6724017689
 20
98.3743728657
 10
139.667862908
 20
98.3913064518
 10
139.6643289132
 20
98.4084348633
 10
139.6618076773
 20
98.425671246
 10
139.6602941167
 20
98.4429830867
 10
139.6597859747
 20
98.4603117096
  0
LWPOLYLINE
  5
34E
100
AcDbEntity
  8
RACCORDO
100
AcDbPolyline
 62
250
  6
CONTINUOUS
 90
25
 70
0
 10
140.014860985
 20
98.2157522237
 10
139.9952671671
 20
98.2164170255
 10
139.9757571229
 20
98.2183608589
 10
139.956414268
 20
98.221575413
 10
139.9373213031
 20
98.2260469439
 10
139.9185598604
 20
98.2317563336
 10
139.900210155
 20
98.2386791714
 10
139.8823506412
 20
98.2467858586
 10
139.8650576777
 20
98.2560417349
 10
139.8484052009
 20
98.2664072267
 10
139.8324644088
 20
98.2778380161
 10
139.8173034565
 20
98.2902852306
 10
139.802987165
 20
98.3036956518
 10
139.7895767437
 20
98.3180119434
 10
139.7771295292
 20
98.3331728957
 10
139.7656987398
 20
98.3491136878
 10
139.7553332481
 20
98.3657661645
 10
139.7460773717
 20
98.383059128
 10
139.7379706845
 20
98.4009186418
 10
139.7310478468
 20
98.4192683473
 10
139.7253384571
 20
98.4380297899
 10
139.7208669262
 20
98.4571227549
 10
139.7176523721
 20
98.4764656098
 10
139.7157085387
 20
98.495975654
 10
139.7150437369
 20
98.5155694719
  0
LWPOLYLINE
  5
34F
100
AcDbEntity
  8
RACCORDO
100
AcDbPolyline
 62
7
  6
CONTINUOUS
 90
15
 70
0
 10
137.3928308429
 20
103.0661918
 10
137.393469313
 20
103.0657413734
 10
137.3949299541
 20
103.0652957214
 10
137.3972127661
 20
103.0648548439
 10
137.4003397813
 20
103.0644162061
 10
137.4042889674
 20
103.063982343
 10
137.4089942275
 20
103.0635608588
 10
137.4144462681
 20
103.0631533535
 10
137.4206543826
 20
103.0627582271
 10
137.4275803543
 20
103.0623782845
 10
137.4352529753
 20
103.0620124871
 10
137.4436434535
 20
103.0616618735
 10
137.4526271956
 20
103.0613323637
 10
137.4622200541
 20
103.0610245202
 10
137.4830134127
 20
103.0604763785
  0
LINE
  5
350
100
AcDbEntity
  8
RACCORDO
100
AcDbLine
 62
250
  6
CONTINUOUS
 10
137.3342341069
 20
124.8434468539
 11
137.3857767558
 21
124.4808792247
  0
LINE
  5
351
100
AcDbEntity
  8
RACCORDO
100
AcDbLine
 62
250
  6
CONTINUOUS
 10
137.5341429248
 20
125.0423832163
 11
137.5857462956
 21
124.6793884492
  0
LWPOLYLINE
  5
352
100
AcDbEntity
  8
RACCORDO
100
AcDbPolyline
 62
250
  6
CONTINUOUS
 90
5
 70
0
 10
141.5216013149
 20
88.7493848369
 10
141.5217021392
 20
88.7485885368
 10
141.5218018664
 20
88.7468025688
 10
141.5219004966
 20
88.7440326155
 10
141.5219983245
 20
88.7402875191
  0
LWPOLYLINE
  5
353
100
AcDbEntity
  8
RACCORDO
100
AcDbPolyline
 62
7
  6
CONTINUOUS
 90
31
 70
0
 10
141.27346925
 20
121.6834629933
 10
141.2740955318
 20
121.6742452094
 10
141.2752134894
 20
121.6649629457
 10
141.2768335209
 20
121.6556383955
 10
141.2789656845
 20
121.6462987837
 10
141.2816176593
 20
121.6369641623
 10
141.2847948591
 20
121.627647413
 10
141.2885026502
 20
121.6183769738
 10
141.2927465072
 20
121.6091770405
 10
141.2975314401
 20
121.600055831
 10
141.3028596518
 20
121.5910444578
 10
141.3087336778
 20
121.5821700784
 10
141.315159967
 20
121.5734376227
 10
141.3221375167
 20
121.5648816067
 10
141.3296659096
 20
121.5565324835
 10
141.3377545325
 20
121.5483933023
 10
141.3463989822
 20
121.5405027637
 10
141.355595196
 20
121.5328956991
 10
141.3653556539
 20
121.5255757075
 10
141.3756718429
 20
121.5185866279
 10
141.3865343581
 20
121.5119690509
 10
141.3979564349
 20
121.5057304256
 10
141.4099246785
 20
121.4999201243
 10
141.4224205339
 20
121.4945861614
 10
141.4354495034
 20
121.4897441585
 10
141.4489910667
 20
121.4854485029
 10
141.4630121978
 20
121.4817544133
 10
141.4774958647
 20
121.4786874814
 10
141.4924087271
 20
121.476296045
 10
141.5076996253
 20
121.4746465163
 10
141.5233169567
 20
121.4737936965
  0
LINE
  5
354
100
AcDbEntity
  8
RACCORDO
100
AcDbLine
 62
250
  6
CONTINUOUS
 10
141.5812394228
 20
87.0176446549
 11
141.5813393489
 21
87.0141180631
  0
LINE
  5
355
100
AcDbEntity
  8
RACCORDO
100
AcDbLine
 62
250
  6
CONTINUOUS
 10
141.6647197746
 20
121.7297315162
 11
141.6646198485
 21
121.733258108
  0
LINE
  5
356
100
AcDbEntity
  8
RACCORDO
100
AcDbLine
 62
250
  6
CONTINUOUS
 10
141.9136006167
 20
121.9908642139
 11
141.9134701887
 21
121.9953154762
  0
LINE
  5
357
100
AcDbEntity
  8
RACCORDO
100
AcDbLine
 62
250
  6
CONTINUOUS
 10
141.9729558537
 20
120.2639445146
 11
141.9728280833
 21
120.2683747149
  0
LINE
  5
358
100
AcDbEntity
  8
RACCORDO
100
AcDbLine
 62
250
  6
CONTINUOUS
 10
141.3324260789
 20
86.7543411556
 11
141.3325474172
 21
86.7496716676
  0
LINE
  5
359
100
AcDbEntity
  8
RACCORDO
100
AcDbLine
 62
250
  6
CONTINUOUS
 10
141.2730694774
 20
88.4812696116
 11
141.2731882999
 21
88.4766281879
  0
LINE
  5
35A
100
AcDbEntity
  8
RACCORDO
100
AcDbLine
 62
250
  6
CONTINUOUS
 10
141.9134701887
 20
121.9953154762
 11
141.9133584833
 21
122.0001778614
  0
LINE
  5
35B
100
AcDbEntity
  8
RACCORDO
100
AcDbLine
 62
250
  6
CONTINUOUS
 10
141.9728280833
 20
120.2683747149
 11
141.9727187259
 21
120.273202907
  0
LINE
  5
35C
100
AcDbEntity
  8
RACCORDO
100
AcDbLine
 62
250
  6
CONTINUOUS
 10
141.3325474172
 20
86.7496716676
 11
141.332648846
 21
86.7446397929
  0
LINE
  5
35D
100
AcDbEntity
  8
RACCORDO
100
AcDbLine
 62
250
  6
CONTINUOUS
 10
141.2731882999
 20
88.4766281879
 11
141.2732875791
 21
88.4716358677
  0
LINE
  5
35E
100
AcDbEntity
  8
RACCORDO
100
AcDbLine
 62
250
  6
CONTINUOUS
 10
141.5813393489
 20
87.0141180631
 11
141.5815331583
 21
87.0041171114
  0
LINE
  5
35F
100
AcDbEntity
  8
RACCORDO
100
AcDbLine
 62
250
  6
CONTINUOUS
 10
141.6646198485
 20
121.733258108
 11
141.6644260391
 21
121.7432590597
  0
LINE
  5
360
100
AcDbEntity
  8
RACCORDO
100
AcDbLine
 62
250
  6
CONTINUOUS
 10
141.5219983245
 20
88.7402875191
 11
141.5221898048
 21
88.7299243661
  0
LINE
  5
361
100
AcDbEntity
  8
RACCORDO
100
AcDbLine
 62
250
  6
CONTINUOUS
 10
141.7239608728
 20
120.007088652
 11
141.7237693925
 21
120.017451805
  0
LINE
  5
362
100
AcDbEntity
  8
RACCORDO
100
AcDbLine
 62
250
  6
CONTINUOUS
 10
141.7008718279
 20
84.014730473
 11
141.6634405227
 21
86.3134110058
  0
LINE
  5
363
100
AcDbEntity
  8
RACCORDO
100
AcDbLine
 62
250
  6
CONTINUOUS
 10
141.5450873694
 20
124.7326456981
 11
141.5825186746
 21
122.4339651653
  0
LINE
  5
364
100
AcDbEntity
  8
RACCORDO
100
AcDbLine
 62
250
  6
CONTINUOUS
 10
141.9133584833
 20
122.0001778614
 11
141.9132673312
 21
122.0053792255
  0
LINE
  5
365
100
AcDbEntity
  8
RACCORDO
100
AcDbLine
 62
250
  6
CONTINUOUS
 10
141.9727187259
 20
120.273202907
 11
141.9726295247
 21
120.2783593553
  0
LINE
  5
366
100
AcDbEntity
  8
RACCORDO
100
AcDbLine
 62
250
  6
CONTINUOUS
 10
141.332648846
 20
86.7446397929
 11
141.3327293433
 21
86.7392964878
  0
LINE
  5
367
100
AcDbEntity
  8
RACCORDO
100
AcDbLine
 62
250
  6
CONTINUOUS
 10
141.2732875791
 20
88.4716358677
 11
141.2733663387
 21
88.4663420172
  0
LINE
  5
368
100
AcDbEntity
  8
RACCORDO
100
AcDbLine
 62
250
  6
CONTINUOUS
 10
141.3028472247
 20
124.1598058553
 11
141.3327350221
 21
122.3238201823
  0
LINE
  5
369
100
AcDbEntity
  8
RACCORDO
100
AcDbLine
 62
250
  6
CONTINUOUS
 10
141.9431119727
 20
84.5875703157
 11
141.9132241753
 21
86.4235559888
  0
LINE
  5
36A
100
AcDbEntity
  8
RACCORDO
100
AcDbLine
 62
250
  6
CONTINUOUS
 10
141.9132673312
 20
122.0053792255
 11
141.9131979754
 21
122.0108386582
  0
LINE
  5
36B
100
AcDbEntity
  8
RACCORDO
100
AcDbLine
 62
250
  6
CONTINUOUS
 10
141.9726295247
 20
120.2783593553
 11
141.9725616733
 21
120.2837655422
  0
LINE
  5
36C
100
AcDbEntity
  8
RACCORDO
100
AcDbLine
 62
250
  6
CONTINUOUS
 10
141.5815331583
 20
87.0041171114
 11
141.5818087649
 21
86.9820167387
  0
LINE
  5
36D
100
AcDbEntity
  8
RACCORDO
100
AcDbLine
 62
250
  6
CONTINUOUS
 10
141.6644260391
 20
121.7432590597
 11
141.6641504325
 21
121.7653594324
  0
LINE
  5
36E
100
AcDbEntity
  8
RACCORDO
100
AcDbLine
 62
250
  6
CONTINUOUS
 10
141.5221898048
 20
88.7299243661
 11
141.5224612794
 21
88.7074791125
  0
LINE
  5
36F
100
AcDbEntity
  8
RACCORDO
100
AcDbLine
 62
250
  6
CONTINUOUS
 10
141.7237693925
 20
120.017451805
 11
141.723497918
 21
120.0398970586
  0
LINE
  5
370
100
AcDbEntity
  8
RACCORDO
100
AcDbLine
 62
250
  6
CONTINUOUS
 10
141.3327350221
 20
122.3238201823
 11
141.3328018295
 21
122.3168122852
  0
LINE
  5
371
100
AcDbEntity
  8
RACCORDO
100
AcDbLine
 62
250
  6
CONTINUOUS
 10
141.9132241753
 20
86.4235559888
 11
141.9131573679
 21
86.4305638859
  0
LINE
  5
372
100
AcDbEntity
  8
RACCORDO
100
AcDbLine
 62
250
  6
CONTINUOUS
 10
141.2733663387
 20
88.4663420172
 11
141.2734433589
 21
88.4580090497
  0
LINE
  5
373
100
AcDbEntity
  8
RACCORDO
100
AcDbLine
 62
250
  6
CONTINUOUS
 10
141.3327293433
 20
86.7392964878
 11
141.3328080855
 21
86.7308761723
  0
LINE
  5
374
100
AcDbEntity
  8
RACCORDO
100
AcDbLine
 62
250
  6
CONTINUOUS
 10
141.5224612794
 20
88.7074791125
 11
141.5229172496
 21
88.6404752483
  0
LINE
  5
375
100
AcDbEntity
  8
RACCORDO
100
AcDbLine
 62
250
  6
CONTINUOUS
 10
141.5818087649
 20
86.9820167387
 11
141.5822737988
 21
86.9150381715
  0
LINE
  5
376
100
AcDbEntity
  8
RACCORDO
100
AcDbLine
 62
250
  6
CONTINUOUS
 10
141.6641504325
 20
121.7653594324
 11
141.6636853986
 21
121.8323379996
  0
LINE
  5
377
100
AcDbEntity
  8
RACCORDO
100
AcDbLine
 62
250
  6
CONTINUOUS
 10
141.723497918
 20
120.0398970586
 11
141.7230419478
 21
120.1069009227
  0
LINE
  5
378
100
AcDbEntity
  8
RACCORDO
100
AcDbLine
 62
250
  6
CONTINUOUS
 10
141.9131979754
 20
122.0108386582
 11
141.9131364799
 21
122.0193631101
  0
LINE
  5
379
100
AcDbEntity
  8
RACCORDO
100
AcDbLine
 62
250
  6
CONTINUOUS
 10
141.9725616733
 20
120.2837655422
 11
141.9725015271
 21
120.2921993956
  0
LINE
  5
37A
100
AcDbEntity
  8
RACCORDO
100
AcDbLine
 62
250
  6
CONTINUOUS
 10
141.3328018295
 20
122.3168122852
 11
141.3328324785
 21
122.3096103571
  0
LINE
  5
37B
100
AcDbEntity
  8
RACCORDO
100
AcDbLine
 62
250
  6
CONTINUOUS
 10
141.9131573679
 20
86.4305638859
 11
141.9131267189
 21
86.4377658139
  0
LINE
  5
37C
100
AcDbEntity
  8
RACCORDO
100
AcDbLine
 62
250
  6
CONTINUOUS
 10
141.2734433589
 20
88.4580090497
 11
141.27346925
 21
88.4494302995
  0
LINE
  5
37D
100
AcDbEntity
  8
RACCORDO
100
AcDbLine
 62
250
  6
CONTINUOUS
 10
141.3328080855
 20
86.7308761723
 11
141.3328345581
 21
86.722202329
  0
LINE
  5
37E
100
AcDbEntity
  8
RACCORDO
100
AcDbLine
 62
250
  6
CONTINUOUS
 10
141.5229172496
 20
88.6404752483
 11
141.5233139995
 21
88.4666708369
  0
LINE
  5
37F
100
AcDbEntity
  8
RACCORDO
100
AcDbLine
 62
250
  6
CONTINUOUS
 10
141.5822737988
 20
86.9150381715
 11
141.5826792394
 21
86.7396359811
  0
LINE
  5
380
100
AcDbEntity
  8
RACCORDO
100
AcDbLine
 62
250
  6
CONTINUOUS
 10
141.6636853986
 20
121.8323379996
 11
141.663279958
 21
122.0077401899
  0
LINE
  5
381
100
AcDbEntity
  8
RACCORDO
100
AcDbLine
 62
250
  6
CONTINUOUS
 10
141.7230419478
 20
120.1069009227
 11
141.7226451979
 21
120.2807053341
  0
LINE
  5
382
100
AcDbEntity
  8
RACCORDO
100
AcDbLine
 62
250
  6
CONTINUOUS
 10
141.27346925
 20
88.4494302995
 11
141.27346925
 21
87.0639131777
  0
LINE
  5
383
100
AcDbEntity
  8
RACCORDO
100
AcDbLine
 62
7
  6
CONTINUOUS
 10
141.3028472247
 20
83.8078649269
 11
141.3028472247
 21
84.5875703157
  0
LINE
  5
384
100
AcDbEntity
  8
RACCORDO
100
AcDbLine
 62
7
  6
CONTINUOUS
 10
141.3028472247
 20
124.1598058553
 11
141.3028472247
 21
124.9395112442
  0
LINE
  5
385
100
AcDbEntity
  8
RACCORDO
100
AcDbLine
 62
250
  6
CONTINUOUS
 10
141.5233139995
 20
88.4666708369
 11
141.5233169567
 21
87.2735824745
  0
LINE
  5
386
100
AcDbEntity
  8
RACCORDO
100
AcDbLine
 62
250
  6
CONTINUOUS
 10
141.7226451979
 20
120.2807053341
 11
141.7226422407
 21
121.4737936965
  0
LINE
  5
387
100
AcDbEntity
  8
RACCORDO
100
AcDbLine
 62
7
  6
CONTINUOUS
 10
141.9431119727
 20
124.9395112442
 11
141.9431119727
 21
124.1598058553
  0
LINE
  5
388
100
AcDbEntity
  8
RACCORDO
100
AcDbLine
 62
7
  6
CONTINUOUS
 10
141.9431119727
 20
84.5875703157
 11
141.9431119727
 21
83.8078649269
  0
LINE
  5
389
100
AcDbEntity
  8
RACCORDO
100
AcDbLine
 62
250
  6
CONTINUOUS
 10
141.9725015271
 20
120.2921993956
 11
141.9724899474
 21
121.6834629933
  0
LINE
  5
38A
100
AcDbEntity
  8
RACCORDO
100
AcDbLine
 62
250
  6
CONTINUOUS
 10
141.5825186746
 20
122.4339651653
 11
141.5826792394
 21
122.0077401899
  0
LINE
  5
38B
100
AcDbEntity
  8
RACCORDO
100
AcDbLine
 62
250
  6
CONTINUOUS
 10
141.6634405227
 20
86.3134110058
 11
141.663279958
 21
86.7396359811
  0
LINE
  5
38C
100
AcDbEntity
  8
RACCORDO
100
AcDbLine
 62
250
  6
CONTINUOUS
 10
141.9131364799
 20
122.0193631101
 11
141.9131267189
 21
122.3096103574
  0
LINE
  5
38D
100
AcDbEntity
  8
RACCORDO
100
AcDbLine
 62
250
  6
CONTINUOUS
 10
141.663279958
 20
122.0077401899
 11
141.6634405227
 21
122.4339651653
  0
LINE
  5
38E
100
AcDbEntity
  8
RACCORDO
100
AcDbLine
 62
250
  6
CONTINUOUS
 10
141.5826792394
 20
86.7396359811
 11
141.5825186746
 21
86.3134110058
  0
LINE
  5
38F
100
AcDbEntity
  8
RACCORDO
100
AcDbLine
 62
250
  6
CONTINUOUS
 10
141.27346925
 20
121.6834629933
 11
141.2734576702
 21
120.2921993956
  0
LINE
  5
390
100
AcDbEntity
  8
RACCORDO
100
AcDbLine
 62
250
  6
CONTINUOUS
 10
141.3328324785
 20
122.3096103571
 11
141.3328227174
 21
122.0193631101
  0
LINE
  5
391
100
AcDbEntity
  8
RACCORDO
100
AcDbLine
 62
250
  6
CONTINUOUS
 10
141.9131267189
 20
86.4377658139
 11
141.9131364799
 21
86.728013061
  0
LINE
  5
392
100
AcDbEntity
  8
RACCORDO
100
AcDbLine
 62
250
  6
CONTINUOUS
 10
141.9724899474
 20
87.0639131777
 11
141.9725015271
 21
88.4551767755
  0
LINE
  5
393
100
AcDbEntity
  8
RACCORDO
100
AcDbLine
 62
250
  6
CONTINUOUS
 10
141.5233169567
 20
121.4737936965
 11
141.5230360574
 21
120.1347230318
  0
LINE
  5
394
100
AcDbEntity
  8
RACCORDO
100
AcDbLine
 62
250
  6
CONTINUOUS
 10
141.7226422407
 20
87.2735824745
 11
141.72292314
 21
88.6126531393
  0
LINE
  5
395
100
AcDbEntity
  8
RACCORDO
100
AcDbLine
 62
250
  6
CONTINUOUS
 10
141.3328345581
 20
86.722202329
 11
141.3328161383
 21
86.4329526145
  0
LINE
  5
396
100
AcDbEntity
  8
RACCORDO
100
AcDbLine
 62
250
  6
CONTINUOUS
 10
141.5826792394
 20
122.0077401899
 11
141.5822737988
 21
121.8323379995
  0
LINE
  5
397
100
AcDbEntity
  8
RACCORDO
100
AcDbLine
 62
250
  6
CONTINUOUS
 10
141.663279958
 20
86.7396359811
 11
141.6636853986
 21
86.9150381715
  0
LINE
  5
398
100
AcDbEntity
  8
RACCORDO
100
AcDbLine
 62
250
  6
CONTINUOUS
 10
141.9131267189
 20
122.3096103574
 11
141.9131573679
 21
122.3168122857
  0
LINE
  5
399
100
AcDbEntity
  8
RACCORDO
100
AcDbLine
 62
250
  6
CONTINUOUS
 10
141.5230360574
 20
120.1347230318
 11
141.5225461005
 21
120.0491228326
  0
LINE
  5
39A
100
AcDbEntity
  8
RACCORDO
100
AcDbLine
 62
250
  6
CONTINUOUS
 10
141.72292314
 20
88.6126531393
 11
141.7234130969
 21
88.6982533384
  0
LINE
  5
39B
100
AcDbEntity
  8
RACCORDO
100
AcDbLine
 62
250
  6
CONTINUOUS
 10
141.2734576702
 20
120.2921993956
 11
141.2733975241
 21
120.2837655422
  0
LINE
  5
39C
100
AcDbEntity
  8
RACCORDO
100
AcDbLine
 62
250
  6
CONTINUOUS
 10
141.9725015271
 20
88.4551767755
 11
141.9725616733
 21
88.4636106289
  0
LINE
  5
39D
100
AcDbEntity
  8
RACCORDO
100
AcDbLine
 62
250
  6
CONTINUOUS
 10
141.3328227174
 20
122.0193631101
 11
141.332761222
 21
122.0108386582
  0
LINE
  5
39E
100
AcDbEntity
  8
RACCORDO
100
AcDbLine
 62
250
  6
CONTINUOUS
 10
141.5822737988
 20
121.8323379995
 11
141.5818087649
 21
121.7653594324
  0
LINE
  5
39F
100
AcDbEntity
  8
RACCORDO
100
AcDbLine
 62
250
  6
CONTINUOUS
 10
141.6636853986
 20
86.9150381715
 11
141.6641504325
 21
86.9820167387
  0
LINE
  5
3A0
100
AcDbEntity
  8
RACCORDO
100
AcDbLine
 62
250
  6
CONTINUOUS
 10
141.9131364799
 20
86.728013061
 11
141.9131979754
 21
86.7365375128
  0
LINE
  5
3A1
100
AcDbEntity
  8
RACCORDO
100
AcDbLine
 62
250
  6
CONTINUOUS
 10
141.3328161383
 20
86.4329526145
 11
141.3327611751
 21
86.425853171
  0
LINE
  5
3A2
100
AcDbEntity
  8
RACCORDO
100
AcDbLine
 62
250
  6
CONTINUOUS
 10
141.9131573679
 20
122.3168122857
 11
141.9132241753
 21
122.3238201826
  0
LINE
  5
3A3
100
AcDbEntity
  8
RACCORDO
100
AcDbLine
 62
250
  6
CONTINUOUS
 10
141.5225461005
 20
120.0491228326
 11
141.5222826054
 21
120.0240352281
  0
LINE
  5
3A4
100
AcDbEntity
  8
RACCORDO
100
AcDbLine
 62
250
  6
CONTINUOUS
 10
141.7234130969
 20
88.6982533384
 11
141.723676592
 21
88.7233409429
  0
LINE
  5
3A5
100
AcDbEntity
  8
RACCORDO
100
AcDbLine
 62
250
  6
CONTINUOUS
 10
141.2733975241
 20
120.2837655422
 11
141.2733296727
 21
120.2783593553
  0
LINE
  5
3A6
100
AcDbEntity
  8
RACCORDO
100
AcDbLine
 62
250
  6
CONTINUOUS
 10
141.9725616733
 20
88.4636106289
 11
141.9726295247
 21
88.4690168158
  0
LINE
  5
3A7
100
AcDbEntity
  8
RACCORDO
100
AcDbLine
 62
250
  6
CONTINUOUS
 10
141.332761222
 20
122.0108386582
 11
141.3326918661
 21
122.0053792255
  0
LINE
  5
3A8
100
AcDbEntity
  8
RACCORDO
100
AcDbLine
 62
250
  6
CONTINUOUS
 10
141.9131979754
 20
86.7365375128
 11
141.9132673312
 21
86.7419969456
  0
LINE
  5
3A9
100
AcDbEntity
  8
RACCORDO
100
AcDbLine
 62
250
  6
CONTINUOUS
 10
141.5818087649
 20
121.7653594324
 11
141.5815331583
 21
121.7432590596
  0
LINE
  5
3AA
100
AcDbEntity
  8
RACCORDO
100
AcDbLine
 62
250
  6
CONTINUOUS
 10
141.6641504325
 20
86.9820167387
 11
141.6644260391
 21
87.0041171114
  0
LINE
  5
3AB
100
AcDbEntity
  8
RACCORDO
100
AcDbLine
 62
250
  6
CONTINUOUS
 10
141.3327611751
 20
86.425853171
 11
141.3326709679
 21
86.4190655712
  0
LINE
  5
3AC
100
AcDbEntity
  8
RACCORDO
100
AcDbLine
 62
250
  6
CONTINUOUS
 10
141.6634405227
 20
122.4339651653
 11
141.7008718279
 21
124.7326456981
  0
LINE
  5
3AD
100
AcDbEntity
  8
RACCORDO
100
AcDbLine
 62
250
  6
CONTINUOUS
 10
141.9132241753
 20
122.3238201826
 11
141.9431119727
 21
124.1598058553
  0
LINE
  5
3AE
100
AcDbEntity
  8
RACCORDO
100
AcDbLine
 62
250
  6
CONTINUOUS
 10
141.3326709679
 20
86.4190655712
 11
141.3028472247
 21
84.5875703157
  0
LINE
  5
3AF
100
AcDbEntity
  8
RACCORDO
100
AcDbLine
 62
250
  6
CONTINUOUS
 10
141.5825186746
 20
86.3134110058
 11
141.5450873694
 21
84.014730473
  0
LWPOLYLINE
  5
3B0
100
AcDbEntity
  8
RACCORDO
100
AcDbPolyline
 62
250
  6
CONTINUOUS
 90
7
 70
0
 10
141.5222826054
 20
120.0240352281
 10
141.5220950554
 20
120.011796666
 10
141.5219983245
 20
120.0070886519
 10
141.5219004966
 20
120.0033435555
 10
141.5218018664
 20
120.0005736022
 10
141.5217021392
 20
119.9987876342
 10
141.5216013149
 20
119.9979913341
  0
LWPOLYLINE
  5
3B1
100
AcDbEntity
  8
RACCORDO
100
AcDbPolyline
 62
250
  6
CONTINUOUS
 90
7
 70
0
 10
141.723676592
 20
88.7233409429
 10
141.7238641419
 20
88.735579505
 10
141.7239608728
 20
88.7402875191
 10
141.7240587008
 20
88.7440326155
 10
141.724157331
 20
88.7468025688
 10
141.7242570582
 20
88.7485885368
 10
141.7243578824
 20
88.7493848369
  0
LINE
  5
3B2
100
AcDbEntity
  8
RACCORDO
100
AcDbLine
 62
250
  6
CONTINUOUS
 10
141.2733296727
 20
120.2783593553
 11
141.2732404715
 21
120.273202907
  0
LINE
  5
3B3
100
AcDbEntity
  8
RACCORDO
100
AcDbLine
 62
250
  6
CONTINUOUS
 10
141.9726295247
 20
88.4690168158
 11
141.9727187259
 21
88.4741732641
  0
LINE
  5
3B4
100
AcDbEntity
  8
RACCORDO
100
AcDbLine
 62
250
  6
CONTINUOUS
 10
141.3326918661
 20
122.0053792255
 11
141.332600714
 21
122.0001778614
  0
LINE
  5
3B5
100
AcDbEntity
  8
RACCORDO
100
AcDbLine
 62
250
  6
CONTINUOUS
 10
141.9132673312
 20
86.7419969456
 11
141.9133584833
 21
86.7471983097
  0
LWPOLYLINE
  5
3B6
100
AcDbEntity
  8
RACCORDO
100
AcDbPolyline
 62
250
  6
CONTINUOUS
 90
3
 70
0
 10
141.5815331583
 20
121.7432590596
 10
141.5813393489
 20
121.733258108
 10
141.5812394228
 20
121.7297315162
  0
LWPOLYLINE
  5
3B7
100
AcDbEntity
  8
RACCORDO
100
AcDbPolyline
 62
250
  6
CONTINUOUS
 90
3
 70
0
 10
141.6644260391
 20
87.0041171114
 10
141.6646198485
 20
87.0141180631
 10
141.6647197746
 20
87.0176446549
  0
LWPOLYLINE
  5
3B8
100
AcDbEntity
  8
RACCORDO
100
AcDbPolyline
 62
250
  6
CONTINUOUS
 90
3
 70
0
 10
141.2732404715
 20
120.273202907
 10
141.2731311141
 20
120.2683747148
 10
141.2730694774
 20
120.2661065594
  0
LINE
  5
3B9
100
AcDbEntity
  8
RACCORDO
100
AcDbLine
 62
250
  6
CONTINUOUS
 10
141.9727187259
 20
88.4741732641
 11
141.9728280833
 21
88.4790014562
  0
LWPOLYLINE
  5
3BA
100
AcDbEntity
  8
RACCORDO
100
AcDbPolyline
 62
250
  6
CONTINUOUS
 90
3
 70
0
 10
141.332600714
 20
122.0001778614
 10
141.3324890086
 20
121.9953154762
 10
141.3324260789
 20
121.9930350155
  0
LINE
  5
3BB
100
AcDbEntity
  8
RACCORDO
100
AcDbLine
 62
250
  6
CONTINUOUS
 10
141.9133584833
 20
86.7471983097
 11
141.9134701887
 21
86.7520606948
  0
LWPOLYLINE
  5
3BC
100
AcDbEntity
  8
RACCORDO
100
AcDbPolyline
 62
7
  6
CONTINUOUS
 90
28
 70
0
 10
142.0285997917
 20
120.220764634
 10
142.0281973562
 20
120.2062972573
 10
142.0269551161
 20
120.191846764
 10
142.0248717325
 20
120.1774621853
 10
142.0219438705
 20
120.1631718579
 10
142.0181784389
 20
120.1490469548
 10
142.0136047706
 20
120.1351980582
 10
142.0082576573
 20
120.1217026391
 10
142.0021504114
 20
120.1085705299
 10
141.9952884038
 20
120.0958085093
 10
141.9876927482
 20
120.083458931
 10
141.9793884693
 20
120.0715652875
 10
141.9703790842
 20
120.0601407288
 10
141.9606605969
 20
120.0491985018
 10
141.9502853493
 20
120.0388145975
 10
141.939351361
 20
120.0290871574
 10
141.9279340411
 20
120.0200681279
 10
141.9160471572
 20
120.0117539525
 10
141.9037055827
 20
120.0041492285
 10
141.890953369
 20
119.9972788685
 10
141.877832619
 20
119.9911634054
 10
141.8643508195
 20
119.9858081719
 10
141.8505195158
 20
119.9812264552
 10
141.8364146246
 20
119.9774519127
 10
141.8221422988
 20
119.974512805
 10
141.8077720146
 20
119.9724162038
 10
141.7933333751
 20
119.9711593301
 10
141.7788752708
 20
119.970741136
  0
LWPOLYLINE
  5
3BD
100
AcDbEntity
  8
RACCORDO
100
AcDbPolyline
 62
7
  6
CONTINUOUS
 90
28
 70
0
 10
141.2173594057
 20
88.5266115371
 10
141.2177618411
 20
88.5410789138
 10
141.2190040812
 20
88.5555294071
 10
141.2210874649
 20
88.5699139857
 10
141.2240153268
 20
88.5842043131
 10
141.2277807585
 20
88.5983292162
 10
141.2323544268
 20
88.6121781129
 10
141.23770154
 20
88.6256735319
 10
141.2438087859
 20
88.6388056411
 10
141.2506707936
 20
88.6515676618
 10
141.2582664492
 20
88.6639172401
 10
141.2665707281
 20
88.6758108836
 10
141.2755801132
 20
88.6872354422
 10
141.2852986005
 20
88.6981776692
 10
141.295673848
 20
88.7085615735
 10
141.3066078363
 20
88.7182890137
 10
141.3180251563
 20
88.7273080431
 10
141.3299120401
 20
88.7356222186
 10
141.3422536146
 20
88.7432269425
 10
141.3550058284
 20
88.7500973026
 10
141.3681265784
 20
88.7562127657
 10
141.3816083778
 20
88.7615679991
 10
141.3954396815
 20
88.7661497159
 10
141.4095445728
 20
88.7699242584
 10
141.4238168986
 20
88.772863366
 10
141.4381871827
 20
88.7749599672
 10
141.4526258223
 20
88.776216841
 10
141.4670839266
 20
88.776635035
  0
LINE
  5
3BE
100
AcDbEntity
  8
RACCORDO
100
AcDbLine
 62
250
  6
CONTINUOUS
 10
141.9728280833
 20
88.4790014562
 11
141.9729558537
 21
88.4834316565
  0
LINE
  5
3BF
100
AcDbEntity
  8
RACCORDO
100
AcDbLine
 62
250
  6
CONTINUOUS
 10
141.9134701887
 20
86.7520606948
 11
141.9136006167
 21
86.7565119572
  0
LWPOLYLINE
  5
3C0
100
AcDbEntity
  8
RACCORDO
100
AcDbPolyline
 62
7
  6
CONTINUOUS
 90
31
 70
0
 10
141.27346925
 20
87.0639131777
 10
141.2740944014
 20
87.0731695565
 10
141.2752125758
 20
87.0824444224
 10
141.2768335209
 20
87.0917377755
 10
141.2789658842
 20
87.1010705709
 10
141.2816173709
 20
87.1104218534
 10
141.2847948591
 20
87.1197287581
 10
141.2885028731
 20
87.1289915882
 10
141.2927461877
 20
87.1382100404
 10
141.2975314401
 20
87.14732034
 10
141.3028598932
 20
87.15632347
 10
141.3087333159
 20
87.1652184474
 10
141.315159967
 20
87.1739385484
 10
141.322137776
 20
87.1824857108
 10
141.3296654906
 20
87.1908579967
 10
141.3377545325
 20
87.1989828687
 10
141.3463992647
 20
87.2068637619
 10
141.3555947049
 20
87.2144972412
 10
141.3653556539
 20
87.2218004635
 10
141.3756721617
 20
87.2287786553
 10
141.3865337879
 20
87.2354265901
 10
141.3979564349
 20
87.2416457454
 10
141.4099250626
 20
87.2474429315
 10
141.4224199092
 20
87.2528113381
 10
141.4354495034
 20
87.2576320125
 10
141.4489915554
 20
87.2619109816
 10
141.4630115985
 20
87.2656422185
 10
141.4774958647
 20
87.2686886896
 10
141.4924109356
 20
87.2710047171
 10
141.5077023688
 20
87.2726359787
 10
141.5233169567
 20
87.2735824745
  0
LINE
  5
3C1
100
AcDbEntity
  8
RACCORDO
100
AcDbLine
 62
7
  6
CONTINUOUS
 10
140.4873375417
 20
105.6880460286
 11
140.4590958195
 21
105.6598043064
  0
LWPOLYLINE
  5
3C2
100
AcDbEntity
  8
RACCORDO
100
AcDbPolyline
 62
250
  6
CONTINUOUS
 90
25
 70
0
 10
140.1310982124
 20
98.2157522237
 10
140.1506920467
 20
98.2164170266
 10
140.1702021062
 20
98.2183608631
 10
140.1895449751
 20
98.2215754222
 10
140.2086379526
 20
98.2260469597
 10
140.2273994063
 20
98.2317563573
 10
140.2457491207
 20
98.238679204
 10
140.2636086414
 20
98.2467859007
 10
140.2809016097
 20
98.256041787
 10
140.297554089
 20
98.2664072887
 10
140.3134948814
 20
98.2778380875
 10
140.328655832
 20
98.2902853107
 10
140.3429721198
 20
98.3036957394
 10
140.3563825356
 20
98.3180120369
 10
140.368829743
 20
98.3331729934
 10
140.3802605241
 20
98.3491137875
 10
140.3906260066
 20
98.3657662639
 10
140.3998818732
 20
98.3830592245
 10
140.4079885505
 20
98.4009187327
 10
140.4149113786
 20
98.4192684297
 10
140.4206207594
 20
98.4380298612
 10
140.4250922826
 20
98.4571228121
 10
140.4283068307
 20
98.4764656504
 10
140.4302506601
 20
98.4959756754
 10
140.4309154605
 20
98.5155694719
  0
LINE
  5
3C3
100
AcDbEntity
  8
RACCORDO
100
AcDbLine
 62
7
  6
CONTINUOUS
 10
154.4862286752
 20
98.1606217609
 11
154.2597305222
 21
98.1606217609
  0
LINE
  5
3C4
100
AcDbEntity
  8
RACCORDO
100
AcDbLine
 62
7
  6
CONTINUOUS
 10
140.1862286752
 20
98.1606217609
 11
139.9597305222
 21
98.1606217609
  0
LINE
  5
3C5
100
AcDbEntity
  8
RACCORDO
100
AcDbLine
 62
250
  6
CONTINUOUS
 10
140.0148604575
 20
98.2157516962
 11
140.1310987399
 21
98.2157516962
  0
LINE
  5
3C6
100
AcDbEntity
  8
RACCORDO
100
AcDbLine
 62
250
  6
CONTINUOUS
 10
154.3148604575
 20
98.2157516962
 11
154.4310987399
 21
98.2157516962
  0
LINE
  5
3C7
100
AcDbEntity
  8
RACCORDO
100
AcDbLine
 62
250
  6
CONTINUOUS
 10
139.7217841473
 20
98.7154476373
 11
140.42417505
 21
98.7154476373
  0
LINE
  5
3C8
100
AcDbEntity
  8
RACCORDO
100
AcDbLine
 62
250
  6
CONTINUOUS
 10
154.0217841473
 20
98.7154476373
 11
154.72417505
 21
98.7154476373
  0
LWPOLYLINE
  5
3C9
100
AcDbEntity
  8
RACCORDO
100
AcDbPolyline
 62
7
  6
CONTINUOUS
 90
28
 70
0
 10
154.2597305222
 20
98.1606217609
 10
154.242385448
 20
98.1611229736
 10
154.2250595122
 20
98.1626299346
 10
154.2078114143
 20
98.1651444318
 10
154.1906748288
 20
98.1686707431
 10
154.1737352944
 20
98.1732007057
 10
154.157126077
 20
98.1786989906
 10
154.1409401678
 20
98.1851238765
 10
154.1251892158
 20
98.1924595637
 10
154.1098816324
 20
98.2006995528
 10
154.0950676241
 20
98.209818934
 10
154.0807999385
 20
98.2197874337
 10
154.0670961429
 20
98.2305993879
 10
154.0539729959
 20
98.2422582531
 10
154.0415200575
 20
98.2547019613
 10
154.0298531991
 20
98.267814601
 10
154.0190348309
 20
98.2815057159
 10
154.0090605806
 20
98.2957590446
 10
153.999934548
 20
98.3105593867
 10
153.9916867332
 20
98.3258549506
 10
153.9843426971
 20
98.3415948802
 10
153.9779091776
 20
98.3577709723
 10
153.9724017689
 20
98.3743728657
 10
153.967862908
 20
98.3913064518
 10
153.9643289132
 20
98.4084348633
 10
153.9618076773
 20
98.425671246
 10
153.9602941167
 20
98.4429830867
 10
153.9597859747
 20
98.4603117096
  0
LWPOLYLINE
  5
3CA
100
AcDbEntity
  8
RACCORDO
100
AcDbPolyline
 62
250
  6
CONTINUOUS
 90
25
 70
0
 10
154.314860985
 20
98.2157522237
 10
154.2952671671
 20
98.2164170255
 10
154.2757571229
 20
98.2183608589
 10
154.256414268
 20
98.221575413
 10
154.2373213031
 20
98.2260469439
 10
154.2185598604
 20
98.2317563336
 10
154.200210155
 20
98.2386791714
 10
154.1823506412
 20
98.2467858586
 10
154.1650576777
 20
98.2560417349
 10
154.1484052009
 20
98.2664072267
 10
154.1324644088
 20
98.2778380161
 10
154.1173034565
 20
98.2902852306
 10
154.102987165
 20
98.3036956518
 10
154.0895767437
 20
98.3180119434
 10
154.0771295292
 20
98.3331728957
 10
154.0656987398
 20
98.3491136878
 10
154.0553332481
 20
98.3657661645
 10
154.0460773717
 20
98.383059128
 10
154.0379706845
 20
98.4009186418
 10
154.0310478468
 20
98.4192683473
 10
154.0253384571
 20
98.4380297899
 10
154.0208669262
 20
98.4571227549
 10
154.0176523721
 20
98.4764656098
 10
154.0157085387
 20
98.495975654
 10
154.0150437369
 20
98.5155694719
  0
LINE
  5
3CB
100
AcDbEntity
  8
RACCORDO
100
AcDbLine
 62
7
  6
CONTINUOUS
 10
140.4590958195
 20
103.0875718647
 11
140.4873375417
 21
103.0593301425
  0
LWPOLYLINE
  5
3CC
100
AcDbEntity
  8
RACCORDO
100
AcDbPolyline
 62
250
  6
CONTINUOUS
 90
13
 70
0
 10
152.4717536841
 20
88.4994226843
 10
152.4718544284
 20
88.4992878714
 10
152.4719541215
 20
88.4989908621
 10
152.4720527633
 20
88.4985316565
 10
152.472150684
 20
88.49790767
 10
152.4722475535
 20
88.4971214871
 10
152.4723423816
 20
88.4961808616
 10
152.4724351376
 20
88.495084281
 10
152.4725258523
 20
88.4938332577
 10
152.4726136281
 20
88.4924400831
 10
152.472698436
 20
88.4909033297
 10
152.4727803051
 20
88.489224425
 10
152.4728584248
 20
88.4874199434
  0
LWPOLYLINE
  5
3CD
100
AcDbEntity
  8
RACCORDO
100
AcDbPolyline
 62
250
  6
CONTINUOUS
 90
8
 70
0
 10
140.0148607754
 20
110.5316244746
 10
140.015219186
 20
110.5300775986
 10
140.0155741608
 20
110.5272253206
 10
140.0159256999
 20
110.5230750441
 10
140.0162746846
 20
110.5176375961
 10
140.0166202335
 20
110.5109271443
 10
140.0169597027
 20
110.502961115
 10
140.0172930882
 20
110.4937601066
  0
LINE
  5
3CE
100
AcDbEntity
  8
RACCORDO
100
AcDbLine
 62
250
  6
CONTINUOUS
 10
141.9137484439
 20
121.986869268
 11
141.9136006167
 21
121.9908642139
  0
LINE
  5
3CF
100
AcDbEntity
  8
RACCORDO
100
AcDbLine
 62
250
  6
CONTINUOUS
 10
141.9731007725
 20
120.2599562277
 11
141.9729558537
 21
120.2639445146
  0
LINE
  5
3D0
100
AcDbEntity
  8
RACCORDO
100
AcDbLine
 62
250
  6
CONTINUOUS
 10
143.3075095448
 20
126.4959268553
 11
143.3075095448
 21
124.9395112442
  0
LINE
  5
3D1
100
AcDbEntity
  8
RACCORDO
100
AcDbLine
 62
250
  6
CONTINUOUS
 10
143.3075095448
 20
83.8078649269
 11
143.3075095448
 21
82.2514493157
  0
LINE
  5
3D2
100
AcDbEntity
  8
RACCORDO
100
AcDbLine
 62
250
  6
CONTINUOUS
 10
143.4807146256
 20
126.5011676333
 11
143.4807146256
 21
124.9517897003
  0
LINE
  5
3D3
100
AcDbEntity
  8
RACCORDO
100
AcDbLine
 62
250
  6
CONTINUOUS
 10
143.4807146256
 20
83.7955864708
 11
143.4807146256
 21
82.2462085378
  0
LWPOLYLINE
  5
3D4
100
AcDbEntity
  8
RACCORDO
100
AcDbPolyline
 62
250
  6
CONTINUOUS
 90
14
 70
0
 10
141.9729558537
 20
88.4834316565
 10
141.9731007725
 20
88.4874199434
 10
141.9731788923
 20
88.489224425
 10
141.9732607614
 20
88.4909033297
 10
141.9733455693
 20
88.4924400832
 10
141.9734333451
 20
88.4938332577
 10
141.9735240598
 20
88.495084281
 10
141.9736168157
 20
88.4961808616
 10
141.9737116439
 20
88.4971214871
 10
141.9738085133
 20
88.49790767
 10
141.973906434
 20
88.4985316565
 10
141.9740050759
 20
88.4989908621
 10
141.974104769
 20
88.4992878714
 10
141.9742055133
 20
88.4994226843
  0
LWPOLYLINE
  5
3D5
100
AcDbEntity
  8
RACCORDO
100
AcDbPolyline
 62
250
  6
CONTINUOUS
 90
11
 70
0
 10
141.9136006167
 20
86.7565119572
 10
141.9137484439
 20
86.760506903
 10
141.9138280771
 20
86.7623087069
 10
141.9139114987
 20
86.7639809864
 10
141.9139978644
 20
86.7655069317
 10
141.9140872154
 20
86.7668851337
 10
141.9141795105
 20
86.7681170015
 10
141.9142737815
 20
86.769189952
 10
141.9143697056
 20
86.7700997908
 10
141.9144676055
 20
86.7708507124
 10
141.9145674814
 20
86.7714427166
  0
LINE
  5
3D6
100
AcDbEntity
  8
RACCORDO
100
AcDbLine
 62
7
  6
CONTINUOUS
 10
139.6586216556
 20
103.0593301425
 11
139.6868633779
 21
103.0875718647
  0
LINE
  5
3D7
100
AcDbEntity
  8
DRAFT
100
AcDbLine
 62
7
  6
CONTINUOUS
 10
137.3770903
 20
104.5007413757
 11
137.3229795987
 21
104.4736880855
  0
LWPOLYLINE
  5
3D8
100
AcDbEntity
  8
RACCORDO
100
AcDbPolyline
 62
250
  6
CONTINUOUS
 90
25
 70
0
 10
154.3195557841
 20
100.4201346949
 10
154.3002485703
 20
100.4193575473
 10
154.2810214571
 20
100.4177035515
 10
154.261954212
 20
100.4151795698
 10
154.2431259391
 20
100.4117960733
 10
154.2246147515
 20
100.4075670994
 10
154.2064974465
 20
100.4025101928
 10
154.1888491875
 20
100.3966463334
 10
154.1717431915
 20
100.3899998487
 10
154.1552504264
 20
100.382598313
 10
154.1394393155
 20
100.3744724332
 10
154.1243754541
 20
100.3656559214
 10
154.1101213376
 20
100.3561853547
 10
154.0967361019
 20
100.3461000237
 10
154.084275278
 20
100.3354417696
 10
154.0727905619
 20
100.3242548104
 10
154.0623296001
 20
100.3125855574
 10
154.0529357916
 20
100.3004824229
 10
154.0446481081
 20
100.2879956192
 10
154.0375009326
 20
100.2751769503
 10
154.0315239162
 20
100.262079597
 10
154.0267418553
 20
100.2487578963
 10
154.0231745891
 20
100.2352671157
 10
154.0208369166
 20
100.2216632243
 10
154.019738536
 20
100.2080026606
  0
LWPOLYLINE
  5
3D9
100
AcDbEntity
  8
RACCORDO
100
AcDbPolyline
 62
250
  6
CONTINUOUS
 90
25
 70
0
 10
140.0195557841
 20
100.4201346949
 10
140.0002485703
 20
100.4193575473
 10
139.9810214571
 20
100.4177035515
 10
139.961954212
 20
100.4151795698
 10
139.9431259391
 20
100.4117960733
 10
139.9246147515
 20
100.4075670994
 10
139.9064974465
 20
100.4025101928
 10
139.8888491875
 20
100.3966463334
 10
139.8717431915
 20
100.3899998487
 10
139.8552504264
 20
100.382598313
 10
139.8394393155
 20
100.3744724332
 10
139.8243754541
 20
100.3656559214
 10
139.8101213376
 20
100.3561853547
 10
139.7967361019
 20
100.3461000237
 10
139.784275278
 20
100.3354417696
 10
139.7727905619
 20
100.3242548104
 10
139.7623296001
 20
100.3125855574
 10
139.7529357916
 20
100.3004824229
 10
139.7446481081
 20
100.2879956192
 10
139.7375009326
 20
100.2751769503
 10
139.7315239162
 20
100.262079597
 10
139.7267418553
 20
100.2487578963
 10
139.7231745891
 20
100.2352671157
 10
139.7208369166
 20
100.2216632243
 10
139.719738536
 20
100.2080026606
  0
LWPOLYLINE
  5
3DA
100
AcDbEntity
  8
RACCORDO
100
AcDbPolyline
 62
250
  6
CONTINUOUS
 90
25
 70
0
 10
154.2948630712
 20
101.1272414761
 10
154.2755558696
 20
101.1264643294
 10
154.2563287678
 20
101.1248103355
 10
154.237261533
 20
101.1222863566
 10
154.2184332694
 20
101.1189028638
 10
154.1999220898
 20
101.1146738941
 10
154.1818047914
 20
101.1096169923
 10
154.1641565374
 20
101.103753138
 10
154.147050545
 20
101.0971066584
 10
154.1305577817
 20
101.0897051278
 10
154.114746671
 20
101.0815792529
 10
154.0996828084
 20
101.0727627454
 10
154.0854286892
 20
101.0632921824
 10
154.0720434495
 20
101.0532068544
 10
154.0595826205
 20
101.0425486023
 10
154.0480978984
 20
101.0313616439
 10
154.0376369299
 20
101.0196923905
 10
154.0282431143
 20
101.0075892544
 10
154.0199554236
 20
100.9951024477
 10
154.0128082411
 20
100.9822837743
 10
154.0068312181
 20
100.9691864151
 10
154.0020491515
 20
100.9558647071
 10
153.9984818807
 20
100.9423739178
 10
153.9961442051
 20
100.9287700166
 10
153.9950458231
 20
100.9151094418
  0
LINE
  5
3DB
100
AcDbEntity
  8
RACCORDO
100
AcDbLine
 62
250
  6
CONTINUOUS
 10
139.7217841473
 20
100.0665813043
 11
140.42417505
 21
100.0665813043
  0
LINE
  5
3DC
100
AcDbEntity
  8
RACCORDO
100
AcDbLine
 62
250
  6
CONTINUOUS
 10
154.0217841473
 20
100.0665813043
 11
154.72417505
 21
100.0665813043
  0
LINE
  5
3DD
100
AcDbEntity
  8
RACCORDO
100
AcDbLine
 62
250
  6
CONTINUOUS
 10
154.4264034132
 20
100.4201346949
 11
154.3195557841
 21
100.4201346949
  0
LINE
  5
3DE
100
AcDbEntity
  8
RACCORDO
100
AcDbLine
 62
250
  6
CONTINUOUS
 10
140.1264034132
 20
100.4201346949
 11
140.0195557841
 21
100.4201346949
  0
LINE
  5
3DF
100
AcDbEntity
  8
RACCORDO
100
AcDbLine
 62
250
  6
CONTINUOUS
 10
139.994863328
 20
101.1272341217
 11
140.1510958692
 21
101.1272341182
  0
LINE
  5
3E0
100
AcDbEntity
  8
RACCORDO
100
AcDbLine
 62
250
  6
CONTINUOUS
 10
154.294863328
 20
101.1272341217
 11
154.4510958692
 21
101.1272341182
  0
LWPOLYLINE
  5
3E1
100
AcDbEntity
  8
RACCORDO
100
AcDbPolyline
 62
250
  6
CONTINUOUS
 90
25
 70
0
 10
140.1264034132
 20
100.4201346949
 10
140.1457106148
 20
100.4193575482
 10
140.1649377167
 20
100.4177035544
 10
140.1840049515
 20
100.4151795754
 10
140.2028332151
 20
100.4117960826
 10
140.2213443946
 20
100.4075671129
 10
140.239461693
 20
100.4025102111
 10
140.2571099471
 20
100.3966463568
 10
140.2742159395
 20
100.3899998772
 10
140.2907087028
 20
100.3825983466
 10
140.3065198135
 20
100.3744724717
 10
140.3215836761
 20
100.3656559642
 10
140.3358377953
 20
100.3561854012
 10
140.349223035
 20
100.3461000732
 10
140.3616838639
 20
100.3354418211
 10
140.373168586
 20
100.3242548627
 10
140.3836295545
 20
100.3125856093
 10
140.3930233702
 20
100.3004824732
 10
140.4013110608
 20
100.2879956665
 10
140.4084582434
 20
100.2751769931
 10
140.4144352664
 20
100.262079634
 10
140.419217333
 20
100.2487579259
 10
140.4227846038
 20
100.2352671366
 10
140.4251222794
 20
100.2216632354
 10
140.4262206613
 20
100.2080026606
  0
LWPOLYLINE
  5
3E2
100
AcDbEntity
  8
RACCORDO
100
AcDbPolyline
 62
250
  6
CONTINUOUS
 90
25
 70
0
 10
154.4264034132
 20
100.4201346949
 10
154.4457106148
 20
100.4193575482
 10
154.4649377167
 20
100.4177035544
 10
154.4840049515
 20
100.4151795754
 10
154.5028332151
 20
100.4117960826
 10
154.5213443946
 20
100.4075671129
 10
154.539461693
 20
100.4025102111
 10
154.5571099471
 20
100.3966463568
 10
154.5742159395
 20
100.3899998772
 10
154.5907087028
 20
100.3825983466
 10
154.6065198135
 20
100.3744724717
 10
154.6215836761
 20
100.3656559642
 10
154.6358377953
 20
100.3561854012
 10
154.649223035
 20
100.3461000732
 10
154.6616838639
 20
100.3354418211
 10
154.673168586
 20
100.3242548627
 10
154.6836295545
 20
100.3125856093
 10
154.6930233702
 20
100.3004824732
 10
154.7013110608
 20
100.2879956665
 10
154.7084582434
 20
100.2751769931
 10
154.7144352664
 20
100.262079634
 10
154.719217333
 20
100.2487579259
 10
154.7227846038
 20
100.2352671366
 10
154.7251222794
 20
100.2216632354
 10
154.7262206613
 20
100.2080026606
  0
LWPOLYLINE
  5
3E3
100
AcDbEntity
  8
RACCORDO
100
AcDbPolyline
 62
250
  6
CONTINUOUS
 90
25
 70
0
 10
140.1510961261
 20
101.1272414761
 10
140.1704032977
 20
101.1264643312
 10
140.1896303713
 20
101.1248103419
 10
140.2086975799
 20
101.1222863698
 10
140.2275258194
 20
101.1189028859
 10
140.2460369775
 20
101.1146739271
 10
140.264154258
 20
101.1096170375
 10
140.2818024979
 20
101.1037531963
 10
140.2989084798
 20
101.0971067305
 10
140.315401237
 20
101.0897052137
 10
140.3312123457
 20
101.081579352
 10
140.3462762102
 20
101.0727628569
 10
140.3605303354
 20
101.0632923047
 10
140.3739155847
 20
101.0532069854
 10
140.3863764264
 20
101.0425487396
 10
140.3978611639
 20
101.0313617845
 10
140.40832215
 20
101.0196925311
 10
140.4177159845
 20
101.0075893915
 10
140.4260036947
 20
100.9951025773
 10
140.4331508965
 20
100.9822838924
 10
140.4391279376
 20
100.9691865176
 10
140.4439100201
 20
100.9558647898
 10
140.4474773039
 20
100.9423739767
 10
140.4498149883
 20
100.9287700478
 10
140.4509133743
 20
100.9151094418
  0
LINE
  5
3E4
100
AcDbEntity
  8
DRAFT
100
AcDbLine
 62
7
  6
CONTINUOUS
 10
137.3770903
 20
104.2466347954
 11
137.3229795987
 21
104.2736880855
  0
LINE
  5
3E5
100
AcDbEntity
  8
RACCORDO
100
AcDbLine
 62
7
  6
CONTINUOUS
 10
139.6868633779
 20
105.6598043064
 11
139.6586216556
 21
105.6880460286
  0
LWPOLYLINE
  5
3E6
100
AcDbEntity
  8
RACCORDO
100
AcDbPolyline
 62
250
  6
CONTINUOUS
 90
13
 70
0
 10
139.7150437369
 20
110.2318066992
 10
139.7154018542
 20
110.231181767
 10
139.7157566321
 20
110.2300426877
 10
139.7161080706
 20
110.2283894613
 10
139.7164570952
 20
110.2262150884
 10
139.7168027805
 20
110.2235265684
 10
139.7171423496
 20
110.2203448995
 10
139.7174757361
 20
110.2166661754
 10
139.7178030066
 20
110.2124943025
 10
139.7181215834
 20
110.2078619976
 10
139.7184313922
 20
110.2027656863
 10
139.7187325075
 20
110.1972089431
 10
139.7190225746
 20
110.1912352078
  0
LWPOLYLINE
  5
3E7
100
AcDbEntity
  8
RACCORDO
100
AcDbPolyline
 62
250
  6
CONTINUOUS
 90
5
 70
0
 10
141.7243578824
 20
119.9979913341
 10
141.7242570582
 20
119.9987876342
 10
141.724157331
 20
120.0005736023
 10
141.7240587008
 20
120.0033435556
 10
141.7239608728
 20
120.007088652
  0
LINE
  5
3E8
100
AcDbEntity
  8
DRAFT
100
AcDbLine
 62
7
  6
CONTINUOUS
 10
143.8314045917
 20
126.5330007912
 11
143.9066980755
 21
125.0423832163
  0
LINE
  5
3E9
100
AcDbEntity
  8
DRAFT
100
AcDbLine
 62
7
  6
CONTINUOUS
 10
143.8314045917
 20
82.2143753798
 11
143.9066980755
 21
83.7049929548
  0
LINE
  5
3EA
100
AcDbEntity
  8
RACCORDO
100
AcDbLine
 62
250
  6
CONTINUOUS
 10
141.6647197746
 20
87.0176446549
 11
141.7154280303
 21
87.2736880855
  0
LINE
  5
3EB
100
AcDbEntity
  8
RACCORDO
100
AcDbLine
 62
250
  6
CONTINUOUS
 10
141.9145674814
 20
86.7714427166
 11
141.9724899474
 21
87.0639131777
  0
LWPOLYLINE
  5
3EC
100
AcDbEntity
  8
RACCORDO
100
AcDbPolyline
 62
250
  6
CONTINUOUS
 90
25
 70
0
 10
139.9948630712
 20
101.1272414761
 10
139.9755558696
 20
101.1264643294
 10
139.9563287678
 20
101.1248103355
 10
139.937261533
 20
101.1222863566
 10
139.9184332694
 20
101.1189028638
 10
139.8999220898
 20
101.1146738941
 10
139.8818047914
 20
101.1096169923
 10
139.8641565374
 20
101.103753138
 10
139.847050545
 20
101.0971066584
 10
139.8305577817
 20
101.0897051278
 10
139.814746671
 20
101.0815792529
 10
139.7996828084
 20
101.0727627454
 10
139.7854286892
 20
101.0632921824
 10
139.7720434495
 20
101.0532068544
 10
139.7595826205
 20
101.0425486023
 10
139.7480978984
 20
101.0313616439
 10
139.7376369299
 20
101.0196923905
 10
139.7282431143
 20
101.0075892544
 10
139.7199554236
 20
100.9951024477
 10
139.7128082411
 20
100.9822837743
 10
139.7068312181
 20
100.9691864151
 10
139.7020491515
 20
100.9558647071
 10
139.6984818807
 20
100.9423739178
 10
139.6961442051
 20
100.9287700166
 10
139.6950458231
 20
100.9151094418
  0
LWPOLYLINE
  5
3ED
100
AcDbEntity
  8
RACCORDO
100
AcDbPolyline
 62
7
  6
CONTINUOUS
 90
13
 70
0
 10
156.9933320018
 20
103.0613323637
 10
157.0023157439
 20
103.0616618735
 10
157.0107062221
 20
103.0620124871
 10
157.0183788431
 20
103.0623782845
 10
157.0253048148
 20
103.0627582271
 10
157.0315129293
 20
103.0631533535
 10
157.0369649699
 20
103.0635608588
 10
157.04167023
 20
103.063982343
 10
157.0456194161
 20
103.0644162061
 10
157.0487464313
 20
103.0648548439
 10
157.0510292433
 20
103.0652957214
 10
157.0524898843
 20
103.0657413734
 10
157.0531283545
 20
103.0661918
  0
LINE
  5
3EE
100
AcDbEntity
  8
RACCORDO
100
AcDbLine
 62
7
  6
CONTINUOUS
 10
156.9735530208
 20
103.0607377806
 11
156.9933320018
 21
103.0613323637
  0
LINE
  5
3EF
100
AcDbEntity
  8
RACCORDO
100
AcDbLine
 62
7
  6
CONTINUOUS
 10
156.9519490617
 20
103.0602413126
 11
156.9735530208
 21
103.0607377806
  0
LWPOLYLINE
  5
3F0
100
AcDbEntity
  8
RACCORDO
100
AcDbPolyline
 62
7
  6
CONTINUOUS
 90
3
 70
0
 10
156.9166147452
 20
103.0596915216
 10
156.9287695444
 20
103.0598484308
 10
156.9519490617
 20
103.0602413126
  0
LINE
  5
3F1
100
AcDbEntity
  8
RACCORDO
100
AcDbLine
 62
250
  6
CONTINUOUS
 10
153.9868633779
 20
101.4807948667
 11
154.7590958195
 21
101.4807948667
  0
LINE
  5
3F2
100
AcDbEntity
  8
RACCORDO
100
AcDbLine
 62
250
  6
CONTINUOUS
 10
139.6868633779
 20
101.4807948667
 11
140.4590958195
 21
101.4807948667
  0
LINE
  5
3F3
100
AcDbEntity
  8
RACCORDO
100
AcDbLine
 62
7
  6
CONTINUOUS
 10
137.5054279723
 20
103.0600315841
 11
137.5293444522
 21
103.0596915216
  0
LINE
  5
3F4
100
AcDbEntity
  8
RACCORDO
100
AcDbLine
 62
7
  6
CONTINUOUS
 10
137.4830134127
 20
103.0604763785
 11
137.5054279723
 21
103.0600315841
  0
LWPOLYLINE
  5
3F5
100
AcDbEntity
  8
RACCORDO
100
AcDbPolyline
 62
250
  6
CONTINUOUS
 90
25
 70
0
 10
154.4510961261
 20
101.1272414761
 10
154.4704032977
 20
101.1264643312
 10
154.4896303713
 20
101.1248103419
 10
154.5086975799
 20
101.1222863698
 10
154.5275258194
 20
101.1189028859
 10
154.5460369775
 20
101.1146739271
 10
154.564154258
 20
101.1096170375
 10
154.5818024979
 20
101.1037531963
 10
154.5989084798
 20
101.0971067305
 10
154.615401237
 20
101.0897052137
 10
154.6312123457
 20
101.081579352
 10
154.6462762102
 20
101.0727628569
 10
154.6605303354
 20
101.0632923047
 10
154.6739155847
 20
101.0532069854
 10
154.6863764264
 20
101.0425487396
 10
154.6978611639
 20
101.0313617845
 10
154.70832215
 20
101.0196925311
 10
154.7177159845
 20
101.0075893915
 10
154.7260036947
 20
100.9951025773
 10
154.7331508965
 20
100.9822838924
 10
154.7391279376
 20
100.9691865176
 10
154.7439100201
 20
100.9558647898
 10
154.7474773039
 20
100.9423739767
 10
154.7498149883
 20
100.9287700478
 10
154.7509133743
 20
100.9151094418
  0
LINE
  5
3F6
100
AcDbEntity
  8
RACCORDO
100
AcDbLine
 62
250
  6
CONTINUOUS
 10
141.7154280303
 20
121.4736880855
 11
141.6647197746
 21
121.7297315162
  0
LINE
  5
3F7
100
AcDbEntity
  8
RACCORDO
100
AcDbLine
 62
250
  6
CONTINUOUS
 10
141.9724899474
 20
121.6834629933
 11
141.9145674814
 21
121.9759334544
  0
LWPOLYLINE
  5
3F8
100
AcDbEntity
  8
RACCORDO
100
AcDbPolyline
 62
250
  6
CONTINUOUS
 90
10
 70
0
 10
141.9145674814
 20
121.9759334544
 10
141.9144676055
 20
121.9765254587
 10
141.9143697056
 20
121.9772763803
 10
141.9142737815
 20
121.9781862191
 10
141.9141795105
 20
121.9792591696
 10
141.9140872154
 20
121.9804910373
 10
141.9139978644
 20
121.9818692393
 10
141.9139114987
 20
121.9833951846
 10
141.9138280771
 20
121.9850674642
 10
141.9137484439
 20
121.986869268
  0
LINE
  5
3F9
100
AcDbEntity
  8
RACCORDO
100
AcDbLine
 62
7
  6
CONTINUOUS
 10
152.4288665215
 20
124.6793884492
 11
152.5028472247
 21
124.9395112442
  0
LINE
  5
3FA
100
AcDbEntity
  8
RACCORDO
100
AcDbLine
 62
250
  6
CONTINUOUS
 10
139.7150437369
 20
98.5155694719
 11
139.6597859747
 21
98.4603117096
  0
LINE
  5
3FB
100
AcDbEntity
  8
RACCORDO
100
AcDbLine
 62
250
  6
CONTINUOUS
 10
140.0148604575
 20
98.2157516962
 11
139.9597305222
 21
98.1606217609
  0
LINE
  5
3FC
100
AcDbEntity
  8
DRAFT
100
AcDbLine
 62
7
  6
CONTINUOUS
 10
144.9266378687
 20
104.503359436
 11
144.9212470182
 21
104.5007413757
  0
LINE
  5
3FD
100
AcDbEntity
  8
DRAFT
100
AcDbLine
 62
7
  6
CONTINUOUS
 10
149.0925367951
 20
104.2309264334
 11
149.1459937574
 21
104.244016735
  0
LWPOLYLINE
  5
3FE
100
AcDbEntity
  8
0
100
AcDbPolyline
 62
7
  6
CONTINUOUS
 90
25
 70
0
 10
148.8383925389
 20
104.2309264334
 10
148.8221354148
 20
104.230489433
 10
148.8059836107
 20
104.229176405
 10
148.7899371264
 20
104.2269873495
 10
148.7739273161
 20
104.2239057825
 10
148.7580228257
 20
104.219948188
 10
148.7424295933
 20
104.2151640174
 10
148.7271931782
 20
104.2095605264
 10
148.7122680211
 20
104.2031304593
 10
148.6977233826
 20
104.1959015003
 10
148.6835291906
 20
104.1878525682
 10
148.6697155171
 20
104.1790047441
 10
148.656441839
 20
104.1694489553
 10
148.6437180079
 20
104.1591722477
 10
148.6315341721
 20
104.1481875754
 10
148.6200202528
 20
104.1366247269
 10
148.6092042222
 20
104.1245064367
 10
148.5990581082
 20
104.1118099703
 10
148.5896279153
 20
104.0985969136
 10
148.5808956162
 20
104.084827033
 10
148.5728792381
 20
104.070540562
 10
148.565678868
 20
104.0559197872
 10
148.559327868
 20
104.0410254707
 10
148.553792876
 20
104.0257968504
 10
148.5490738918
 20
104.0102339263
  0
LWPOLYLINE
  5
3FF
100
AcDbEntity
  8
0
100
AcDbPolyline
 62
7
  6
CONTINUOUS
 90
25
 70
0
 10
145.6075666585
 20
104.5164497377
 10
145.6238237826
 20
104.5168867381
 10
145.6399755867
 20
104.5181997661
 10
145.6560220709
 20
104.5203888216
 10
145.6720318813
 20
104.5234703885
 10
145.6879363717
 20
104.527427983
 10
145.7035296041
 20
104.5322121537
 10
145.7187660192
 20
104.5378156446
 10
145.7336911763
 20
104.5442457117
 10
145.7482358148
 20
104.5514746708
 10
145.7624300068
 20
104.5595236029
 10
145.7762436802
 20
104.5683714269
 10
145.7895173584
 20
104.5779272158
 10
145.8022411895
 20
104.5882039233
 10
145.8144250253
 20
104.5991885957
 10
145.8259389446
 20
104.6107514442
 10
145.8367549752
 20
104.6228697344
 10
145.8469010892
 20
104.6355662007
 10
145.8563312821
 20
104.6487792574
 10
145.8650635812
 20
104.6625491381
 10
145.8730799592
 20
104.676835609
 10
145.8802803293
 20
104.6914563839
 10
145.8866313293
 20
104.7063507003
 10
145.8921663214
 20
104.7215793206
 10
145.8968853056
 20
104.7371422448
  0
LINE
  5
400
100
AcDbEntity
  8
RACCORDO
100
AcDbLine
 62
7
  6
CONTINUOUS
 10
156.891498707
 20
103.0594596594
 11
156.9166147452
 21
103.0596915216
  0
LINE
  5
401
100
AcDbEntity
  8
RACCORDO
100
AcDbLine
 62
7
  6
CONTINUOUS
 10
156.8660577248
 20
103.0593445087
 11
156.891498707
 21
103.0594596594
  0
LINE
  5
402
100
AcDbEntity
  8
RACCORDO
100
AcDbLine
 62
7
  6
CONTINUOUS
 10
156.8660577248
 20
103.0593445087
 11
154.7873375417
 21
103.0593301425
  0
LINE
  5
403
100
AcDbEntity
  8
DRAFT
100
AcDbLine
 62
7
  6
CONTINUOUS
 10
153.9586216556
 20
103.0593301425
 11
149.8639951605
 21
103.0593301425
  0
LINE
  5
404
100
AcDbEntity
  8
DRAFT
100
AcDbLine
 62
7
  6
CONTINUOUS
 10
144.5819640369
 20
103.0593301425
 11
140.4873375417
 21
103.0593301425
  0
LINE
  5
405
100
AcDbEntity
  8
RACCORDO
100
AcDbLine
 62
7
  6
CONTINUOUS
 10
137.3770903
 20
103.0976824804
 11
139.986680626
 21
103.0976824804
  0
LINE
  5
406
100
AcDbEntity
  8
RACCORDO
100
AcDbLine
 62
7
  6
CONTINUOUS
 10
140.1592785714
 20
103.0976824804
 11
144.5632221482
 21
103.0976824804
  0
LINE
  5
407
100
AcDbEntity
  8
RACCORDO
100
AcDbLine
 62
7
  6
CONTINUOUS
 10
149.8827370492
 20
103.0976824804
 11
154.286680626
 21
103.0976824804
  0
LINE
  5
408
100
AcDbEntity
  8
RACCORDO
100
AcDbLine
 62
7
  6
CONTINUOUS
 10
154.4592785714
 20
103.0976824804
 11
157.0688688974
 21
103.0976824804
  0
LINE
  5
409
100
AcDbEntity
  8
0
100
AcDbLine
 62
7
  6
CONTINUOUS
 10
145.3534224023
 20
104.2309264334
 11
145.6075666585
 21
104.2309264334
  0
LINE
  5
40A
100
AcDbEntity
  8
0
100
AcDbLine
 62
7
  6
CONTINUOUS
 10
148.8383925389
 20
104.2309264334
 11
149.0925367951
 21
104.2309264334
  0
LINE
  5
40B
100
AcDbEntity
  8
DRAFT
100
AcDbLine
 62
7
  6
CONTINUOUS
 10
144.9266378687
 20
104.244016735
 11
145.29996544
 21
104.244016735
  0
LINE
  5
40C
100
AcDbEntity
  8
DRAFT
100
AcDbLine
 62
7
  6
CONTINUOUS
 10
149.1459937574
 20
104.244016735
 11
149.5193213287
 21
104.244016735
  0
LINE
  5
40D
100
AcDbEntity
  8
DRAFT
100
AcDbLine
 62
7
  6
CONTINUOUS
 10
157.0688688974
 20
104.2466347954
 11
149.5247121792
 21
104.2466347954
  0
LINE
  5
40E
100
AcDbEntity
  8
DRAFT
100
AcDbLine
 62
7
  6
CONTINUOUS
 10
144.9212470182
 20
104.2466347954
 11
137.3770903
 21
104.2466347954
  0
LINE
  5
40F
100
AcDbEntity
  8
RACCORDO
100
AcDbLine
 62
7
  6
CONTINUOUS
 10
158.1729795975
 20
104.2736880855
 11
157.1229795987
 21
104.2736880855
  0
LINE
  5
410
100
AcDbEntity
  8
RACCORDO
100
AcDbLine
 62
7
  6
CONTINUOUS
 10
137.3229795987
 20
104.2736880855
 11
136.2729795998
 21
104.2736880855
  0
LINE
  5
411
100
AcDbEntity
  8
RACCORDO
100
AcDbLine
 62
7
  6
CONTINUOUS
 10
136.2729795998
 20
104.4736880855
 11
137.3229795987
 21
104.4736880855
  0
LINE
  5
412
100
AcDbEntity
  8
RACCORDO
100
AcDbLine
 62
7
  6
CONTINUOUS
 10
157.1229795987
 20
104.4736880855
 11
158.1729795975
 21
104.4736880855
  0
LINE
  5
413
100
AcDbEntity
  8
DRAFT
100
AcDbLine
 62
7
  6
CONTINUOUS
 10
137.3770903
 20
104.5007413757
 11
144.9212470182
 21
104.5007413757
  0
LINE
  5
414
100
AcDbEntity
  8
DRAFT
100
AcDbLine
 62
7
  6
CONTINUOUS
 10
149.5247121792
 20
104.5007413757
 11
157.0688688974
 21
104.5007413757
  0
LINE
  5
415
100
AcDbEntity
  8
DRAFT
100
AcDbLine
 62
7
  6
CONTINUOUS
 10
149.5193213287
 20
104.503359436
 11
149.1459937574
 21
104.503359436
  0
LINE
  5
416
100
AcDbEntity
  8
DRAFT
100
AcDbLine
 62
7
  6
CONTINUOUS
 10
145.29996544
 20
104.503359436
 11
144.9266378687
 21
104.503359436
  0
LINE
  5
417
100
AcDbEntity
  8
0
100
AcDbLine
 62
7
  6
CONTINUOUS
 10
149.0925367951
 20
104.5164497377
 11
148.8383925389
 21
104.5164497377
  0
LINE
  5
418
100
AcDbEntity
  8
0
100
AcDbLine
 62
7
  6
CONTINUOUS
 10
145.6075666585
 20
104.5164497377
 11
145.3534224023
 21
104.5164497377
  0
LINE
  5
419
100
AcDbEntity
  8
RACCORDO
100
AcDbLine
 62
7
  6
CONTINUOUS
 10
137.5671216058
 20
103.0593876811
 11
139.6586216556
 21
103.0593301425
  0
LWPOLYLINE
  5
41A
100
AcDbEntity
  8
RACCORDO
100
AcDbPolyline
 62
7
  6
CONTINUOUS
 90
3
 70
0
 10
137.5293444522
 20
103.0596915216
 10
137.5418430955
 20
103.0595611875
 10
137.5671216058
 20
103.0593876811
  0
LINE
  5
41B
100
AcDbEntity
  8
DRAFT
100
AcDbLine
 62
7
  6
CONTINUOUS
 10
145.29996544
 20
104.244016735
 11
145.3534224023
 21
104.2309264334
  0
LINE
  5
41C
100
AcDbEntity
  8
DRAFT
100
AcDbLine
 62
7
  6
CONTINUOUS
 10
144.9212470182
 20
104.2466347954
 11
144.9266378687
 21
104.244016735
  0
LINE
  5
41D
100
AcDbEntity
  8
RACCORDO
100
AcDbLine
 62
250
  6
CONTINUOUS
 10
139.6597859747
 20
110.2870644614
 11
139.7150437369
 21
110.2318066992
  0
LINE
  5
41E
100
AcDbEntity
  8
RACCORDO
100
AcDbLine
 62
250
  6
CONTINUOUS
 10
139.9597305222
 20
110.5867544101
 11
140.0148604575
 21
110.5316244749
  0
LWPOLYLINE
  5
41F
100
AcDbEntity
  8
0
100
AcDbPolyline
 62
7
  6
CONTINUOUS
 90
25
 70
0
 10
145.8968853056
 20
104.0102339263
 10
145.8921663214
 20
104.0257968504
 10
145.8866313293
 20
104.0410254707
 10
145.8802803293
 20
104.0559197872
 10
145.8730799592
 20
104.070540562
 10
145.8650635812
 20
104.084827033
 10
145.8563312821
 20
104.0985969136
 10
145.8469010892
 20
104.1118099703
 10
145.8367549752
 20
104.1245064367
 10
145.8259389446
 20
104.1366247269
 10
145.8144250253
 20
104.1481875754
 10
145.8022411895
 20
104.1591722477
 10
145.7895173584
 20
104.1694489553
 10
145.7762436802
 20
104.1790047441
 10
145.7624300068
 20
104.1878525682
 10
145.7482358148
 20
104.1959015003
 10
145.7336911763
 20
104.2031304593
 10
145.7187660192
 20
104.2095605264
 10
145.7035296041
 20
104.2151640174
 10
145.6879363717
 20
104.219948188
 10
145.6720318813
 20
104.2239057825
 10
145.6560220709
 20
104.2269873495
 10
145.6399755867
 20
104.229176405
 10
145.6238237826
 20
104.230489433
 10
145.6075666585
 20
104.2309264334
  0
LINE
  5
420
100
AcDbEntity
  8
RACCORDO
100
AcDbLine
 62
7
  6
CONTINUOUS
 10
152.5028472247
 20
83.8078649269
 11
152.4288665215
 21
84.0679877218
  0
LINE
  5
421
100
AcDbEntity
  8
RACCORDO
100
AcDbLine
 62
250
  6
CONTINUOUS
 10
152.531391716
 20
121.9759334544
 11
152.47346925
 21
121.6834629933
  0
LINE
  5
422
100
AcDbEntity
  8
RACCORDO
100
AcDbLine
 62
7
  6
CONTINUOUS
 10
142.0170926759
 20
84.0679877218
 11
141.9431119727
 21
83.8078649269
  0
LINE
  5
423
100
AcDbEntity
  8
RACCORDO
100
AcDbLine
 62
250
  6
CONTINUOUS
 10
154.4310987399
 20
110.5316244749
 11
154.4862286752
 21
110.5867544101
  0
LINE
  5
424
100
AcDbEntity
  8
RACCORDO
100
AcDbLine
 62
250
  6
CONTINUOUS
 10
154.7309154605
 20
110.2318066992
 11
154.7861732227
 21
110.2870644614
  0
LINE
  5
425
100
AcDbEntity
  8
DRAFT
100
AcDbLine
 62
7
  6
CONTINUOUS
 10
149.5193213287
 20
104.244016735
 11
149.5247121792
 21
104.2466347954
  0
LINE
  5
426
100
AcDbEntity
  8
DRAFT
100
AcDbLine
 62
7
  6
CONTINUOUS
 10
145.3534224023
 20
104.5164497377
 11
145.29996544
 21
104.503359436
  0
LWPOLYLINE
  5
427
100
AcDbEntity
  8
RACCORDO
100
AcDbPolyline
 62
7
  6
CONTINUOUS
 90
13
 70
0
 10
137.4526271956
 20
105.6860438073
 10
137.4436434535
 20
105.6857142976
 10
137.4352529753
 20
105.6853636839
 10
137.4275803543
 20
105.6849978865
 10
137.4206543826
 20
105.6846179439
 10
137.4144462681
 20
105.6842228176
 10
137.4089942275
 20
105.6838153123
 10
137.4042889674
 20
105.6833938281
 10
137.4003397813
 20
105.6829599649
 10
137.3972127661
 20
105.6825213272
 10
137.3949299541
 20
105.6820804497
 10
137.393469313
 20
105.6816347977
 10
137.3928308429
 20
105.6811843711
  0
LINE
  5
428
100
AcDbEntity
  8
RACCORDO
100
AcDbLine
 62
7
  6
CONTINUOUS
 10
137.4724061766
 20
105.6866383905
 11
137.4526271956
 21
105.6860438073
  0
LINE
  5
429
100
AcDbEntity
  8
RACCORDO
100
AcDbLine
 62
7
  6
CONTINUOUS
 10
137.4940101357
 20
105.6871348585
 11
137.4724061766
 21
105.6866383905
  0
LINE
  5
42A
100
AcDbEntity
  8
RACCORDO
100
AcDbLine
 62
7
  6
CONTINUOUS
 10
137.517189653
 20
105.6875277402
 11
137.4940101357
 21
105.6871348585
  0
LINE
  5
42B
100
AcDbEntity
  8
RACCORDO
100
AcDbLine
 62
7
  6
CONTINUOUS
 10
137.5418430956
 20
105.6878149836
 11
137.517189653
 21
105.6875277402
  0
LINE
  5
42C
100
AcDbEntity
  8
RACCORDO
100
AcDbLine
 62
7
  6
CONTINUOUS
 10
137.5671216057
 20
105.68798849
 11
137.5418430956
 21
105.6878149836
  0
LINE
  5
42D
100
AcDbEntity
  8
RACCORDO
100
AcDbLine
 62
7
  6
CONTINUOUS
 10
157.0688688974
 20
105.6496936907
 11
154.4592785714
 21
105.6496936907
  0
LINE
  5
42E
100
AcDbEntity
  8
RACCORDO
100
AcDbLine
 62
7
  6
CONTINUOUS
 10
154.286680626
 20
105.6496936907
 11
149.8827370492
 21
105.6496936907
  0
LINE
  5
42F
100
AcDbEntity
  8
RACCORDO
100
AcDbLine
 62
7
  6
CONTINUOUS
 10
144.5632221482
 20
105.6496936907
 11
140.1592785714
 21
105.6496936907
  0
LINE
  5
430
100
AcDbEntity
  8
RACCORDO
100
AcDbLine
 62
7
  6
CONTINUOUS
 10
139.986680626
 20
105.6496936907
 11
137.3770903
 21
105.6496936907
  0
LINE
  5
431
100
AcDbEntity
  8
RACCORDO
100
AcDbLine
 62
7
  6
CONTINUOUS
 10
137.5671216057
 20
105.68798849
 11
139.6586216556
 21
105.6880460286
  0
LINE
  5
432
100
AcDbEntity
  8
DRAFT
100
AcDbLine
 62
7
  6
CONTINUOUS
 10
140.4873375417
 20
105.6880460286
 11
144.5819640369
 21
105.6880460286
  0
LINE
  5
433
100
AcDbEntity
  8
DRAFT
100
AcDbLine
 62
7
  6
CONTINUOUS
 10
149.8639951605
 20
105.6880460286
 11
153.9586216556
 21
105.6880460286
  0
LINE
  5
434
100
AcDbEntity
  8
RACCORDO
100
AcDbLine
 62
7
  6
CONTINUOUS
 10
156.8788375916
 20
105.68798849
 11
154.7873375417
 21
105.6880460286
  0
LINE
  5
435
100
AcDbEntity
  8
RACCORDO
100
AcDbLine
 62
7
  6
CONTINUOUS
 10
156.9041161018
 20
105.6878149836
 11
156.8788375916
 21
105.68798849
  0
LINE
  5
436
100
AcDbEntity
  8
RACCORDO
100
AcDbLine
 62
7
  6
CONTINUOUS
 10
156.9287695444
 20
105.6875277402
 11
156.9041161018
 21
105.6878149836
  0
LINE
  5
437
100
AcDbEntity
  8
RACCORDO
100
AcDbLine
 62
7
  6
CONTINUOUS
 10
156.9519490617
 20
105.6871348585
 11
156.9287695444
 21
105.6875277402
  0
LINE
  5
438
100
AcDbEntity
  8
RACCORDO
100
AcDbLine
 62
7
  6
CONTINUOUS
 10
156.9735530208
 20
105.6866383905
 11
156.9519490617
 21
105.6871348585
  0
LINE
  5
439
100
AcDbEntity
  8
DRAFT
100
AcDbLine
 62
7
  6
CONTINUOUS
 10
149.1459937574
 20
104.503359436
 11
149.0925367951
 21
104.5164497377
  0
LINE
  5
43A
100
AcDbEntity
  8
DRAFT
100
AcDbLine
 62
7
  6
CONTINUOUS
 10
149.5247121792
 20
104.5007413757
 11
149.5193213287
 21
104.503359436
  0
LINE
  5
43B
100
AcDbEntity
  8
RACCORDO
100
AcDbLine
 62
250
  6
CONTINUOUS
 10
154.4862286752
 20
98.1606217609
 11
154.4310987399
 21
98.2157516962
  0
LINE
  5
43C
100
AcDbEntity
  8
RACCORDO
100
AcDbLine
 62
250
  6
CONTINUOUS
 10
154.7861732227
 20
98.4603117096
 11
154.7309154605
 21
98.5155694719
  0
LWPOLYLINE
  5
43D
100
AcDbEntity
  8
0
100
AcDbPolyline
 62
7
  6
CONTINUOUS
 90
25
 70
0
 10
148.5490738918
 20
104.7371422448
 10
148.553792876
 20
104.7215793206
 10
148.559327868
 20
104.7063507003
 10
148.565678868
 20
104.6914563839
 10
148.5728792381
 20
104.676835609
 10
148.5808956162
 20
104.6625491381
 10
148.5896279153
 20
104.6487792574
 10
148.5990581082
 20
104.6355662007
 10
148.6092042222
 20
104.6228697344
 10
148.6200202528
 20
104.6107514442
 10
148.6315341721
 20
104.5991885957
 10
148.6437180079
 20
104.5882039233
 10
148.656441839
 20
104.5779272158
 10
148.6697155171
 20
104.5683714269
 10
148.6835291906
 20
104.5595236029
 10
148.6977233826
 20
104.5514746708
 10
148.7122680211
 20
104.5442457117
 10
148.7271931782
 20
104.5378156446
 10
148.7424295933
 20
104.5322121537
 10
148.7580228257
 20
104.527427983
 10
148.7739273161
 20
104.5234703885
 10
148.7899371264
 20
104.5203888216
 10
148.8059836107
 20
104.5181997661
 10
148.8221354148
 20
104.5168867381
 10
148.8383925389
 20
104.5164497377
  0
LINE
  5
43E
100
AcDbEntity
  8
RACCORDO
100
AcDbLine
 62
7
  6
CONTINUOUS
 10
141.9431119727
 20
124.9395112442
 11
142.0170926759
 21
124.6793884492
  0
LINE
  5
43F
100
AcDbEntity
  8
RACCORDO
100
AcDbLine
 62
250
  6
CONTINUOUS
 10
152.47346925
 20
87.0639131777
 11
152.531391716
 21
86.7714427166
  0
LINE
  5
440
100
AcDbEntity
  8
DRAFT
100
AcDbLine
 62
7
  6
CONTINUOUS
 10
150.6145546057
 20
82.2143753798
 11
150.5392611219
 21
83.7049929548
  0
LINE
  5
441
100
AcDbEntity
  8
DRAFT
100
AcDbLine
 62
7
  6
CONTINUOUS
 10
150.6145546057
 20
126.5330007912
 11
150.5392611219
 21
125.0423832163
  0
LINE
  5
442
100
AcDbEntity
  8
RACCORDO
100
AcDbLine
 62
250
  6
CONTINUOUS
 10
152.7812394228
 20
121.7297315162
 11
152.7305311671
 21
121.4736880855
  0
LWPOLYLINE
  5
443
100
AcDbEntity
  8
RACCORDO
100
AcDbPolyline
 62
250
  6
CONTINUOUS
 90
25
 70
0
 10
154.4510961261
 20
107.6201346949
 10
154.4704033277
 20
107.6209118417
 10
154.4896304296
 20
107.6225658355
 10
154.5086976644
 20
107.6250898144
 10
154.527525928
 20
107.6284733073
 10
154.5460371076
 20
107.632702277
 10
154.5641544059
 20
107.6377591787
 10
154.58180266
 20
107.6436230331
 10
154.5989086524
 20
107.6502695127
 10
154.6154014157
 20
107.6576710433
 10
154.6312125264
 20
107.6657969182
 10
154.646276389
 20
107.6746134256
 10
154.6605305082
 20
107.6840839886
 10
154.6739157479
 20
107.6941693167
 10
154.6863765769
 20
107.7048275688
 10
154.6978612989
 20
107.7160145272
 10
154.7083222675
 20
107.7276837805
 10
154.7177160831
 20
107.7397869167
 10
154.7260037737
 20
107.7522737234
 10
154.7331509563
 20
107.7650923967
 10
154.7391279793
 20
107.7781897559
 10
154.7439100459
 20
107.791511464
 10
154.7474773167
 20
107.8050022532
 10
154.7498149923
 20
107.8186061545
 10
154.7509133743
 20
107.8322667293
  0
LWPOLYLINE
  5
444
100
AcDbEntity
  8
RACCORDO
100
AcDbPolyline
 62
250
  6
CONTINUOUS
 90
25
 70
0
 10
140.1510961261
 20
107.6201346949
 10
140.1704033277
 20
107.6209118417
 10
140.1896304296
 20
107.6225658355
 10
140.2086976644
 20
107.6250898144
 10
140.227525928
 20
107.6284733073
 10
140.2460371076
 20
107.632702277
 10
140.2641544059
 20
107.6377591787
 10
140.28180266
 20
107.6436230331
 10
140.2989086524
 20
107.6502695127
 10
140.3154014157
 20
107.6576710433
 10
140.3312125264
 20
107.6657969182
 10
140.346276389
 20
107.6746134256
 10
140.3605305082
 20
107.6840839886
 10
140.3739157479
 20
107.6941693167
 10
140.3863765769
 20
107.7048275688
 10
140.3978612989
 20
107.7160145272
 10
140.4083222675
 20
107.7276837805
 10
140.4177160831
 20
107.7397869167
 10
140.4260037737
 20
107.7522737234
 10
140.4331509563
 20
107.7650923967
 10
140.4391279793
 20
107.7781897559
 10
140.4439100459
 20
107.791511464
 10
140.4474773167
 20
107.8050022532
 10
140.4498149923
 20
107.8186061545
 10
140.4509133743
 20
107.8322667293
  0
LINE
  5
445
100
AcDbEntity
  8
RACCORDO
100
AcDbLine
 62
250
  6
CONTINUOUS
 10
139.6868633779
 20
107.2665813043
 11
140.4590958195
 21
107.2665813043
  0
LINE
  5
446
100
AcDbEntity
  8
RACCORDO
100
AcDbLine
 62
250
  6
CONTINUOUS
 10
153.9868633779
 20
107.2665813043
 11
154.7590958195
 21
107.2665813043
  0
LINE
  5
447
100
AcDbEntity
  8
RACCORDO
100
AcDbLine
 62
250
  6
CONTINUOUS
 10
140.1510958693
 20
107.6201420494
 11
139.9948633282
 21
107.6201420528
  0
LINE
  5
448
100
AcDbEntity
  8
RACCORDO
100
AcDbLine
 62
250
  6
CONTINUOUS
 10
154.4510958693
 20
107.6201420494
 11
154.2948633282
 21
107.6201420528
  0
LWPOLYLINE
  5
449
100
AcDbEntity
  8
RACCORDO
100
AcDbPolyline
 62
250
  6
CONTINUOUS
 90
25
 70
0
 10
139.9948630712
 20
107.6201346949
 10
139.9755558997
 20
107.6209118398
 10
139.9563288261
 20
107.6225658292
 10
139.9372616175
 20
107.6250898013
 10
139.918433378
 20
107.6284732852
 10
139.8999222199
 20
107.632702244
 10
139.8818049394
 20
107.6377591336
 10
139.8641566995
 20
107.6436229748
 10
139.8470507175
 20
107.6502694405
 10
139.8305579604
 20
107.6576709574
 10
139.8147468517
 20
107.665796819
 10
139.7996829872
 20
107.6746133141
 10
139.785428862
 20
107.6840838664
 10
139.7720436127
 20
107.6941691857
 10
139.759582771
 20
107.7048274315
 10
139.7480980335
 20
107.7160143866
 10
139.7376370474
 20
107.7276836399
 10
139.7282432129
 20
107.7397867796
 10
139.7199555027
 20
107.7522735938
 10
139.7128083009
 20
107.7650922787
 10
139.7068312598
 20
107.7781896534
 10
139.7020491772
 20
107.7915113813
 10
139.6984818935
 20
107.8050021944
 10
139.696144209
 20
107.8186061233
 10
139.6950458231
 20
107.8322667293
  0
LWPOLYLINE
  5
44A
100
AcDbEntity
  8
RACCORDO
100
AcDbPolyline
 62
250
  6
CONTINUOUS
 90
25
 70
0
 10
154.2948630712
 20
107.6201346949
 10
154.2755558997
 20
107.6209118398
 10
154.2563288261
 20
107.6225658292
 10
154.2372616175
 20
107.6250898013
 10
154.218433378
 20
107.6284732852
 10
154.1999222199
 20
107.632702244
 10
154.1818049394
 20
107.6377591336
 10
154.1641566995
 20
107.6436229748
 10
154.1470507175
 20
107.6502694405
 10
154.1305579604
 20
107.6576709574
 10
154.1147468517
 20
107.665796819
 10
154.0996829872
 20
107.6746133141
 10
154.085428862
 20
107.6840838664
 10
154.0720436127
 20
107.6941691857
 10
154.059582771
 20
107.7048274315
 10
154.0480980335
 20
107.7160143866
 10
154.0376370474
 20
107.7276836399
 10
154.0282432129
 20
107.7397867796
 10
154.0199555027
 20
107.7522735938
 10
154.0128083009
 20
107.7650922787
 10
154.0068312598
 20
107.7781896534
 10
154.0020491772
 20
107.7915113813
 10
153.9984818935
 20
107.8050021944
 10
153.996144209
 20
107.8186061233
 10
153.9950458231
 20
107.8322667293
  0
LINE
  5
44B
100
AcDbEntity
  8
RACCORDO
100
AcDbLine
 62
250
  6
CONTINUOUS
 10
152.7305311671
 20
87.2736880855
 11
152.7812394228
 21
87.0176446549
  0
LWPOLYLINE
  5
44C
100
AcDbEntity
  8
RACCORDO
100
AcDbPolyline
 62
250
  6
CONTINUOUS
 90
10
 70
0
 10
152.531391716
 20
86.7714427166
 10
152.5314915918
 20
86.7708507124
 10
152.5315894918
 20
86.7700997908
 10
152.5316854159
 20
86.769189952
 10
152.5317796869
 20
86.7681170015
 10
152.531871982
 20
86.7668851337
 10
152.531961333
 20
86.7655069317
 10
152.5320476987
 20
86.7639809864
 10
152.5321311203
 20
86.7623087069
 10
152.5322107535
 20
86.760506903
  0
LWPOLYLINE
  5
44D
100
AcDbEntity
  8
RACCORDO
100
AcDbPolyline
 62
250
  6
CONTINUOUS
 90
6
 70
0
 10
152.7216013149
 20
88.7493848369
 10
152.7217021392
 20
88.7485885368
 10
152.7218018664
 20
88.7468025688
 10
152.7219004966
 20
88.7440326155
 10
152.7219983245
 20
88.7402875191
 10
152.7220950554
 20
88.735579505
  0
LWPOLYLINE
  5
44E
100
AcDbEntity
  8
RACCORDO
100
AcDbPolyline
 62
7
  6
CONTINUOUS
 90
31
 70
0
 10
153.1724899474
 20
87.0639131777
 10
153.1718636656
 20
87.0731309616
 10
153.1707457079
 20
87.0824132254
 10
153.1691256764
 20
87.0917377755
 10
153.1669935128
 20
87.1010773874
 10
153.1643415381
 20
87.1104120088
 10
153.1611643383
 20
87.1197287581
 10
153.1574565472
 20
87.1289991972
 10
153.1532126902
 20
87.1381991305
 10
153.1484277573
 20
87.14732034
 10
153.1430995456
 20
87.1563317133
 10
153.1372255196
 20
87.1652060926
 10
153.1307992304
 20
87.1739385484
 10
153.1238216807
 20
87.1824945643
 10
153.1162932877
 20
87.1908436876
 10
153.1082046649
 20
87.1989828687
 10
153.0995602152
 20
87.2068734074
 10
153.0903640014
 20
87.214480472
 10
153.0806035435
 20
87.2218004635
 10
153.0702873545
 20
87.2287895432
 10
153.0594248392
 20
87.2354071201
 10
153.0480027625
 20
87.2416457454
 10
153.0360345189
 20
87.2474560467
 10
153.0235386635
 20
87.2527900096
 10
153.010509694
 20
87.2576320125
 10
152.9969681307
 20
87.2619276682
 10
152.9829469996
 20
87.2656217577
 10
152.9684633326
 20
87.2686886896
 10
152.9535504702
 20
87.271080126
 10
152.9382595721
 20
87.2727296547
 10
152.9226422407
 20
87.2735824745
  0
LINE
  5
44F
100
AcDbEntity
  8
RACCORDO
100
AcDbLine
 62
250
  6
CONTINUOUS
 10
152.5322107535
 20
86.760506903
 11
152.5323585806
 21
86.7565119571
  0
LINE
  5
450
100
AcDbEntity
  8
RACCORDO
100
AcDbLine
 62
250
  6
CONTINUOUS
 10
152.4728584248
 20
88.4874199434
 11
152.4730033436
 21
88.4834316564
  0
LWPOLYLINE
  5
451
100
AcDbEntity
  8
RACCORDO
100
AcDbPolyline
 62
250
  6
CONTINUOUS
 90
3
 70
0
 10
152.7812394228
 20
87.0176446549
 10
152.7813393489
 20
87.0141180631
 10
152.7814372607
 20
87.0096039649
  0
LINE
  5
452
100
AcDbEntity
  8
RACCORDO
100
AcDbLine
 62
250
  6
CONTINUOUS
 10
152.5323585806
 20
86.7565119571
 11
152.5324890086
 21
86.7520606948
  0
LINE
  5
453
100
AcDbEntity
  8
RACCORDO
100
AcDbLine
 62
250
  6
CONTINUOUS
 10
152.4730033436
 20
88.4834316564
 11
152.4731311141
 21
88.4790014562
  0
LINE
  5
454
100
AcDbEntity
  8
RACCORDO
100
AcDbLine
 62
250
  6
CONTINUOUS
 10
152.5324890086
 20
86.7520606948
 11
152.532600714
 21
86.7471983096
  0
LINE
  5
455
100
AcDbEntity
  8
RACCORDO
100
AcDbLine
 62
250
  6
CONTINUOUS
 10
152.4731311141
 20
88.4790014562
 11
152.4732404715
 21
88.4741732641
  0
LINE
  5
456
100
AcDbEntity
  8
RACCORDO
100
AcDbLine
 62
250
  6
CONTINUOUS
 10
152.532600714
 20
86.7471983096
 11
152.5326918661
 21
86.7419969456
  0
LINE
  5
457
100
AcDbEntity
  8
RACCORDO
100
AcDbLine
 62
250
  6
CONTINUOUS
 10
152.4732404715
 20
88.4741732641
 11
152.4733296727
 21
88.4690168158
  0
LINE
  5
458
100
AcDbEntity
  8
RACCORDO
100
AcDbLine
 62
250
  6
CONTINUOUS
 10
152.5326918661
 20
86.7419969456
 11
152.532761222
 21
86.7365375128
  0
LINE
  5
459
100
AcDbEntity
  8
RACCORDO
100
AcDbLine
 62
250
  6
CONTINUOUS
 10
152.4733296727
 20
88.4690168158
 11
152.4733975241
 21
88.4636106289
  0
LINE
  5
45A
100
AcDbEntity
  8
RACCORDO
100
AcDbLine
 62
250
  6
CONTINUOUS
 10
152.532761222
 20
86.7365375128
 11
152.5328080855
 21
86.7308761723
  0
LINE
  5
45B
100
AcDbEntity
  8
RACCORDO
100
AcDbLine
 62
250
  6
CONTINUOUS
 10
152.4733975241
 20
88.4636106289
 11
152.4734576702
 21
88.4551767755
  0
LINE
  5
45C
100
AcDbEntity
  8
RACCORDO
100
AcDbLine
 62
250
  6
CONTINUOUS
 10
150.9652445718
 20
82.2462085378
 11
150.9652445718
 21
83.7955864708
  0
LINE
  5
45D
100
AcDbEntity
  8
RACCORDO
100
AcDbLine
 62
250
  6
CONTINUOUS
 10
150.9652445718
 20
124.9517897003
 11
150.9652445718
 21
126.5011676333
  0
LINE
  5
45E
100
AcDbEntity
  8
RACCORDO
100
AcDbLine
 62
250
  6
CONTINUOUS
 10
151.1384496525
 20
82.2514493157
 11
151.1384496525
 21
83.8078649269
  0
LINE
  5
45F
100
AcDbEntity
  8
RACCORDO
100
AcDbLine
 62
250
  6
CONTINUOUS
 10
151.1384496525
 20
124.9395112442
 11
151.1384496525
 21
126.4959268553
  0
LINE
  5
460
100
AcDbEntity
  8
RACCORDO
100
AcDbLine
 62
250
  6
CONTINUOUS
 10
152.4734576702
 20
120.2921993956
 11
152.4733975241
 21
120.2837655422
  0
LINE
  5
461
100
AcDbEntity
  8
RACCORDO
100
AcDbLine
 62
250
  6
CONTINUOUS
 10
152.5328080855
 20
122.0164999987
 11
152.5327293433
 21
122.0080796832
  0
LINE
  5
462
100
AcDbEntity
  8
RACCORDO
100
AcDbLine
 62
250
  6
CONTINUOUS
 10
152.4733975241
 20
120.2837655422
 11
152.4733296727
 21
120.2783593553
  0
LINE
  5
463
100
AcDbEntity
  8
RACCORDO
100
AcDbLine
 62
250
  6
CONTINUOUS
 10
152.5327293433
 20
122.0080796832
 11
152.532648846
 21
122.0027363781
  0
LINE
  5
464
100
AcDbEntity
  8
RACCORDO
100
AcDbLine
 62
250
  6
CONTINUOUS
 10
152.4733296727
 20
120.2783593553
 11
152.4732404715
 21
120.273202907
  0
LINE
  5
465
100
AcDbEntity
  8
RACCORDO
100
AcDbLine
 62
250
  6
CONTINUOUS
 10
152.532648846
 20
122.0027363781
 11
152.5325474172
 21
121.9977045035
  0
LINE
  5
466
100
AcDbEntity
  8
RACCORDO
100
AcDbLine
 62
250
  6
CONTINUOUS
 10
152.4732404715
 20
120.273202907
 11
152.4731311141
 21
120.2683747148
  0
LINE
  5
467
100
AcDbEntity
  8
RACCORDO
100
AcDbLine
 62
250
  6
CONTINUOUS
 10
152.5325474172
 20
121.9977045035
 11
152.5324260789
 21
121.9930350155
  0
LINE
  5
468
100
AcDbEntity
  8
RACCORDO
100
AcDbLine
 62
250
  6
CONTINUOUS
 10
152.4731311141
 20
120.2683747148
 11
152.4730033436
 21
120.2639445146
  0
LWPOLYLINE
  5
469
100
AcDbEntity
  8
RACCORDO
100
AcDbPolyline
 62
250
  6
CONTINUOUS
 90
12
 70
0
 10
152.5324260789
 20
121.9930350155
 10
152.5322865612
 20
121.9888019788
 10
152.5322107535
 20
121.986869268
 10
152.5321311203
 20
121.9850674642
 10
152.5320476987
 20
121.9833951846
 10
152.531961333
 20
121.9818692393
 10
152.531871982
 20
121.9804910373
 10
152.5317796869
 20
121.9792591696
 10
152.5316854159
 20
121.9781862191
 10
152.5315894918
 20
121.9772763803
 10
152.5314915918
 20
121.9765254587
 10
152.531391716
 20
121.9759334544
  0
LWPOLYLINE
  5
46A
100
AcDbEntity
  8
RACCORDO
100
AcDbPolyline
 62
250
  6
CONTINUOUS
 90
14
 70
0
 10
152.4730033436
 20
120.2639445146
 10
152.4728584248
 20
120.2599562277
 10
152.4727803051
 20
120.2581517461
 10
152.472698436
 20
120.2564728413
 10
152.4726136281
 20
120.2549360879
 10
152.4725258523
 20
120.2535429134
 10
152.4724351376
 20
120.2522918901
 10
152.4723423816
 20
120.2511953094
 10
152.4722475535
 20
120.2502546839
 10
152.472150684
 20
120.249468501
 10
152.4720527633
 20
120.2488445145
 10
152.4719541215
 20
120.2483853089
 10
152.4718544284
 20
120.2480882997
 10
152.4717536841
 20
120.2479534868
  0
LWPOLYLINE
  5
46B
100
AcDbEntity
  8
RACCORDO
100
AcDbPolyline
 62
7
  6
CONTINUOUS
 90
31
 70
0
 10
153.1724899474
 20
121.6834629933
 10
153.1718647959
 20
121.6742066146
 10
153.1707466216
 20
121.6649317487
 10
153.1691256764
 20
121.6556383955
 10
153.1669933132
 20
121.6463056002
 10
153.1643418264
 20
121.6369543177
 10
153.1611643383
 20
121.627647413
 10
153.1574563243
 20
121.6183845829
 10
153.1532130097
 20
121.6091661307
 10
153.1484277573
 20
121.600055831
 10
153.1430993041
 20
121.591052701
 10
153.1372258814
 20
121.5821577236
 10
153.1307992304
 20
121.5734376227
 10
153.1238214214
 20
121.5648904603
 10
153.1162937068
 20
121.5565181743
 10
153.1082046649
 20
121.5483933023
 10
153.0995599327
 20
121.5405124091
 10
153.0903644925
 20
121.5328789298
 10
153.0806035435
 20
121.5255757075
 10
153.0702870356
 20
121.5185975158
 10
153.0594254095
 20
121.511949581
 10
153.0480027625
 20
121.5057304256
 10
153.0360341347
 20
121.4999332396
 10
153.0235392882
 20
121.4945648329
 10
153.010509694
 20
121.4897441585
 10
152.996967642
 20
121.4854651894
 10
152.9829475989
 20
121.4817339525
 10
152.9684633326
 20
121.4786874814
 10
152.9535482617
 20
121.476371454
 10
152.9382568286
 20
121.4747401924
 10
152.9226422407
 20
121.4737936965
  0
LINE
  5
46C
100
AcDbEntity
  8
RACCORDO
100
AcDbLine
 62
7
  6
CONTINUOUS
 10
154.7873375417
 20
105.6880460286
 11
154.7590958195
 21
105.6598043064
  0
LINE
  5
46D
100
AcDbEntity
  8
DRAFT
100
AcDbLine
 62
7
  6
CONTINUOUS
 10
157.0688688974
 20
104.2466347954
 11
157.1229795987
 21
104.2736880855
  0
LWPOLYLINE
  5
46E
100
AcDbEntity
  8
RACCORDO
100
AcDbPolyline
 62
250
  6
CONTINUOUS
 90
25
 70
0
 10
154.4264034132
 20
108.3272414761
 10
154.445710627
 20
108.3280186238
 10
154.4649377403
 20
108.3296726195
 10
154.4840049854
 20
108.3321966013
 10
154.5028332582
 20
108.3355800977
 10
154.5213444459
 20
108.3398090717
 10
154.5394617508
 20
108.3448659782
 10
154.5571100099
 20
108.3507298376
 10
154.5742160058
 20
108.3573763224
 10
154.590708771
 20
108.3647778581
 10
154.6065198819
 20
108.3729037378
 10
154.6215837433
 20
108.3817202497
 10
154.6358378598
 20
108.3911908164
 10
154.6492230955
 20
108.4012761473
 10
154.6616839194
 20
108.4119344014
 10
154.6731686354
 20
108.4231213607
 10
154.6836295973
 20
108.4347906137
 10
154.6930234058
 20
108.4468937482
 10
154.7013110892
 20
108.4593805519
 10
154.7084582648
 20
108.4721992207
 10
154.7144352812
 20
108.485296574
 10
154.7192173421
 20
108.4986182748
 10
154.7227846083
 20
108.5121090554
 10
154.7251222807
 20
108.5257129467
 10
154.7262206613
 20
108.5393735105
  0
LWPOLYLINE
  5
46F
100
AcDbEntity
  8
RACCORDO
100
AcDbPolyline
 62
250
  6
CONTINUOUS
 90
25
 70
0
 10
140.1264034132
 20
108.3272414761
 10
140.145710627
 20
108.3280186238
 10
140.1649377403
 20
108.3296726195
 10
140.1840049854
 20
108.3321966013
 10
140.2028332582
 20
108.3355800977
 10
140.2213444459
 20
108.3398090717
 10
140.2394617508
 20
108.3448659782
 10
140.2571100099
 20
108.3507298376
 10
140.2742160058
 20
108.3573763224
 10
140.290708771
 20
108.3647778581
 10
140.3065198819
 20
108.3729037378
 10
140.3215837433
 20
108.3817202497
 10
140.3358378598
 20
108.3911908164
 10
140.3492230955
 20
108.4012761473
 10
140.3616839194
 20
108.4119344014
 10
140.3731686354
 20
108.4231213607
 10
140.3836295973
 20
108.4347906137
 10
140.3930234058
 20
108.4468937482
 10
140.4013110892
 20
108.4593805519
 10
140.4084582648
 20
108.4721992207
 10
140.4144352812
 20
108.485296574
 10
140.4192173421
 20
108.4986182748
 10
140.4227846083
 20
108.5121090554
 10
140.4251222807
 20
108.5257129467
 10
140.4262206613
 20
108.5393735105
  0
LINE
  5
470
100
AcDbEntity
  8
RACCORDO
100
AcDbLine
 62
250
  6
CONTINUOUS
 10
140.0195557841
 20
108.3272414761
 11
140.1264034132
 21
108.3272414761
  0
LINE
  5
471
100
AcDbEntity
  8
RACCORDO
100
AcDbLine
 62
250
  6
CONTINUOUS
 10
154.3195557841
 20
108.3272414761
 11
154.4264034132
 21
108.3272414761
  0
LINE
  5
472
100
AcDbEntity
  8
RACCORDO
100
AcDbLine
 62
250
  6
CONTINUOUS
 10
139.7217841473
 20
108.6807948667
 11
140.42417505
 21
108.6807948667
  0
LINE
  5
473
100
AcDbEntity
  8
RACCORDO
100
AcDbLine
 62
250
  6
CONTINUOUS
 10
154.0217841473
 20
108.6807948667
 11
154.72417505
 21
108.6807948667
  0
LWPOLYLINE
  5
474
100
AcDbEntity
  8
RACCORDO
100
AcDbPolyline
 62
250
  6
CONTINUOUS
 90
25
 70
0
 10
140.0195557841
 20
108.3272414761
 10
140.0002485826
 20
108.3280186229
 10
139.9810214807
 20
108.3296726167
 10
139.9619542459
 20
108.3321965956
 10
139.9431259823
 20
108.3355800885
 10
139.9246148027
 20
108.3398090581
 10
139.9064975043
 20
108.3448659599
 10
139.8888492503
 20
108.3507298143
 10
139.8717432579
 20
108.3573762939
 10
139.8552504946
 20
108.3647778245
 10
139.8394393839
 20
108.3729036994
 10
139.8243755213
 20
108.3817202068
 10
139.8101214021
 20
108.3911907698
 10
139.7967361624
 20
108.4012760978
 10
139.7842753334
 20
108.41193435
 10
139.7727906114
 20
108.4231213084
 10
139.7623296428
 20
108.4347905617
 10
139.7529358272
 20
108.4468936979
 10
139.7446481365
 20
108.4593805046
 10
139.737500954
 20
108.4721991779
 10
139.731523931
 20
108.4852965371
 10
139.7267418644
 20
108.4986182452
 10
139.7231745936
 20
108.5121090344
 10
139.720836918
 20
108.5257129357
 10
139.719738536
 20
108.5393735105
  0
LWPOLYLINE
  5
475
100
AcDbEntity
  8
RACCORDO
100
AcDbPolyline
 62
250
  6
CONTINUOUS
 90
25
 70
0
 10
154.3195557841
 20
108.3272414761
 10
154.3002485826
 20
108.3280186229
 10
154.2810214807
 20
108.3296726167
 10
154.2619542459
 20
108.3321965956
 10
154.2431259823
 20
108.3355800885
 10
154.2246148027
 20
108.3398090581
 10
154.2064975043
 20
108.3448659599
 10
154.1888492503
 20
108.3507298143
 10
154.1717432579
 20
108.3573762939
 10
154.1552504946
 20
108.3647778245
 10
154.1394393839
 20
108.3729036994
 10
154.1243755213
 20
108.3817202068
 10
154.1101214021
 20
108.3911907698
 10
154.0967361624
 20
108.4012760978
 10
154.0842753334
 20
108.41193435
 10
154.0727906114
 20
108.4231213084
 10
154.0623296428
 20
108.4347905617
 10
154.0529358272
 20
108.4468936979
 10
154.0446481365
 20
108.4593805046
 10
154.037500954
 20
108.4721991779
 10
154.031523931
 20
108.4852965371
 10
154.0267418644
 20
108.4986182452
 10
154.0231745936
 20
108.5121090344
 10
154.020836918
 20
108.5257129357
 10
154.019738536
 20
108.5393735105
  0
LINE
  5
476
100
AcDbEntity
  8
DRAFT
100
AcDbLine
 62
7
  6
CONTINUOUS
 10
157.0688688974
 20
104.5007413757
 11
157.1229795987
 21
104.4736880855
  0
LINE
  5
477
100
AcDbEntity
  8
RACCORDO
100
AcDbLine
 62
7
  6
CONTINUOUS
 10
154.7590958195
 20
103.0875718647
 11
154.7873375417
 21
103.0593301425
  0
LWPOLYLINE
  5
478
100
AcDbEntity
  8
RACCORDO
100
AcDbPolyline
 62
250
  6
CONTINUOUS
 90
13
 70
0
 10
154.7309154605
 20
98.5155694719
 10
154.7305573432
 20
98.516194404
 10
154.7302025653
 20
98.5173334833
 10
154.7298511268
 20
98.5189867097
 10
154.7295021021
 20
98.5211610826
 10
154.7291564169
 20
98.5238496027
 10
154.7288168478
 20
98.5270312716
 10
154.7284834612
 20
98.5307099956
 10
154.7281561908
 20
98.5348818686
 10
154.727837614
 20
98.5395141735
 10
154.7275278051
 20
98.5446104847
 10
154.7272266899
 20
98.550167228
 10
154.7269366228
 20
98.5561409632
  0
LWPOLYLINE
  5
479
100
AcDbEntity
  8
RACCORDO
100
AcDbPolyline
 62
7
  6
CONTINUOUS
 90
31
 70
0
 10
152.47346925
 20
121.6834629933
 10
152.4740955318
 20
121.6742452094
 10
152.4752134894
 20
121.6649629457
 10
152.4768335209
 20
121.6556383955
 10
152.4789656845
 20
121.6462987837
 10
152.4816176593
 20
121.6369641623
 10
152.4847948591
 20
121.627647413
 10
152.4885026502
 20
121.6183769738
 10
152.4927465072
 20
121.6091770405
 10
152.4975314401
 20
121.600055831
 10
152.5028596518
 20
121.5910444578
 10
152.5087336778
 20
121.5821700784
 10
152.515159967
 20
121.5734376227
 10
152.5221375167
 20
121.5648816067
 10
152.5296659096
 20
121.5565324835
 10
152.5377545325
 20
121.5483933023
 10
152.5463989822
 20
121.5405027637
 10
152.555595196
 20
121.5328956991
 10
152.5653556539
 20
121.5255757075
 10
152.5756718429
 20
121.5185866279
 10
152.5865343581
 20
121.5119690509
 10
152.5979564349
 20
121.5057304256
 10
152.6099246785
 20
121.4999201243
 10
152.6224205339
 20
121.4945861614
 10
152.6354495034
 20
121.4897441585
 10
152.6489910667
 20
121.4854485029
 10
152.6630121978
 20
121.4817544133
 10
152.6774958647
 20
121.4786874814
 10
152.6924087271
 20
121.476296045
 10
152.7076996253
 20
121.4746465163
 10
152.7233169567
 20
121.4737936965
  0
LINE
  5
47A
100
AcDbEntity
  8
RACCORDO
100
AcDbLine
 62
250
  6
CONTINUOUS
 10
153.1137484439
 20
121.986869268
 11
153.1136006167
 21
121.9908642139
  0
LINE
  5
47B
100
AcDbEntity
  8
RACCORDO
100
AcDbLine
 62
250
  6
CONTINUOUS
 10
153.1731007725
 20
120.2599562277
 11
153.1729558537
 21
120.2639445146
  0
LINE
  5
47C
100
AcDbEntity
  8
RACCORDO
100
AcDbLine
 62
250
  6
CONTINUOUS
 10
153.9934343268
 20
100.9652993763
 11
154.0201504508
 21
100.1951284921
  0
LINE
  5
47D
100
AcDbEntity
  8
RACCORDO
100
AcDbLine
 62
250
  6
CONTINUOUS
 10
152.8647197746
 20
121.7297315162
 11
152.8646198485
 21
121.733258108
  0
LINE
  5
47E
100
AcDbEntity
  8
RACCORDO
100
AcDbLine
 62
250
  6
CONTINUOUS
 10
153.1136006167
 20
121.9908642139
 11
153.1134701887
 21
121.9953154762
  0
LINE
  5
47F
100
AcDbEntity
  8
RACCORDO
100
AcDbLine
 62
250
  6
CONTINUOUS
 10
153.1729558537
 20
120.2639445146
 11
153.1728280833
 21
120.2683747149
  0
LINE
  5
480
100
AcDbEntity
  8
RACCORDO
100
AcDbLine
 62
250
  6
CONTINUOUS
 10
153.9919610986
 20
101.0201279655
 11
153.9934343268
 21
100.9652993763
  0
LINE
  5
481
100
AcDbEntity
  8
RACCORDO
100
AcDbLine
 62
250
  6
CONTINUOUS
 10
154.0201504508
 20
100.1951284921
 11
154.0205207144
 21
100.1813093146
  0
LINE
  5
482
100
AcDbEntity
  8
RACCORDO
100
AcDbLine
 62
250
  6
CONTINUOUS
 10
153.1134701887
 20
121.9953154762
 11
153.1133584833
 21
122.0001778614
  0
LINE
  5
483
100
AcDbEntity
  8
RACCORDO
100
AcDbLine
 62
250
  6
CONTINUOUS
 10
153.1728280833
 20
120.2683747149
 11
153.1727187259
 21
120.273202907
  0
LINE
  5
484
100
AcDbEntity
  8
RACCORDO
100
AcDbLine
 62
250
  6
CONTINUOUS
 10
153.9900399522
 20
101.110342098
 11
153.9919610986
 21
101.0201279655
  0
LINE
  5
485
100
AcDbEntity
  8
RACCORDO
100
AcDbLine
 62
250
  6
CONTINUOUS
 10
154.0205207144
 20
100.1813093146
 11
154.0209948211
 21
100.15893905
  0
LINE
  5
486
100
AcDbEntity
  8
RACCORDO
100
AcDbLine
 62
250
  6
CONTINUOUS
 10
152.8646198485
 20
121.733258108
 11
152.8644260391
 21
121.7432590597
  0
LINE
  5
487
100
AcDbEntity
  8
RACCORDO
100
AcDbLine
 62
250
  6
CONTINUOUS
 10
152.9239608728
 20
120.007088652
 11
152.9237693925
 21
120.017451805
  0
LINE
  5
488
100
AcDbEntity
  8
RACCORDO
100
AcDbLine
 62
250
  6
CONTINUOUS
 10
152.9008718279
 20
84.014730473
 11
152.8634405227
 21
86.3134110058
  0
LINE
  5
489
100
AcDbEntity
  8
RACCORDO
100
AcDbLine
 62
250
  6
CONTINUOUS
 10
152.7450873694
 20
124.7326456981
 11
152.7825186746
 21
122.4339651653
  0
LINE
  5
48A
100
AcDbEntity
  8
RACCORDO
100
AcDbLine
 62
250
  6
CONTINUOUS
 10
153.1133584833
 20
122.0001778614
 11
153.1132673312
 21
122.0053792255
  0
LINE
  5
48B
100
AcDbEntity
  8
RACCORDO
100
AcDbLine
 62
250
  6
CONTINUOUS
 10
153.1727187259
 20
120.273202907
 11
153.1726295247
 21
120.2783593553
  0
LINE
  5
48C
100
AcDbEntity
  8
RACCORDO
100
AcDbLine
 62
250
  6
CONTINUOUS
 10
152.7814372607
 20
87.0096039649
 11
152.781627331
 21
86.9976751617
  0
LINE
  5
48D
100
AcDbEntity
  8
RACCORDO
100
AcDbLine
 62
250
  6
CONTINUOUS
 10
152.7220950554
 20
88.735579505
 11
152.7222826054
 21
88.7233409429
  0
LINE
  5
48E
100
AcDbEntity
  8
RACCORDO
100
AcDbLine
 62
250
  6
CONTINUOUS
 10
154.0209948211
 20
100.15893905
 11
154.0213629106
 21
100.1349852292
  0
LINE
  5
48F
100
AcDbEntity
  8
RACCORDO
100
AcDbLine
 62
250
  6
CONTINUOUS
 10
153.9885406471
 20
101.2078151025
 11
153.9900399522
 21
101.110342098
  0
LINE
  5
490
100
AcDbEntity
  8
RACCORDO
100
AcDbLine
 62
250
  6
CONTINUOUS
 10
152.5028472247
 20
124.1598058553
 11
152.5327350221
 21
122.3238201823
  0
LINE
  5
491
100
AcDbEntity
  8
RACCORDO
100
AcDbLine
 62
250
  6
CONTINUOUS
 10
153.1431119727
 20
84.5875703157
 11
153.1132241753
 21
86.4235559888
  0
LINE
  5
492
100
AcDbEntity
  8
RACCORDO
100
AcDbLine
 62
250
  6
CONTINUOUS
 10
153.1132673312
 20
122.0053792255
 11
153.1131979754
 21
122.0108386582
  0
LINE
  5
493
100
AcDbEntity
  8
RACCORDO
100
AcDbLine
 62
250
  6
CONTINUOUS
 10
153.1726295247
 20
120.2783593553
 11
153.1725616733
 21
120.2837655422
  0
LINE
  5
494
100
AcDbEntity
  8
RACCORDO
100
AcDbLine
 62
250
  6
CONTINUOUS
 10
152.8644260391
 20
121.7432590597
 11
152.8641504325
 21
121.7653594324
  0
LINE
  5
495
100
AcDbEntity
  8
RACCORDO
100
AcDbLine
 62
250
  6
CONTINUOUS
 10
152.9237693925
 20
120.017451805
 11
152.923497918
 21
120.0398970586
  0
LINE
  5
496
100
AcDbEntity
  8
RACCORDO
100
AcDbLine
 62
250
  6
CONTINUOUS
 10
154.0213629106
 20
100.1349852292
 11
154.0216186063
 21
100.1098624075
  0
LINE
  5
497
100
AcDbEntity
  8
RACCORDO
100
AcDbLine
 62
250
  6
CONTINUOUS
 10
152.781627331
 20
86.9976751617
 11
152.7819787061
 21
86.9628445211
  0
LINE
  5
498
100
AcDbEntity
  8
RACCORDO
100
AcDbLine
 62
250
  6
CONTINUOUS
 10
153.9875101041
 20
101.3096942273
 11
153.9885406471
 21
101.2078151025
  0
LINE
  5
499
100
AcDbEntity
  8
RACCORDO
100
AcDbLine
 62
250
  6
CONTINUOUS
 10
152.7222826054
 20
88.7233409429
 11
152.7226279576
 21
88.6882040831
  0
LINE
  5
49A
100
AcDbEntity
  8
RACCORDO
100
AcDbLine
 62
250
  6
CONTINUOUS
 10
152.5327350221
 20
122.3238201823
 11
152.5328018295
 21
122.3168122852
  0
LINE
  5
49B
100
AcDbEntity
  8
RACCORDO
100
AcDbLine
 62
250
  6
CONTINUOUS
 10
153.1132241753
 20
86.4235559888
 11
153.1131573679
 21
86.4305638859
  0
LINE
  5
49C
100
AcDbEntity
  8
RACCORDO
100
AcDbLine
 62
250
  6
CONTINUOUS
 10
152.8641504325
 20
121.7653594324
 11
152.8636853986
 21
121.8323379996
  0
LINE
  5
49D
100
AcDbEntity
  8
RACCORDO
100
AcDbLine
 62
250
  6
CONTINUOUS
 10
152.923497918
 20
120.0398970586
 11
152.9230419478
 21
120.1069009227
  0
LINE
  5
49E
100
AcDbEntity
  8
RACCORDO
100
AcDbLine
 62
250
  6
CONTINUOUS
 10
153.1131979754
 20
122.0108386582
 11
153.1131364799
 21
122.0193631101
  0
LINE
  5
49F
100
AcDbEntity
  8
RACCORDO
100
AcDbLine
 62
250
  6
CONTINUOUS
 10
153.1725616733
 20
120.2837655422
 11
153.1725015271
 21
120.2921993956
  0
LINE
  5
4A0
100
AcDbEntity
  8
RACCORDO
100
AcDbLine
 62
250
  6
CONTINUOUS
 10
154.0216186063
 20
100.1098624075
 11
154.021757522
 21
100.0840240205
  0
LINE
  5
4A1
100
AcDbEntity
  8
RACCORDO
100
AcDbLine
 62
250
  6
CONTINUOUS
 10
153.9869630101
 20
101.4127321386
 11
153.9875101041
 21
101.3096942273
  0
LINE
  5
4A2
100
AcDbEntity
  8
RACCORDO
100
AcDbLine
 62
250
  6
CONTINUOUS
 10
152.7819787061
 20
86.9628445211
 11
152.7824966085
 21
86.8568334183
  0
LINE
  5
4A3
100
AcDbEntity
  8
RACCORDO
100
AcDbLine
 62
250
  6
CONTINUOUS
 10
152.7226279576
 20
88.6882040831
 11
152.7231353386
 21
88.5826718456
  0
LINE
  5
4A4
100
AcDbEntity
  8
RACCORDO
100
AcDbLine
 62
250
  6
CONTINUOUS
 10
154.0216383672
 20
110.0725668754
 11
154.0217748396
 21
110.0421976628
  0
LINE
  5
4A5
100
AcDbEntity
  8
RACCORDO
100
AcDbLine
 62
250
  6
CONTINUOUS
 10
152.5328018295
 20
122.3168122852
 11
152.5328324785
 21
122.3096103571
  0
LINE
  5
4A6
100
AcDbEntity
  8
RACCORDO
100
AcDbLine
 62
250
  6
CONTINUOUS
 10
153.1131573679
 20
86.4305638859
 11
153.1131267189
 21
86.4377658139
  0
LINE
  5
4A7
100
AcDbEntity
  8
RACCORDO
100
AcDbLine
 62
250
  6
CONTINUOUS
 10
152.5328080855
 20
86.7308761723
 11
152.5328345581
 21
86.722202329
  0
LINE
  5
4A8
100
AcDbEntity
  8
RACCORDO
100
AcDbLine
 62
250
  6
CONTINUOUS
 10
152.8636853986
 20
121.8323379996
 11
152.863279958
 21
122.0077401899
  0
LINE
  5
4A9
100
AcDbEntity
  8
RACCORDO
100
AcDbLine
 62
250
  6
CONTINUOUS
 10
152.9230419478
 20
120.1069009227
 11
152.9226451979
 21
120.2807053341
  0
LINE
  5
4AA
100
AcDbEntity
  8
RACCORDO
100
AcDbLine
 62
250
  6
CONTINUOUS
 10
152.4734576702
 20
88.4551767755
 11
152.47346925
 21
87.0639131777
  0
LINE
  5
4AB
100
AcDbEntity
  8
RACCORDO
100
AcDbLine
 62
7
  6
CONTINUOUS
 10
152.5028472247
 20
83.8078649269
 11
152.5028472247
 21
84.5875703157
  0
LINE
  5
4AC
100
AcDbEntity
  8
RACCORDO
100
AcDbLine
 62
7
  6
CONTINUOUS
 10
152.5028472247
 20
124.1598058553
 11
152.5028472247
 21
124.9395112442
  0
LINE
  5
4AD
100
AcDbEntity
  8
RACCORDO
100
AcDbLine
 62
250
  6
CONTINUOUS
 10
152.7231353386
 20
88.5826718456
 11
152.7233169567
 21
87.2735824745
  0
LINE
  5
4AE
100
AcDbEntity
  8
RACCORDO
100
AcDbLine
 62
250
  6
CONTINUOUS
 10
152.9226451979
 20
120.2807053341
 11
152.9226422407
 21
121.4737936965
  0
LINE
  5
4AF
100
AcDbEntity
  8
RACCORDO
100
AcDbLine
 62
7
  6
CONTINUOUS
 10
153.1431119727
 20
124.9395112442
 11
153.1431119727
 21
124.1598058553
  0
LINE
  5
4B0
100
AcDbEntity
  8
RACCORDO
100
AcDbLine
 62
7
  6
CONTINUOUS
 10
153.1431119727
 20
84.5875703157
 11
153.1431119727
 21
83.8078649269
  0
LINE
  5
4B1
100
AcDbEntity
  8
RACCORDO
100
AcDbLine
 62
250
  6
CONTINUOUS
 10
153.1725015271
 20
120.2921993956
 11
153.1724899474
 21
121.6834629933
  0
LINE
  5
4B2
100
AcDbEntity
  8
RACCORDO
100
AcDbLine
 62
250
  6
CONTINUOUS
 10
153.9868633779
 20
103.0875718647
 11
153.9869630101
 21
101.4127321386
  0
LINE
  5
4B3
100
AcDbEntity
  8
RACCORDO
100
AcDbLine
 62
250
  6
CONTINUOUS
 10
154.0217748396
 20
110.0421976628
 11
154.0217841473
 21
108.6807948667
  0
LINE
  5
4B4
100
AcDbEntity
  8
RACCORDO
100
AcDbLine
 62
250
  6
CONTINUOUS
 10
154.021757522
 20
100.0840240205
 11
154.0217841473
 21
98.7154476373
  0
LINE
  5
4B5
100
AcDbEntity
  8
RACCORDO
100
AcDbLine
 62
250
  6
CONTINUOUS
 10
152.7825186746
 20
122.4339651653
 11
152.7826792394
 21
122.0077401899
  0
LINE
  5
4B6
100
AcDbEntity
  8
RACCORDO
100
AcDbLine
 62
250
  6
CONTINUOUS
 10
152.7824966085
 20
86.8568334183
 11
152.7826801513
 21
86.425656487
  0
LINE
  5
4B7
100
AcDbEntity
  8
RACCORDO
100
AcDbLine
 62
250
  6
CONTINUOUS
 10
152.8634405227
 20
86.3134110058
 11
152.863279958
 21
86.7396359811
  0
LINE
  5
4B8
100
AcDbEntity
  8
RACCORDO
100
AcDbLine
 62
250
  6
CONTINUOUS
 10
153.1131364799
 20
122.0193631101
 11
153.1131267189
 21
122.3096103574
  0
LINE
  5
4B9
100
AcDbEntity
  8
RACCORDO
100
AcDbLine
 62
250
  6
CONTINUOUS
 10
152.863279958
 20
122.0077401899
 11
152.8634405227
 21
122.4339651653
  0
LINE
  5
4BA
100
AcDbEntity
  8
RACCORDO
100
AcDbLine
 62
250
  6
CONTINUOUS
 10
152.7826801513
 20
86.425656487
 11
152.7825186746
 21
86.3134110058
  0
LINE
  5
4BB
100
AcDbEntity
  8
RACCORDO
100
AcDbLine
 62
250
  6
CONTINUOUS
 10
152.47346925
 20
121.6834629933
 11
152.4734576702
 21
120.2921993956
  0
LWPOLYLINE
  5
4BC
100
AcDbEntity
  8
RACCORDO
100
AcDbPolyline
 62
250
  6
CONTINUOUS
 90
3
 70
0
 10
152.5328324785
 20
122.3096103571
 10
152.5328227174
 20
122.0193631101
 10
152.5328080855
 20
122.0164999987
  0
LINE
  5
4BD
100
AcDbEntity
  8
RACCORDO
100
AcDbLine
 62
250
  6
CONTINUOUS
 10
153.1131267189
 20
86.4377658139
 11
153.1131364799
 21
86.728013061
  0
LINE
  5
4BE
100
AcDbEntity
  8
RACCORDO
100
AcDbLine
 62
250
  6
CONTINUOUS
 10
153.1724899474
 20
87.0639131777
 11
153.1725015271
 21
88.4551767755
  0
LINE
  5
4BF
100
AcDbEntity
  8
RACCORDO
100
AcDbLine
 62
250
  6
CONTINUOUS
 10
152.7233169567
 20
121.4737936965
 11
152.7230360574
 21
120.1347230318
  0
LINE
  5
4C0
100
AcDbEntity
  8
RACCORDO
100
AcDbLine
 62
250
  6
CONTINUOUS
 10
152.9226422407
 20
87.2735824745
 11
152.92292314
 21
88.6126531393
  0
LINE
  5
4C1
100
AcDbEntity
  8
RACCORDO
100
AcDbLine
 62
250
  6
CONTINUOUS
 10
153.9870924359
 20
107.368817069
 11
153.9868633779
 21
105.6598043064
  0
LINE
  5
4C2
100
AcDbEntity
  8
RACCORDO
100
AcDbLine
 62
250
  6
CONTINUOUS
 10
154.0217841473
 20
108.6807948667
 11
154.0217244581
 21
108.6547025936
  0
LINE
  5
4C3
100
AcDbEntity
  8
RACCORDO
100
AcDbLine
 62
250
  6
CONTINUOUS
 10
152.5328345581
 20
86.722202329
 11
152.5328161383
 21
86.4329526145
  0
LWPOLYLINE
  5
4C4
100
AcDbEntity
  8
RACCORDO
100
AcDbPolyline
 62
250
  6
CONTINUOUS
 90
3
 70
0
 10
154.0217841473
 20
98.7154476373
 10
154.0217020553
 20
98.6848727071
 10
154.0216383672
 20
98.6748092955
  0
LINE
  5
4C5
100
AcDbEntity
  8
RACCORDO
100
AcDbLine
 62
250
  6
CONTINUOUS
 10
152.7826792394
 20
122.0077401899
 11
152.7822737988
 21
121.8323379995
  0
LINE
  5
4C6
100
AcDbEntity
  8
RACCORDO
100
AcDbLine
 62
250
  6
CONTINUOUS
 10
152.863279958
 20
86.7396359811
 11
152.8636853986
 21
86.9150381715
  0
LINE
  5
4C7
100
AcDbEntity
  8
RACCORDO
100
AcDbLine
 62
250
  6
CONTINUOUS
 10
153.1131267189
 20
122.3096103574
 11
153.1131573679
 21
122.3168122857
  0
LINE
  5
4C8
100
AcDbEntity
  8
RACCORDO
100
AcDbLine
 62
250
  6
CONTINUOUS
 10
152.7230360574
 20
120.1347230318
 11
152.7225461005
 21
120.0491228326
  0
LINE
  5
4C9
100
AcDbEntity
  8
RACCORDO
100
AcDbLine
 62
250
  6
CONTINUOUS
 10
152.92292314
 20
88.6126531393
 11
152.9234130969
 21
88.6982533384
  0
LINE
  5
4CA
100
AcDbEntity
  8
RACCORDO
100
AcDbLine
 62
250
  6
CONTINUOUS
 10
153.9877991512
 20
107.4719029416
 11
153.9870924359
 21
107.368817069
  0
LINE
  5
4CB
100
AcDbEntity
  8
RACCORDO
100
AcDbLine
 62
250
  6
CONTINUOUS
 10
154.0217244581
 20
108.6547025936
 11
154.0215462608
 21
108.6290411281
  0
LINE
  5
4CC
100
AcDbEntity
  8
RACCORDO
100
AcDbLine
 62
250
  6
CONTINUOUS
 10
153.1725015271
 20
88.4551767755
 11
153.1725616733
 21
88.4636106289
  0
LINE
  5
4CD
100
AcDbEntity
  8
RACCORDO
100
AcDbLine
 62
250
  6
CONTINUOUS
 10
152.7822737988
 20
121.8323379995
 11
152.7818087649
 21
121.7653594324
  0
LINE
  5
4CE
100
AcDbEntity
  8
RACCORDO
100
AcDbLine
 62
250
  6
CONTINUOUS
 10
152.8636853986
 20
86.9150381715
 11
152.8641504325
 21
86.9820167387
  0
LINE
  5
4CF
100
AcDbEntity
  8
RACCORDO
100
AcDbLine
 62
250
  6
CONTINUOUS
 10
153.1131364799
 20
86.728013061
 11
153.1131979754
 21
86.7365375128
  0
LINE
  5
4D0
100
AcDbEntity
  8
RACCORDO
100
AcDbLine
 62
250
  6
CONTINUOUS
 10
152.5328161383
 20
86.4329526145
 11
152.5327611751
 21
86.425853171
  0
LINE
  5
4D1
100
AcDbEntity
  8
RACCORDO
100
AcDbLine
 62
250
  6
CONTINUOUS
 10
153.1131573679
 20
122.3168122857
 11
153.1132241753
 21
122.3238201826
  0
LINE
  5
4D2
100
AcDbEntity
  8
RACCORDO
100
AcDbLine
 62
250
  6
CONTINUOUS
 10
152.7225461005
 20
120.0491228326
 11
152.7222826054
 21
120.0240352281
  0
LINE
  5
4D3
100
AcDbEntity
  8
RACCORDO
100
AcDbLine
 62
250
  6
CONTINUOUS
 10
152.9234130969
 20
88.6982533384
 11
152.923676592
 21
88.7233409429
  0
LINE
  5
4D4
100
AcDbEntity
  8
RACCORDO
100
AcDbLine
 62
250
  6
CONTINUOUS
 10
153.9889889552
 20
107.5726609154
 11
153.9877991512
 21
107.4719029416
  0
LINE
  5
4D5
100
AcDbEntity
  8
RACCORDO
100
AcDbLine
 62
250
  6
CONTINUOUS
 10
154.0215462608
 20
108.6290411281
 11
154.0212525406
 21
108.6042602779
  0
LINE
  5
4D6
100
AcDbEntity
  8
RACCORDO
100
AcDbLine
 62
250
  6
CONTINUOUS
 10
153.1725616733
 20
88.4636106289
 11
153.1726295247
 21
88.4690168158
  0
LINE
  5
4D7
100
AcDbEntity
  8
RACCORDO
100
AcDbLine
 62
250
  6
CONTINUOUS
 10
153.1131979754
 20
86.7365375128
 11
153.1132673312
 21
86.7419969456
  0
LWPOLYLINE
  5
4D8
100
AcDbEntity
  8
RACCORDO
100
AcDbPolyline
 62
250
  6
CONTINUOUS
 90
5
 70
0
 10
152.7818087649
 20
121.7653594324
 10
152.7815331583
 20
121.7432590596
 10
152.7814372607
 20
121.7377722062
 10
152.7813393489
 20
121.733258108
 10
152.7812394228
 20
121.7297315162
  0
LINE
  5
4D9
100
AcDbEntity
  8
RACCORDO
100
AcDbLine
 62
250
  6
CONTINUOUS
 10
152.8641504325
 20
86.9820167387
 11
152.8644260391
 21
87.0041171114
  0
LINE
  5
4DA
100
AcDbEntity
  8
RACCORDO
100
AcDbLine
 62
250
  6
CONTINUOUS
 10
152.5327611751
 20
86.425853171
 11
152.5326709679
 21
86.4190655712
  0
LINE
  5
4DB
100
AcDbEntity
  8
RACCORDO
100
AcDbLine
 62
250
  6
CONTINUOUS
 10
152.8634405227
 20
122.4339651653
 11
152.9008718279
 21
124.7326456981
  0
LINE
  5
4DC
100
AcDbEntity
  8
RACCORDO
100
AcDbLine
 62
250
  6
CONTINUOUS
 10
153.1132241753
 20
122.3238201826
 11
153.1431119727
 21
124.1598058553
  0
LINE
  5
4DD
100
AcDbEntity
  8
RACCORDO
100
AcDbLine
 62
250
  6
CONTINUOUS
 10
152.5326709679
 20
86.4190655712
 11
152.5028472247
 21
84.5875703157
  0
LINE
  5
4DE
100
AcDbEntity
  8
RACCORDO
100
AcDbLine
 62
250
  6
CONTINUOUS
 10
152.7825186746
 20
86.3134110058
 11
152.7450873694
 21
84.014730473
  0
LWPOLYLINE
  5
4DF
100
AcDbEntity
  8
RACCORDO
100
AcDbPolyline
 62
250
  6
CONTINUOUS
 90
7
 70
0
 10
152.7222826054
 20
120.0240352281
 10
152.7220950554
 20
120.011796666
 10
152.7219983245
 20
120.0070886519
 10
152.7219004966
 20
120.0033435555
 10
152.7218018664
 20
120.0005736022
 10
152.7217021392
 20
119.9987876342
 10
152.7216013149
 20
119.9979913341
  0
LWPOLYLINE
  5
4E0
100
AcDbEntity
  8
RACCORDO
100
AcDbPolyline
 62
250
  6
CONTINUOUS
 90
7
 70
0
 10
152.923676592
 20
88.7233409429
 10
152.9238641419
 20
88.735579505
 10
152.9239608728
 20
88.7402875191
 10
152.9240587008
 20
88.7440326155
 10
152.924157331
 20
88.7468025688
 10
152.9242570582
 20
88.7485885368
 10
152.9243578824
 20
88.7493848369
  0
LINE
  5
4E1
100
AcDbEntity
  8
RACCORDO
100
AcDbLine
 62
250
  6
CONTINUOUS
 10
153.1726295247
 20
88.4690168158
 11
153.1727187259
 21
88.4741732641
  0
LINE
  5
4E2
100
AcDbEntity
  8
RACCORDO
100
AcDbLine
 62
250
  6
CONTINUOUS
 10
153.1132673312
 20
86.7419969456
 11
153.1133584833
 21
86.7471983097
  0
LINE
  5
4E3
100
AcDbEntity
  8
RACCORDO
100
AcDbLine
 62
250
  6
CONTINUOUS
 10
153.9906352572
 20
107.6680199534
 11
153.9889889552
 21
107.5726609154
  0
LINE
  5
4E4
100
AcDbEntity
  8
RACCORDO
100
AcDbLine
 62
250
  6
CONTINUOUS
 10
154.0212525406
 20
108.6042602779
 11
154.0208483283
 21
108.5807889838
  0
LWPOLYLINE
  5
4E5
100
AcDbEntity
  8
RACCORDO
100
AcDbPolyline
 62
250
  6
CONTINUOUS
 90
3
 70
0
 10
152.8644260391
 20
87.0041171114
 10
152.8646198485
 20
87.0141180631
 10
152.8647197746
 20
87.0176446549
  0
LINE
  5
4E6
100
AcDbEntity
  8
RACCORDO
100
AcDbLine
 62
250
  6
CONTINUOUS
 10
154.0208483283
 20
108.5807889838
 11
154.0205207144
 21
108.5660668564
  0
LINE
  5
4E7
100
AcDbEntity
  8
RACCORDO
100
AcDbLine
 62
250
  6
CONTINUOUS
 10
153.9919610986
 20
107.7272482067
 11
153.9906352572
 21
107.6680199534
  0
LINE
  5
4E8
100
AcDbEntity
  8
RACCORDO
100
AcDbLine
 62
250
  6
CONTINUOUS
 10
153.1727187259
 20
88.4741732641
 11
153.1728280833
 21
88.4790014562
  0
LINE
  5
4E9
100
AcDbEntity
  8
RACCORDO
100
AcDbLine
 62
250
  6
CONTINUOUS
 10
153.1133584833
 20
86.7471983097
 11
153.1134701887
 21
86.7520606948
  0
LWPOLYLINE
  5
4EA
100
AcDbEntity
  8
RACCORDO
100
AcDbPolyline
 62
7
  6
CONTINUOUS
 90
28
 70
0
 10
153.2285997917
 20
120.220764634
 10
153.2281973562
 20
120.2062972573
 10
153.2269551161
 20
120.191846764
 10
153.2248717325
 20
120.1774621853
 10
153.2219438705
 20
120.1631718579
 10
153.2181784389
 20
120.1490469548
 10
153.2136047706
 20
120.1351980582
 10
153.2082576573
 20
120.1217026391
 10
153.2021504114
 20
120.1085705299
 10
153.1952884038
 20
120.0958085093
 10
153.1876927482
 20
120.083458931
 10
153.1793884693
 20
120.0715652875
 10
153.1703790842
 20
120.0601407288
 10
153.1606605969
 20
120.0491985018
 10
153.1502853493
 20
120.0388145975
 10
153.139351361
 20
120.0290871574
 10
153.1279340411
 20
120.0200681279
 10
153.1160471572
 20
120.0117539525
 10
153.1037055827
 20
120.0041492285
 10
153.090953369
 20
119.9972788685
 10
153.077832619
 20
119.9911634054
 10
153.0643508195
 20
119.9858081719
 10
153.0505195158
 20
119.9812264552
 10
153.0364146246
 20
119.9774519127
 10
153.0221422988
 20
119.974512805
 10
153.0077720146
 20
119.9724162038
 10
152.9933333751
 20
119.9711593301
 10
152.9788752708
 20
119.970741136
  0
LWPOLYLINE
  5
4EB
100
AcDbEntity
  8
RACCORDO
100
AcDbPolyline
 62
7
  6
CONTINUOUS
 90
28
 70
0
 10
152.4173594057
 20
88.5266115371
 10
152.4177618411
 20
88.5410789138
 10
152.4190040812
 20
88.5555294071
 10
152.4210874649
 20
88.5699139857
 10
152.4240153268
 20
88.5842043131
 10
152.4277807585
 20
88.5983292162
 10
152.4323544268
 20
88.6121781129
 10
152.43770154
 20
88.6256735319
 10
152.4438087859
 20
88.6388056411
 10
152.4506707936
 20
88.6515676618
 10
152.4582664492
 20
88.6639172401
 10
152.4665707281
 20
88.6758108836
 10
152.4755801132
 20
88.6872354422
 10
152.4852986005
 20
88.6981776692
 10
152.495673848
 20
88.7085615735
 10
152.5066078363
 20
88.7182890137
 10
152.5180251563
 20
88.7273080431
 10
152.5299120401
 20
88.7356222186
 10
152.5422536146
 20
88.7432269425
 10
152.5550058284
 20
88.7500973026
 10
152.5681265784
 20
88.7562127657
 10
152.5816083778
 20
88.7615679991
 10
152.5954396815
 20
88.7661497159
 10
152.6095445728
 20
88.7699242584
 10
152.6238168986
 20
88.772863366
 10
152.6381871827
 20
88.7749599672
 10
152.6526258223
 20
88.776216841
 10
152.6670839266
 20
88.776635035
  0
LINE
  5
4EC
100
AcDbEntity
  8
RACCORDO
100
AcDbLine
 62
250
  6
CONTINUOUS
 10
153.9934343268
 20
107.7820767968
 11
153.9919610986
 21
107.7272482067
  0
LINE
  5
4ED
100
AcDbEntity
  8
RACCORDO
100
AcDbLine
 62
250
  6
CONTINUOUS
 10
154.0205207144
 20
108.5660668564
 11
154.0201504508
 21
108.5522476789
  0
LWPOLYLINE
  5
4EE
100
AcDbEntity
  8
RACCORDO
100
AcDbPolyline
 62
7
  6
CONTINUOUS
 90
28
 70
0
 10
153.9597859747
 20
110.2870644614
 10
153.9602941167
 20
110.3043930843
 10
153.9618076773
 20
110.3217049251
 10
153.9643289132
 20
110.3389413077
 10
153.967862908
 20
110.3560697192
 10
153.9724017689
 20
110.3730033053
 10
153.9779091776
 20
110.3896051987
 10
153.9843426971
 20
110.4057812909
 10
153.9916867332
 20
110.4215212205
 10
153.999934548
 20
110.4368167843
 10
154.0090605806
 20
110.4516171264
 10
154.0190348309
 20
110.4658704551
 10
154.0298531991
 20
110.47956157
 10
154.0415200575
 20
110.4926742098
 10
154.0539729959
 20
110.505117918
 10
154.0670961429
 20
110.5167767832
 10
154.0807999385
 20
110.5275887374
 10
154.0950676241
 20
110.5375572371
 10
154.1098816324
 20
110.5466766182
 10
154.1251892158
 20
110.5549166074
 10
154.1409401678
 20
110.5622522946
 10
154.157126077
 20
110.5686771804
 10
154.1737352944
 20
110.5741754654
 10
154.1906748288
 20
110.5787054279
 10
154.2078114143
 20
110.5822317392
 10
154.2250595122
 20
110.5847462364
 10
154.242385448
 20
110.5862531975
 10
154.2597305222
 20
110.5867544101
  0
LINE
  5
4EF
100
AcDbEntity
  8
RACCORDO
100
AcDbLine
 62
250
  6
CONTINUOUS
 10
153.1728280833
 20
88.4790014562
 11
153.1729558537
 21
88.4834316565
  0
LINE
  5
4F0
100
AcDbEntity
  8
RACCORDO
100
AcDbLine
 62
250
  6
CONTINUOUS
 10
153.1134701887
 20
86.7520606948
 11
153.1136006167
 21
86.7565119572
  0
LINE
  5
4F1
100
AcDbEntity
  8
RACCORDO
100
AcDbLine
 62
250
  6
CONTINUOUS
 10
153.9950458231
 20
107.8322667293
 11
153.9934343268
 21
107.7820767968
  0
LINE
  5
4F2
100
AcDbEntity
  8
RACCORDO
100
AcDbLine
 62
250
  6
CONTINUOUS
 10
154.0201504508
 20
108.5522476789
 11
153.9950458231
 21
107.8322667293
  0
LWPOLYLINE
  5
4F3
100
AcDbEntity
  8
RACCORDO
100
AcDbPolyline
 62
250
  6
CONTINUOUS
 90
14
 70
0
 10
153.1729558537
 20
88.4834316565
 10
153.1731007725
 20
88.4874199434
 10
153.1731788923
 20
88.489224425
 10
153.1732607614
 20
88.4909033297
 10
153.1733455693
 20
88.4924400832
 10
153.1734333451
 20
88.4938332577
 10
153.1735240598
 20
88.495084281
 10
153.1736168157
 20
88.4961808616
 10
153.1737116439
 20
88.4971214871
 10
153.1738085133
 20
88.49790767
 10
153.173906434
 20
88.4985316565
 10
153.1740050759
 20
88.4989908621
 10
153.174104769
 20
88.4992878714
 10
153.1742055133
 20
88.4994226843
  0
LWPOLYLINE
  5
4F4
100
AcDbEntity
  8
RACCORDO
100
AcDbPolyline
 62
250
  6
CONTINUOUS
 90
11
 70
0
 10
153.1136006167
 20
86.7565119572
 10
153.1137484439
 20
86.760506903
 10
153.1138280771
 20
86.7623087069
 10
153.1139114987
 20
86.7639809864
 10
153.1139978644
 20
86.7655069317
 10
153.1140872154
 20
86.7668851337
 10
153.1141795105
 20
86.7681170015
 10
153.1142737815
 20
86.769189952
 10
153.1143697056
 20
86.7700997908
 10
153.1144676055
 20
86.7708507124
 10
153.1145674814
 20
86.7714427166
  0
LINE
  5
4F5
100
AcDbEntity
  8
RACCORDO
100
AcDbLine
 62
250
  6
CONTINUOUS
 10
156.8602129017
 20
124.6793884492
 11
156.9118162725
 21
125.0423832163
  0
LINE
  5
4F6
100
AcDbEntity
  8
RACCORDO
100
AcDbLine
 62
7
  6
CONTINUOUS
 10
153.9586216556
 20
103.0593301425
 11
153.9868633779
 21
103.0875718647
  0
LWPOLYLINE
  5
4F7
100
AcDbEntity
  8
RACCORDO
100
AcDbPolyline
 62
250
  6
CONTINUOUS
 90
25
 70
0
 10
154.314860985
 20
110.5316239473
 10
154.2952671506
 20
110.5309591444
 10
154.2757570912
 20
110.5290153079
 10
154.2564142223
 20
110.5258007489
 10
154.2373212447
 20
110.5213292114
 10
154.2185597911
 20
110.5156198138
 10
154.2002100766
 20
110.5086969671
 10
154.182350556
 20
110.5005902703
 10
154.1650575877
 20
110.491334384
 10
154.1484051084
 20
110.4809688824
 10
154.1324643159
 20
110.4695380835
 10
154.1173033654
 20
110.4570908604
 10
154.1029870775
 20
110.4436804316
 10
154.0895766618
 20
110.4293641341
 10
154.0771294544
 20
110.4142031777
 10
154.0656986733
 20
110.3982623836
 10
154.0553331907
 20
110.3816099072
 10
154.0460773242
 20
110.3643169466
 10
154.0379706469
 20
110.3464574384
 10
154.0310478187
 20
110.3281077413
 10
154.025338438
 20
110.3093463099
 10
154.0208669147
 20
110.2902533589
 10
154.0176523667
 20
110.2709105206
 10
154.0157085373
 20
110.2514004956
 10
154.0150437369
 20
110.2318066992
  0
LWPOLYLINE
  5
4F8
100
AcDbEntity
  8
RACCORDO
100
AcDbPolyline
 62
250
  6
CONTINUOUS
 90
25
 70
0
 10
140.014860985
 20
110.5316239473
 10
139.9952671506
 20
110.5309591444
 10
139.9757570912
 20
110.5290153079
 10
139.9564142223
 20
110.5258007489
 10
139.9373212447
 20
110.5213292114
 10
139.9185597911
 20
110.5156198138
 10
139.9002100766
 20
110.5086969671
 10
139.882350556
 20
110.5005902703
 10
139.8650575877
 20
110.491334384
 10
139.8484051084
 20
110.4809688824
 10
139.8324643159
 20
110.4695380835
 10
139.8173033654
 20
110.4570908604
 10
139.8029870775
 20
110.4436804316
 10
139.7895766618
 20
110.4293641341
 10
139.7771294544
 20
110.4142031777
 10
139.7656986733
 20
110.3982623836
 10
139.7553331907
 20
110.3816099072
 10
139.7460773242
 20
110.3643169466
 10
139.7379706469
 20
110.3464574384
 10
139.7310478187
 20
110.3281077413
 10
139.725338438
 20
110.3093463099
 10
139.7208669147
 20
110.2902533589
 10
139.7176523667
 20
110.2709105206
 10
139.7157085373
 20
110.2514004956
 10
139.7150437369
 20
110.2318066992
  0
LINE
  5
4F9
100
AcDbEntity
  8
RACCORDO
100
AcDbLine
 62
250
  6
CONTINUOUS
 10
139.7217841473
 20
110.0319285338
 11
140.42417505
 21
110.0319285338
  0
LINE
  5
4FA
100
AcDbEntity
  8
RACCORDO
100
AcDbLine
 62
250
  6
CONTINUOUS
 10
154.0217841473
 20
110.0319285338
 11
154.72417505
 21
110.0319285338
  0
LINE
  5
4FB
100
AcDbEntity
  8
RACCORDO
100
AcDbLine
 62
250
  6
CONTINUOUS
 10
154.4310987399
 20
110.5316244749
 11
154.3148604575
 21
110.5316244749
  0
LINE
  5
4FC
100
AcDbEntity
  8
RACCORDO
100
AcDbLine
 62
250
  6
CONTINUOUS
 10
140.1310987399
 20
110.5316244749
 11
140.0148604575
 21
110.5316244749
  0
LINE
  5
4FD
100
AcDbEntity
  8
RACCORDO
100
AcDbLine
 62
7
  6
CONTINUOUS
 10
139.9597305222
 20
110.5867544101
 11
140.1862286752
 21
110.5867544101
  0
LINE
  5
4FE
100
AcDbEntity
  8
RACCORDO
100
AcDbLine
 62
7
  6
CONTINUOUS
 10
154.2597305222
 20
110.5867544101
 11
154.4862286752
 21
110.5867544101
  0
LWPOLYLINE
  5
4FF
100
AcDbEntity
  8
RACCORDO
100
AcDbPolyline
 62
7
  6
CONTINUOUS
 90
28
 70
0
 10
140.1862286752
 20
110.5867544101
 10
140.2035737494
 20
110.5862531975
 10
140.2208996851
 20
110.5847462364
 10
140.2381477831
 20
110.5822317392
 10
140.2552843686
 20
110.5787054279
 10
140.272223903
 20
110.5741754654
 10
140.2888331204
 20
110.5686771804
 10
140.3050190296
 20
110.5622522946
 10
140.3207699815
 20
110.5549166074
 10
140.336077565
 20
110.5466766182
 10
140.3508915732
 20
110.5375572371
 10
140.3651592589
 20
110.5275887374
 10
140.3788630544
 20
110.5167767832
 10
140.3919862015
 20
110.505117918
 10
140.4044391399
 20
110.4926742098
 10
140.4161059982
 20
110.47956157
 10
140.4269243664
 20
110.4658704551
 10
140.4368986167
 20
110.4516171264
 10
140.4460246494
 20
110.4368167843
 10
140.4542724642
 20
110.4215212205
 10
140.4616165003
 20
110.4057812909
 10
140.4680500198
 20
110.3896051987
 10
140.4735574284
 20
110.3730033053
 10
140.4780962894
 20
110.3560697192
 10
140.4816302842
 20
110.3389413077
 10
140.4841515201
 20
110.3217049251
 10
140.4856650807
 20
110.3043930843
 10
140.4861732227
 20
110.2870644614
  0
LWPOLYLINE
  5
500
100
AcDbEntity
  8
RACCORDO
100
AcDbPolyline
 62
7
  6
CONTINUOUS
 90
28
 70
0
 10
154.4862286752
 20
110.5867544101
 10
154.5035737494
 20
110.5862531975
 10
154.5208996851
 20
110.5847462364
 10
154.5381477831
 20
110.5822317392
 10
154.5552843686
 20
110.5787054279
 10
154.572223903
 20
110.5741754654
 10
154.5888331204
 20
110.5686771804
 10
154.6050190296
 20
110.5622522946
 10
154.6207699815
 20
110.5549166074
 10
154.636077565
 20
110.5466766182
 10
154.6508915732
 20
110.5375572371
 10
154.6651592589
 20
110.5275887374
 10
154.6788630544
 20
110.5167767832
 10
154.6919862015
 20
110.505117918
 10
154.7044391399
 20
110.4926742098
 10
154.7161059982
 20
110.47956157
 10
154.7269243664
 20
110.4658704551
 10
154.7368986167
 20
110.4516171264
 10
154.7460246494
 20
110.4368167843
 10
154.7542724642
 20
110.4215212205
 10
154.7616165003
 20
110.4057812909
 10
154.7680500198
 20
110.3896051987
 10
154.7735574284
 20
110.3730033053
 10
154.7780962894
 20
110.3560697192
 10
154.7816302842
 20
110.3389413077
 10
154.7841515201
 20
110.3217049251
 10
154.7856650807
 20
110.3043930843
 10
154.7861732227
 20
110.2870644614
  0
LWPOLYLINE
  5
501
100
AcDbEntity
  8
RACCORDO
100
AcDbPolyline
 62
250
  6
CONTINUOUS
 90
25
 70
0
 10
140.1310982124
 20
110.5316239473
 10
140.1506920303
 20
110.5309591455
 10
140.1702020744
 20
110.5290153122
 10
140.1895449293
 20
110.5258007581
 10
140.2086378943
 20
110.5213292271
 10
140.2273993369
 20
110.5156198375
 10
140.2457490424
 20
110.5086969997
 10
140.2636085562
 20
110.5005903125
 10
140.2809015197
 20
110.4913344362
 10
140.2975539965
 20
110.4809689444
 10
140.3134947885
 20
110.469538155
 10
140.3286557408
 20
110.4570909405
 10
140.3429720324
 20
110.4436805192
 10
140.3563824536
 20
110.4293642277
 10
140.3688296681
 20
110.4142032754
 10
140.3802604575
 20
110.3982624833
 10
140.3906259493
 20
110.3816100065
 10
140.3998818256
 20
110.3643170431
 10
140.4079885128
 20
110.3464575292
 10
140.4149113506
 20
110.3281078238
 10
140.4206207403
 20
110.3093463811
 10
140.4250922712
 20
110.2902534162
 10
140.4283068253
 20
110.2709105613
 10
140.4302506587
 20
110.2514005171
 10
140.4309154605
 20
110.2318066992
  0
LWPOLYLINE
  5
502
100
AcDbEntity
  8
RACCORDO
100
AcDbPolyline
 62
250
  6
CONTINUOUS
 90
25
 70
0
 10
154.4310982124
 20
110.5316239473
 10
154.4506920303
 20
110.5309591455
 10
154.4702020744
 20
110.5290153122
 10
154.4895449293
 20
110.5258007581
 10
154.5086378943
 20
110.5213292271
 10
154.5273993369
 20
110.5156198375
 10
154.5457490424
 20
110.5086969997
 10
154.5636085562
 20
110.5005903125
 10
154.5809015197
 20
110.4913344362
 10
154.5975539965
 20
110.4809689444
 10
154.6134947885
 20
110.469538155
 10
154.6286557408
 20
110.4570909405
 10
154.6429720324
 20
110.4436805192
 10
154.6563824536
 20
110.4293642277
 10
154.6688296681
 20
110.4142032754
 10
154.6802604575
 20
110.3982624833
 10
154.6906259493
 20
110.3816100065
 10
154.6998818256
 20
110.3643170431
 10
154.7079885128
 20
110.3464575292
 10
154.7149113506
 20
110.3281078238
 10
154.7206207403
 20
110.3093463811
 10
154.7250922712
 20
110.2902534162
 10
154.7283068253
 20
110.2709105613
 10
154.7302506587
 20
110.2514005171
 10
154.7309154605
 20
110.2318066992
  0
LWPOLYLINE
  5
503
100
AcDbEntity
  8
RACCORDO
100
AcDbPolyline
 62
7
  6
CONTINUOUS
 90
14
 70
0
 10
157.0531283545
 20
105.6811843711
 10
157.0524898843
 20
105.6816347977
 10
157.0510292433
 20
105.6820804497
 10
157.0487464313
 20
105.6825213272
 10
157.0456194161
 20
105.6829599649
 10
157.04167023
 20
105.6833938281
 10
157.0369649699
 20
105.6838153123
 10
157.0315129293
 20
105.6842228176
 10
157.0253048148
 20
105.6846179439
 10
157.0183788431
 20
105.6849978865
 10
157.0107062221
 20
105.6853636839
 10
157.0023157439
 20
105.6857142976
 10
156.9933320018
 20
105.6860438073
 10
156.9735530208
 20
105.6866383905
  0
LINE
  5
504
100
AcDbEntity
  8
RACCORDO
100
AcDbLine
 62
7
  6
CONTINUOUS
 10
153.9868633779
 20
105.6598043064
 11
153.9586216556
 21
105.6880460286
  0
LWPOLYLINE
  5
505
100
AcDbEntity
  8
RACCORDO
100
AcDbPolyline
 62
250
  6
CONTINUOUS
 90
13
 70
0
 10
141.9742055133
 20
120.2479534868
 10
141.974104769
 20
120.2480882997
 10
141.9740050759
 20
120.2483853089
 10
141.973906434
 20
120.2488445145
 10
141.9738085133
 20
120.2494685011
 10
141.9737116439
 20
120.2502546839
 10
141.9736168157
 20
120.2511953094
 10
141.9735240598
 20
120.2522918901
 10
141.9734333451
 20
120.2535429134
 10
141.9733455693
 20
120.2549360879
 10
141.9732607614
 20
120.2564728414
 10
141.9731788923
 20
120.2581517461
 10
141.9731007725
 20
120.2599562277
  0
LWPOLYLINE
  5
506
100
AcDbEntity
  8
RACCORDO
100
AcDbPolyline
 62
250
  6
CONTINUOUS
 90
8
 70
0
 10
154.431098422
 20
98.2157516964
 10
154.4307400114
 20
98.2172985725
 10
154.4303850366
 20
98.2201508505
 10
154.4300334975
 20
98.224301127
 10
154.4296845128
 20
98.2297385749
 10
154.4293389639
 20
98.2364490268
 10
154.4289994947
 20
98.244415056
 10
154.4286661092
 20
98.2536160645
  0
LINE
  5
507
100
AcDbEntity
  8
RACCORDO
100
AcDbLine
 62
250
  6
CONTINUOUS
 10
156.9118162725
 20
83.7049929548
 11
156.8602129017
 21
84.0679877218
  0
LINE
  5
508
100
AcDbEntity
  8
RACCORDO
100
AcDbLine
 62
250
  6
CONTINUOUS
 10
154.2940395481
 20
101.1425445576
 11
154.2948634547
 21
101.1272341217
  0
LINE
  5
509
100
AcDbEntity
  8
RACCORDO
100
AcDbLine
 62
250
  6
CONTINUOUS
 10
154.4519196492
 20
107.6048316134
 11
154.4510957427
 21
107.6201420493
  0
LINE
  5
50A
100
AcDbEntity
  8
RACCORDO
100
AcDbLine
 62
250
  6
CONTINUOUS
 10
154.2924981609
 20
101.1753788733
 11
154.2940395481
 21
101.1425445576
  0
LINE
  5
50B
100
AcDbEntity
  8
RACCORDO
100
AcDbLine
 62
250
  6
CONTINUOUS
 10
154.4534610365
 20
107.5719972978
 11
154.4519196492
 21
107.6048316134
  0
LINE
  5
50C
100
AcDbEntity
  8
RACCORDO
100
AcDbLine
 62
250
  6
CONTINUOUS
 10
154.0190225746
 20
110.1912352078
 11
154.0195693968
 21
110.1780300736
  0
LINE
  5
50D
100
AcDbEntity
  8
RACCORDO
100
AcDbLine
 62
250
  6
CONTINUOUS
 10
154.7269366228
 20
98.5561409632
 11
154.7263898006
 21
98.5693460974
  0
LINE
  5
50E
100
AcDbEntity
  8
RACCORDO
100
AcDbLine
 62
250
  6
CONTINUOUS
 10
154.291092693
 20
101.2111046853
 11
154.2924981609
 21
101.1753788733
  0
LINE
  5
50F
100
AcDbEntity
  8
RACCORDO
100
AcDbLine
 62
250
  6
CONTINUOUS
 10
154.4548665044
 20
107.5362714857
 11
154.4534610365
 21
107.5719972978
  0
LINE
  5
510
100
AcDbEntity
  8
RACCORDO
100
AcDbLine
 62
250
  6
CONTINUOUS
 10
154.294863328
 20
101.1272341217
 11
154.3195557841
 21
100.4201346949
  0
LINE
  5
511
100
AcDbEntity
  8
RACCORDO
100
AcDbLine
 62
250
  6
CONTINUOUS
 10
154.4510958693
 20
107.6201420494
 11
154.4264034132
 21
108.3272414761
  0
LINE
  5
512
100
AcDbEntity
  8
RACCORDO
100
AcDbLine
 62
250
  6
CONTINUOUS
 10
154.0195693968
 20
110.1780300736
 11
154.0200656116
 21
110.1633145346
  0
LINE
  5
513
100
AcDbEntity
  8
RACCORDO
100
AcDbLine
 62
250
  6
CONTINUOUS
 10
154.7263898006
 20
98.5693460974
 11
154.7258935858
 21
98.5840616365
  0
LINE
  5
514
100
AcDbEntity
  8
RACCORDO
100
AcDbLine
 62
250
  6
CONTINUOUS
 10
154.2898569484
 20
101.2492782977
 11
154.291092693
 21
101.2111046853
  0
LINE
  5
515
100
AcDbEntity
  8
RACCORDO
100
AcDbLine
 62
250
  6
CONTINUOUS
 10
154.4561022489
 20
107.4980978734
 11
154.4548665044
 21
107.5362714857
  0
LINE
  5
516
100
AcDbEntity
  8
RACCORDO
100
AcDbLine
 62
250
  6
CONTINUOUS
 10
154.7525248706
 20
107.7820767948
 11
154.7258087466
 21
108.552247679
  0
LINE
  5
517
100
AcDbEntity
  8
RACCORDO
100
AcDbLine
 62
250
  6
CONTINUOUS
 10
154.4286661092
 20
98.2536160645
 11
154.4280202091
 21
98.2756228941
  0
LINE
  5
518
100
AcDbEntity
  8
RACCORDO
100
AcDbLine
 62
250
  6
CONTINUOUS
 10
154.3172930882
 20
110.4937601066
 11
154.3179389882
 21
110.4717532769
  0
LINE
  5
519
100
AcDbEntity
  8
RACCORDO
100
AcDbLine
 62
250
  6
CONTINUOUS
 10
154.0200656116
 20
110.1633145346
 11
154.0205073273
 21
110.1472040887
  0
LINE
  5
51A
100
AcDbEntity
  8
RACCORDO
100
AcDbLine
 62
250
  6
CONTINUOUS
 10
154.7258935858
 20
98.5840616365
 11
154.7254518701
 21
98.6001720823
  0
LINE
  5
51B
100
AcDbEntity
  8
RACCORDO
100
AcDbLine
 62
250
  6
CONTINUOUS
 10
154.7539980988
 20
107.7272482055
 11
154.7525248706
 21
107.7820767948
  0
LINE
  5
51C
100
AcDbEntity
  8
RACCORDO
100
AcDbLine
 62
250
  6
CONTINUOUS
 10
154.7258087466
 20
108.552247679
 11
154.7254384829
 21
108.5660668565
  0
LINE
  5
51D
100
AcDbEntity
  8
RACCORDO
100
AcDbLine
 62
250
  6
CONTINUOUS
 10
154.28880616
 20
101.289497262
 11
154.2898569484
 21
101.2492782977
  0
LINE
  5
51E
100
AcDbEntity
  8
RACCORDO
100
AcDbLine
 62
250
  6
CONTINUOUS
 10
154.4571530374
 20
107.4578789091
 11
154.4561022489
 21
107.4980978734
  0
LINE
  5
51F
100
AcDbEntity
  8
RACCORDO
100
AcDbLine
 62
250
  6
CONTINUOUS
 10
154.4280202091
 20
98.2756228941
 11
154.4274093561
 21
98.3022369665
  0
LINE
  5
520
100
AcDbEntity
  8
RACCORDO
100
AcDbLine
 62
250
  6
CONTINUOUS
 10
154.3179389882
 20
110.4717532769
 11
154.3185498413
 21
110.4451392046
  0
LINE
  5
521
100
AcDbEntity
  8
RACCORDO
100
AcDbLine
 62
250
  6
CONTINUOUS
 10
154.0205073273
 20
110.1472040887
 11
154.0208890465
 21
110.1298830873
  0
LINE
  5
522
100
AcDbEntity
  8
RACCORDO
100
AcDbLine
 62
250
  6
CONTINUOUS
 10
154.7254518701
 20
98.6001720823
 11
154.7250701509
 21
98.6174930838
  0
LINE
  5
523
100
AcDbEntity
  8
RACCORDO
100
AcDbLine
 62
250
  6
CONTINUOUS
 10
154.7559192452
 20
107.637034073
 11
154.7539980988
 21
107.7272482055
  0
LINE
  5
524
100
AcDbEntity
  8
RACCORDO
100
AcDbLine
 62
250
  6
CONTINUOUS
 10
154.7254384829
 20
108.5660668565
 11
154.7249643762
 21
108.588437121
  0
LINE
  5
525
100
AcDbEntity
  8
RACCORDO
100
AcDbLine
 62
250
  6
CONTINUOUS
 10
154.2879604137
 20
101.3312198021
 11
154.28880616
 21
101.289497262
  0
LINE
  5
526
100
AcDbEntity
  8
RACCORDO
100
AcDbLine
 62
250
  6
CONTINUOUS
 10
154.4579987837
 20
107.4161563689
 11
154.4571530374
 21
107.4578789091
  0
LINE
  5
527
100
AcDbEntity
  8
RACCORDO
100
AcDbLine
 62
250
  6
CONTINUOUS
 10
154.4274093561
 20
98.3022369665
 11
154.4265725503
 21
98.3501755534
  0
LINE
  5
528
100
AcDbEntity
  8
RACCORDO
100
AcDbLine
 62
250
  6
CONTINUOUS
 10
154.3185498413
 20
110.4451392046
 11
154.3193866471
 21
110.3972006177
  0
LINE
  5
529
100
AcDbEntity
  8
RACCORDO
100
AcDbLine
 62
250
  6
CONTINUOUS
 10
154.0208890465
 20
110.1298830873
 11
154.0213407312
 21
110.1020497647
  0
LINE
  5
52A
100
AcDbEntity
  8
RACCORDO
100
AcDbLine
 62
250
  6
CONTINUOUS
 10
154.7250701509
 20
98.6174930838
 11
154.7246184662
 21
98.6453264064
  0
LINE
  5
52B
100
AcDbEntity
  8
RACCORDO
100
AcDbLine
 62
250
  6
CONTINUOUS
 10
154.7249643762
 20
108.588437121
 11
154.7245962868
 21
108.6123909419
  0
LINE
  5
52C
100
AcDbEntity
  8
RACCORDO
100
AcDbLine
 62
250
  6
CONTINUOUS
 10
154.2873275169
 20
101.373855301
 11
154.2879604137
 21
101.3312198021
  0
LINE
  5
52D
100
AcDbEntity
  8
RACCORDO
100
AcDbLine
 62
250
  6
CONTINUOUS
 10
154.4586316805
 20
107.37352087
 11
154.4579987837
 21
107.4161563689
  0
LINE
  5
52E
100
AcDbEntity
  8
RACCORDO
100
AcDbLine
 62
250
  6
CONTINUOUS
 10
154.7574185503
 20
107.5395610686
 11
154.7559192452
 21
107.637034073
  0
LINE
  5
52F
100
AcDbEntity
  8
RACCORDO
100
AcDbLine
 62
250
  6
CONTINUOUS
 10
154.4265725503
 20
98.3501755534
 11
154.4256346775
 21
98.4272474768
  0
LINE
  5
530
100
AcDbEntity
  8
RACCORDO
100
AcDbLine
 62
250
  6
CONTINUOUS
 10
154.3193866471
 20
110.3972006177
 11
154.3203245198
 21
110.3201286943
  0
LINE
  5
531
100
AcDbEntity
  8
RACCORDO
100
AcDbLine
 62
250
  6
CONTINUOUS
 10
154.3195557841
 20
100.4201346949
 11
154.3205075841
 21
100.3352365526
  0
LINE
  5
532
100
AcDbEntity
  8
RACCORDO
100
AcDbLine
 62
250
  6
CONTINUOUS
 10
154.4264034132
 20
108.3272414761
 11
154.4254516133
 21
108.4121396184
  0
LINE
  5
533
100
AcDbEntity
  8
RACCORDO
100
AcDbLine
 62
250
  6
CONTINUOUS
 10
154.7245962868
 20
108.6123909419
 11
154.7243405911
 21
108.6375137635
  0
LINE
  5
534
100
AcDbEntity
  8
RACCORDO
100
AcDbLine
 62
250
  6
CONTINUOUS
 10
154.2869098171
 20
101.4168785708
 11
154.2873275169
 21
101.373855301
  0
LINE
  5
535
100
AcDbEntity
  8
RACCORDO
100
AcDbLine
 62
250
  6
CONTINUOUS
 10
154.4590493803
 20
107.3304976003
 11
154.4586316805
 21
107.37352087
  0
LINE
  5
536
100
AcDbEntity
  8
RACCORDO
100
AcDbLine
 62
250
  6
CONTINUOUS
 10
154.7584490932
 20
107.4376819438
 11
154.7574185503
 21
107.5395610686
  0
LINE
  5
537
100
AcDbEntity
  8
RACCORDO
100
AcDbLine
 62
250
  6
CONTINUOUS
 10
154.0213407312
 20
110.1020497647
 11
154.0216383672
 21
110.0725668754
  0
LINE
  5
538
100
AcDbEntity
  8
RACCORDO
100
AcDbLine
 62
250
  6
CONTINUOUS
 10
154.7246184662
 20
98.6453264064
 11
154.7243208301
 21
98.6748092957
  0
LINE
  5
539
100
AcDbEntity
  8
RACCORDO
100
AcDbLine
 62
250
  6
CONTINUOUS
 10
154.3203245198
 20
110.3201286943
 11
154.321157914
 21
110.2072789955
  0
LINE
  5
53A
100
AcDbEntity
  8
RACCORDO
100
AcDbLine
 62
250
  6
CONTINUOUS
 10
154.4256346775
 20
98.4272474768
 11
154.4248012834
 21
98.5400971756
  0
LINE
  5
53B
100
AcDbEntity
  8
RACCORDO
100
AcDbLine
 62
250
  6
CONTINUOUS
 10
154.3205075841
 20
100.3352365526
 11
154.3212782356
 21
100.216925385
  0
LINE
  5
53C
100
AcDbEntity
  8
RACCORDO
100
AcDbLine
 62
250
  6
CONTINUOUS
 10
154.4254516133
 20
108.4121396184
 11
154.4246809617
 21
108.530450786
  0
LINE
  5
53D
100
AcDbEntity
  8
RACCORDO
100
AcDbLine
 62
250
  6
CONTINUOUS
 10
154.7243405911
 20
108.6375137635
 11
154.7242016753
 21
108.6633521506
  0
LINE
  5
53E
100
AcDbEntity
  8
RACCORDO
100
AcDbLine
 62
250
  6
CONTINUOUS
 10
154.7589961872
 20
107.3346440324
 11
154.7584490932
 21
107.4376819438
  0
LINE
  5
53F
100
AcDbEntity
  8
RACCORDO
100
AcDbLine
 62
250
  6
CONTINUOUS
 10
154.2867039413
 20
101.4596220537
 11
154.2869098171
 21
101.4168785708
  0
LINE
  5
540
100
AcDbEntity
  8
RACCORDO
100
AcDbLine
 62
250
  6
CONTINUOUS
 10
154.4592552561
 20
107.2877541173
 11
154.4590493803
 21
107.3304976003
  0
LINE
  5
541
100
AcDbEntity
  8
RACCORDO
100
AcDbLine
 62
250
  6
CONTINUOUS
 10
154.7243208301
 20
98.6748092957
 11
154.7241843578
 21
98.7051785082
  0
LINE
  5
542
100
AcDbEntity
  8
RACCORDO
100
AcDbLine
 62
250
  6
CONTINUOUS
 10
154.321157914
 20
110.2072789955
 11
154.321592072
 21
110.0574962122
  0
LINE
  5
543
100
AcDbEntity
  8
RACCORDO
100
AcDbLine
 62
250
  6
CONTINUOUS
 10
154.4248012834
 20
98.5400971756
 11
154.4243671254
 21
98.6898799589
  0
LINE
  5
544
100
AcDbEntity
  8
RACCORDO
100
AcDbLine
 62
250
  6
CONTINUOUS
 10
154.286680626
 20
103.0976824804
 11
154.2867039413
 21
101.4596220537
  0
LINE
  5
545
100
AcDbEntity
  8
RACCORDO
100
AcDbLine
 62
250
  6
CONTINUOUS
 10
154.321592072
 20
110.0574962122
 11
154.3216013955
 21
108.6807948667
  0
LINE
  5
546
100
AcDbEntity
  8
RACCORDO
100
AcDbLine
 62
250
  6
CONTINUOUS
 10
154.3212782356
 20
100.216925385
 11
154.3216013955
 21
98.7154630978
  0
LINE
  5
547
100
AcDbEntity
  8
RACCORDO
100
AcDbLine
 62
250
  6
CONTINUOUS
 10
154.4243671254
 20
98.6898799589
 11
154.4243578019
 21
100.0665813043
  0
LINE
  5
548
100
AcDbEntity
  8
RACCORDO
100
AcDbLine
 62
250
  6
CONTINUOUS
 10
154.4246809617
 20
108.530450786
 11
154.4243578019
 21
110.0319130733
  0
LINE
  5
549
100
AcDbEntity
  8
RACCORDO
100
AcDbLine
 62
250
  6
CONTINUOUS
 10
154.4592785714
 20
105.6496936907
 11
154.4592552561
 21
107.2877541173
  0
LINE
  5
54A
100
AcDbEntity
  8
RACCORDO
100
AcDbLine
 62
250
  6
CONTINUOUS
 10
154.5075095448
 20
126.4959268553
 11
154.5075095448
 21
124.9395112442
  0
LINE
  5
54B
100
AcDbEntity
  8
RACCORDO
100
AcDbLine
 62
250
  6
CONTINUOUS
 10
154.5075095448
 20
83.8078649269
 11
154.5075095448
 21
82.2514493157
  0
LINE
  5
54C
100
AcDbEntity
  8
RACCORDO
100
AcDbLine
 62
250
  6
CONTINUOUS
 10
154.6807146256
 20
126.5011676333
 11
154.6807146256
 21
124.9517897003
  0
LINE
  5
54D
100
AcDbEntity
  8
RACCORDO
100
AcDbLine
 62
250
  6
CONTINUOUS
 10
154.6807146256
 20
83.7955864708
 11
154.6807146256
 21
82.2462085378
  0
LINE
  5
54E
100
AcDbEntity
  8
RACCORDO
100
AcDbLine
 62
250
  6
CONTINUOUS
 10
154.7241843578
 20
98.7051785082
 11
154.72417505
 21
100.0665813043
  0
LINE
  5
54F
100
AcDbEntity
  8
RACCORDO
100
AcDbLine
 62
250
  6
CONTINUOUS
 10
154.7242016753
 20
108.6633521506
 11
154.72417505
 21
110.0319285338
  0
LINE
  5
550
100
AcDbEntity
  8
RACCORDO
100
AcDbLine
 62
250
  6
CONTINUOUS
 10
154.7590958195
 20
105.6598043064
 11
154.7589961872
 21
107.3346440324
  0
LINE
  5
551
100
AcDbEntity
  8
RACCORDO
100
AcDbLine
 62
250
  6
CONTINUOUS
 10
154.2867803513
 20
107.3090766604
 11
154.286680626
 21
105.6496936907
  0
LINE
  5
552
100
AcDbEntity
  8
RACCORDO
100
AcDbLine
 62
250
  6
CONTINUOUS
 10
154.4591788461
 20
101.4382995106
 11
154.4592785714
 21
103.0976824804
  0
LINE
  5
553
100
AcDbEntity
  8
RACCORDO
100
AcDbLine
 62
250
  6
CONTINUOUS
 10
154.72417505
 20
100.0665813043
 11
154.7242347393
 21
100.0926735775
  0
LINE
  5
554
100
AcDbEntity
  8
RACCORDO
100
AcDbLine
 62
250
  6
CONTINUOUS
 10
154.7588667615
 20
101.378559102
 11
154.7590958195
 21
103.0875718647
  0
LINE
  5
555
100
AcDbEntity
  8
RACCORDO
100
AcDbLine
 62
250
  6
CONTINUOUS
 10
154.321601412
 20
98.7154630978
 11
154.3212746523
 21
98.5642898347
  0
LINE
  5
556
100
AcDbEntity
  8
RACCORDO
100
AcDbLine
 62
250
  6
CONTINUOUS
 10
154.4243577854
 20
110.0319130733
 11
154.4246845451
 21
110.1830863363
  0
LINE
  5
557
100
AcDbEntity
  8
RACCORDO
100
AcDbLine
 62
250
  6
CONTINUOUS
 10
154.3216013955
 20
108.6807948667
 11
154.3212782356
 21
108.5304507856
  0
LINE
  5
558
100
AcDbEntity
  8
RACCORDO
100
AcDbLine
 62
250
  6
CONTINUOUS
 10
154.4243578019
 20
100.0665813043
 11
154.4246809617
 21
100.2169253854
  0
LINE
  5
559
100
AcDbEntity
  8
RACCORDO
100
AcDbLine
 62
250
  6
CONTINUOUS
 10
154.72417505
 20
110.0319285338
 11
154.7242571421
 21
110.0625034639
  0
LINE
  5
55A
100
AcDbEntity
  8
RACCORDO
100
AcDbLine
 62
250
  6
CONTINUOUS
 10
154.3212746523
 20
98.5642898347
 11
154.3205228344
 21
98.4485351419
  0
LINE
  5
55B
100
AcDbEntity
  8
RACCORDO
100
AcDbLine
 62
250
  6
CONTINUOUS
 10
154.4246845451
 20
110.1830863363
 11
154.425436363
 21
110.2988410292
  0
LINE
  5
55C
100
AcDbEntity
  8
RACCORDO
100
AcDbLine
 62
250
  6
CONTINUOUS
 10
154.2870921391
 20
107.3520033805
 11
154.2867803513
 21
107.3090766604
  0
LINE
  5
55D
100
AcDbEntity
  8
RACCORDO
100
AcDbLine
 62
250
  6
CONTINUOUS
 10
154.3212782356
 20
108.5304507856
 11
154.3205075841
 21
108.4121396181
  0
LINE
  5
55E
100
AcDbEntity
  8
RACCORDO
100
AcDbLine
 62
250
  6
CONTINUOUS
 10
154.4246809617
 20
100.2169253854
 11
154.4254516133
 21
100.335236553
  0
LINE
  5
55F
100
AcDbEntity
  8
RACCORDO
100
AcDbLine
 62
250
  6
CONTINUOUS
 10
154.4588670582
 20
101.3953727906
 11
154.4591788461
 21
101.4382995106
  0
LINE
  5
560
100
AcDbEntity
  8
RACCORDO
100
AcDbLine
 62
250
  6
CONTINUOUS
 10
154.7242347393
 20
100.0926735775
 11
154.7244129366
 21
100.1183350429
  0
LINE
  5
561
100
AcDbEntity
  8
RACCORDO
100
AcDbLine
 62
250
  6
CONTINUOUS
 10
154.7581600461
 20
101.2754732294
 11
154.7588667615
 21
101.378559102
  0
LINE
  5
562
100
AcDbEntity
  8
RACCORDO
100
AcDbLine
 62
250
  6
CONTINUOUS
 10
154.7242571421
 20
110.0625034639
 11
154.7245017403
 21
110.092381023
  0
LINE
  5
563
100
AcDbEntity
  8
RACCORDO
100
AcDbLine
 62
250
  6
CONTINUOUS
 10
154.0216383672
 20
98.6748092955
 11
154.0213407312
 21
98.6453264063
  0
LINE
  5
564
100
AcDbEntity
  8
RACCORDO
100
AcDbLine
 62
250
  6
CONTINUOUS
 10
154.425436363
 20
110.2988410292
 11
154.4263178319
 21
110.379247914
  0
LINE
  5
565
100
AcDbEntity
  8
RACCORDO
100
AcDbLine
 62
250
  6
CONTINUOUS
 10
154.3205228344
 20
98.4485351419
 11
154.3196413655
 21
98.3681282571
  0
LINE
  5
566
100
AcDbEntity
  8
RACCORDO
100
AcDbLine
 62
250
  6
CONTINUOUS
 10
154.3205075841
 20
108.4121396181
 11
154.3195557841
 21
108.3272414761
  0
LINE
  5
567
100
AcDbEntity
  8
RACCORDO
100
AcDbLine
 62
250
  6
CONTINUOUS
 10
154.4254516133
 20
100.335236553
 11
154.4264034132
 21
100.4201346949
  0
LINE
  5
568
100
AcDbEntity
  8
RACCORDO
100
AcDbLine
 62
250
  6
CONTINUOUS
 10
154.287616548
 20
107.3949197833
 11
154.2870921391
 21
107.3520033805
  0
LINE
  5
569
100
AcDbEntity
  8
RACCORDO
100
AcDbLine
 62
250
  6
CONTINUOUS
 10
154.4583426493
 20
101.3524563878
 11
154.4588670582
 21
101.3953727906
  0
LINE
  5
56A
100
AcDbEntity
  8
RACCORDO
100
AcDbLine
 62
250
  6
CONTINUOUS
 10
154.7244129366
 20
100.1183350429
 11
154.7247066568
 21
100.1431158932
  0
LINE
  5
56B
100
AcDbEntity
  8
RACCORDO
100
AcDbLine
 62
250
  6
CONTINUOUS
 10
154.7569702422
 20
101.1747152557
 11
154.7581600461
 21
101.2754732294
  0
LINE
  5
56C
100
AcDbEntity
  8
RACCORDO
100
AcDbLine
 62
250
  6
CONTINUOUS
 10
154.7245017403
 20
110.092381023
 11
154.7249031328
 21
110.1208392427
  0
LINE
  5
56D
100
AcDbEntity
  8
RACCORDO
100
AcDbLine
 62
250
  6
CONTINUOUS
 10
154.4263178319
 20
110.379247914
 11
154.4271193281
 21
110.4301895739
  0
LINE
  5
56E
100
AcDbEntity
  8
RACCORDO
100
AcDbLine
 62
250
  6
CONTINUOUS
 10
154.3196413655
 20
98.3681282571
 11
154.3188398692
 21
98.3171865972
  0
LINE
  5
56F
100
AcDbEntity
  8
RACCORDO
100
AcDbLine
 62
250
  6
CONTINUOUS
 10
154.0213407312
 20
98.6453264063
 11
154.0208890465
 21
98.6174930837
  0
LINE
  5
570
100
AcDbEntity
  8
RACCORDO
100
AcDbLine
 62
250
  6
CONTINUOUS
 10
154.2883579326
 20
107.437185234
 11
154.287616548
 21
107.3949197833
  0
LINE
  5
571
100
AcDbEntity
  8
RACCORDO
100
AcDbLine
 62
250
  6
CONTINUOUS
 10
154.4576012648
 20
101.3101909371
 11
154.4583426493
 21
101.3524563878
  0
LINE
  5
572
100
AcDbEntity
  8
RACCORDO
100
AcDbLine
 62
250
  6
CONTINUOUS
 10
154.7247066568
 20
100.1431158932
 11
154.7251108691
 21
100.1665871873
  0
LINE
  5
573
100
AcDbEntity
  8
RACCORDO
100
AcDbLine
 62
250
  6
CONTINUOUS
 10
154.7553239402
 20
101.0793562176
 11
154.7569702422
 21
101.1747152557
  0
LINE
  5
574
100
AcDbEntity
  8
RACCORDO
100
AcDbLine
 62
250
  6
CONTINUOUS
 10
154.7249031328
 20
110.1208392427
 11
154.7252535406
 21
110.138694335
  0
LINE
  5
575
100
AcDbEntity
  8
RACCORDO
100
AcDbLine
 62
250
  6
CONTINUOUS
 10
154.4271193281
 20
110.4301895739
 11
154.4277104268
 21
110.4590058394
  0
LINE
  5
576
100
AcDbEntity
  8
RACCORDO
100
AcDbLine
 62
250
  6
CONTINUOUS
 10
154.3188398692
 20
98.3171865972
 11
154.3182487706
 21
98.2883703317
  0
LINE
  5
577
100
AcDbEntity
  8
RACCORDO
100
AcDbLine
 62
250
  6
CONTINUOUS
 10
154.0208890465
 20
98.6174930837
 11
154.0205073273
 21
98.6001720822
  0
LINE
  5
578
100
AcDbEntity
  8
RACCORDO
100
AcDbLine
 62
250
  6
CONTINUOUS
 10
154.7251108691
 20
100.1665871873
 11
154.7254384829
 21
100.1813093147
  0
LINE
  5
579
100
AcDbEntity
  8
RACCORDO
100
AcDbLine
 62
250
  6
CONTINUOUS
 10
154.7539980988
 20
101.0201279644
 11
154.7553239402
 21
101.0793562176
  0
LINE
  5
57A
100
AcDbEntity
  8
RACCORDO
100
AcDbLine
 62
250
  6
CONTINUOUS
 10
154.2893062001
 20
107.4781964678
 11
154.2883579326
 21
107.437185234
  0
LINE
  5
57B
100
AcDbEntity
  8
RACCORDO
100
AcDbLine
 62
250
  6
CONTINUOUS
 10
154.4566529973
 20
101.2691797033
 11
154.4576012648
 21
101.3101909371
  0
LINE
  5
57C
100
AcDbEntity
  8
RACCORDO
100
AcDbLine
 62
250
  6
CONTINUOUS
 10
154.7252535406
 20
110.138694335
 11
154.7256652581
 21
110.1554100587
  0
LWPOLYLINE
  5
57D
100
AcDbEntity
  8
RACCORDO
100
AcDbPolyline
 62
250
  6
CONTINUOUS
 90
10
 70
0
 10
154.4277104268
 20
110.4590058394
 10
154.4283388033
 20
110.4833482598
 10
154.4286661092
 20
110.4937601067
 10
154.4289994947
 20
110.5029611151
 10
154.4293389639
 20
110.5109271444
 10
154.4296845128
 20
110.5176375962
 10
154.4300334975
 20
110.5230750441
 10
154.4303850366
 20
110.5272253206
 10
154.4307400114
 20
110.5300775986
 10
154.431098422
 20
110.5316244746
  0
LWPOLYLINE
  5
57E
100
AcDbEntity
  8
RACCORDO
100
AcDbPolyline
 62
250
  6
CONTINUOUS
 90
10
 70
0
 10
154.3182487706
 20
98.2883703317
 10
154.317620394
 20
98.2640279113
 10
154.3172930882
 20
98.2536160644
 10
154.3169597027
 20
98.2444150559
 10
154.3166202335
 20
98.2364490267
 10
154.3162746846
 20
98.2297385748
 10
154.3159256999
 20
98.2243011269
 10
154.3155741608
 20
98.2201508504
 10
154.315219186
 20
98.2172985725
 10
154.3148607754
 20
98.2157516964
  0
LINE
  5
57F
100
AcDbEntity
  8
RACCORDO
100
AcDbLine
 62
250
  6
CONTINUOUS
 10
154.7254384829
 20
100.1813093147
 11
154.7258087466
 21
100.1951284922
  0
LINE
  5
580
100
AcDbEntity
  8
RACCORDO
100
AcDbLine
 62
250
  6
CONTINUOUS
 10
154.7525248706
 20
100.9652993742
 11
154.7539980988
 21
101.0201279644
  0
LINE
  5
581
100
AcDbEntity
  8
RACCORDO
100
AcDbLine
 62
250
  6
CONTINUOUS
 10
154.0205073273
 20
98.6001720822
 11
154.0200656115
 21
98.5840616364
  0
LWPOLYLINE
  5
582
100
AcDbEntity
  8
RACCORDO
100
AcDbPolyline
 62
7
  6
CONTINUOUS
 90
28
 70
0
 10
154.7861732227
 20
98.4603117096
 10
154.7856650807
 20
98.4429830867
 10
154.7841515201
 20
98.425671246
 10
154.7816302842
 20
98.4084348633
 10
154.7780962894
 20
98.3913064518
 10
154.7735574284
 20
98.3743728657
 10
154.7680500198
 20
98.3577709723
 10
154.7616165003
 20
98.3415948802
 10
154.7542724642
 20
98.3258549506
 10
154.7460246494
 20
98.3105593867
 10
154.7368986167
 20
98.2957590446
 10
154.7269243664
 20
98.2815057159
 10
154.7161059982
 20
98.267814601
 10
154.7044391399
 20
98.2547019613
 10
154.6919862015
 20
98.2422582531
 10
154.6788630544
 20
98.2305993879
 10
154.6651592589
 20
98.2197874337
 10
154.6508915732
 20
98.209818934
 10
154.636077565
 20
98.2006995528
 10
154.6207699815
 20
98.1924595637
 10
154.6050190296
 20
98.1851238765
 10
154.5888331204
 20
98.1786989906
 10
154.572223903
 20
98.1732007057
 10
154.5552843686
 20
98.1686707431
 10
154.5381477831
 20
98.1651444318
 10
154.5208996851
 20
98.1626299346
 10
154.5035737494
 20
98.1611229736
 10
154.4862286752
 20
98.1606217609
  0
LINE
  5
583
100
AcDbEntity
  8
RACCORDO
100
AcDbLine
 62
250
  6
CONTINUOUS
 10
154.2904521449
 20
107.5174670582
 11
154.2893062001
 21
107.4781964678
  0
LINE
  5
584
100
AcDbEntity
  8
RACCORDO
100
AcDbLine
 62
250
  6
CONTINUOUS
 10
154.4555070524
 20
101.2299091129
 11
154.4566529973
 21
101.2691797033
  0
LINE
  5
585
100
AcDbEntity
  8
RACCORDO
100
AcDbLine
 62
250
  6
CONTINUOUS
 10
154.7256652581
 20
110.1554100587
 11
154.726135065
 21
110.1708554902
  0
LINE
  5
586
100
AcDbEntity
  8
RACCORDO
100
AcDbLine
 62
250
  6
CONTINUOUS
 10
154.7509133743
 20
100.9151094418
 11
154.7525248706
 21
100.9652993742
  0
LINE
  5
587
100
AcDbEntity
  8
RACCORDO
100
AcDbLine
 62
250
  6
CONTINUOUS
 10
154.3195557841
 20
108.3272414761
 11
154.2948633282
 21
107.6201420528
  0
LINE
  5
588
100
AcDbEntity
  8
RACCORDO
100
AcDbLine
 62
250
  6
CONTINUOUS
 10
154.4264034132
 20
100.4201346949
 11
154.4510958692
 21
101.1272341182
  0
LINE
  5
589
100
AcDbEntity
  8
RACCORDO
100
AcDbLine
 62
250
  6
CONTINUOUS
 10
154.7258087466
 20
100.1951284922
 11
154.7509133743
 21
100.9151094418
  0
LINE
  5
58A
100
AcDbEntity
  8
RACCORDO
100
AcDbLine
 62
250
  6
CONTINUOUS
 10
154.0200656115
 20
98.5840616364
 11
154.0195693968
 21
98.5693460973
  0
LINE
  5
58B
100
AcDbEntity
  8
RACCORDO
100
AcDbLine
 62
250
  6
CONTINUOUS
 10
154.2917776891
 20
107.5544809538
 11
154.2904521449
 21
107.5174670582
  0
LINE
  5
58C
100
AcDbEntity
  8
RACCORDO
100
AcDbLine
 62
250
  6
CONTINUOUS
 10
154.4541815083
 20
101.1928952173
 11
154.4555070524
 21
101.2299091129
  0
LWPOLYLINE
  5
58D
100
AcDbEntity
  8
RACCORDO
100
AcDbPolyline
 62
250
  6
CONTINUOUS
 90
15
 70
0
 10
154.726135065
 20
110.1708554902
 10
154.7266576876
 20
110.1848411368
 10
154.7269366228
 20
110.1912352079
 10
154.7272266899
 20
110.1972089431
 10
154.7275278051
 20
110.2027656864
 10
154.727837614
 20
110.2078619976
 10
154.7281561908
 20
110.2124943025
 10
154.7284834612
 20
110.2166661755
 10
154.7288168478
 20
110.2203448995
 10
154.7291564169
 20
110.2235265684
 10
154.7295021021
 20
110.2262150885
 10
154.7298511268
 20
110.2283894614
 10
154.7302025653
 20
110.2300426878
 10
154.7305573432
 20
110.231181767
 10
154.7309154605
 20
110.2318066992
  0
LWPOLYLINE
  5
58E
100
AcDbEntity
  8
RACCORDO
100
AcDbPolyline
 62
250
  6
CONTINUOUS
 90
14
 70
0
 10
154.0195693968
 20
98.5693460973
 10
154.0190225746
 20
98.5561409631
 10
154.0187325075
 20
98.5501672279
 10
154.0184313922
 20
98.5446104847
 10
154.0181215834
 20
98.5395141734
 10
154.0178030066
 20
98.5348818685
 10
154.0174757361
 20
98.5307099956
 10
154.0171423496
 20
98.5270312715
 10
154.0168027805
 20
98.5238496026
 10
154.0164570952
 20
98.5211610826
 10
154.0161080706
 20
98.5189867097
 10
154.0157566321
 20
98.5173334833
 10
154.0154018542
 20
98.516194404
 10
154.0150437369
 20
98.5155694719
  0
LWPOLYLINE
  5
58F
100
AcDbEntity
  8
RACCORDO
100
AcDbPolyline
 62
250
  6
CONTINUOUS
 90
4
 70
0
 10
154.2948634549
 20
107.6201420527
 10
154.294039548
 20
107.6048316158
 10
154.2932511166
 20
107.5887785293
 10
154.2917776891
 20
107.5544809538
  0
LWPOLYLINE
  5
590
100
AcDbEntity
  8
RACCORDO
100
AcDbPolyline
 62
250
  6
CONTINUOUS
 90
4
 70
0
 10
154.4510957425
 20
101.1272341183
 10
154.4519196494
 20
101.1425445552
 10
154.4527080808
 20
101.1585976417
 10
154.4541815083
 20
101.1928952173
  0
LINE
  5
591
100
AcDbEntity
  8
RACCORDO
100
AcDbLine
 62
250
  6
CONTINUOUS
 10
157.0601824416
 20
124.4808792247
 11
157.1117250904
 21
124.8434468539
  0
LWPOLYLINE
  5
592
100
AcDbEntity
  8
RACCORDO
100
AcDbPolyline
 62
250
  6
CONTINUOUS
 90
8
 70
0
 10
154.3148607754
 20
110.5316244746
 10
154.315219186
 20
110.5300775986
 10
154.3155741608
 20
110.5272253206
 10
154.3159256999
 20
110.5230750441
 10
154.3162746846
 20
110.5176375961
 10
154.3166202335
 20
110.5109271443
 10
154.3169597027
 20
110.502961115
 10
154.3172930882
 20
110.4937601066
  0
LINE
  5
593
100
AcDbEntity
  8
RACCORDO
100
AcDbLine
 62
250
  6
CONTINUOUS
 10
157.1117250904
 20
83.9039293171
 11
157.0601824416
 21
84.2664969463
  0
LWPOLYLINE
  5
594
100
AcDbEntity
  8
RACCORDO
100
AcDbPolyline
 62
250
  6
CONTINUOUS
 90
5
 70
0
 10
152.9243578824
 20
119.9979913341
 10
152.9242570582
 20
119.9987876342
 10
152.924157331
 20
120.0005736023
 10
152.9240587008
 20
120.0033435556
 10
152.9239608728
 20
120.007088652
  0
LINE
  5
595
100
AcDbEntity
  8
DRAFT
100
AcDbLine
 62
7
  6
CONTINUOUS
 10
155.0314045917
 20
126.5330007912
 11
155.1066980755
 21
125.0423832163
  0
LINE
  5
596
100
AcDbEntity
  8
RACCORDO
100
AcDbLine
 62
7
  6
CONTINUOUS
 10
157.1117250904
 20
124.8434468539
 11
157.1229795987
 21
117.4736880855
  0
LINE
  5
597
100
AcDbEntity
  8
RACCORDO
100
AcDbLine
 62
250
  6
CONTINUOUS
 10
157.0601824416
 20
84.2664969463
 11
157.0576410605
 21
88.2710308782
  0
LINE
  5
598
100
AcDbEntity
  8
RACCORDO
100
AcDbLine
 62
250
  6
CONTINUOUS
 10
157.0576410605
 20
88.2710308782
 11
157.0565811902
 21
90.2736880855
  0
LINE
  5
599
100
AcDbEntity
  8
RACCORDO
100
AcDbLine
 62
250
  6
CONTINUOUS
 10
156.8549857064
 20
94.0736880855
 11
156.8537191461
 21
98.5661380172
  0
LINE
  5
59A
100
AcDbEntity
  8
RACCORDO
100
AcDbLine
 62
250
  6
CONTINUOUS
 10
157.0549567364
 20
94.0736880855
 11
157.0536884616
 21
98.5695673
  0
LINE
  5
59B
100
AcDbEntity
  8
0
100
AcDbLine
 62
7
  6
CONTINUOUS
 10
156.7229795987
 20
118.4736880855
 11
156.7229795987
 21
114.6736880855
  0
LINE
  5
59C
100
AcDbEntity
  8
0
100
AcDbLine
 62
7
  6
CONTINUOUS
 10
156.7229795987
 20
90.2736880855
 11
156.7229795987
 21
94.0736880855
  0
LINE
  5
59D
100
AcDbEntity
  8
RACCORDO
100
AcDbLine
 62
250
  6
CONTINUOUS
 10
156.8537191461
 20
98.5661380172
 11
156.8531591063
 21
103.0593301425
  0
LINE
  5
59E
100
AcDbEntity
  8
RACCORDO
100
AcDbLine
 62
250
  6
CONTINUOUS
 10
156.8602129017
 20
84.0679877218
 11
156.8566088566
 21
90.2736880855
  0
LINE
  5
59F
100
AcDbEntity
  8
RACCORDO
100
AcDbLine
 62
250
  6
CONTINUOUS
 10
157.0536884616
 20
98.5695673
 11
157.0531283545
 21
103.0661918
  0
LINE
  5
5A0
100
AcDbEntity
  8
DRAFT
100
AcDbLine
 62
7
  6
CONTINUOUS
 10
157.0688688974
 20
104.2466347954
 11
157.0688688974
 21
103.0976824804
  0
LINE
  5
5A1
100
AcDbEntity
  8
DRAFT
100
AcDbLine
 62
7
  6
CONTINUOUS
 10
157.0688688974
 20
104.5007413757
 11
157.0688688974
 21
105.6496936907
  0
LINE
  5
5A2
100
AcDbEntity
  8
DRAFT
100
AcDbLine
 62
7
  6
CONTINUOUS
 10
157.1061026996
 20
118.4736880855
 11
157.1061026996
 21
114.6736880855
  0
LINE
  5
5A3
100
AcDbEntity
  8
DRAFT
100
AcDbLine
 62
7
  6
CONTINUOUS
 10
157.1061026996
 20
90.2736880855
 11
157.1061026996
 21
94.0736880855
  0
LINE
  5
5A4
100
AcDbEntity
  8
DRAFT
100
AcDbLine
 62
7
  6
CONTINUOUS
 10
157.1229795987
 20
104.2736880855
 11
157.1229795987
 21
91.2736880855
  0
LINE
  5
5A5
100
AcDbEntity
  8
DRAFT
100
AcDbLine
 62
7
  6
CONTINUOUS
 10
157.1229795987
 20
104.4736880855
 11
157.1229795987
 21
117.4736880855
  0
LINE
  5
5A6
100
AcDbEntity
  8
RACCORDO
100
AcDbLine
 62
250
  6
CONTINUOUS
 10
156.8531591063
 20
105.6880460286
 11
156.8549857064
 21
114.6736880855
  0
LINE
  5
5A7
100
AcDbEntity
  8
RACCORDO
100
AcDbLine
 62
250
  6
CONTINUOUS
 10
157.0531283545
 20
105.6811843711
 11
157.0549567364
 21
114.6736880855
  0
LINE
  5
5A8
100
AcDbEntity
  8
RACCORDO
100
AcDbLine
 62
250
  6
CONTINUOUS
 10
156.8566088566
 20
118.4736880855
 11
156.8602129017
 21
124.6793884492
  0
LINE
  5
5A9
100
AcDbEntity
  8
RACCORDO
100
AcDbLine
 62
250
  6
CONTINUOUS
 10
157.0565811902
 20
118.4736880855
 11
157.0601824416
 21
124.4808792247
  0
LINE
  5
5AA
100
AcDbEntity
  8
RACCORDO
100
AcDbLine
 62
7
  6
CONTINUOUS
 10
157.1117250904
 20
83.9039293171
 11
157.1229795987
 21
91.2736880855
  0
LINE
  5
5AB
100
AcDbEntity
  8
DRAFT
100
AcDbLine
 62
7
  6
CONTINUOUS
 10
155.0314045917
 20
82.2143753798
 11
155.1066980755
 21
83.7049929548
  0
LINE
  5
5AC
100
AcDbEntity
  8
RACCORDO
100
AcDbLine
 62
250
  6
CONTINUOUS
 10
152.8647197746
 20
87.0176446549
 11
152.9154280303
 21
87.2736880855
  0
LINE
  5
5AD
100
AcDbEntity
  8
RACCORDO
100
AcDbLine
 62
250
  6
CONTINUOUS
 10
153.1145674814
 20
86.7714427166
 11
153.1724899474
 21
87.0639131777
  0
LINE
  5
5AE
100
AcDbEntity
  8
RACCORDO
100
AcDbLine
 62
7
  6
CONTINUOUS
 10
157.0531283545
 20
103.0661918
 11
157.0688688974
 21
103.0976824804
  0
LINE
  5
5AF
100
AcDbEntity
  8
RACCORDO
100
AcDbLine
 62
250
  6
CONTINUOUS
 10
154.0150437369
 20
98.5155694719
 11
153.9597859747
 21
98.4603117096
  0
LINE
  5
5B0
100
AcDbEntity
  8
RACCORDO
100
AcDbLine
 62
250
  6
CONTINUOUS
 10
154.3148604575
 20
98.2157516962
 11
154.2597305222
 21
98.1606217609
  0
LINE
  5
5B1
100
AcDbEntity
  8
RACCORDO
100
AcDbLine
 62
250
  6
CONTINUOUS
 10
153.9597859747
 20
110.2870644614
 11
154.0150437369
 21
110.2318066992
  0
LINE
  5
5B2
100
AcDbEntity
  8
RACCORDO
100
AcDbLine
 62
250
  6
CONTINUOUS
 10
154.2597305222
 20
110.5867544101
 11
154.3148604575
 21
110.5316244749
  0
LWPOLYLINE
  5
5B3
100
AcDbEntity
  8
RACCORDO
100
AcDbPolyline
 62
250
  6
CONTINUOUS
 90
13
 70
0
 10
154.0150437369
 20
110.2318066992
 10
154.0154018542
 20
110.231181767
 10
154.0157566321
 20
110.2300426877
 10
154.0161080706
 20
110.2283894613
 10
154.0164570952
 20
110.2262150884
 10
154.0168027805
 20
110.2235265684
 10
154.0171423496
 20
110.2203448995
 10
154.0174757361
 20
110.2166661754
 10
154.0178030066
 20
110.2124943025
 10
154.0181215834
 20
110.2078619976
 10
154.0184313922
 20
110.2027656863
 10
154.0187325075
 20
110.1972089431
 10
154.0190225746
 20
110.1912352078
  0
LINE
  5
5B4
100
AcDbEntity
  8
RACCORDO
100
AcDbLine
 62
7
  6
CONTINUOUS
 10
157.0688688974
 20
105.6496936907
 11
157.0531283545
 21
105.6811843711
  0
LINE
  5
5B5
100
AcDbEntity
  8
RACCORDO
100
AcDbLine
 62
250
  6
CONTINUOUS
 10
152.9154280303
 20
121.4736880855
 11
152.8647197746
 21
121.7297315162
  0
LINE
  5
5B6
100
AcDbEntity
  8
RACCORDO
100
AcDbLine
 62
250
  6
CONTINUOUS
 10
153.1724899474
 20
121.6834629933
 11
153.1145674814
 21
121.9759334544
  0
LWPOLYLINE
  5
5B7
100
AcDbEntity
  8
RACCORDO
100
AcDbPolyline
 62
250
  6
CONTINUOUS
 90
10
 70
0
 10
153.1145674814
 20
121.9759334544
 10
153.1144676055
 20
121.9765254587
 10
153.1143697056
 20
121.9772763803
 10
153.1142737815
 20
121.9781862191
 10
153.1141795105
 20
121.9792591696
 10
153.1140872154
 20
121.9804910373
 10
153.1139978644
 20
121.9818692393
 10
153.1139114987
 20
121.9833951846
 10
153.1138280771
 20
121.9850674642
 10
153.1137484439
 20
121.986869268
  0
LINE
  5
5B8
100
AcDbEntity
  8
RACCORDO
100
AcDbLine
 62
7
  6
CONTINUOUS
 10
158.3729795987
 20
117.4736880855
 11
158.3599053614
 21
126.0350550635
  0
LINE
  5
5B9
100
AcDbEntity
  8
RACCORDO
100
AcDbLine
 62
7
  6
CONTINUOUS
 10
158.3729795987
 20
104.0737109308
 11
158.3729795987
 21
91.2736880855
  0
LINE
  5
5BA
100
AcDbEntity
  8
RACCORDO
100
AcDbLine
 62
7
  6
CONTINUOUS
 10
158.3729795987
 20
104.6736652402
 11
158.3729795987
 21
117.4736880855
  0
LINE
  5
5BB
100
AcDbEntity
  8
RACCORDO
100
AcDbLine
 62
7
  6
CONTINUOUS
 10
158.3729795987
 20
91.2736880855
 11
158.3599053614
 21
82.7123211076
  0
LWPOLYLINE
  5
5BC
100
AcDbEntity
  8
RACCORDO
100
AcDbPolyline
 62
250
  6
CONTINUOUS
 90
25
 70
0
 10
157.0601824408
 20
84.2664969521
 10
157.0597328728
 20
84.2536080062
 10
157.0584388802
 20
84.2407553975
 10
157.056302382
 20
84.2279938651
 10
157.0533277325
 20
84.215373779
 10
157.0495247086
 20
84.2029541718
 10
157.044911351
 20
84.1908016482
 10
157.0395076979
 20
84.1789708417
 10
157.0333351568
 20
84.1675102019
 10
157.0264224743
 20
84.1564738687
 10
157.0188010704
 20
84.1459111372
 10
157.010502297
 20
84.1358646728
 10
157.0015599023
 20
84.1263754383
 10
156.9920106779
 20
84.1174831794
 10
156.9818963062
 20
84.1092273708
 10
156.9712616506
 20
84.1016447824
 10
156.9601531099
 20
84.0947682662
 10
156.9486174817
 20
84.08862657
 10
156.9367034492
 20
84.0832455919
 10
156.9244616003
 20
84.0786482799
 10
156.9119446207
 20
84.074854517
 10
156.8992063936
 20
84.071880656
 10
156.8863015362
 20
84.0697394212
 10
156.8732851438
 20
84.0684399281
 10
156.8602129017
 20
84.0679877218
  0
LINE
  5
5BD
100
AcDbEntity
  8
RACCORDO
100
AcDbLine
 62
7
  6
CONTINUOUS
 10
153.2170926759
 20
84.0679877218
 11
153.1431119727
 21
83.8078649269
  0
LINE
  5
5BE
100
AcDbEntity
  8
RACCORDO
100
AcDbLine
 62
250
  6
CONTINUOUS
 10
141.724358265
 20
88.7493848372
 11
141.7788752708
 21
88.776635035
  0
LINE
  5
5BF
100
AcDbEntity
  8
DRAFT
100
AcDbLine
 62
7
  6
CONTINUOUS
 10
157.1061026996
 20
114.6736880855
 11
156.7229795987
 21
114.6736880855
  0
LINE
  5
5C0
100
AcDbEntity
  8
DRAFT
100
AcDbLine
 62
7
  6
CONTINUOUS
 10
137.7229795987
 20
114.6736880855
 11
137.3398564977
 21
114.6736880855
  0
LINE
  5
5C1
100
AcDbEntity
  8
RACCORDO
100
AcDbLine
 62
250
  6
CONTINUOUS
 10
141.7788752708
 20
119.970741136
 11
141.724358265
 21
119.9979913338
  0
LINE
  5
5C2
100
AcDbEntity
  8
RACCORDO
100
AcDbLine
 62
7
  6
CONTINUOUS
 10
153.1431119727
 20
124.9395112442
 11
153.2170926759
 21
124.6793884492
  0
LINE
  5
5C3
100
AcDbEntity
  8
RACCORDO
100
AcDbLine
 62
250
  6
CONTINUOUS
 10
141.9742055133
 20
88.4994226843
 11
142.0285997917
 21
88.5266115371
  0
LINE
  5
5C4
100
AcDbEntity
  8
DRAFT
100
AcDbLine
 62
7
  6
CONTINUOUS
 10
136.0729795987
 20
117.4736880855
 11
137.3229795987
 21
117.4736880855
  0
LINE
  5
5C5
100
AcDbEntity
  8
DRAFT
100
AcDbLine
 62
7
  6
CONTINUOUS
 10
157.1229795987
 20
117.4736880855
 11
158.3729795987
 21
117.4736880855
  0
LINE
  5
5C6
100
AcDbEntity
  8
RACCORDO
100
AcDbLine
 62
250
  6
CONTINUOUS
 10
142.0285997917
 20
120.220764634
 11
141.9742055133
 21
120.2479534868
  0
LINE
  5
5C7
100
AcDbEntity
  8
DRAFT
100
AcDbLine
 62
7
  6
CONTINUOUS
 10
157.1061026996
 20
118.4736880855
 11
156.7229795987
 21
118.4736880855
  0
LINE
  5
5C8
100
AcDbEntity
  8
DRAFT
100
AcDbLine
 62
7
  6
CONTINUOUS
 10
137.7229795987
 20
118.4736880855
 11
137.3398564977
 21
118.4736880855
  0
LWPOLYLINE
  5
5C9
100
AcDbEntity
  8
RACCORDO
100
AcDbPolyline
 62
250
  6
CONTINUOUS
 90
13
 70
0
 10
153.1742055133
 20
120.2479534868
 10
153.174104769
 20
120.2480882997
 10
153.1740050759
 20
120.2483853089
 10
153.173906434
 20
120.2488445145
 10
153.1738085133
 20
120.2494685011
 10
153.1737116439
 20
120.2502546839
 10
153.1736168157
 20
120.2511953094
 10
153.1735240598
 20
120.2522918901
 10
153.1734333451
 20
120.2535429134
 10
153.1733455693
 20
120.2549360879
 10
153.1732607614
 20
120.2564728414
 10
153.1731788923
 20
120.2581517461
 10
153.1731007725
 20
120.2599562277
  0
LINE
  5
5CA
100
AcDbEntity
  8
RACCORDO
100
AcDbLine
 62
250
  6
CONTINUOUS
 10
152.924358265
 20
88.7493848372
 11
152.9788752708
 21
88.776635035
  0
LWPOLYLINE
  5
5CB
100
AcDbEntity
  8
RACCORDO
100
AcDbPolyline
 62
250
  6
CONTINUOUS
 90
25
 70
0
 10
152.9243578066
 20
119.997991563
 10
152.9406923326
 20
119.9985362913
 10
152.9569569637
 20
120.0001482379
 10
152.973082106
 20
120.0028205052
 10
152.9889987626
 20
120.0065416587
 10
153.0046388286
 20
120.0112957756
 10
153.0199353824
 20
120.0170625133
 10
153.0348229725
 20
120.0238171964
 10
153.0492378974
 20
120.0315309223
 10
153.063118478
 20
120.0401706845
 10
153.0764053217
 20
120.0496995145
 10
153.0890415766
 20
120.0600766394
 10
153.1009731745
 20
120.0712576568
 10
153.1121490622
 20
120.0831947245
 10
153.1225214206
 20
120.0958367654
 10
153.1320458684
 20
120.1091296858
 10
153.1406816525
 20
120.1230166073
 10
153.1483918225
 20
120.1374381097
 10
153.1551433882
 20
120.1523324858
 10
153.1609074615
 20
120.1676360049
 10
153.1656593795
 20
120.1832831855
 10
153.1693788101
 20
120.1992070763
 10
153.172049839
 20
120.2153395417
 10
153.1736610379
 20
120.2316115535
 10
153.1742055133
 20
120.2479534868
  0
LWPOLYLINE
  5
5CC
100
AcDbEntity
  8
RACCORDO
100
AcDbPolyline
 62
250
  6
CONTINUOUS
 90
25
 70
0
 10
141.7243578066
 20
119.997991563
 10
141.7406923326
 20
119.9985362913
 10
141.7569569637
 20
120.0001482379
 10
141.773082106
 20
120.0028205052
 10
141.7889987626
 20
120.0065416587
 10
141.8046388286
 20
120.0112957756
 10
141.8199353824
 20
120.0170625133
 10
141.8348229725
 20
120.0238171964
 10
141.8492378974
 20
120.0315309223
 10
141.863118478
 20
120.0401706845
 10
141.8764053217
 20
120.0496995145
 10
141.8890415766
 20
120.0600766394
 10
141.9009731745
 20
120.0712576568
 10
141.9121490622
 20
120.0831947245
 10
141.9225214206
 20
120.0958367654
 10
141.9320458684
 20
120.1091296858
 10
141.9406816525
 20
120.1230166073
 10
141.9483918225
 20
120.1374381097
 10
141.9551433882
 20
120.1523324858
 10
141.9609074615
 20
120.1676360049
 10
141.9656593795
 20
120.1832831855
 10
141.9693788101
 20
120.1992070763
 10
141.972049839
 20
120.2153395417
 10
141.9736610379
 20
120.2316115535
 10
141.9742055133
 20
120.2479534868
  0
LINE
  5
5CD
100
AcDbEntity
  8
RACCORDO
100
AcDbLine
 62
7
  6
CONTINUOUS
 10
141.4670839266
 20
119.970741136
 11
141.7788752708
 21
119.970741136
  0
LINE
  5
5CE
100
AcDbEntity
  8
RACCORDO
100
AcDbLine
 62
7
  6
CONTINUOUS
 10
152.6670839266
 20
119.970741136
 11
152.9788752708
 21
119.970741136
  0
LINE
  5
5CF
100
AcDbEntity
  8
RACCORDO
100
AcDbLine
 62
250
  6
CONTINUOUS
 10
141.5216009324
 20
119.9979913338
 11
141.724358265
 21
119.9979913338
  0
LINE
  5
5D0
100
AcDbEntity
  8
RACCORDO
100
AcDbLine
 62
250
  6
CONTINUOUS
 10
152.7216009324
 20
119.9979913338
 11
152.924358265
 21
119.9979913338
  0
LINE
  5
5D1
100
AcDbEntity
  8
RACCORDO
100
AcDbLine
 62
250
  6
CONTINUOUS
 10
141.27346925
 20
120.2979458715
 11
141.9724899474
 21
120.2979458715
  0
LINE
  5
5D2
100
AcDbEntity
  8
RACCORDO
100
AcDbLine
 62
250
  6
CONTINUOUS
 10
152.47346925
 20
120.2979458715
 11
153.1724899474
 21
120.2979458715
  0
LWPOLYLINE
  5
5D3
100
AcDbEntity
  8
RACCORDO
100
AcDbPolyline
 62
7
  6
CONTINUOUS
 90
28
 70
0
 10
141.4670839266
 20
119.970741136
 10
141.4526252643
 20
119.9711593624
 10
141.4381860724
 20
119.972416333
 10
141.4238152472
 20
119.9745130952
 10
141.4095423951
 20
119.9774524277
 10
141.3954370001
 20
119.9812272574
 10
141.3816052265
 20
119.9858093189
 10
141.3681230052
 20
119.9911649464
 10
141.3550018755
 20
119.9972808524
 10
141.3422493072
 20
120.0041517131
 10
141.3299073943
 20
120.0117570049
 10
141.3180202104
 20
120.0200718059
 10
141.3066026578
 20
120.0290914993
 10
141.295668515
 20
120.03881963
 10
141.2852931857
 20
120.0492042499
 10
141.2755746897
 20
120.0601472085
 10
141.2665653367
 20
120.0715725503
 10
141.2582611686
 20
120.0834669832
 10
141.2506657847
 20
120.09581721
 10
141.2438041571
 20
120.1085797726
 10
141.2376974061
 20
120.1217122482
 10
141.232350993
 20
120.1352075193
 10
141.2277782183
 20
120.149055474
 10
141.2240136776
 20
120.1631788616
 10
141.2210865333
 20
120.1774675201
 10
141.2190036581
 20
120.1918504352
 10
141.2177617339
 20
120.2062991446
 10
141.2173594057
 20
120.220764634
  0
LWPOLYLINE
  5
5D4
100
AcDbEntity
  8
RACCORDO
100
AcDbPolyline
 62
7
  6
CONTINUOUS
 90
28
 70
0
 10
152.6670839266
 20
119.970741136
 10
152.6526252643
 20
119.9711593624
 10
152.6381860724
 20
119.972416333
 10
152.6238152472
 20
119.9745130952
 10
152.6095423951
 20
119.9774524277
 10
152.5954370001
 20
119.9812272574
 10
152.5816052265
 20
119.9858093189
 10
152.5681230052
 20
119.9911649464
 10
152.5550018755
 20
119.9972808524
 10
152.5422493072
 20
120.0041517131
 10
152.5299073943
 20
120.0117570049
 10
152.5180202104
 20
120.0200718059
 10
152.5066026578
 20
120.0290914993
 10
152.495668515
 20
120.03881963
 10
152.4852931857
 20
120.0492042499
 10
152.4755746897
 20
120.0601472085
 10
152.4665653367
 20
120.0715725503
 10
152.4582611686
 20
120.0834669832
 10
152.4506657847
 20
120.09581721
 10
152.4438041571
 20
120.1085797726
 10
152.4376974061
 20
120.1217122482
 10
152.432350993
 20
120.1352075193
 10
152.4277782183
 20
120.149055474
 10
152.4240136776
 20
120.1631788616
 10
152.4210865333
 20
120.1774675201
 10
152.4190036581
 20
120.1918504352
 10
152.4177617339
 20
120.2062991446
 10
152.4173594057
 20
120.220764634
  0
LWPOLYLINE
  5
5D5
100
AcDbEntity
  8
RACCORDO
100
AcDbPolyline
 62
250
  6
CONTINUOUS
 90
25
 70
0
 10
141.5216013908
 20
119.997991563
 10
141.5052668931
 20
119.9985362894
 10
141.489002288
 20
120.0001482307
 10
141.472877169
 20
120.0028204897
 10
141.4569605329
 20
120.0065416323
 10
141.4413204844
 20
120.0112957362
 10
141.4260239446
 20
120.0170624595
 10
141.4111363648
 20
120.0238171273
 10
141.3967214466
 20
120.0315308374
 10
141.3828408691
 20
120.0401705843
 10
141.3695540248
 20
120.0496993998
 10
141.3569177661
 20
120.0600765118
 10
141.3449861613
 20
120.0712575182
 10
141.3338102639
 20
120.0831945775
 10
141.3234378937
 20
120.0958366128
 10
141.3139134322
 20
120.1091295311
 10
141.3052776332
 20
120.1230164541
 10
141.2975674477
 20
120.1374379621
 10
141.2908158664
 20
120.1523323476
 10
141.2850517781
 20
120.1676358802
 10
141.2802998465
 20
120.1832830785
 10
141.2765804043
 20
120.1992069908
 10
141.2739093663
 20
120.2153394813
 10
141.2722981616
 20
120.2316115218
 10
141.2717536841
 20
120.2479534868
  0
LWPOLYLINE
  5
5D6
100
AcDbEntity
  8
RACCORDO
100
AcDbPolyline
 62
250
  6
CONTINUOUS
 90
25
 70
0
 10
152.7216013908
 20
119.997991563
 10
152.7052668931
 20
119.9985362894
 10
152.689002288
 20
120.0001482307
 10
152.672877169
 20
120.0028204897
 10
152.6569605329
 20
120.0065416323
 10
152.6413204844
 20
120.0112957362
 10
152.6260239446
 20
120.0170624595
 10
152.6111363648
 20
120.0238171273
 10
152.5967214466
 20
120.0315308374
 10
152.5828408691
 20
120.0401705843
 10
152.5695540248
 20
120.0496993998
 10
152.5569177661
 20
120.0600765118
 10
152.5449861613
 20
120.0712575182
 10
152.5338102639
 20
120.0831945775
 10
152.5234378937
 20
120.0958366128
 10
152.5139134322
 20
120.1091295311
 10
152.5052776332
 20
120.1230164541
 10
152.4975674477
 20
120.1374379621
 10
152.4908158664
 20
120.1523323476
 10
152.4850517781
 20
120.1676358802
 10
152.4802998465
 20
120.1832830785
 10
152.4765804043
 20
120.1992069908
 10
152.4739093663
 20
120.2153394813
 10
152.4722981616
 20
120.2316115218
 10
152.4717536841
 20
120.2479534868
  0
LINE
  5
5D7
100
AcDbEntity
  8
RACCORDO
100
AcDbLine
 62
250
  6
CONTINUOUS
 10
152.9788752708
 20
119.970741136
 11
152.924358265
 21
119.9979913338
  0
LINE
  5
5D8
100
AcDbEntity
  8
RACCORDO
100
AcDbLine
 62
250
  6
CONTINUOUS
 10
153.1742055133
 20
88.4994226843
 11
153.2285997917
 21
88.5266115371
  0
LWPOLYLINE
  5
5D9
100
AcDbEntity
  8
RACCORDO
100
AcDbPolyline
 62
7
  6
CONTINUOUS
 90
31
 70
0
 10
141.7226422407
 20
121.4737936965
 10
141.7382568286
 20
121.4747401924
 10
141.7535482617
 20
121.476371454
 10
141.7684633326
 20
121.4786874814
 10
141.7829475989
 20
121.4817339525
 10
141.796967642
 20
121.4854651894
 10
141.810509694
 20
121.4897441585
 10
141.8235392882
 20
121.4945648329
 10
141.8360341347
 20
121.4999332396
 10
141.8480027625
 20
121.5057304256
 10
141.8594254095
 20
121.511949581
 10
141.8702870356
 20
121.5185975158
 10
141.8806035435
 20
121.5255757075
 10
141.8903644925
 20
121.5328789298
 10
141.8995599327
 20
121.5405124091
 10
141.9082046649
 20
121.5483933023
 10
141.9162937068
 20
121.5565181743
 10
141.9238214214
 20
121.5648904603
 10
141.9307992304
 20
121.5734376227
 10
141.9372258814
 20
121.5821577236
 10
141.9430993041
 20
121.591052701
 10
141.9484277573
 20
121.600055831
 10
141.9532130097
 20
121.6091661307
 10
141.9574563243
 20
121.6183845829
 10
141.9611643383
 20
121.627647413
 10
141.9643418264
 20
121.6369543177
 10
141.9669933132
 20
121.6463056002
 10
141.9691256764
 20
121.6556383955
 10
141.9707466216
 20
121.6649317487
 10
141.9718647959
 20
121.6742066146
 10
141.9724899474
 20
121.6834629933
  0
LWPOLYLINE
  5
5DA
100
AcDbEntity
  8
RACCORDO
100
AcDbPolyline
 62
250
  6
CONTINUOUS
 90
25
 70
0
 10
152.8647197746
 20
121.7297315162
 10
152.8809979968
 20
121.7303518093
 10
152.8972070467
 20
121.7320156315
 10
152.9132780485
 20
121.7347159126
 10
152.929142714
 20
121.738441178
 10
152.9447336301
 20
121.7431755978
 10
152.9599845459
 20
121.748899053
 10
152.9748306572
 20
121.7555872224
 10
152.9892088804
 20
121.763211686
 10
153.0030581187
 20
121.7717400441
 10
153.0163195243
 20
121.7811360567
 10
153.0289367479
 20
121.7913597976
 10
153.0408561768
 20
121.8023678227
 10
153.052027164
 20
121.8141133555
 10
153.0624022429
 20
121.8265464864
 10
153.0719373293
 20
121.8396143842
 10
153.0805919078
 20
121.8532615201
 10
153.0883292049
 20
121.8674299046
 10
153.0951163451
 20
121.8820593343
 10
153.1009244896
 20
121.8970876457
 10
153.1057289598
 20
121.9124509808
 10
153.109509342
 20
121.92808406
 10
153.1122495735
 20
121.9439204563
 10
153.1139380113
 20
121.9598928776
 10
153.1145674814
 20
121.9759334544
  0
LWPOLYLINE
  5
5DB
100
AcDbEntity
  8
RACCORDO
100
AcDbPolyline
 62
250
  6
CONTINUOUS
 90
25
 70
0
 10
141.6647197746
 20
121.7297315162
 10
141.6809979968
 20
121.7303518093
 10
141.6972070467
 20
121.7320156315
 10
141.7132780485
 20
121.7347159126
 10
141.729142714
 20
121.738441178
 10
141.7447336301
 20
121.7431755978
 10
141.7599845459
 20
121.748899053
 10
141.7748306572
 20
121.7555872224
 10
141.7892088804
 20
121.763211686
 10
141.8030581187
 20
121.7717400441
 10
141.8163195243
 20
121.7811360567
 10
141.8289367479
 20
121.7913597976
 10
141.8408561768
 20
121.8023678227
 10
141.852027164
 20
121.8141133555
 10
141.8624022429
 20
121.8265464864
 10
141.8719373293
 20
121.8396143842
 10
141.8805919078
 20
121.8532615201
 10
141.8883292049
 20
121.8674299046
 10
141.8951163451
 20
121.8820593343
 10
141.9009244896
 20
121.8970876457
 10
141.9057289598
 20
121.9124509808
 10
141.909509342
 20
121.92808406
 10
141.9122495735
 20
121.9439204563
 10
141.9139380113
 20
121.9598928776
 10
141.9145674814
 20
121.9759334544
  0
LWPOLYLINE
  5
5DC
100
AcDbEntity
  8
RACCORDO
100
AcDbPolyline
 62
250
  6
CONTINUOUS
 90
25
 70
0
 10
152.7825186746
 20
122.4339651653
 10
152.7664984167
 20
122.4335336871
 10
152.7505440291
 20
122.4326695845
 10
152.7347211082
 20
122.4313764105
 10
152.7190947091
 20
122.4296594822
 10
152.7037290802
 20
122.4275258589
 10
152.6886873991
 20
122.4249843137
 10
152.6740315093
 20
122.4220452966
 10
152.6598216678
 20
122.4187208917
 10
152.6461162989
 20
122.415024768
 10
152.6329717514
 20
122.4109721225
 10
152.620442068
 20
122.406579618
 10
152.6085787636
 20
122.4018653147
 10
152.5974306131
 20
122.3968485959
 10
152.5870434507
 20
122.391550088
 10
152.5774599812
 20
122.3859915758
 10
152.568719606
 20
122.3801959134
 10
152.5608582593
 20
122.3741869294
 10
152.5539082611
 20
122.3679893294
 10
152.547898185
 20
122.3616285947
 10
152.5428527401
 20
122.3551308772
 10
152.538792669
 20
122.3485228911
 10
152.5357346636
 20
122.3418318046
 10
152.5336912964
 20
122.3350851279
 10
152.5326709679
 20
122.3283105998
  0
LWPOLYLINE
  5
5DD
100
AcDbEntity
  8
RACCORDO
100
AcDbPolyline
 62
250
  6
CONTINUOUS
 90
25
 70
0
 10
141.5825186746
 20
122.4339651653
 10
141.5664984167
 20
122.4335336871
 10
141.5505440291
 20
122.4326695845
 10
141.5347211082
 20
122.4313764105
 10
141.5190947091
 20
122.4296594822
 10
141.5037290802
 20
122.4275258589
 10
141.4886873991
 20
122.4249843137
 10
141.4740315093
 20
122.4220452966
 10
141.4598216678
 20
122.4187208917
 10
141.4461162989
 20
122.415024768
 10
141.4329717514
 20
122.4109721225
 10
141.420442068
 20
122.406579618
 10
141.4085787636
 20
122.4018653147
 10
141.3974306131
 20
122.3968485959
 10
141.3870434507
 20
122.391550088
 10
141.3774599812
 20
122.3859915758
 10
141.368719606
 20
122.3801959134
 10
141.3608582593
 20
122.3741869294
 10
141.3539082611
 20
122.3679893294
 10
141.347898185
 20
122.3616285947
 10
141.3428527401
 20
122.3551308772
 10
141.338792669
 20
122.3485228911
 10
141.3357346636
 20
122.3418318046
 10
141.3336912964
 20
122.3350851279
 10
141.3326709679
 20
122.3283105998
  0
LINE
  5
5DE
100
AcDbEntity
  8
RACCORDO
100
AcDbLine
 62
7
  6
CONTINUOUS
 10
152.9154280303
 20
121.4736880855
 11
152.7305311671
 21
121.4736880855
  0
LINE
  5
5DF
100
AcDbEntity
  8
RACCORDO
100
AcDbLine
 62
7
  6
CONTINUOUS
 10
141.5305311671
 20
121.4736880855
 11
141.7154280303
 21
121.4736880855
  0
LINE
  5
5E0
100
AcDbEntity
  8
RACCORDO
100
AcDbLine
 62
250
  6
CONTINUOUS
 10
141.5812394228
 20
121.7297315162
 11
141.6647197746
 21
121.7297315162
  0
LINE
  5
5E1
100
AcDbEntity
  8
RACCORDO
100
AcDbLine
 62
250
  6
CONTINUOUS
 10
152.7812394228
 20
121.7297315162
 11
152.8647197746
 21
121.7297315162
  0
LINE
  5
5E2
100
AcDbEntity
  8
RACCORDO
100
AcDbLine
 62
250
  6
CONTINUOUS
 10
141.3328345581
 20
122.0251738421
 11
141.9131246393
 21
122.0251738421
  0
LINE
  5
5E3
100
AcDbEntity
  8
RACCORDO
100
AcDbLine
 62
250
  6
CONTINUOUS
 10
152.5328345581
 20
122.0251738421
 11
153.1131246393
 21
122.0251738421
  0
LINE
  5
5E4
100
AcDbEntity
  8
RACCORDO
100
AcDbLine
 62
250
  6
CONTINUOUS
 10
141.3328345581
 20
122.3071796867
 11
141.9131246393
 21
122.3071796867
  0
LINE
  5
5E5
100
AcDbEntity
  8
RACCORDO
100
AcDbLine
 62
250
  6
CONTINUOUS
 10
152.5328345581
 20
122.3071796867
 11
153.1131246393
 21
122.3071796867
  0
LINE
  5
5E6
100
AcDbEntity
  8
RACCORDO
100
AcDbLine
 62
250
  6
CONTINUOUS
 10
141.5825186746
 20
122.4339651653
 11
141.6634405227
 21
122.4339651653
  0
LINE
  5
5E7
100
AcDbEntity
  8
RACCORDO
100
AcDbLine
 62
250
  6
CONTINUOUS
 10
152.7825186746
 20
122.4339651653
 11
152.8634405227
 21
122.4339651653
  0
LWPOLYLINE
  5
5E8
100
AcDbEntity
  8
RACCORDO
100
AcDbPolyline
 62
250
  6
CONTINUOUS
 90
25
 70
0
 10
141.6634405227
 20
122.4339651653
 10
141.6794607211
 20
122.4335336905
 10
141.6954150529
 20
122.4326695944
 10
141.7112379225
 20
122.4313764295
 10
141.7268642745
 20
122.4296595127
 10
141.7422298618
 20
122.427525903
 10
141.7572715092
 20
122.4249843727
 10
141.7719273735
 20
122.4220453713
 10
141.7861371975
 20
122.4187209822
 10
141.7998425579
 20
122.4150248738
 10
141.8129871057
 20
122.4109722423
 10
141.8255167975
 20
122.4065797501
 10
141.8373801177
 20
122.4018654568
 10
141.8485282908
 20
122.3968487449
 10
141.8589154813
 20
122.3915502407
 10
141.8684989827
 20
122.3859917286
 10
141.8772393927
 20
122.3801960625
 10
141.8851007754
 20
122.3741870708
 10
141.8920508089
 20
122.3679894595
 10
141.8980609184
 20
122.3616287098
 10
141.9031063936
 20
122.3551309738
 10
141.9071664901
 20
122.3485229666
 10
141.9102245149
 20
122.341831857
 10
141.9122678952
 20
122.3350851551
 10
141.9132882295
 20
122.3283105998
  0
LWPOLYLINE
  5
5E9
100
AcDbEntity
  8
RACCORDO
100
AcDbPolyline
 62
250
  6
CONTINUOUS
 90
25
 70
0
 10
152.8634405227
 20
122.4339651653
 10
152.8794607211
 20
122.4335336905
 10
152.8954150529
 20
122.4326695944
 10
152.9112379225
 20
122.4313764295
 10
152.9268642745
 20
122.4296595127
 10
152.9422298618
 20
122.427525903
 10
152.9572715092
 20
122.4249843727
 10
152.9719273735
 20
122.4220453713
 10
152.9861371975
 20
122.4187209822
 10
152.9998425579
 20
122.4150248738
 10
153.0129871057
 20
122.4109722423
 10
153.0255167975
 20
122.4065797501
 10
153.0373801177
 20
122.4018654568
 10
153.0485282908
 20
122.3968487449
 10
153.0589154813
 20
122.3915502407
 10
153.0684989827
 20
122.3859917286
 10
153.0772393927
 20
122.3801960625
 10
153.0851007754
 20
122.3741870708
 10
153.0920508089
 20
122.3679894595
 10
153.0980609184
 20
122.3616287098
 10
153.1031063936
 20
122.3551309738
 10
153.1071664901
 20
122.3485229666
 10
153.1102245149
 20
122.341831857
 10
153.1122678952
 20
122.3350851551
 10
153.1132882295
 20
122.3283105998
  0
LWPOLYLINE
  5
5EA
100
AcDbEntity
  8
RACCORDO
100
AcDbPolyline
 62
250
  6
CONTINUOUS
 90
25
 70
0
 10
141.5812394228
 20
121.7297315162
 10
141.5649612568
 20
121.7303518052
 10
141.5487522598
 20
121.7320156166
 10
141.5326813068
 20
121.7347158806
 10
141.5168166864
 20
121.7384411231
 10
141.5012258102
 20
121.7431755151
 10
141.4859749269
 20
121.748898939
 10
141.4711288401
 20
121.7555870751
 10
141.4567506339
 20
121.7632115041
 10
141.4429014038
 20
121.7717398285
 10
141.4296399979
 20
121.7811358099
 10
141.4170227662
 20
121.7913595229
 10
141.4051033219
 20
121.802367525
 10
141.3939323128
 20
121.8141130413
 10
141.3835572066
 20
121.8265461627
 10
141.3740220892
 20
121.8396140588
 10
141.365367477
 20
121.8532612014
 10
141.3576301451
 20
121.8674296014
 10
141.3508429708
 20
121.8820590545
 10
141.3450347942
 20
121.8970873976
 10
141.3402302952
 20
121.9124507723
 10
141.3364498891
 20
121.9280838967
 10
141.3337096396
 20
121.943920343
 10
141.3320211903
 20
121.9598928189
 10
141.331391716
 20
121.9759334544
  0
LWPOLYLINE
  5
5EB
100
AcDbEntity
  8
RACCORDO
100
AcDbPolyline
 62
250
  6
CONTINUOUS
 90
25
 70
0
 10
152.7812394228
 20
121.7297315162
 10
152.7649612568
 20
121.7303518052
 10
152.7487522598
 20
121.7320156166
 10
152.7326813068
 20
121.7347158806
 10
152.7168166864
 20
121.7384411231
 10
152.7012258102
 20
121.7431755151
 10
152.6859749269
 20
121.748898939
 10
152.6711288401
 20
121.7555870751
 10
152.6567506339
 20
121.7632115041
 10
152.6429014038
 20
121.7717398285
 10
152.6296399979
 20
121.7811358099
 10
152.6170227662
 20
121.7913595229
 10
152.6051033219
 20
121.802367525
 10
152.5939323128
 20
121.8141130413
 10
152.5835572066
 20
121.8265461627
 10
152.5740220892
 20
121.8396140588
 10
152.565367477
 20
121.8532612014
 10
152.5576301451
 20
121.8674296014
 10
152.5508429708
 20
121.8820590545
 10
152.5450347942
 20
121.8970873976
 10
152.5402302952
 20
121.9124507723
 10
152.5364498891
 20
121.9280838967
 10
152.5337096396
 20
121.943920343
 10
152.5320211903
 20
121.9598928189
 10
152.531391716
 20
121.9759334544
  0
LINE
  5
5EC
100
AcDbEntity
  8
RACCORDO
100
AcDbLine
 62
250
  6
CONTINUOUS
 10
153.2285997917
 20
120.220764634
 11
153.1742055133
 21
120.2479534868
  0
LINE
  5
5ED
100
AcDbEntity
  8
RACCORDO
100
AcDbLine
 62
7
  6
CONTINUOUS
 10
154.6807146256
 20
124.9517897003
 11
155.1066980755
 21
125.0423832163
  0
LINE
  5
5EE
100
AcDbEntity
  8
RACCORDO
100
AcDbLine
 62
7
  6
CONTINUOUS
 10
139.7652445718
 20
124.9517897003
 11
139.3392611219
 21
125.0423832163
  0
LINE
  5
5EF
100
AcDbEntity
  8
RACCORDO
100
AcDbLine
 62
7
  6
CONTINUOUS
 10
143.4807146256
 20
124.9517897003
 11
143.9066980755
 21
125.0423832163
  0
LINE
  5
5F0
100
AcDbEntity
  8
RACCORDO
100
AcDbLine
 62
7
  6
CONTINUOUS
 10
155.0314045917
 20
126.5330007912
 11
154.6807146256
 21
126.5011676333
  0
LWPOLYLINE
  5
5F1
100
AcDbEntity
  8
RACCORDO
100
AcDbPolyline
 62
250
  6
CONTINUOUS
 90
13
 70
0
 10
137.4622205013
 20
124.4871387332
 10
137.450933957
 20
124.4867450604
 10
137.4403846982
 20
124.4863193163
 10
137.4306304186
 20
124.4858638294
 10
137.4217244642
 20
124.4853810895
 10
137.4137155414
 20
124.4848737372
 10
137.4066474508
 20
124.4843445487
 10
137.4005588477
 20
124.4837964158
 10
137.3954830303
 20
124.4832323362
 10
137.3914477584
 20
124.4826553991
 10
137.3884751006
 20
124.4820687589
 10
137.3865813143
 20
124.4814756188
 10
137.3857767566
 20
124.4808792189
  0
LINE
  5
5F2
100
AcDbEntity
  8
RACCORDO
100
AcDbLine
 62
250
  6
CONTINUOUS
 10
137.4867548487
 20
124.4878214374
 11
137.4622205013
 21
124.4871387332
  0
LINE
  5
5F3
100
AcDbEntity
  8
RACCORDO
100
AcDbLine
 62
250
  6
CONTINUOUS
 10
137.5134517631
 20
124.488352517
 11
137.4867548487
 21
124.4878214374
  0
LINE
  5
5F4
100
AcDbEntity
  8
RACCORDO
100
AcDbLine
 62
250
  6
CONTINUOUS
 10
137.5417280238
 20
124.4887203687
 11
137.5134517631
 21
124.488352517
  0
LINE
  5
5F5
100
AcDbEntity
  8
RACCORDO
100
AcDbLine
 62
250
  6
CONTINUOUS
 10
137.5709659076
 20
124.4889169614
 11
137.5417280238
 21
124.4887203687
  0
LINE
  5
5F6
100
AcDbEntity
  8
RACCORDO
100
AcDbLine
 62
250
  6
CONTINUOUS
 10
156.8602128913
 20
124.4889495344
 11
153.2232199873
 21
124.4889495344
  0
LINE
  5
5F7
100
AcDbEntity
  8
RACCORDO
100
AcDbLine
 62
250
  6
CONTINUOUS
 10
152.4227392101
 20
124.4889495344
 11
142.0232199873
 21
124.4889495344
  0
LINE
  5
5F8
100
AcDbEntity
  8
RACCORDO
100
AcDbLine
 62
250
  6
CONTINUOUS
 10
141.2227392101
 20
124.4889495344
 11
137.5709659076
 21
124.4889169614
  0
LINE
  5
5F9
100
AcDbEntity
  8
RACCORDO
100
AcDbLine
 62
250
  6
CONTINUOUS
 10
156.8602129017
 20
124.6793884492
 11
153.2170926759
 21
124.6793884492
  0
LINE
  5
5FA
100
AcDbEntity
  8
RACCORDO
100
AcDbLine
 62
250
  6
CONTINUOUS
 10
152.4288665215
 20
124.6793884492
 11
142.0170926759
 21
124.6793884492
  0
LINE
  5
5FB
100
AcDbEntity
  8
RACCORDO
100
AcDbLine
 62
250
  6
CONTINUOUS
 10
141.2288665215
 20
124.6793884492
 11
137.5857462956
 21
124.6793884492
  0
LINE
  5
5FC
100
AcDbEntity
  8
RACCORDO
100
AcDbLine
 62
7
  6
CONTINUOUS
 10
141.7008718279
 20
124.7326456981
 11
141.5450873694
 21
124.7326456981
  0
LINE
  5
5FD
100
AcDbEntity
  8
RACCORDO
100
AcDbLine
 62
7
  6
CONTINUOUS
 10
152.7450873694
 20
124.7326456981
 11
152.9008718279
 21
124.7326456981
  0
LINE
  5
5FE
100
AcDbEntity
  8
RACCORDO
100
AcDbLine
 62
7
  6
CONTINUOUS
 10
139.9384496525
 20
124.9395112442
 11
141.3028472247
 21
124.9395112442
  0
LINE
  5
5FF
100
AcDbEntity
  8
RACCORDO
100
AcDbLine
 62
7
  6
CONTINUOUS
 10
141.9431119727
 20
124.9395112442
 11
143.3075095448
 21
124.9395112442
  0
LINE
  5
600
100
AcDbEntity
  8
RACCORDO
100
AcDbLine
 62
7
  6
CONTINUOUS
 10
151.1384496525
 20
124.9395112442
 11
152.5028472247
 21
124.9395112442
  0
LINE
  5
601
100
AcDbEntity
  8
RACCORDO
100
AcDbLine
 62
7
  6
CONTINUOUS
 10
153.1431119727
 20
124.9395112442
 11
154.5075095448
 21
124.9395112442
  0
LINE
  5
602
100
AcDbEntity
  8
RACCORDO
100
AcDbLine
 62
7
  6
CONTINUOUS
 10
137.5341429248
 20
125.0423832163
 11
139.3392611219
 21
125.0423832163
  0
LINE
  5
603
100
AcDbEntity
  8
DRAFT
100
AcDbLine
 62
7
  6
CONTINUOUS
 10
143.9066980755
 20
125.0423832163
 11
150.5392611219
 21
125.0423832163
  0
LINE
  5
604
100
AcDbEntity
  8
RACCORDO
100
AcDbLine
 62
7
  6
CONTINUOUS
 10
155.1066980755
 20
125.0423832163
 11
156.9118162725
 21
125.0423832163
  0
LWPOLYLINE
  5
605
100
AcDbEntity
  8
RACCORDO
100
AcDbPolyline
 62
250
  6
CONTINUOUS
 90
3
 70
0
 10
156.9042311736
 20
124.4887203687
 10
156.8749594824
 20
124.4888143313
 10
156.8602129017
 20
124.4889495344
  0
LINE
  5
606
100
AcDbEntity
  8
RACCORDO
100
AcDbLine
 62
250
  6
CONTINUOUS
 10
156.9185352023
 20
124.4885753655
 11
156.9042311736
 21
124.4887203687
  0
LWPOLYLINE
  5
607
100
AcDbEntity
  8
RACCORDO
100
AcDbPolyline
 62
250
  6
CONTINUOUS
 90
3
 70
0
 10
156.9837386961
 20
124.4871387332
 10
156.959211037
 20
124.4878384277
 10
156.9185352023
 20
124.4885753655
  0
LWPOLYLINE
  5
608
100
AcDbEntity
  8
RACCORDO
100
AcDbPolyline
 62
250
  6
CONTINUOUS
 90
25
 70
0
 10
156.8602129017
 20
124.6793884492
 10
156.8732738812
 20
124.6789369988
 10
156.8862790828
 20
124.677639729
 10
156.899172967
 20
124.6755021798
 10
156.9119004696
 20
124.6725334798
 10
156.9244072368
 20
124.668746307
 10
156.9366398577
 20
124.6641568349
 10
156.9485460919
 20
124.658784663
 10
156.9600750932
 20
124.6526527336
 10
156.9711776261
 20
124.6457872336
 10
156.9818062765
 20
124.6382174824
 10
156.9919156539
 20
124.6299758074
 10
157.0014625857
 20
124.6210974051
 10
157.0104063009
 20
124.6116201913
 10
157.0187086048
 20
124.6015846391
 10
157.0263340419
 20
124.5910336061
 10
157.0332500471
 20
124.5800121512
 10
157.0394270853
 20
124.5685673422
 10
157.0448387769
 20
124.5567480551
 10
157.0494620109
 20
124.5446047648
 10
157.0532770436
 20
124.5321893302
 10
157.0562675825
 20
124.5195547723
 10
157.0584208563
 20
124.5067550477
 10
157.0597276693
 20
124.4938448185
 10
157.0601824408
 20
124.4808792189
  0
LWPOLYLINE
  5
609
100
AcDbEntity
  8
RACCORDO
100
AcDbPolyline
 62
250
  6
CONTINUOUS
 90
3
 70
0
 10
157.0153287787
 20
124.4858638294
 10
156.9950333373
 20
124.4867647201
 10
156.9837386961
 20
124.4871387332
  0
LINE
  5
60A
100
AcDbEntity
  8
RACCORDO
100
AcDbLine
 62
250
  6
CONTINUOUS
 10
157.0242449191
 20
124.4854084845
 11
157.0153287787
 21
124.4858638294
  0
LINE
  5
60B
100
AcDbEntity
  8
RACCORDO
100
AcDbLine
 62
7
  6
CONTINUOUS
 10
139.4145546057
 20
126.5330007912
 11
139.7652445718
 21
126.5011676333
  0
LINE
  5
60C
100
AcDbEntity
  8
RACCORDO
100
AcDbLine
 62
7
  6
CONTINUOUS
 10
150.9652445718
 20
124.9517897003
 11
150.5392611219
 21
125.0423832163
  0
LWPOLYLINE
  5
60D
100
AcDbEntity
  8
RACCORDO
100
AcDbPolyline
 62
250
  6
CONTINUOUS
 90
8
 70
0
 10
157.0601824408
 20
124.4808792189
 10
157.0593667736
 20
124.4815884341
 10
157.0574686197
 20
124.4821571294
 10
157.054511439
 20
124.4826553991
 10
157.0504919527
 20
124.4832212194
 10
157.045409692
 20
124.4838354281
 10
157.0393117465
 20
124.4843445487
 10
157.0242449191
 20
124.4854084845
  0
LINE
  5
60E
100
AcDbEntity
  8
RACCORDO
100
AcDbLine
 62
7
  6
CONTINUOUS
 10
143.8314045917
 20
126.5330007912
 11
143.4807146256
 21
126.5011676333
  0
LINE
  5
60F
100
AcDbEntity
  8
RACCORDO
100
AcDbLine
 62
7
  6
CONTINUOUS
 10
139.9384496525
 20
126.4959268553
 11
143.3075095448
 21
126.4959268553
  0
LINE
  5
610
100
AcDbEntity
  8
RACCORDO
100
AcDbLine
 62
7
  6
CONTINUOUS
 10
151.1384496525
 20
126.4959268553
 11
154.5075095448
 21
126.4959268553
  0
LINE
  5
611
100
AcDbEntity
  8
RACCORDO
100
AcDbLine
 62
7
  6
CONTINUOUS
 10
136.5864336593
 20
126.5330007912
 11
139.4145546057
 21
126.5330007912
  0
LINE
  5
612
100
AcDbEntity
  8
DRAFT
100
AcDbLine
 62
7
  6
CONTINUOUS
 10
143.8314045917
 20
126.5330007912
 11
150.6145546057
 21
126.5330007912
  0
LINE
  5
613
100
AcDbEntity
  8
RACCORDO
100
AcDbLine
 62
7
  6
CONTINUOUS
 10
155.0314045917
 20
126.5330007912
 11
157.8595255381
 21
126.5330007912
  0
LINE
  5
614
100
AcDbEntity
  8
RACCORDO
100
AcDbLine
 62
7
  6
CONTINUOUS
 10
150.6145546057
 20
126.5330007912
 11
150.9652445718
 21
126.5011676333
  0
ARC
  5
615
100
AcDbEntity
  8
DRAFT
100
AcDbCircle
 62
7
  6
CONTINUOUS
 10
147.2229795987
 20
104.3736880855
 40
2.95
100
AcDbArc
 50
25.6291347882
 51
154.3708652118
  0
ARC
  5
616
100
AcDbEntity
  8
DRAFT
100
AcDbCircle
 62
7
  6
CONTINUOUS
 10
147.2229795987
 20
104.3736880855
 40
2.95
100
AcDbArc
 50
205.6291347882
 51
334.3708652118
  0
ARC
  5
617
100
AcDbEntity
  8
DRAFT
100
AcDbCircle
 62
7
  6
CONTINUOUS
 10
147.2229795987
 20
104.3736880855
 40
2.3052365195
100
AcDbArc
 50
3.1594622934
 51
176.8405377066
  0
ARC
  5
618
100
AcDbEntity
  8
DRAFT
100
AcDbCircle
 62
7
  6
CONTINUOUS
 10
147.2229795987
 20
104.3736880855
 40
2.3052365195
100
AcDbArc
 50
183.1594622934
 51
356.8405377066
  0
ARC
  5
619
100
AcDbEntity
  8
DRAFT
100
AcDbCircle
 62
7
  6
CONTINUOUS
 10
147.2229795987
 20
104.3736880855
 40
2.3
100
AcDbArc
 50
3.2319837745
 51
176.7680162255
  0
ARC
  5
61A
100
AcDbEntity
  8
DRAFT
100
AcDbCircle
 62
7
  6
CONTINUOUS
 10
147.2229795987
 20
104.3736880855
 40
2.3
100
AcDbArc
 50
183.2319837745
 51
356.7680162255
  0
ARC
  5
61B
100
AcDbEntity
  8
DRAFT
100
AcDbCircle
 62
7
  6
CONTINUOUS
 10
147.2229795987
 20
104.3736880855
 40
1.9273811542
100
AcDbArc
 50
3.8576891981
 51
176.1423108019
  0
ARC
  5
61C
100
AcDbEntity
  8
DRAFT
100
AcDbCircle
 62
7
  6
CONTINUOUS
 10
147.2229795987
 20
104.3736880855
 40
1.9273811542
100
AcDbArc
 50
183.8576891981
 51
356.1423108019
  0
ARC
  5
61D
100
AcDbEntity
  8
DRAFT
100
AcDbCircle
 62
7
  6
CONTINUOUS
 10
147.2229795987
 20
104.3736880855
 40
1.875
100
AcDbArc
 50
4.3667008241
 51
175.6332991759
  0
ARC
  5
61E
100
AcDbEntity
  8
DRAFT
100
AcDbCircle
 62
7
  6
CONTINUOUS
 10
147.2229795987
 20
104.3736880855
 40
1.875
100
AcDbArc
 50
184.3667008241
 51
355.6332991759
  0
ARC
  5
61F
100
AcDbEntity
  8
0
100
AcDbCircle
 62
7
  6
CONTINUOUS
 10
147.2229795987
 20
104.3736880855
 40
1.375
100
AcDbArc
 50
15.3271627815
 51
164.6728372185
  0
ARC
  5
620
100
AcDbEntity
  8
0
100
AcDbCircle
 62
7
  6
CONTINUOUS
 10
147.2229795987
 20
104.3736880855
 40
1.375
100
AcDbArc
 50
195.3271627815
 51
344.6728372185
  0
ELLIPSE
  5
621
100
AcDbEntity
  8
RACCORDO
100
AcDbEllipse
 62
7
  6
CONTINUOUS
 10
136.5861293048
 20
126.0345998298
 30
0.0
 11
0.498078285
 21
0.0448076117
 31
0.0
 40
0.9965957691
 41
1.4807720384
 42
3.0506549766
  0
ELLIPSE
  5
622
100
AcDbEntity
  8
RACCORDO
100
AcDbEllipse
 62
7
  6
CONTINUOUS
 10
157.8598298925
 20
126.0345998298
 30
0.0
 11
0.498078285
 21
-0.0448076117
 31
0.0
 40
0.9965957691
 41
0.090937677
 42
1.6608206152
  0
ELLIPSE
  5
623
100
AcDbEntity
  8
RACCORDO
100
AcDbEllipse
 62
7
  6
CONTINUOUS
 10
136.2730100643
 20
104.6736957012
 30
0.0
 11
0.1789222233
 21
0.0894542984
 31
0.0
 40
0.9998096356
 41
2.6780516535
 42
4.2486956813
  0
ELLIPSE
  5
624
100
AcDbEntity
  8
RACCORDO
100
AcDbEllipse
 62
7
  6
CONTINUOUS
 10
158.1729491331
 20
104.6736957012
 30
0.0
 11
0.1789222233
 21
-0.0894542984
 31
0.0
 40
0.9998096356
 41
-1.1071030277
 42
0.4635410001
  0
ELLIPSE
  5
625
100
AcDbEntity
  8
RACCORDO
100
AcDbEllipse
 62
7
  6
CONTINUOUS
 10
154.5075095448
 20
126.5064084112
 30
0.0
 11
0.2
 21
0.0
 31
0.0
 40
0.0524077793
 41
-1.5707963268
 42
-0.5235987756
  0
ELLIPSE
  5
626
100
AcDbEntity
  8
RACCORDO
100
AcDbEllipse
 62
7
  6
CONTINUOUS
 10
151.1384496525
 20
126.5064084112
 30
0.0
 11
0.2
 21
0.0
 31
0.0
 40
0.0524077793
 41
-2.617993878
 42
-1.5707963268
  0
ELLIPSE
  5
627
100
AcDbEntity
  8
RACCORDO
100
AcDbEllipse
 62
7
  6
CONTINUOUS
 10
143.3075095448
 20
126.5064084112
 30
0.0
 11
0.2
 21
-0.0
 31
0.0
 40
0.0524077793
 41
-1.5707963268
 42
-0.5235987756
  0
ELLIPSE
  5
628
100
AcDbEntity
  8
RACCORDO
100
AcDbEllipse
 62
7
  6
CONTINUOUS
 10
139.9384496525
 20
126.5064084112
 30
0.0
 11
0.2
 21
0.0
 31
0.0
 40
0.0524077793
 41
-2.617993878
 42
-1.5707963268
  0
ELLIPSE
  5
629
100
AcDbEntity
  8
RACCORDO
100
AcDbEllipse
 62
7
  6
CONTINUOUS
 10
137.3793944587
 20
104.3736880855
 30
0.0
 11
0.0
 21
498.5
 31
0.0
 40
0.0349207695
 41
-1.568159698
 42
-1.5589337088
  0
ELLIPSE
  5
62A
100
AcDbEntity
  8
RACCORDO
100
AcDbEllipse
 62
7
  6
CONTINUOUS
 10
171.3665647387
 20
104.3736880855
 30
0.0
 11
0.0
 21
498.5
 31
0.0
 40
0.0349207695
 41
1.5589337088
 42
1.568159698
  0
ELLIPSE
  5
62B
100
AcDbEntity
  8
RACCORDO
100
AcDbEllipse
 62
7
  6
CONTINUOUS
 10
123.0793944587
 20
104.3736880855
 30
0.0
 11
0.0
 21
498.5
 31
0.0
 40
0.0349207695
 41
-1.568159698
 42
-1.5589337088
  0
ELLIPSE
  5
62C
100
AcDbEntity
  8
RACCORDO
100
AcDbEllipse
 62
7
  6
CONTINUOUS
 10
157.0665647387
 20
104.3736880855
 30
0.0
 11
0.0
 21
498.5
 31
0.0
 40
0.0349207695
 41
1.5589337088
 42
1.568159698
  0
ELLIPSE
  5
62D
100
AcDbEntity
  8
RACCORDO
100
AcDbEllipse
 62
7
  6
CONTINUOUS
 10
141.5529996108
 20
124.1410953023
 30
0.0
 11
-0.0096324734
 21
0.5915363915
 31
0.0
 40
0.4225722455
 41
-0.0068809827
 42
1.5322803821
  0
ELLIPSE
  5
62E
100
AcDbEntity
  8
RACCORDO
100
AcDbEllipse
 62
7
  6
CONTINUOUS
 10
152.7529996108
 20
124.1410953023
 30
0.0
 11
-0.0096324734
 21
0.5915363915
 31
0.0
 40
0.4225722455
 41
-0.0068809827
 42
1.5322803821
  0
ELLIPSE
  5
62F
100
AcDbEntity
  8
RACCORDO
100
AcDbEllipse
 62
7
  6
CONTINUOUS
 10
152.8929595866
 20
124.1410953023
 30
0.0
 11
0.0096324734
 21
0.5915363915
 31
0.0
 40
0.4225722455
 41
-1.5322803821
 42
0.0068809827
  0
ELLIPSE
  5
630
100
AcDbEntity
  8
RACCORDO
100
AcDbEllipse
 62
7
  6
CONTINUOUS
 10
152.7320471491
 20
121.7275447385
 30
0.0
 11
0.0493464685
 21
0.2491672984
 31
0.0
 40
0.9842259085
 41
-2.97793128
 42
-2.9490849661
  0
ELLIPSE
  5
631
100
AcDbEntity
  8
RACCORDO
100
AcDbEllipse
 62
7
  6
CONTINUOUS
 10
152.9139120483
 20
121.7275447385
 30
0.0
 11
-0.0493464685
 21
0.2491672984
 31
0.0
 40
0.9842259085
 41
-3.3341003411
 42
-3.3052540272
  0
ELLIPSE
  5
632
100
AcDbEntity
  8
RACCORDO
100
AcDbEllipse
 62
7
  6
CONTINUOUS
 10
141.5320471491
 20
121.7275447385
 30
0.0
 11
0.0493464685
 21
0.2491672984
 31
0.0
 40
0.9842259085
 41
-2.97793128
 42
-2.9490849661
  0
ELLIPSE
  5
633
100
AcDbEntity
  8
RACCORDO
100
AcDbEllipse
 62
7
  6
CONTINUOUS
 10
141.7139120483
 20
121.7275447385
 30
0.0
 11
-0.0493464685
 21
0.2491672984
 31
0.0
 40
0.9842259085
 41
-3.3341003411
 42
-3.3052540272
  0
ELLIPSE
  5
634
100
AcDbEntity
  8
RACCORDO
100
AcDbEllipse
 62
7
  6
CONTINUOUS
 10
141.6929595866
 20
124.1410953023
 30
0.0
 11
0.0096324734
 21
0.5915363915
 31
0.0
 40
0.4225722455
 41
-1.5322803821
 42
0.0068809827
  0
ELLIPSE
  5
635
100
AcDbEntity
  8
RACCORDO
100
AcDbEllipse
 62
7
  6
CONTINUOUS
 10
139.986680626
 20
105.6601699215
 30
0.0
 11
0.3
 21
0.0
 31
0.0
 40
0.0349207695
 41
-3.1066860685
 42
-1.5707963268
  0
ELLIPSE
  5
636
100
AcDbEntity
  8
RACCORDO
100
AcDbEllipse
 62
7
  6
CONTINUOUS
 10
140.1592785714
 20
105.6601699215
 30
0.0
 11
0.3
 21
0.0
 31
0.0
 40
0.0349207695
 41
-1.5707963268
 42
-0.034906585
  0
ELLIPSE
  5
637
100
AcDbEntity
  8
RACCORDO
100
AcDbEllipse
 62
7
  6
CONTINUOUS
 10
169.8165647387
 20
104.3736880855
 30
0.0
 11
0.0
 21
498.5
 31
0.0
 40
0.0349207695
 41
1.5304337907
 42
1.5390014484
  0
ELLIPSE
  5
638
100
AcDbEntity
  8
RACCORDO
100
AcDbEllipse
 62
7
  6
CONTINUOUS
 10
152.4297176757
 20
124.4808792189
 30
0.0
 11
0.0
 21
0.2
 31
0.0
 40
0.0349207695
 41
0.1221730476
 42
1.5304337907
  0
ELLIPSE
  5
639
100
AcDbEntity
  8
RACCORDO
100
AcDbEllipse
 62
7
  6
CONTINUOUS
 10
153.2162415216
 20
124.4808792189
 30
0.0
 11
0.0
 21
0.2
 31
0.0
 40
0.0349207695
 41
-1.5304337907
 42
-0.1221730476
  0
ELLIPSE
  5
63A
100
AcDbEntity
  8
RACCORDO
100
AcDbEllipse
 62
7
  6
CONTINUOUS
 10
135.8293944587
 20
104.3736880855
 30
0.0
 11
0.0
 21
498.5
 31
0.0
 40
0.0349207695
 41
-1.5390014484
 42
-1.5304337907
  0
ELLIPSE
  5
63B
100
AcDbEntity
  8
RACCORDO
100
AcDbEllipse
 62
7
  6
CONTINUOUS
 10
158.6165647387
 20
104.3736880855
 30
0.0
 11
0.0
 21
498.5
 31
0.0
 40
0.0349207695
 41
1.5304337907
 42
1.5390014484
  0
ELLIPSE
  5
63C
100
AcDbEntity
  8
RACCORDO
100
AcDbEllipse
 62
7
  6
CONTINUOUS
 10
141.2297176757
 20
124.4808792189
 30
0.0
 11
0.0
 21
0.2
 31
0.0
 40
0.0349207695
 41
0.1221730476
 42
1.5304337907
  0
ELLIPSE
  5
63D
100
AcDbEntity
  8
RACCORDO
100
AcDbEllipse
 62
7
  6
CONTINUOUS
 10
142.0162415216
 20
124.4808792189
 30
0.0
 11
0.0
 21
0.2
 31
0.0
 40
0.0349207695
 41
-1.5304337907
 42
-0.1221730476
  0
ELLIPSE
  5
63E
100
AcDbEntity
  8
RACCORDO
100
AcDbEllipse
 62
7
  6
CONTINUOUS
 10
124.6293944587
 20
104.3736880855
 30
0.0
 11
0.0
 21
498.5
 31
0.0
 40
0.0349207695
 41
-1.5390014484
 42
-1.5304337907
  0
ELLIPSE
  5
63F
100
AcDbEntity
  8
RACCORDO
100
AcDbEllipse
 62
7
  6
CONTINUOUS
 10
154.286680626
 20
105.6601699215
 30
0.0
 11
0.3
 21
0.0
 31
0.0
 40
0.0349207695
 41
-3.1066860685
 42
-1.5707963268
  0
ELLIPSE
  5
640
100
AcDbEntity
  8
RACCORDO
100
AcDbEllipse
 62
7
  6
CONTINUOUS
 10
154.5075095448
 20
124.9640681564
 30
0.0
 11
0.2
 21
0.0
 31
0.0
 40
0.1227845609
 41
-1.5707963268
 42
-0.5235987756
  0
ELLIPSE
  5
641
100
AcDbEntity
  8
RACCORDO
100
AcDbEllipse
 62
7
  6
CONTINUOUS
 10
151.1384496525
 20
124.9640681564
 30
0.0
 11
0.2
 21
0.0
 31
0.0
 40
0.1227845609
 41
-2.617993878
 42
-1.5707963268
  0
ELLIPSE
  5
642
100
AcDbEntity
  8
RACCORDO
100
AcDbEllipse
 62
7
  6
CONTINUOUS
 10
143.3075095448
 20
124.9640681564
 30
0.0
 11
0.2
 21
0.0
 31
0.0
 40
0.1227845609
 41
-1.5707963268
 42
-0.5235987756
  0
ELLIPSE
  5
643
100
AcDbEntity
  8
RACCORDO
100
AcDbEllipse
 62
7
  6
CONTINUOUS
 10
139.9384496525
 20
124.9640681564
 30
0.0
 11
0.2
 21
-0.0
 31
0.0
 40
0.1227845609
 41
-2.617993878
 42
-1.5707963268
  0
ELLIPSE
  5
644
100
AcDbEntity
  8
RACCORDO
100
AcDbEllipse
 62
7
  6
CONTINUOUS
 10
154.4592785714
 20
105.6601699215
 30
0.0
 11
0.3
 21
0.0
 31
0.0
 40
0.0349207695
 41
-1.5707963268
 42
-0.034906585
  0
ELLIPSE
  5
645
100
AcDbEntity
  8
RACCORDO
100
AcDbEllipse
 62
7
  6
CONTINUOUS
 10
137.534263925
 20
124.8430228317
 30
0.0
 11
0.1992395838
 21
-0.0178260286
 31
0.0
 40
0.9965982379
 41
1.6603320108
 42
3.2290014227
  0
ELLIPSE
  5
646
100
AcDbEntity
  8
RACCORDO
100
AcDbEllipse
 62
7
  6
CONTINUOUS
 10
156.9116952724
 20
124.8430228317
 30
0.0
 11
0.1992395838
 21
0.0178260286
 31
0.0
 40
0.9965982379
 41
-0.0874087691
 42
1.4812606428
  0
ELLIPSE
  5
647
100
AcDbEntity
  8
RACCORDO
100
AcDbEllipse
 62
7
  6
CONTINUOUS
 10
157.8598298925
 20
82.7127763412
 30
0.0
 11
0.498078285
 21
0.0448076117
 31
0.0
 40
0.9965957691
 41
-1.6608206152
 42
-0.0909376769
  0
ELLIPSE
  5
648
100
AcDbEntity
  8
RACCORDO
100
AcDbEllipse
 62
7
  6
CONTINUOUS
 10
136.5861293048
 20
82.7127763412
 30
0.0
 11
0.498078285
 21
-0.0448076117
 31
0.0
 40
0.9965957691
 41
-3.0506549766
 42
-1.4807720384
  0
ELLIPSE
  5
649
100
AcDbEntity
  8
RACCORDO
100
AcDbEllipse
 62
7
  6
CONTINUOUS
 10
158.1729491331
 20
104.0736804698
 30
0.0
 11
-0.1789222233
 21
-0.0894542984
 31
0.0
 40
0.9998096356
 41
2.6780516535
 42
4.2486956813
  0
ELLIPSE
  5
64A
100
AcDbEntity
  8
RACCORDO
100
AcDbEllipse
 62
7
  6
CONTINUOUS
 10
136.2730100643
 20
104.0736804698
 30
0.0
 11
-0.1789222233
 21
0.0894542984
 31
0.0
 40
0.9998096356
 41
-1.1071030277
 42
0.4635410001
  0
ELLIPSE
  5
64B
100
AcDbEntity
  8
RACCORDO
100
AcDbEllipse
 62
7
  6
CONTINUOUS
 10
139.9384496525
 20
82.2409677599
 30
0.0
 11
0.2
 21
0.0
 31
0.0
 40
0.0524077793
 41
1.5707963268
 42
2.617993878
  0
ELLIPSE
  5
64C
100
AcDbEntity
  8
RACCORDO
100
AcDbEllipse
 62
7
  6
CONTINUOUS
 10
143.3075095448
 20
82.2409677599
 30
0.0
 11
0.2
 21
-0.0
 31
0.0
 40
0.0524077793
 41
0.5235987756
 42
1.5707963268
  0
ELLIPSE
  5
64D
100
AcDbEntity
  8
RACCORDO
100
AcDbEllipse
 62
7
  6
CONTINUOUS
 10
151.1384496525
 20
82.2409677599
 30
0.0
 11
0.2
 21
-0.0
 31
0.0
 40
0.0524077793
 41
1.5707963268
 42
2.617993878
  0
ELLIPSE
  5
64E
100
AcDbEntity
  8
RACCORDO
100
AcDbEllipse
 62
7
  6
CONTINUOUS
 10
154.5075095448
 20
82.2409677599
 30
0.0
 11
0.2
 21
-0.0
 31
0.0
 40
0.0524077793
 41
0.5235987756
 42
1.5707963268
  0
ELLIPSE
  5
64F
100
AcDbEntity
  8
RACCORDO
100
AcDbEllipse
 62
7
  6
CONTINUOUS
 10
157.0665647387
 20
104.3736880855
 30
0.0
 11
0.0
 21
498.5
 31
0.0
 40
0.0349207695
 41
-4.7097523516
 42
-4.7005263624
  0
ELLIPSE
  5
650
100
AcDbEntity
  8
RACCORDO
100
AcDbEllipse
 62
7
  6
CONTINUOUS
 10
123.0793944587
 20
104.3736880855
 30
0.0
 11
0.0
 21
498.5
 31
0.0
 40
0.0349207695
 41
-1.5826589448
 42
-1.5734329556
  0
ELLIPSE
  5
651
100
AcDbEntity
  8
RACCORDO
100
AcDbEllipse
 62
7
  6
CONTINUOUS
 10
171.3665647387
 20
104.3736880855
 30
0.0
 11
0.0
 21
498.5
 31
0.0
 40
0.0349207695
 41
-4.7097523516
 42
-4.7005263624
  0
ELLIPSE
  5
652
100
AcDbEntity
  8
RACCORDO
100
AcDbEllipse
 62
7
  6
CONTINUOUS
 10
137.3793944587
 20
104.3736880855
 30
0.0
 11
0.0
 21
498.5
 31
0.0
 40
0.0349207695
 41
-1.5826589448
 42
-1.5734329556
  0
ELLIPSE
  5
653
100
AcDbEntity
  8
RACCORDO
100
AcDbEllipse
 62
7
  6
CONTINUOUS
 10
152.8929595866
 20
84.6062808688
 30
0.0
 11
-0.0096324734
 21
0.5915363915
 31
0.0
 40
0.4225722455
 41
-3.1484736363
 42
-1.6093122714
  0
ELLIPSE
  5
654
100
AcDbEntity
  8
RACCORDO
100
AcDbEllipse
 62
7
  6
CONTINUOUS
 10
141.6929595866
 20
84.6062808688
 30
0.0
 11
-0.0096324734
 21
0.5915363915
 31
0.0
 40
0.4225722455
 41
-3.1484736363
 42
-1.6093122714
  0
ELLIPSE
  5
655
100
AcDbEntity
  8
RACCORDO
100
AcDbEllipse
 62
7
  6
CONTINUOUS
 10
141.5529996108
 20
84.6062808688
 30
0.0
 11
0.0096324734
 21
0.5915363915
 31
0.0
 40
0.4225722455
 41
-4.6738730357
 42
-3.1347116709
  0
ELLIPSE
  5
656
100
AcDbEntity
  8
RACCORDO
100
AcDbEllipse
 62
7
  6
CONTINUOUS
 10
141.7139120483
 20
87.0198314326
 30
0.0
 11
0.0493464685
 21
0.2491672984
 31
0.0
 40
0.9842259085
 41
0.1636613736
 42
0.1925076875
  0
ELLIPSE
  5
657
100
AcDbEntity
  8
RACCORDO
100
AcDbEllipse
 62
7
  6
CONTINUOUS
 10
141.5320471491
 20
87.0198314326
 30
0.0
 11
-0.0493464685
 21
0.2491672984
 31
0.0
 40
0.9842259085
 41
-0.1925076875
 42
-0.1636613736
  0
ELLIPSE
  5
658
100
AcDbEntity
  8
RACCORDO
100
AcDbEllipse
 62
7
  6
CONTINUOUS
 10
152.9139120483
 20
87.0198314326
 30
0.0
 11
0.0493464685
 21
0.2491672984
 31
0.0
 40
0.9842259085
 41
0.1636613736
 42
0.1925076875
  0
ELLIPSE
  5
659
100
AcDbEntity
  8
RACCORDO
100
AcDbEllipse
 62
7
  6
CONTINUOUS
 10
152.7320471491
 20
87.0198314326
 30
0.0
 11
-0.0493464685
 21
0.2491672984
 31
0.0
 40
0.9842259085
 41
-0.1925076875
 42
-0.1636613736
  0
ELLIPSE
  5
65A
100
AcDbEntity
  8
RACCORDO
100
AcDbEllipse
 62
7
  6
CONTINUOUS
 10
152.7529996108
 20
84.6062808688
 30
0.0
 11
0.0096324734
 21
0.5915363915
 31
0.0
 40
0.4225722455
 41
-4.6738730357
 42
-3.1347116709
  0
ELLIPSE
  5
65B
100
AcDbEntity
  8
RACCORDO
100
AcDbEllipse
 62
7
  6
CONTINUOUS
 10
154.4592785714
 20
103.0872062495
 30
0.0
 11
0.3
 21
0.0
 31
0.0
 40
0.0349207695
 41
0.034906585
 42
1.5707963268
  0
ELLIPSE
  5
65C
100
AcDbEntity
  8
RACCORDO
100
AcDbEllipse
 62
7
  6
CONTINUOUS
 10
154.286680626
 20
103.0872062495
 30
0.0
 11
0.3
 21
0.0
 31
0.0
 40
0.0349207695
 41
1.5707963268
 42
3.1066860686
  0
ELLIPSE
  5
65D
100
AcDbEntity
  8
RACCORDO
100
AcDbEllipse
 62
7
  6
CONTINUOUS
 10
124.6293944587
 20
104.3736880855
 30
0.0
 11
0.0
 21
498.5
 31
0.0
 40
0.0349207695
 41
-1.6111588629
 42
-1.6025912052
  0
ELLIPSE
  5
65E
100
AcDbEntity
  8
RACCORDO
100
AcDbEllipse
 62
7
  6
CONTINUOUS
 10
142.0162415216
 20
84.2664969521
 30
0.0
 11
0.0
 21
0.2
 31
0.0
 40
0.0349207695
 41
-3.0194196059
 42
-1.6111588629
  0
ELLIPSE
  5
65F
100
AcDbEntity
  8
RACCORDO
100
AcDbEllipse
 62
7
  6
CONTINUOUS
 10
141.2297176757
 20
84.2664969521
 30
0.0
 11
0.0
 21
0.2
 31
0.0
 40
0.0349207695
 41
-4.6720264443
 42
-3.2637657012
  0
ELLIPSE
  5
660
100
AcDbEntity
  8
RACCORDO
100
AcDbEllipse
 62
7
  6
CONTINUOUS
 10
158.6165647387
 20
104.3736880855
 30
0.0
 11
0.0
 21
498.5
 31
0.0
 40
0.0349207695
 41
-4.680594102
 42
-4.6720264443
  0
ELLIPSE
  5
661
100
AcDbEntity
  8
RACCORDO
100
AcDbEllipse
 62
7
  6
CONTINUOUS
 10
135.8293944587
 20
104.3736880855
 30
0.0
 11
0.0
 21
498.5
 31
0.0
 40
0.0349207695
 41
-1.6111588629
 42
-1.6025912052
  0
ELLIPSE
  5
662
100
AcDbEntity
  8
RACCORDO
100
AcDbEllipse
 62
7
  6
CONTINUOUS
 10
153.2162415216
 20
84.2664969521
 30
0.0
 11
0.0
 21
0.2
 31
0.0
 40
0.0349207695
 41
-3.0194196059
 42
-1.6111588629
  0
ELLIPSE
  5
663
100
AcDbEntity
  8
RACCORDO
100
AcDbEllipse
 62
7
  6
CONTINUOUS
 10
152.4297176757
 20
84.2664969521
 30
0.0
 11
0.0
 21
0.2
 31
0.0
 40
0.0349207695
 41
-4.6720264443
 42
-3.2637657012
  0
ELLIPSE
  5
664
100
AcDbEntity
  8
RACCORDO
100
AcDbEllipse
 62
7
  6
CONTINUOUS
 10
169.8165647387
 20
104.3736880855
 30
0.0
 11
0.0
 21
498.5
 31
0.0
 40
0.0349207695
 41
-4.680594102
 42
-4.6720264443
  0
ELLIPSE
  5
665
100
AcDbEntity
  8
RACCORDO
100
AcDbEllipse
 62
7
  6
CONTINUOUS
 10
140.1592785714
 20
103.0872062495
 30
0.0
 11
0.3
 21
0.0
 31
0.0
 40
0.0349207695
 41
0.034906585
 42
1.5707963268
  0
ELLIPSE
  5
666
100
AcDbEntity
  8
RACCORDO
100
AcDbEllipse
 62
7
  6
CONTINUOUS
 10
139.9384496525
 20
83.7833080147
 30
0.0
 11
0.2
 21
0.0
 31
0.0
 40
0.1227845609
 41
1.5707963268
 42
2.617993878
  0
ELLIPSE
  5
667
100
AcDbEntity
  8
RACCORDO
100
AcDbEllipse
 62
7
  6
CONTINUOUS
 10
143.3075095448
 20
83.7833080147
 30
0.0
 11
0.2
 21
0.0
 31
0.0
 40
0.1227845609
 41
0.5235987756
 42
1.5707963268
  0
ELLIPSE
  5
668
100
AcDbEntity
  8
RACCORDO
100
AcDbEllipse
 62
7
  6
CONTINUOUS
 10
151.1384496525
 20
83.7833080147
 30
0.0
 11
0.2
 21
0.0
 31
0.0
 40
0.1227845609
 41
1.5707963268
 42
2.617993878
  0
ELLIPSE
  5
669
100
AcDbEntity
  8
RACCORDO
100
AcDbEllipse
 62
7
  6
CONTINUOUS
 10
154.5075095448
 20
83.7833080147
 30
0.0
 11
0.2
 21
0.0
 31
0.0
 40
0.1227845609
 41
0.5235987756
 42
1.5707963268
  0
ELLIPSE
  5
66A
100
AcDbEntity
  8
RACCORDO
100
AcDbEllipse
 62
7
  6
CONTINUOUS
 10
139.986680626
 20
103.0872062495
 30
0.0
 11
0.3
 21
0.0
 31
0.0
 40
0.0349207695
 41
1.5707963268
 42
3.1066860686
  0
ELLIPSE
  5
66B
100
AcDbEntity
  8
RACCORDO
100
AcDbEllipse
 62
7
  6
CONTINUOUS
 10
156.9116952724
 20
83.9043533394
 30
0.0
 11
0.1992395838
 21
-0.0178260286
 31
0.0
 40
0.9965982379
 41
-1.4812606428
 42
0.0874087691
  0
ELLIPSE
  5
66C
100
AcDbEntity
  8
RACCORDO
100
AcDbEllipse
 62
7
  6
CONTINUOUS
 10
137.534263925
 20
83.9043533394
 30
0.0
 11
0.1992395838
 21
0.0178260286
 31
0.0
 40
0.9965982379
 41
3.0541838845
 42
4.6228532964
  0
ENDSEC
  0
SECTION
  2
OBJECTS
  0
DICTIONARY
  5
C
100
AcDbDictionary
280
0
281
1
  3
ACAD_GROUP
350
D
  3
ACAD_MLINESTYLE
350
17
  3
ACAD_LAYOUT
350
1A
  3
ACAD_PLOTSETTINGS
350
19
  3
ACAD_PLOTSTYLENAME
350
E
  0
DICTIONARY
  5
D
102
{ACAD_REACTORS
330
C
102
}
100
AcDbDictionary
280
0
281
1
  0
ACDBDICTIONARYWDFLT
  5
E
102
{ACAD_REACTORS
330
C
102
}
100
AcDbDictionary
281
1
  3
Normal
350
F
100
AcDbDictionaryWithDefault
340
F
  0
DICTIONARY
  5
17
102
{ACAD_REACTORS
330
C
102
}
100
AcDbDictionary
280
0
281
1
  3
Standard
350
18
  0
DICTIONARY
  5
19
102
{ACAD_REACTORS
330
C
102
}
100
AcDbDictionary
281
1
  0
DICTIONARY
  5
1A
102
{ACAD_REACTORS
330
C
102
}
100
AcDbDictionary
281
1
  3
Model
350
66D
  3
Layout1
350
66E
  0
ACDBPLACEHOLDER
  5
F
102
{ACAD_REACTORS
330
E
102
}
  0
MLINESTYLE
  5
18
102
{ACAD_REACTORS
330
17
102
}
100
AcDbMlineStyle
  2
STANDARD
 70
0
  3

 62
256
 51
90.0
 52
90.0
 71
2
 49
0.5
 62
256
  6
BYLAYER
 49
-0.5
 62
256
  6
BYLAYER
  0
LAYOUT
  5
66D
102
{ACAD_REACTORS
330
1A
102
}
100
AcDbPlotSettings
  1

  2
none_device
  4
ISO_A4_(297.00_x_210.00_MM)
  6

 40
0.0
 41
0.0
 42
0.0
 43
0.0
 44
297.0
 45
210.0
 46
0.0
 47
0.0
 48
0.0
 49
0.0
140
0.0
141
0.0
142
1.0
143
1.0
 70
1024
 72
1
 73
0
 74
0
  7

 75
0
147
1.0
148
0.0
149
0.0
100
AcDbLayout
  1
Model
 70
0
 71
0
 10
0.0
 20
0.0
 11
297.0
 21
210.0
 12
0.0
 22
0.0
 32
0.0
 14
0.0
 24
0.0
 34
0.0
 15
0.0
 25
0.0
 35
0.0
146
0.0
 13
0.0
 23
0.0
 33
0.0
 16
1.0
 26
0.0
 36
0.0
 17
0.0
 27
1.0
 37
0.0
 76
0
330
212
345
0
346
0
  0
LAYOUT
  5
66E
102
{ACAD_REACTORS
330
1A
102
}
100
AcDbPlotSettings
  1

  2
none_device
  4
ISO_A4_(297.00_x_210.00_MM)
  6

 40
0.0
 41
0.0
 42
0.0
 43
0.0
 44
297.0
 45
210.0
 46
0.0
 47
0.0
 48
0.0
 49
0.0
140
0.0
141
0.0
142
1.0
143
1.0
 70
0
 72
1
 73
0
 74
0
  7

 75
0
147
1.0
148
0.0
149
0.0
100
AcDbLayout
  1
Layout1
 70
0
 71
1
 10
0.0
 20
0.0
 11
297.0
 21
210.0
 12
0.0
 22
0.0
 32
0.0
 14
0.0
 24
0.0
 34
0.0
 15
0.0
 25
0.0
 35
0.0
146
0.0
 13
0.0
 23
0.0
 33
0.0
 16
1.0
 26
0.0
 36
0.0
 17
0.0
 27
1.0
 37
0.0
 76
0
330
213
345
0
346
0
  0
ENDSEC
  0
EOF
