  0
SECTION
  2
HEADER
  9
$ACADVER
  1
AC1024
  9
$DWGCODEPAGE
  3
ANSI_1252
  9
$EXTMAX
 10
420.0
 20
297.0
 30
0.0
  9
$EXTMIN
 10
0.0
 20
-0.0
 30
0.0
  9
$LIMMIN
 10
0.0
 20
-0.0
  9
$LIMMAX
 10
420.0
 20
297.0
  9
$VIEWCTR
 10
210.0
 20
148.5
  9
$VIEWSIZE
 40
297.0
  9
$CLAYER
  8
0
  9
$LTSCALE
 40
23.1
  9
$CELTYPE
  6
BYLAYER
  9
$DIMSCALE
 40
1.0
  9
$DIMASZ
 40
3.0
  9
$DIMEXO
 40
0.5
  9
$DIMDLI
 40
15.96
  9
$DIMEXE
 40
1.5
  9
$DIMCEN
 40
3.78
  9
$DIMLFAC
 40
1.0
  9
$DIMBLK
  1
_FILLED
  9
$DIMALT
 70
0
  9
$DIMALTF
 40
0.0393700787
  9
$DIMTXT
 40
3.0
  9
$DIMTOL
 70
1
  9
$DIMLIM
 70
0
  9
$DIMTFAC
 40
1.0
  9
$DIMTP
 40
0.01
  9
$DIMTM
 40
0.01
  9
$DIMGAP
 40
0.625
  9
$DIMDSEP
 70
44
  9
$AUNITS
 70
0
  9
$PDMODE
 70
3
  9
$PDSIZE
 40
3.0
  9
$HANDSEED
  5
99C
  9
$TILEMODE
 70
1
  9
$MEASUREMENT
 70
1
  9
$INSUNITS
 70
4
  0
ENDSEC
  0
SECTION
  2
CLASSES
  0
CLASS
  1
ACDBDICTIONARYWDFLT
  2
AcDbDictionaryWithDefault
  3
AutoCAD 2000
 90
0
 91
1
280
0
281
0
  0
CLASS
  1
ACDBPLACEHOLDER
  2
AcDbPlaceHolder
  3
AutoCAD 2000
 90
0
 91
1
280
0
281
0
  0
CLASS
  1
LAYOUT
  2
AcDbLayout
  3
AutoCAD 2000
 90
0
 91
0
280
0
281
0
  0
ENDSEC
  0
SECTION
  2
TABLES
  0
TABLE
  2
VPORT
  5
8
100
AcDbSymbolTable
 70
2
  0
VPORT
  5
1F4
100
AcDbSymbolTableRecord
100
AcDbViewportTableRecord
  2
*ACTIVE
 70
0
 10
0.0
 20
0.0
 11
1.0
 21
1.0
 12
210.0
 22
148.5
 13
0.0
 23
0.0
 14
1.0
 24
1.0
 15
0.0
 25
0.0
 16
0.0
 26
0.0
 36
1.0
 17
0.0
 27
0.0
 37
0.0
 40
297.0
 41
1.4141414141
 42
50.0
 43
0.0
 44
0.0
 50
0.0
 51
0.0
 71
0
 72
100
 73
1
 74
1
 75
0
 76
0
 77
0
 78
0
  0
ENDTAB
  0
TABLE
  2
LTYPE
  5
5
100
AcDbSymbolTable
 70
6
  0
LTYPE
  5
14
100
AcDbSymbolTableRecord
100
AcDbLinetypeTableRecord
  2
BYBLOCK
 70
0
  3

 72
65
 73
0
 40
0.0
  0
LTYPE
  5
15
100
AcDbSymbolTableRecord
100
AcDbLinetypeTableRecord
  2
BYLAYER
 70
0
  3

 72
65
 73
0
 40
0.0
  0
LTYPE
  5
16
100
AcDbSymbolTableRecord
100
AcDbLinetypeTableRecord
  2
CONTINUOUS
 70
64
  3
Solid line
 72
65
 73
0
 40
0.0
  0
LTYPE
  5
1F5
100
AcDbSymbolTableRecord
100
AcDbLinetypeTableRecord
  2
CENTER
 70
64
  3
____ _ ____ _ ____ _ ____ _ ____ _ ____ _ ____
 72
65
 73
4
 40
0.6
 49
0.375
 74
0
 49
-0.075
 74
0
 49
0.075
 74
0
 49
-0.075
 74
0
  0
LTYPE
  5
1F6
100
AcDbSymbolTableRecord
100
AcDbLinetypeTableRecord
  2
HIDDEN
 70
64
  3
- - - - - - - - - - - - - - - - - - - -
 72
65
 73
2
 40
0.2
 49
0.1
 74
0
 49
-0.1
 74
0
  0
LTYPE
  5
1F7
100
AcDbSymbolTableRecord
100
AcDbLinetypeTableRecord
  2
PHANTOM
 70
64
  3
_____ _ _ _____ _ _ _____ _ _ _____
 72
65
 73
6
 40
0.8
 49
0.45
 74
0
 49
-0.05
 74
0
 49
0.1
 74
0
 49
-0.05
 74
0
 49
0.1
 74
0
 49
-0.05
 74
0
  0
LTYPE
  5
1F8
100
AcDbSymbolTableRecord
100
AcDbLinetypeTableRecord
  2
DOT
 70
64
  3
. . . . . . . . . . . . . . . . . . . .
 72
65
 73
2
 40
0.2
 49
0.1
 74
0
 49
-0.1
 74
0
  0
LTYPE
  5
1F9
100
AcDbSymbolTableRecord
100
AcDbLinetypeTableRecord
  2
DASHED
 70
64
  3
- - - - - - - - - - - - - - - - - - - -
 72
65
 73
2
 40
0.2
 49
0.1
 74
0
 49
-0.1
 74
0
  0
ENDTAB
  0
TABLE
  2
LAYER
  5
2
100
AcDbSymbolTable
 70
36
  0
LAYER
  5
10
100
AcDbSymbolTableRecord
100
AcDbLayerTableRecord
  2
0
 70
0
 62
7
  6
CONTINUOUS
370
-3
390
F
  0
LAYER
  5
1FA
100
AcDbSymbolTableRecord
100
AcDbLayerTableRecord
  2
DEFAULT_1
 70
0
 62
7
  6
CENTER
370
-3
390
F
  0
LAYER
  5
1FB
100
AcDbSymbolTableRecord
100
AcDbLayerTableRecord
  2
DEFAULT_2
 70
0
 62
7
  6
HIDDEN
370
-3
390
F
  0
LAYER
  5
1FC
100
AcDbSymbolTableRecord
100
AcDbLayerTableRecord
  2
DEFAULT_3
 70
0
 62
7
  6
PHANTOM
370
-3
390
F
  0
LAYER
  5
1FD
100
AcDbSymbolTableRecord
100
AcDbLayerTableRecord
  2
0402_C_REF_70000
 70
0
 62
7
  6
CONTINUOUS
370
-3
390
F
  0
LAYER
  5
1FE
100
AcDbSymbolTableRecord
100
AcDbLayerTableRecord
  2
0402_C_REF_70000_1
 70
0
 62
7
  6
CONTINUOUS
370
-3
390
F
  0
LAYER
  5
1FF
100
AcDbSymbolTableRecord
100
AcDbLayerTableRecord
  2
0402_C_REF_70000_10
 70
0
 62
7
  6
CONTINUOUS
370
-3
390
F
  0
LAYER
  5
200
100
AcDbSymbolTableRecord
100
AcDbLayerTableRecord
  2
0402_C_REF_70000_11
 70
0
 62
7
  6
CONTINUOUS
370
-3
390
F
  0
LAYER
  5
201
100
AcDbSymbolTableRecord
100
AcDbLayerTableRecord
  2
0402_C_REF_70000_12
 70
0
 62
7
  6
CONTINUOUS
370
-3
390
F
  0
LAYER
  5
202
100
AcDbSymbolTableRecord
100
AcDbLayerTableRecord
  2
0402_C_REF_70000_13
 70
0
 62
7
  6
CONTINUOUS
370
-3
390
F
  0
LAYER
  5
203
100
AcDbSymbolTableRecord
100
AcDbLayerTableRecord
  2
0402_C_REF_70000_14
 70
0
 62
7
  6
CONTINUOUS
370
-3
390
F
  0
LAYER
  5
204
100
AcDbSymbolTableRecord
100
AcDbLayerTableRecord
  2
0402_C_REF_70000_15
 70
0
 62
7
  6
CONTINUOUS
370
-3
390
F
  0
LAYER
  5
205
100
AcDbSymbolTableRecord
100
AcDbLayerTableRecord
  2
0402_C_REF_70000_16
 70
0
 62
7
  6
CONTINUOUS
370
-3
390
F
  0
LAYER
  5
206
100
AcDbSymbolTableRecord
100
AcDbLayerTableRecord
  2
0402_C_REF_70000_17
 70
0
 62
7
  6
CONTINUOUS
370
-3
390
F
  0
LAYER
  5
207
100
AcDbSymbolTableRecord
100
AcDbLayerTableRecord
  2
0402_C_REF_70000_18
 70
0
 62
7
  6
CONTINUOUS
370
-3
390
F
  0
LAYER
  5
208
100
AcDbSymbolTableRecord
100
AcDbLayerTableRecord
  2
0402_C_REF_70000_19
 70
0
 62
7
  6
CONTINUOUS
370
-3
390
F
  0
LAYER
  5
209
100
AcDbSymbolTableRecord
100
AcDbLayerTableRecord
  2
0402_C_REF_70000_2
 70
0
 62
7
  6
CONTINUOUS
370
-3
390
F
  0
LAYER
  5
20A
100
AcDbSymbolTableRecord
100
AcDbLayerTableRecord
  2
0402_C_REF_70000_20
 70
0
 62
7
  6
CONTINUOUS
370
-3
390
F
  0
LAYER
  5
20B
100
AcDbSymbolTableRecord
100
AcDbLayerTableRecord
  2
0402_C_REF_70000_21
 70
0
 62
7
  6
CONTINUOUS
370
-3
390
F
  0
LAYER
  5
20C
100
AcDbSymbolTableRecord
100
AcDbLayerTableRecord
  2
0402_C_REF_70000_22
 70
0
 62
7
  6
CONTINUOUS
370
-3
390
F
  0
LAYER
  5
20D
100
AcDbSymbolTableRecord
100
AcDbLayerTableRecord
  2
0402_C_REF_70000_23
 70
0
 62
7
  6
CONTINUOUS
370
-3
390
F
  0
LAYER
  5
20E
100
AcDbSymbolTableRecord
100
AcDbLayerTableRecord
  2
0402_C_REF_70000_24
 70
0
 62
7
  6
CONTINUOUS
370
-3
390
F
  0
LAYER
  5
20F
100
AcDbSymbolTableRecord
100
AcDbLayerTableRecord
  2
0402_C_REF_70000_25
 70
0
 62
7
  6
CONTINUOUS
370
-3
390
F
  0
LAYER
  5
210
100
AcDbSymbolTableRecord
100
AcDbLayerTableRecord
  2
0402_C_REF_70000_26
 70
0
 62
7
  6
CONTINUOUS
370
-3
390
F
  0
LAYER
  5
211
100
AcDbSymbolTableRecord
100
AcDbLayerTableRecord
  2
0402_C_REF_70000_27
 70
0
 62
7
  6
CONTINUOUS
370
-3
390
F
  0
LAYER
  5
212
100
AcDbSymbolTableRecord
100
AcDbLayerTableRecord
  2
0402_C_REF_70000_28
 70
0
 62
7
  6
CONTINUOUS
370
-3
390
F
  0
LAYER
  5
213
100
AcDbSymbolTableRecord
100
AcDbLayerTableRecord
  2
0402_C_REF_70000_29
 70
0
 62
7
  6
CONTINUOUS
370
-3
390
F
  0
LAYER
  5
214
100
AcDbSymbolTableRecord
100
AcDbLayerTableRecord
  2
0402_C_REF_70000_3
 70
0
 62
7
  6
CONTINUOUS
370
-3
390
F
  0
LAYER
  5
215
100
AcDbSymbolTableRecord
100
AcDbLayerTableRecord
  2
0402_C_REF_70000_30
 70
0
 62
7
  6
CONTINUOUS
370
-3
390
F
  0
LAYER
  5
216
100
AcDbSymbolTableRecord
100
AcDbLayerTableRecord
  2
0402_C_REF_70000_31
 70
0
 62
7
  6
CONTINUOUS
370
-3
390
F
  0
LAYER
  5
217
100
AcDbSymbolTableRecord
100
AcDbLayerTableRecord
  2
0402_C_REF_70000_32
 70
0
 62
7
  6
CONTINUOUS
370
-3
390
F
  0
LAYER
  5
218
100
AcDbSymbolTableRecord
100
AcDbLayerTableRecord
  2
0402_C_REF_70000_33
 70
0
 62
7
  6
CONTINUOUS
370
-3
390
F
  0
LAYER
  5
219
100
AcDbSymbolTableRecord
100
AcDbLayerTableRecord
  2
0402_C_REF_70000_34
 70
0
 62
7
  6
CONTINUOUS
370
-3
390
F
  0
LAYER
  5
21A
100
AcDbSymbolTableRecord
100
AcDbLayerTableRecord
  2
0402_C_REF_70000_35
 70
0
 62
7
  6
CONTINUOUS
370
-3
390
F
  0
LAYER
  5
21B
100
AcDbSymbolTableRecord
100
AcDbLayerTableRecord
  2
0402_C_REF_70000_36
 70
0
 62
7
  6
CONTINUOUS
370
-3
390
F
  0
LAYER
  5
21C
100
AcDbSymbolTableRecord
100
AcDbLayerTableRecord
  2
0402_C_REF_70000_37
 70
0
 62
7
  6
CONTINUOUS
370
-3
390
F
  0
LAYER
  5
21D
100
AcDbSymbolTableRecord
100
AcDbLayerTableRecord
  2
0402_C_REF_70000_38
 70
0
 62
7
  6
CONTINUOUS
370
-3
390
F
  0
LAYER
  5
21E
100
AcDbSymbolTableRecord
100
AcDbLayerTableRecord
  2
0402_C_REF_70000_39
 70
0
 62
7
  6
CONTINUOUS
370
-3
390
F
  0
LAYER
  5
21F
100
AcDbSymbolTableRecord
100
AcDbLayerTableRecord
  2
0402_C_REF_70000_4
 70
0
 62
7
  6
CONTINUOUS
370
-3
390
F
  0
LAYER
  5
220
100
AcDbSymbolTableRecord
100
AcDbLayerTableRecord
  2
0402_C_REF_70000_40
 70
0
 62
7
  6
CONTINUOUS
370
-3
390
F
  0
LAYER
  5
221
100
AcDbSymbolTableRecord
100
AcDbLayerTableRecord
  2
0402_C_REF_70000_41
 70
0
 62
7
  6
CONTINUOUS
370
-3
390
F
  0
LAYER
  5
222
100
AcDbSymbolTableRecord
100
AcDbLayerTableRecord
  2
0402_C_REF_70000_42
 70
0
 62
7
  6
CONTINUOUS
370
-3
390
F
  0
LAYER
  5
223
100
AcDbSymbolTableRecord
100
AcDbLayerTableRecord
  2
0402_C_REF_70000_43
 70
0
 62
7
  6
CONTINUOUS
370
-3
390
F
  0
LAYER
  5
224
100
AcDbSymbolTableRecord
100
AcDbLayerTableRecord
  2
0402_C_REF_70000_44
 70
0
 62
7
  6
CONTINUOUS
370
-3
390
F
  0
LAYER
  5
225
100
AcDbSymbolTableRecord
100
AcDbLayerTableRecord
  2
0402_C_REF_70000_45
 70
0
 62
7
  6
CONTINUOUS
370
-3
390
F
  0
LAYER
  5
226
100
AcDbSymbolTableRecord
100
AcDbLayerTableRecord
  2
0402_C_REF_70000_46
 70
0
 62
7
  6
CONTINUOUS
370
-3
390
F
  0
LAYER
  5
227
100
AcDbSymbolTableRecord
100
AcDbLayerTableRecord
  2
0402_C_REF_70000_5
 70
0
 62
7
  6
CONTINUOUS
370
-3
390
F
  0
LAYER
  5
228
100
AcDbSymbolTableRecord
100
AcDbLayerTableRecord
  2
0402_C_REF_70000_6
 70
0
 62
7
  6
CONTINUOUS
370
-3
390
F
  0
LAYER
  5
229
100
AcDbSymbolTableRecord
100
AcDbLayerTableRecord
  2
0402_C_REF_70000_7
 70
0
 62
7
  6
CONTINUOUS
370
-3
390
F
  0
LAYER
  5
22A
100
AcDbSymbolTableRecord
100
AcDbLayerTableRecord
  2
0402_C_REF_70000_8
 70
0
 62
7
  6
CONTINUOUS
370
-3
390
F
  0
LAYER
  5
22B
100
AcDbSymbolTableRecord
100
AcDbLayerTableRecord
  2
0402_C_REF_70000_9
 70
0
 62
7
  6
CONTINUOUS
370
-3
390
F
  0
LAYER
  5
22C
100
AcDbSymbolTableRecord
100
AcDbLayerTableRecord
  2
0402_L_REF_55000
 70
0
 62
7
  6
CONTINUOUS
370
-3
390
F
  0
LAYER
  5
22D
100
AcDbSymbolTableRecord
100
AcDbLayerTableRecord
  2
0402_R_REF_30000
 70
0
 62
7
  6
CONTINUOUS
370
-3
390
F
  0
LAYER
  5
22E
100
AcDbSymbolTableRecord
100
AcDbLayerTableRecord
  2
0402_R_REF_30000_1
 70
0
 62
7
  6
CONTINUOUS
370
-3
390
F
  0
LAYER
  5
22F
100
AcDbSymbolTableRecord
100
AcDbLayerTableRecord
  2
0402_R_REF_30000_10
 70
0
 62
7
  6
CONTINUOUS
370
-3
390
F
  0
LAYER
  5
230
100
AcDbSymbolTableRecord
100
AcDbLayerTableRecord
  2
0402_R_REF_30000_11
 70
0
 62
7
  6
CONTINUOUS
370
-3
390
F
  0
LAYER
  5
231
100
AcDbSymbolTableRecord
100
AcDbLayerTableRecord
  2
0402_R_REF_30000_12
 70
0
 62
7
  6
CONTINUOUS
370
-3
390
F
  0
LAYER
  5
232
100
AcDbSymbolTableRecord
100
AcDbLayerTableRecord
  2
0402_R_REF_30000_13
 70
0
 62
7
  6
CONTINUOUS
370
-3
390
F
  0
LAYER
  5
233
100
AcDbSymbolTableRecord
100
AcDbLayerTableRecord
  2
0402_R_REF_30000_14
 70
0
 62
7
  6
CONTINUOUS
370
-3
390
F
  0
LAYER
  5
234
100
AcDbSymbolTableRecord
100
AcDbLayerTableRecord
  2
0402_R_REF_30000_15
 70
0
 62
7
  6
CONTINUOUS
370
-3
390
F
  0
LAYER
  5
235
100
AcDbSymbolTableRecord
100
AcDbLayerTableRecord
  2
0402_R_REF_30000_16
 70
0
 62
7
  6
CONTINUOUS
370
-3
390
F
  0
LAYER
  5
236
100
AcDbSymbolTableRecord
100
AcDbLayerTableRecord
  2
0402_R_REF_30000_17
 70
0
 62
7
  6
CONTINUOUS
370
-3
390
F
  0
LAYER
  5
237
100
AcDbSymbolTableRecord
100
AcDbLayerTableRecord
  2
0402_R_REF_30000_18
 70
0
 62
7
  6
CONTINUOUS
370
-3
390
F
  0
LAYER
  5
238
100
AcDbSymbolTableRecord
100
AcDbLayerTableRecord
  2
0402_R_REF_30000_19
 70
0
 62
7
  6
CONTINUOUS
370
-3
390
F
  0
LAYER
  5
239
100
AcDbSymbolTableRecord
100
AcDbLayerTableRecord
  2
0402_R_REF_30000_2
 70
0
 62
7
  6
CONTINUOUS
370
-3
390
F
  0
LAYER
  5
23A
100
AcDbSymbolTableRecord
100
AcDbLayerTableRecord
  2
0402_R_REF_30000_20
 70
0
 62
7
  6
CONTINUOUS
370
-3
390
F
  0
LAYER
  5
23B
100
AcDbSymbolTableRecord
100
AcDbLayerTableRecord
  2
0402_R_REF_30000_21
 70
0
 62
7
  6
CONTINUOUS
370
-3
390
F
  0
LAYER
  5
23C
100
AcDbSymbolTableRecord
100
AcDbLayerTableRecord
  2
0402_R_REF_30000_22
 70
0
 62
7
  6
CONTINUOUS
370
-3
390
F
  0
LAYER
  5
23D
100
AcDbSymbolTableRecord
100
AcDbLayerTableRecord
  2
0402_R_REF_30000_23
 70
0
 62
7
  6
CONTINUOUS
370
-3
390
F
  0
LAYER
  5
23E
100
AcDbSymbolTableRecord
100
AcDbLayerTableRecord
  2
0402_R_REF_30000_24
 70
0
 62
7
  6
CONTINUOUS
370
-3
390
F
  0
LAYER
  5
23F
100
AcDbSymbolTableRecord
100
AcDbLayerTableRecord
  2
0402_R_REF_30000_25
 70
0
 62
7
  6
CONTINUOUS
370
-3
390
F
  0
LAYER
  5
240
100
AcDbSymbolTableRecord
100
AcDbLayerTableRecord
  2
0402_R_REF_30000_26
 70
0
 62
7
  6
CONTINUOUS
370
-3
390
F
  0
LAYER
  5
241
100
AcDbSymbolTableRecord
100
AcDbLayerTableRecord
  2
0402_R_REF_30000_27
 70
0
 62
7
  6
CONTINUOUS
370
-3
390
F
  0
LAYER
  5
242
100
AcDbSymbolTableRecord
100
AcDbLayerTableRecord
  2
0402_R_REF_30000_28
 70
0
 62
7
  6
CONTINUOUS
370
-3
390
F
  0
LAYER
  5
243
100
AcDbSymbolTableRecord
100
AcDbLayerTableRecord
  2
0402_R_REF_30000_29
 70
0
 62
7
  6
CONTINUOUS
370
-3
390
F
  0
LAYER
  5
244
100
AcDbSymbolTableRecord
100
AcDbLayerTableRecord
  2
0402_R_REF_30000_3
 70
0
 62
7
  6
CONTINUOUS
370
-3
390
F
  0
LAYER
  5
245
100
AcDbSymbolTableRecord
100
AcDbLayerTableRecord
  2
0402_R_REF_30000_30
 70
0
 62
7
  6
CONTINUOUS
370
-3
390
F
  0
LAYER
  5
246
100
AcDbSymbolTableRecord
100
AcDbLayerTableRecord
  2
0402_R_REF_30000_31
 70
0
 62
7
  6
CONTINUOUS
370
-3
390
F
  0
LAYER
  5
247
100
AcDbSymbolTableRecord
100
AcDbLayerTableRecord
  2
0402_R_REF_30000_32
 70
0
 62
7
  6
CONTINUOUS
370
-3
390
F
  0
LAYER
  5
248
100
AcDbSymbolTableRecord
100
AcDbLayerTableRecord
  2
0402_R_REF_30000_33
 70
0
 62
7
  6
CONTINUOUS
370
-3
390
F
  0
LAYER
  5
249
100
AcDbSymbolTableRecord
100
AcDbLayerTableRecord
  2
0402_R_REF_30000_34
 70
0
 62
7
  6
CONTINUOUS
370
-3
390
F
  0
LAYER
  5
24A
100
AcDbSymbolTableRecord
100
AcDbLayerTableRecord
  2
0402_R_REF_30000_35
 70
0
 62
7
  6
CONTINUOUS
370
-3
390
F
  0
LAYER
  5
24B
100
AcDbSymbolTableRecord
100
AcDbLayerTableRecord
  2
0402_R_REF_30000_36
 70
0
 62
7
  6
CONTINUOUS
370
-3
390
F
  0
LAYER
  5
24C
100
AcDbSymbolTableRecord
100
AcDbLayerTableRecord
  2
0402_R_REF_30000_37
 70
0
 62
7
  6
CONTINUOUS
370
-3
390
F
  0
LAYER
  5
24D
100
AcDbSymbolTableRecord
100
AcDbLayerTableRecord
  2
0402_R_REF_30000_38
 70
0
 62
7
  6
CONTINUOUS
370
-3
390
F
  0
LAYER
  5
24E
100
AcDbSymbolTableRecord
100
AcDbLayerTableRecord
  2
0402_R_REF_30000_39
 70
0
 62
7
  6
CONTINUOUS
370
-3
390
F
  0
LAYER
  5
24F
100
AcDbSymbolTableRecord
100
AcDbLayerTableRecord
  2
0402_R_REF_30000_4
 70
0
 62
7
  6
CONTINUOUS
370
-3
390
F
  0
LAYER
  5
250
100
AcDbSymbolTableRecord
100
AcDbLayerTableRecord
  2
0402_R_REF_30000_40
 70
0
 62
7
  6
CONTINUOUS
370
-3
390
F
  0
LAYER
  5
251
100
AcDbSymbolTableRecord
100
AcDbLayerTableRecord
  2
0402_R_REF_30000_41
 70
0
 62
7
  6
CONTINUOUS
370
-3
390
F
  0
LAYER
  5
252
100
AcDbSymbolTableRecord
100
AcDbLayerTableRecord
  2
0402_R_REF_30000_42
 70
0
 62
7
  6
CONTINUOUS
370
-3
390
F
  0
LAYER
  5
253
100
AcDbSymbolTableRecord
100
AcDbLayerTableRecord
  2
0402_R_REF_30000_43
 70
0
 62
7
  6
CONTINUOUS
370
-3
390
F
  0
LAYER
  5
254
100
AcDbSymbolTableRecord
100
AcDbLayerTableRecord
  2
0402_R_REF_30000_44
 70
0
 62
7
  6
CONTINUOUS
370
-3
390
F
  0
LAYER
  5
255
100
AcDbSymbolTableRecord
100
AcDbLayerTableRecord
  2
0402_R_REF_30000_45
 70
0
 62
7
  6
CONTINUOUS
370
-3
390
F
  0
LAYER
  5
256
100
AcDbSymbolTableRecord
100
AcDbLayerTableRecord
  2
0402_R_REF_30000_46
 70
0
 62
7
  6
CONTINUOUS
370
-3
390
F
  0
LAYER
  5
257
100
AcDbSymbolTableRecord
100
AcDbLayerTableRecord
  2
0402_R_REF_30000_47
 70
0
 62
7
  6
CONTINUOUS
370
-3
390
F
  0
LAYER
  5
258
100
AcDbSymbolTableRecord
100
AcDbLayerTableRecord
  2
0402_R_REF_30000_48
 70
0
 62
7
  6
CONTINUOUS
370
-3
390
F
  0
LAYER
  5
259
100
AcDbSymbolTableRecord
100
AcDbLayerTableRecord
  2
0402_R_REF_30000_49
 70
0
 62
7
  6
CONTINUOUS
370
-3
390
F
  0
LAYER
  5
25A
100
AcDbSymbolTableRecord
100
AcDbLayerTableRecord
  2
0402_R_REF_30000_5
 70
0
 62
7
  6
CONTINUOUS
370
-3
390
F
  0
LAYER
  5
25B
100
AcDbSymbolTableRecord
100
AcDbLayerTableRecord
  2
0402_R_REF_30000_50
 70
0
 62
7
  6
CONTINUOUS
370
-3
390
F
  0
LAYER
  5
25C
100
AcDbSymbolTableRecord
100
AcDbLayerTableRecord
  2
0402_R_REF_30000_51
 70
0
 62
7
  6
CONTINUOUS
370
-3
390
F
  0
LAYER
  5
25D
100
AcDbSymbolTableRecord
100
AcDbLayerTableRecord
  2
0402_R_REF_30000_52
 70
0
 62
7
  6
CONTINUOUS
370
-3
390
F
  0
LAYER
  5
25E
100
AcDbSymbolTableRecord
100
AcDbLayerTableRecord
  2
0402_R_REF_30000_53
 70
0
 62
7
  6
CONTINUOUS
370
-3
390
F
  0
LAYER
  5
25F
100
AcDbSymbolTableRecord
100
AcDbLayerTableRecord
  2
0402_R_REF_30000_54
 70
0
 62
7
  6
CONTINUOUS
370
-3
390
F
  0
LAYER
  5
260
100
AcDbSymbolTableRecord
100
AcDbLayerTableRecord
  2
0402_R_REF_30000_55
 70
0
 62
7
  6
CONTINUOUS
370
-3
390
F
  0
LAYER
  5
261
100
AcDbSymbolTableRecord
100
AcDbLayerTableRecord
  2
0402_R_REF_30000_56
 70
0
 62
7
  6
CONTINUOUS
370
-3
390
F
  0
LAYER
  5
262
100
AcDbSymbolTableRecord
100
AcDbLayerTableRecord
  2
0402_R_REF_30000_6
 70
0
 62
7
  6
CONTINUOUS
370
-3
390
F
  0
LAYER
  5
263
100
AcDbSymbolTableRecord
100
AcDbLayerTableRecord
  2
0402_R_REF_30000_7
 70
0
 62
7
  6
CONTINUOUS
370
-3
390
F
  0
LAYER
  5
264
100
AcDbSymbolTableRecord
100
AcDbLayerTableRecord
  2
0402_R_REF_30000_8
 70
0
 62
7
  6
CONTINUOUS
370
-3
390
F
  0
LAYER
  5
265
100
AcDbSymbolTableRecord
100
AcDbLayerTableRecord
  2
0402_R_REF_30000_9
 70
0
 62
7
  6
CONTINUOUS
370
-3
390
F
  0
LAYER
  5
266
100
AcDbSymbolTableRecord
100
AcDbLayerTableRecord
  2
0603_C_REF_90000
 70
0
 62
7
  6
CONTINUOUS
370
-3
390
F
  0
LAYER
  5
267
100
AcDbSymbolTableRecord
100
AcDbLayerTableRecord
  2
0603_C_REF_90000_1
 70
0
 62
7
  6
CONTINUOUS
370
-3
390
F
  0
LAYER
  5
268
100
AcDbSymbolTableRecord
100
AcDbLayerTableRecord
  2
0603_C_REF_90000_2
 70
0
 62
7
  6
CONTINUOUS
370
-3
390
F
  0
LAYER
  5
269
100
AcDbSymbolTableRecord
100
AcDbLayerTableRecord
  2
0603_C_REF_90000_3
 70
0
 62
7
  6
CONTINUOUS
370
-3
390
F
  0
LAYER
  5
26A
100
AcDbSymbolTableRecord
100
AcDbLayerTableRecord
  2
0603_C_REF_90000_4
 70
0
 62
7
  6
CONTINUOUS
370
-3
390
F
  0
LAYER
  5
26B
100
AcDbSymbolTableRecord
100
AcDbLayerTableRecord
  2
0603_C_REF_90000_5
 70
0
 62
7
  6
CONTINUOUS
370
-3
390
F
  0
LAYER
  5
26C
100
AcDbSymbolTableRecord
100
AcDbLayerTableRecord
  2
0603_C_REF_90000_6
 70
0
 62
7
  6
CONTINUOUS
370
-3
390
F
  0
LAYER
  5
26D
100
AcDbSymbolTableRecord
100
AcDbLayerTableRecord
  2
0603_PTC_REF_80000
 70
0
 62
7
  6
CONTINUOUS
370
-3
390
F
  0
LAYER
  5
26E
100
AcDbSymbolTableRecord
100
AcDbLayerTableRecord
  2
0603_R_REF_55000
 70
0
 62
7
  6
CONTINUOUS
370
-3
390
F
  0
LAYER
  5
26F
100
AcDbSymbolTableRecord
100
AcDbLayerTableRecord
  2
06___PRT_ALL_SURFS
 70
0
 62
7
  6
CONTINUOUS
370
-3
390
F
  0
LAYER
  5
270
100
AcDbSymbolTableRecord
100
AcDbLayerTableRecord
  2
06___PRT_ALL_SURFS_1
 70
0
 62
7
  6
CONTINUOUS
370
-3
390
F
  0
LAYER
  5
271
100
AcDbSymbolTableRecord
100
AcDbLayerTableRecord
  2
06___PRT_ALL_SURFS_10
 70
0
 62
7
  6
CONTINUOUS
370
-3
390
F
  0
LAYER
  5
272
100
AcDbSymbolTableRecord
100
AcDbLayerTableRecord
  2
06___PRT_ALL_SURFS_11
 70
0
 62
7
  6
CONTINUOUS
370
-3
390
F
  0
LAYER
  5
273
100
AcDbSymbolTableRecord
100
AcDbLayerTableRecord
  2
06___PRT_ALL_SURFS_12
 70
0
 62
7
  6
CONTINUOUS
370
-3
390
F
  0
LAYER
  5
274
100
AcDbSymbolTableRecord
100
AcDbLayerTableRecord
  2
06___PRT_ALL_SURFS_13
 70
0
 62
7
  6
CONTINUOUS
370
-3
390
F
  0
LAYER
  5
275
100
AcDbSymbolTableRecord
100
AcDbLayerTableRecord
  2
06___PRT_ALL_SURFS_14
 70
0
 62
7
  6
CONTINUOUS
370
-3
390
F
  0
LAYER
  5
276
100
AcDbSymbolTableRecord
100
AcDbLayerTableRecord
  2
06___PRT_ALL_SURFS_15
 70
0
 62
7
  6
CONTINUOUS
370
-3
390
F
  0
LAYER
  5
277
100
AcDbSymbolTableRecord
100
AcDbLayerTableRecord
  2
06___PRT_ALL_SURFS_16
 70
0
 62
7
  6
CONTINUOUS
370
-3
390
F
  0
LAYER
  5
278
100
AcDbSymbolTableRecord
100
AcDbLayerTableRecord
  2
06___PRT_ALL_SURFS_17
 70
0
 62
7
  6
CONTINUOUS
370
-3
390
F
  0
LAYER
  5
279
100
AcDbSymbolTableRecord
100
AcDbLayerTableRecord
  2
06___PRT_ALL_SURFS_18
 70
0
 62
7
  6
CONTINUOUS
370
-3
390
F
  0
LAYER
  5
27A
100
AcDbSymbolTableRecord
100
AcDbLayerTableRecord
  2
06___PRT_ALL_SURFS_19
 70
0
 62
7
  6
CONTINUOUS
370
-3
390
F
  0
LAYER
  5
27B
100
AcDbSymbolTableRecord
100
AcDbLayerTableRecord
  2
06___PRT_ALL_SURFS_2
 70
0
 62
7
  6
CONTINUOUS
370
-3
390
F
  0
LAYER
  5
27C
100
AcDbSymbolTableRecord
100
AcDbLayerTableRecord
  2
06___PRT_ALL_SURFS_20
 70
0
 62
7
  6
CONTINUOUS
370
-3
390
F
  0
LAYER
  5
27D
100
AcDbSymbolTableRecord
100
AcDbLayerTableRecord
  2
06___PRT_ALL_SURFS_21
 70
0
 62
7
  6
CONTINUOUS
370
-3
390
F
  0
LAYER
  5
27E
100
AcDbSymbolTableRecord
100
AcDbLayerTableRecord
  2
06___PRT_ALL_SURFS_23
 70
0
 62
7
  6
CONTINUOUS
370
-3
390
F
  0
LAYER
  5
27F
100
AcDbSymbolTableRecord
100
AcDbLayerTableRecord
  2
06___PRT_ALL_SURFS_25
 70
0
 62
7
  6
CONTINUOUS
370
-3
390
F
  0
LAYER
  5
280
100
AcDbSymbolTableRecord
100
AcDbLayerTableRecord
  2
06___PRT_ALL_SURFS_27
 70
0
 62
7
  6
CONTINUOUS
370
-3
390
F
  0
LAYER
  5
281
100
AcDbSymbolTableRecord
100
AcDbLayerTableRecord
  2
06___PRT_ALL_SURFS_3
 70
0
 62
7
  6
CONTINUOUS
370
-3
390
F
  0
LAYER
  5
282
100
AcDbSymbolTableRecord
100
AcDbLayerTableRecord
  2
06___PRT_ALL_SURFS_30
 70
0
 62
7
  6
CONTINUOUS
370
-3
390
F
  0
LAYER
  5
283
100
AcDbSymbolTableRecord
100
AcDbLayerTableRecord
  2
06___PRT_ALL_SURFS_31
 70
0
 62
7
  6
CONTINUOUS
370
-3
390
F
  0
LAYER
  5
284
100
AcDbSymbolTableRecord
100
AcDbLayerTableRecord
  2
06___PRT_ALL_SURFS_32
 70
0
 62
7
  6
CONTINUOUS
370
-3
390
F
  0
LAYER
  5
285
100
AcDbSymbolTableRecord
100
AcDbLayerTableRecord
  2
06___PRT_ALL_SURFS_33
 70
0
 62
7
  6
CONTINUOUS
370
-3
390
F
  0
LAYER
  5
286
100
AcDbSymbolTableRecord
100
AcDbLayerTableRecord
  2
06___PRT_ALL_SURFS_38
 70
0
 62
7
  6
CONTINUOUS
370
-3
390
F
  0
LAYER
  5
287
100
AcDbSymbolTableRecord
100
AcDbLayerTableRecord
  2
06___PRT_ALL_SURFS_4
 70
0
 62
7
  6
CONTINUOUS
370
-3
390
F
  0
LAYER
  5
288
100
AcDbSymbolTableRecord
100
AcDbLayerTableRecord
  2
06___PRT_ALL_SURFS_41
 70
0
 62
7
  6
CONTINUOUS
370
-3
390
F
  0
LAYER
  5
289
100
AcDbSymbolTableRecord
100
AcDbLayerTableRecord
  2
06___PRT_ALL_SURFS_43
 70
0
 62
7
  6
CONTINUOUS
370
-3
390
F
  0
LAYER
  5
28A
100
AcDbSymbolTableRecord
100
AcDbLayerTableRecord
  2
06___PRT_ALL_SURFS_44
 70
0
 62
7
  6
CONTINUOUS
370
-3
390
F
  0
LAYER
  5
28B
100
AcDbSymbolTableRecord
100
AcDbLayerTableRecord
  2
06___PRT_ALL_SURFS_46
 70
0
 62
7
  6
CONTINUOUS
370
-3
390
F
  0
LAYER
  5
28C
100
AcDbSymbolTableRecord
100
AcDbLayerTableRecord
  2
06___PRT_ALL_SURFS_49
 70
0
 62
7
  6
CONTINUOUS
370
-3
390
F
  0
LAYER
  5
28D
100
AcDbSymbolTableRecord
100
AcDbLayerTableRecord
  2
06___PRT_ALL_SURFS_5
 70
0
 62
7
  6
CONTINUOUS
370
-3
390
F
  0
LAYER
  5
28E
100
AcDbSymbolTableRecord
100
AcDbLayerTableRecord
  2
06___PRT_ALL_SURFS_6
 70
0
 62
7
  6
CONTINUOUS
370
-3
390
F
  0
LAYER
  5
28F
100
AcDbSymbolTableRecord
100
AcDbLayerTableRecord
  2
06___PRT_ALL_SURFS_8
 70
0
 62
7
  6
CONTINUOUS
370
-3
390
F
  0
LAYER
  5
290
100
AcDbSymbolTableRecord
100
AcDbLayerTableRecord
  2
0805_C_REF_145000
 70
0
 62
7
  6
CONTINUOUS
370
-3
390
F
  0
LAYER
  5
291
100
AcDbSymbolTableRecord
100
AcDbLayerTableRecord
  2
0805_C_REF_145000_1
 70
0
 62
7
  6
CONTINUOUS
370
-3
390
F
  0
LAYER
  5
292
100
AcDbSymbolTableRecord
100
AcDbLayerTableRecord
  2
0805_L_REF_145000
 70
0
 62
7
  6
CONTINUOUS
370
-3
390
F
  0
LAYER
  5
293
100
AcDbSymbolTableRecord
100
AcDbLayerTableRecord
  2
0805_L_REF_145000_1
 70
0
 62
7
  6
CONTINUOUS
370
-3
390
F
  0
LAYER
  5
294
100
AcDbSymbolTableRecord
100
AcDbLayerTableRecord
  2
0805_R_REF_60000
 70
0
 62
7
  6
CONTINUOUS
370
-3
390
F
  0
LAYER
  5
295
100
AcDbSymbolTableRecord
100
AcDbLayerTableRecord
  2
0805_R_REF_60000_1
 70
0
 62
7
  6
CONTINUOUS
370
-3
390
F
  0
LAYER
  5
296
100
AcDbSymbolTableRecord
100
AcDbLayerTableRecord
  2
0805_R_REF_60000_2
 70
0
 62
7
  6
CONTINUOUS
370
-3
390
F
  0
LAYER
  5
297
100
AcDbSymbolTableRecord
100
AcDbLayerTableRecord
  2
0805_R_REF_60000_3
 70
0
 62
7
  6
CONTINUOUS
370
-3
390
F
  0
LAYER
  5
298
100
AcDbSymbolTableRecord
100
AcDbLayerTableRecord
  2
0805_R_REF_60000_4
 70
0
 62
7
  6
CONTINUOUS
370
-3
390
F
  0
LAYER
  5
299
100
AcDbSymbolTableRecord
100
AcDbLayerTableRecord
  2
0805_R_REF_60000_5
 70
0
 62
7
  6
CONTINUOUS
370
-3
390
F
  0
LAYER
  5
29A
100
AcDbSymbolTableRecord
100
AcDbLayerTableRecord
  2
0805_R_REF_60000_6
 70
0
 62
7
  6
CONTINUOUS
370
-3
390
F
  0
LAYER
  5
29B
100
AcDbSymbolTableRecord
100
AcDbLayerTableRecord
  2
0805_R_WAVE_60000
 70
0
 62
7
  6
CONTINUOUS
370
-3
390
F
  0
LAYER
  5
29C
100
AcDbSymbolTableRecord
100
AcDbLayerTableRecord
  2
0805_R_WAVE_60000_1
 70
0
 62
7
  6
CONTINUOUS
370
-3
390
F
  0
LAYER
  5
29D
100
AcDbSymbolTableRecord
100
AcDbLayerTableRecord
  2
0805_R_WAVE_60000_10
 70
0
 62
7
  6
CONTINUOUS
370
-3
390
F
  0
LAYER
  5
29E
100
AcDbSymbolTableRecord
100
AcDbLayerTableRecord
  2
0805_R_WAVE_60000_11
 70
0
 62
7
  6
CONTINUOUS
370
-3
390
F
  0
LAYER
  5
29F
100
AcDbSymbolTableRecord
100
AcDbLayerTableRecord
  2
0805_R_WAVE_60000_12
 70
0
 62
7
  6
CONTINUOUS
370
-3
390
F
  0
LAYER
  5
2A0
100
AcDbSymbolTableRecord
100
AcDbLayerTableRecord
  2
0805_R_WAVE_60000_13
 70
0
 62
7
  6
CONTINUOUS
370
-3
390
F
  0
LAYER
  5
2A1
100
AcDbSymbolTableRecord
100
AcDbLayerTableRecord
  2
0805_R_WAVE_60000_14
 70
0
 62
7
  6
CONTINUOUS
370
-3
390
F
  0
LAYER
  5
2A2
100
AcDbSymbolTableRecord
100
AcDbLayerTableRecord
  2
0805_R_WAVE_60000_2
 70
0
 62
7
  6
CONTINUOUS
370
-3
390
F
  0
LAYER
  5
2A3
100
AcDbSymbolTableRecord
100
AcDbLayerTableRecord
  2
0805_R_WAVE_60000_3
 70
0
 62
7
  6
CONTINUOUS
370
-3
390
F
  0
LAYER
  5
2A4
100
AcDbSymbolTableRecord
100
AcDbLayerTableRecord
  2
0805_R_WAVE_60000_4
 70
0
 62
7
  6
CONTINUOUS
370
-3
390
F
  0
LAYER
  5
2A5
100
AcDbSymbolTableRecord
100
AcDbLayerTableRecord
  2
0805_R_WAVE_60000_5
 70
0
 62
7
  6
CONTINUOUS
370
-3
390
F
  0
LAYER
  5
2A6
100
AcDbSymbolTableRecord
100
AcDbLayerTableRecord
  2
0805_R_WAVE_60000_6
 70
0
 62
7
  6
CONTINUOUS
370
-3
390
F
  0
LAYER
  5
2A7
100
AcDbSymbolTableRecord
100
AcDbLayerTableRecord
  2
0805_R_WAVE_60000_7
 70
0
 62
7
  6
CONTINUOUS
370
-3
390
F
  0
LAYER
  5
2A8
100
AcDbSymbolTableRecord
100
AcDbLayerTableRecord
  2
0805_R_WAVE_60000_8
 70
0
 62
7
  6
CONTINUOUS
370
-3
390
F
  0
LAYER
  5
2A9
100
AcDbSymbolTableRecord
100
AcDbLayerTableRecord
  2
0805_R_WAVE_60000_9
 70
0
 62
7
  6
CONTINUOUS
370
-3
390
F
  0
LAYER
  5
2AA
100
AcDbSymbolTableRecord
100
AcDbLayerTableRecord
  2
1206_C_REF_180000
 70
0
 62
7
  6
CONTINUOUS
370
-3
390
F
  0
LAYER
  5
2AB
100
AcDbSymbolTableRecord
100
AcDbLayerTableRecord
  2
1206_C_REF_180000_1
 70
0
 62
7
  6
CONTINUOUS
370
-3
390
F
  0
LAYER
  5
2AC
100
AcDbSymbolTableRecord
100
AcDbLayerTableRecord
  2
1206_C_REF_180000_2
 70
0
 62
7
  6
CONTINUOUS
370
-3
390
F
  0
LAYER
  5
2AD
100
AcDbSymbolTableRecord
100
AcDbLayerTableRecord
  2
1206_R_WAVE_65000
 70
0
 62
7
  6
CONTINUOUS
370
-3
390
F
  0
LAYER
  5
2AE
100
AcDbSymbolTableRecord
100
AcDbLayerTableRecord
  2
1206_R_WAVE_65000_1
 70
0
 62
7
  6
CONTINUOUS
370
-3
390
F
  0
LAYER
  5
2AF
100
AcDbSymbolTableRecord
100
AcDbLayerTableRecord
  2
1206_R_WAVE_65000_2
 70
0
 62
7
  6
CONTINUOUS
370
-3
390
F
  0
LAYER
  5
2B0
100
AcDbSymbolTableRecord
100
AcDbLayerTableRecord
  2
1206_R_WAVE_65000_3
 70
0
 62
7
  6
CONTINUOUS
370
-3
390
F
  0
LAYER
  5
2B1
100
AcDbSymbolTableRecord
100
AcDbLayerTableRecord
  2
2010_R_H1_REF_100000
 70
0
 62
7
  6
CONTINUOUS
370
-3
390
F
  0
LAYER
  5
2B2
100
AcDbSymbolTableRecord
100
AcDbLayerTableRecord
  2
2512_R_H1_REF_100000
 70
0
 62
7
  6
CONTINUOUS
370
-3
390
F
  0
LAYER
  5
2B3
100
AcDbSymbolTableRecord
100
AcDbLayerTableRecord
  2
43001022A0
 70
0
 62
7
  6
CONTINUOUS
370
-3
390
F
  0
LAYER
  5
2B4
100
AcDbSymbolTableRecord
100
AcDbLayerTableRecord
  2
43001023A0
 70
0
 62
7
  6
CONTINUOUS
370
-3
390
F
  0
LAYER
  5
2B5
100
AcDbSymbolTableRecord
100
AcDbLayerTableRecord
  2
43001023B0
 70
0
 62
7
  6
CONTINUOUS
370
-3
390
F
  0
LAYER
  5
2B6
100
AcDbSymbolTableRecord
100
AcDbLayerTableRecord
  2
43001027A0
 70
0
 62
7
  6
CONTINUOUS
370
-3
390
F
  0
LAYER
  5
2B7
100
AcDbSymbolTableRecord
100
AcDbLayerTableRecord
  2
43001027B0
 70
0
 62
7
  6
CONTINUOUS
370
-3
390
F
  0
LAYER
  5
2B8
100
AcDbSymbolTableRecord
100
AcDbLayerTableRecord
  2
43001042A0
 70
0
 62
7
  6
CONTINUOUS
370
-3
390
F
  0
LAYER
  5
2B9
100
AcDbSymbolTableRecord
100
AcDbLayerTableRecord
  2
43001043A0
 70
0
 62
7
  6
CONTINUOUS
370
-3
390
F
  0
LAYER
  5
2BA
100
AcDbSymbolTableRecord
100
AcDbLayerTableRecord
  2
43901022A0
 70
0
 62
7
  6
CONTINUOUS
370
-3
390
F
  0
LAYER
  5
2BB
100
AcDbSymbolTableRecord
100
AcDbLayerTableRecord
  2
43901023A0
 70
0
 62
7
  6
CONTINUOUS
370
-3
390
F
  0
LAYER
  5
2BC
100
AcDbSymbolTableRecord
100
AcDbLayerTableRecord
  2
43901023B0
 70
0
 62
7
  6
CONTINUOUS
370
-3
390
F
  0
LAYER
  5
2BD
100
AcDbSymbolTableRecord
100
AcDbLayerTableRecord
  2
43901027A0
 70
0
 62
7
  6
CONTINUOUS
370
-3
390
F
  0
LAYER
  5
2BE
100
AcDbSymbolTableRecord
100
AcDbLayerTableRecord
  2
43901027B0
 70
0
 62
7
  6
CONTINUOUS
370
-3
390
F
  0
LAYER
  5
2BF
100
AcDbSymbolTableRecord
100
AcDbLayerTableRecord
  2
43901042A0
 70
0
 62
7
  6
CONTINUOUS
370
-3
390
F
  0
LAYER
  5
2C0
100
AcDbSymbolTableRecord
100
AcDbLayerTableRecord
  2
43901043A0
 70
0
 62
7
  6
CONTINUOUS
370
-3
390
F
  0
LAYER
  5
2C1
100
AcDbSymbolTableRecord
100
AcDbLayerTableRecord
  2
ASSI
 70
0
 62
7
  6
CONTINUOUS
370
-3
390
F
  0
LAYER
  5
2C2
100
AcDbSymbolTableRecord
100
AcDbLayerTableRecord
  2
CAP-E-6_3-11-2_5_1120000
 70
0
 62
7
  6
CONTINUOUS
370
-3
390
F
  0
LAYER
  5
2C3
100
AcDbSymbolTableRecord
100
AcDbLayerTableRecord
  2
CAP-E-6_3-11-2_5_1120000_1
 70
0
 62
7
  6
CONTINUOUS
370
-3
390
F
  0
LAYER
  5
2C4
100
AcDbSymbolTableRecord
100
AcDbLayerTableRecord
  2
CAP-E-8_0-11_5-3_5_1200000
 70
0
 62
7
  6
CONTINUOUS
370
-3
390
F
  0
LAYER
  5
2C5
100
AcDbSymbolTableRecord
100
AcDbLayerTableRecord
  2
CAP-E-8_0-11_5-3_5_1200000_1
 70
0
 62
7
  6
CONTINUOUS
370
-3
390
F
  0
LAYER
  5
2C6
100
AcDbSymbolTableRecord
100
AcDbLayerTableRecord
  2
CAP-E-SMD-6_6-6_3-6_1_610000
 70
0
 62
7
  6
CONTINUOUS
370
-3
390
F
  0
LAYER
  5
2C7
100
AcDbSymbolTableRecord
100
AcDbLayerTableRecord
  2
CC-20MILS-VIMAR_1000
 70
0
 62
7
  6
CONTINUOUS
370
-3
390
F
  0
LAYER
  5
2C8
100
AcDbSymbolTableRecord
100
AcDbLayerTableRecord
  2
CC-20MILS-VIMAR_1000_1
 70
0
 62
7
  6
CONTINUOUS
370
-3
390
F
  0
LAYER
  5
2C9
100
AcDbSymbolTableRecord
100
AcDbLayerTableRecord
  2
COLOR1
 70
0
 62
7
  6
CONTINUOUS
370
-3
390
F
  0
LAYER
  5
2CA
100
AcDbSymbolTableRecord
100
AcDbLayerTableRecord
  2
COLOR101
 70
0
 62
7
  6
CONTINUOUS
370
-3
390
F
  0
LAYER
  5
2CB
100
AcDbSymbolTableRecord
100
AcDbLayerTableRecord
  2
COLOR106
 70
0
 62
7
  6
CONTINUOUS
370
-3
390
F
  0
LAYER
  5
2CC
100
AcDbSymbolTableRecord
100
AcDbLayerTableRecord
  2
COLOR109
 70
0
 62
7
  6
CONTINUOUS
370
-3
390
F
  0
LAYER
  5
2CD
100
AcDbSymbolTableRecord
100
AcDbLayerTableRecord
  2
COLOR14
 70
0
 62
7
  6
CONTINUOUS
370
-3
390
F
  0
LAYER
  5
2CE
100
AcDbSymbolTableRecord
100
AcDbLayerTableRecord
  2
COLOR158
 70
0
 62
7
  6
CONTINUOUS
370
-3
390
F
  0
LAYER
  5
2CF
100
AcDbSymbolTableRecord
100
AcDbLayerTableRecord
  2
COLOR16
 70
0
 62
7
  6
CONTINUOUS
370
-3
390
F
  0
LAYER
  5
2D0
100
AcDbSymbolTableRecord
100
AcDbLayerTableRecord
  2
COLOR170
 70
0
 62
7
  6
CONTINUOUS
370
-3
390
F
  0
LAYER
  5
2D1
100
AcDbSymbolTableRecord
100
AcDbLayerTableRecord
  2
COLOR171
 70
0
 62
7
  6
CONTINUOUS
370
-3
390
F
  0
LAYER
  5
2D2
100
AcDbSymbolTableRecord
100
AcDbLayerTableRecord
  2
COLOR19
 70
0
 62
7
  6
CONTINUOUS
370
-3
390
F
  0
LAYER
  5
2D3
100
AcDbSymbolTableRecord
100
AcDbLayerTableRecord
  2
COLOR2
 70
0
 62
7
  6
CONTINUOUS
370
-3
390
F
  0
LAYER
  5
2D4
100
AcDbSymbolTableRecord
100
AcDbLayerTableRecord
  2
COLOR209
 70
0
 62
7
  6
CONTINUOUS
370
-3
390
F
  0
LAYER
  5
2D5
100
AcDbSymbolTableRecord
100
AcDbLayerTableRecord
  2
COLOR211
 70
0
 62
7
  6
CONTINUOUS
370
-3
390
F
  0
LAYER
  5
2D6
100
AcDbSymbolTableRecord
100
AcDbLayerTableRecord
  2
COLOR5
 70
0
 62
7
  6
CONTINUOUS
370
-3
390
F
  0
LAYER
  5
2D7
100
AcDbSymbolTableRecord
100
AcDbLayerTableRecord
  2
COLOR7
 70
0
 62
7
  6
CONTINUOUS
370
-3
390
F
  0
LAYER
  5
2D8
100
AcDbSymbolTableRecord
100
AcDbLayerTableRecord
  2
COORDINATE
 70
0
 62
7
  6
CONTINUOUS
370
-3
390
F
  0
LAYER
  5
2D9
100
AcDbSymbolTableRecord
100
AcDbLayerTableRecord
  2
COORD_ORIGINE
 70
0
 62
7
  6
CONTINUOUS
370
-3
390
F
  0
LAYER
  5
2DA
100
AcDbSymbolTableRecord
100
AcDbLayerTableRecord
  2
COPY
 70
0
 62
7
  6
CONTINUOUS
370
-3
390
F
  0
LAYER
  5
2DB
100
AcDbSymbolTableRecord
100
AcDbLayerTableRecord
  2
COPY_PUBLISH
 70
0
 62
7
  6
CONTINUOUS
370
-3
390
F
  0
LAYER
  5
2DC
100
AcDbSymbolTableRecord
100
AcDbLayerTableRecord
  2
COSMETICI
 70
0
 62
7
  6
CONTINUOUS
370
-3
390
F
  0
LAYER
  5
2DD
100
AcDbSymbolTableRecord
100
AcDbLayerTableRecord
  2
CURVE
 70
0
 62
7
  6
CONTINUOUS
370
-3
390
F
  0
LAYER
  5
2DE
100
AcDbSymbolTableRecord
100
AcDbLayerTableRecord
  2
DL_RGB_1_6-1_6-0_5MM_50000
 70
0
 62
7
  6
CONTINUOUS
370
-3
390
F
  0
LAYER
  5
2DF
100
AcDbSymbolTableRecord
100
AcDbLayerTableRecord
  2
DRAFT
 70
0
 62
7
  6
CONTINUOUS
370
-3
390
F
  0
LAYER
  5
2E0
100
AcDbSymbolTableRecord
100
AcDbLayerTableRecord
  2
FIDUCIAL_1MM_0
 70
0
 62
7
  6
CONTINUOUS
370
-3
390
F
  0
LAYER
  5
2E1
100
AcDbSymbolTableRecord
100
AcDbLayerTableRecord
  2
FIDUCIAL_1MM_0_1
 70
0
 62
7
  6
CONTINUOUS
370
-3
390
F
  0
LAYER
  5
2E2
100
AcDbSymbolTableRecord
100
AcDbLayerTableRecord
  2
FIDUCIAL_1MM_0_2
 70
0
 62
7
  6
CONTINUOUS
370
-3
390
F
  0
LAYER
  5
2E3
100
AcDbSymbolTableRecord
100
AcDbLayerTableRecord
  2
FIDUCIAL_1MM_0_3
 70
0
 62
7
  6
CONTINUOUS
370
-3
390
F
  0
LAYER
  5
2E4
100
AcDbSymbolTableRecord
100
AcDbLayerTableRecord
  2
FIDUCIAL_1MM_0_4
 70
0
 62
7
  6
CONTINUOUS
370
-3
390
F
  0
LAYER
  5
2E5
100
AcDbSymbolTableRecord
100
AcDbLayerTableRecord
  2
FIDUCIAL_1MM_0_5
 70
0
 62
7
  6
CONTINUOUS
370
-3
390
F
  0
LAYER
  5
2E6
100
AcDbSymbolTableRecord
100
AcDbLayerTableRecord
  2
FIDUCIAL_1_2_MM_RUOTATO_45_1000
 70
0
 62
7
  6
CONTINUOUS
370
-3
390
F
  0
LAYER
  5
2E7
100
AcDbSymbolTableRecord
100
AcDbLayerTableRecord
  2
FIDUCIAL_1_2_MM_RUOTATO_45_10_1
 70
0
 62
7
  6
CONTINUOUS
370
-3
390
F
  0
LAYER
  5
2E8
100
AcDbSymbolTableRecord
100
AcDbLayerTableRecord
  2
FIDUCIAL_1_2_MM_RUOTATO_45_10_2
 70
0
 62
7
  6
CONTINUOUS
370
-3
390
F
  0
LAYER
  5
2E9
100
AcDbSymbolTableRecord
100
AcDbLayerTableRecord
  2
FIDUCIAL_1_2_MM_RUOTATO_45_10_3
 70
0
 62
7
  6
CONTINUOUS
370
-3
390
F
  0
LAYER
  5
2EA
100
AcDbSymbolTableRecord
100
AcDbLayerTableRecord
  2
GEOMETRIA_SOLIDA
 70
0
 62
7
  6
CONTINUOUS
370
-3
390
F
  0
LAYER
  5
2EB
100
AcDbSymbolTableRecord
100
AcDbLayerTableRecord
  2
GEOMETRIA_SOLIDA_1
 70
0
 62
7
  6
CONTINUOUS
370
-3
390
F
  0
LAYER
  5
2EC
100
AcDbSymbolTableRecord
100
AcDbLayerTableRecord
  2
GEOMETRIA_SOLIDA_2
 70
0
 62
7
  6
CONTINUOUS
370
-3
390
F
  0
LAYER
  5
2ED
100
AcDbSymbolTableRecord
100
AcDbLayerTableRecord
  2
GEOMETRIA_SOLIDA_3
 70
0
 62
7
  6
CONTINUOUS
370
-3
390
F
  0
LAYER
  5
2EE
100
AcDbSymbolTableRecord
100
AcDbLayerTableRecord
  2
GEOMETRIA_SOLIDA_4
 70
0
 62
7
  6
CONTINUOUS
370
-3
390
F
  0
LAYER
  5
2EF
100
AcDbSymbolTableRecord
100
AcDbLayerTableRecord
  2
GEOMETRIA_SOLIDA_5
 70
0
 62
7
  6
CONTINUOUS
370
-3
390
F
  0
LAYER
  5
2F0
100
AcDbSymbolTableRecord
100
AcDbLayerTableRecord
  2
GEOMETRIA_SOLIDA_6
 70
0
 62
7
  6
CONTINUOUS
370
-3
390
F
  0
LAYER
  5
2F1
100
AcDbSymbolTableRecord
100
AcDbLayerTableRecord
  2
GEOMETRIA_SOLIDA_7
 70
0
 62
7
  6
CONTINUOUS
370
-3
390
F
  0
LAYER
  5
2F2
100
AcDbSymbolTableRecord
100
AcDbLayerTableRecord
  2
IMPORT_IGES
 70
0
 62
7
  6
CONTINUOUS
370
-3
390
F
  0
LAYER
  5
2F3
100
AcDbSymbolTableRecord
100
AcDbLayerTableRecord
  2
IMPORT_IGES_5
 70
0
 62
7
  6
CONTINUOUS
370
-3
390
F
  0
LAYER
  5
2F4
100
AcDbSymbolTableRecord
100
AcDbLayerTableRecord
  2
IMPORT_IGES_7
 70
0
 62
7
  6
CONTINUOUS
370
-3
390
F
  0
LAYER
  5
2F5
100
AcDbSymbolTableRecord
100
AcDbLayerTableRecord
  2
IMPORT_IGES_8
 70
0
 62
7
  6
CONTINUOUS
370
-3
390
F
  0
LAYER
  5
2F6
100
AcDbSymbolTableRecord
100
AcDbLayerTableRecord
  2
IMPORT_IGES_9
 70
0
 62
7
  6
CONTINUOUS
370
-3
390
F
  0
LAYER
  5
2F7
100
AcDbSymbolTableRecord
100
AcDbLayerTableRecord
  2
IND-CHIP-0603-H1_0_REF_100000
 70
0
 62
7
  6
CONTINUOUS
370
-3
390
F
  0
LAYER
  5
2F8
100
AcDbSymbolTableRecord
100
AcDbLayerTableRecord
  2
IND-CHIP-2220_H5_0_500000
 70
0
 62
7
  6
CONTINUOUS
370
-3
390
F
  0
LAYER
  5
2F9
100
AcDbSymbolTableRecord
100
AcDbLayerTableRecord
  2
INTF_1
 70
0
 62
7
  6
CONTINUOUS
370
-3
390
F
  0
LAYER
  5
2FA
100
AcDbSymbolTableRecord
100
AcDbLayerTableRecord
  2
INTF_11
 70
0
 62
7
  6
CONTINUOUS
370
-3
390
F
  0
LAYER
  5
2FB
100
AcDbSymbolTableRecord
100
AcDbLayerTableRecord
  2
INTF_12
 70
0
 62
7
  6
CONTINUOUS
370
-3
390
F
  0
LAYER
  5
2FC
100
AcDbSymbolTableRecord
100
AcDbLayerTableRecord
  2
INTF_5
 70
0
 62
7
  6
CONTINUOUS
370
-3
390
F
  0
LAYER
  5
2FD
100
AcDbSymbolTableRecord
100
AcDbLayerTableRecord
  2
INTF_CYAN
 70
0
 62
7
  6
CONTINUOUS
370
-3
390
F
  0
LAYER
  5
2FE
100
AcDbSymbolTableRecord
100
AcDbLayerTableRecord
  2
LED_0805_120000
 70
0
 62
7
  6
CONTINUOUS
370
-3
390
F
  0
LAYER
  5
2FF
100
AcDbSymbolTableRecord
100
AcDbLayerTableRecord
  2
LOGO_RESIST-RESTYLING_10000
 70
0
 62
7
  6
CONTINUOUS
370
-3
390
F
  0
LAYER
  5
300
100
AcDbSymbolTableRecord
100
AcDbLayerTableRecord
  2
LOGO_RESIST-RESTYLING_10000_1
 70
0
 62
7
  6
CONTINUOUS
370
-3
390
F
  0
LAYER
  5
301
100
AcDbSymbolTableRecord
100
AcDbLayerTableRecord
  2
MINIMELF_R_REF_140000
 70
0
 62
7
  6
CONTINUOUS
370
-3
390
F
  0
LAYER
  5
302
100
AcDbSymbolTableRecord
100
AcDbLayerTableRecord
  2
MINIMELF_R_REF_140000_1
 70
0
 62
7
  6
CONTINUOUS
370
-3
390
F
  0
LAYER
  5
303
100
AcDbSymbolTableRecord
100
AcDbLayerTableRecord
  2
MIXEDCOLOR
 70
0
 62
7
  6
CONTINUOUS
370
-3
390
F
  0
LAYER
  5
304
100
AcDbSymbolTableRecord
100
AcDbLayerTableRecord
  2
NO-PB_MARK_10000
 70
0
 62
7
  6
CONTINUOUS
370
-3
390
F
  0
LAYER
  5
305
100
AcDbSymbolTableRecord
100
AcDbLayerTableRecord
  2
NOTE
 70
0
 62
7
  6
CONTINUOUS
370
-3
390
F
  0
LAYER
  5
306
100
AcDbSymbolTableRecord
100
AcDbLayerTableRecord
  2
PIANI
 70
0
 62
7
  6
CONTINUOUS
370
-3
390
F
  0
LAYER
  5
307
100
AcDbSymbolTableRecord
100
AcDbLayerTableRecord
  2
PIANI_ORIGINE
 70
0
 62
7
  6
CONTINUOUS
370
-3
390
F
  0
LAYER
  5
308
100
AcDbSymbolTableRecord
100
AcDbLayerTableRecord
  2
PIANI_RIFERIMENTO
 70
0
 62
7
  6
CONTINUOUS
370
-3
390
F
  0
LAYER
  5
309
100
AcDbSymbolTableRecord
100
AcDbLayerTableRecord
  2
PIANI_SFORMO
 70
0
 62
7
  6
CONTINUOUS
370
-3
390
F
  0
LAYER
  5
30A
100
AcDbSymbolTableRecord
100
AcDbLayerTableRecord
  2
POWERDI-123_100000
 70
0
 62
7
  6
CONTINUOUS
370
-3
390
F
  0
LAYER
  5
30B
100
AcDbSymbolTableRecord
100
AcDbLayerTableRecord
  2
PUNTI
 70
0
 62
7
  6
CONTINUOUS
370
-3
390
F
  0
LAYER
  5
30C
100
AcDbSymbolTableRecord
100
AcDbLayerTableRecord
  2
RACCORDO
 70
0
 62
7
  6
CONTINUOUS
370
-3
390
F
  0
LAYER
  5
30D
100
AcDbSymbolTableRecord
100
AcDbLayerTableRecord
  2
SC88-6_REF_H1_1_110000
 70
0
 62
7
  6
CONTINUOUS
370
-3
390
F
  0
LAYER
  5
30E
100
AcDbSymbolTableRecord
100
AcDbLayerTableRecord
  2
SC88-6_REF_H1_1_110000_1
 70
0
 62
7
  6
CONTINUOUS
370
-3
390
F
  0
LAYER
  5
30F
100
AcDbSymbolTableRecord
100
AcDbLayerTableRecord
  2
SC88-6_REF_H1_1_110000_2
 70
0
 62
7
  6
CONTINUOUS
370
-3
390
F
  0
LAYER
  5
310
100
AcDbSymbolTableRecord
100
AcDbLayerTableRecord
  2
SIMBOLI
 70
0
 62
7
  6
CONTINUOUS
370
-3
390
F
  0
LAYER
  5
311
100
AcDbSymbolTableRecord
100
AcDbLayerTableRecord
  2
SMUSSO
 70
0
 62
7
  6
CONTINUOUS
370
-3
390
F
  0
LAYER
  5
312
100
AcDbSymbolTableRecord
100
AcDbLayerTableRecord
  2
SO8C-5_0-6_2-1_75-REF_175000
 70
0
 62
7
  6
CONTINUOUS
370
-3
390
F
  0
LAYER
  5
313
100
AcDbSymbolTableRecord
100
AcDbLayerTableRecord
  2
SOD80_SOD-213AA_MINIMELF_REF_16
 70
0
 62
7
  6
CONTINUOUS
370
-3
390
F
  0
LAYER
  5
314
100
AcDbSymbolTableRecord
100
AcDbLayerTableRecord
  2
SOT23-5_REF_H1_5_150000
 70
0
 62
7
  6
CONTINUOUS
370
-3
390
F
  0
LAYER
  5
315
100
AcDbSymbolTableRecord
100
AcDbLayerTableRecord
  2
SOT323_H1_1_REF_110000
 70
0
 62
7
  6
CONTINUOUS
370
-3
390
F
  0
LAYER
  5
316
100
AcDbSymbolTableRecord
100
AcDbLayerTableRecord
  2
SOT323_H1_1_REF_110000_1
 70
0
 62
7
  6
CONTINUOUS
370
-3
390
F
  0
LAYER
  5
317
100
AcDbSymbolTableRecord
100
AcDbLayerTableRecord
  2
SOT323_H1_1_REF_110000_2
 70
0
 62
7
  6
CONTINUOUS
370
-3
390
F
  0
LAYER
  5
318
100
AcDbSymbolTableRecord
100
AcDbLayerTableRecord
  2
SOT323_H1_1_REF_110000_3
 70
0
 62
7
  6
CONTINUOUS
370
-3
390
F
  0
LAYER
  5
319
100
AcDbSymbolTableRecord
100
AcDbLayerTableRecord
  2
SOT323_H1_1_REF_110000_4
 70
0
 62
7
  6
CONTINUOUS
370
-3
390
F
  0
LAYER
  5
31A
100
AcDbSymbolTableRecord
100
AcDbLayerTableRecord
  2
SOT323_H1_1_REF_110000_5
 70
0
 62
7
  6
CONTINUOUS
370
-3
390
F
  0
LAYER
  5
31B
100
AcDbSymbolTableRecord
100
AcDbLayerTableRecord
  2
SOT323_H1_1_REF_110000_6
 70
0
 62
7
  6
CONTINUOUS
370
-3
390
F
  0
LAYER
  5
31C
100
AcDbSymbolTableRecord
100
AcDbLayerTableRecord
  2
SOT323_H1_1_REF_110000_7
 70
0
 62
7
  6
CONTINUOUS
370
-3
390
F
  0
LAYER
  5
31D
100
AcDbSymbolTableRecord
100
AcDbLayerTableRecord
  2
SOT89_REF_H1_6_160000
 70
0
 62
7
  6
CONTINUOUS
370
-3
390
F
  0
LAYER
  5
31E
100
AcDbSymbolTableRecord
100
AcDbLayerTableRecord
  2
SOT89_REF_H1_6_160000_1
 70
0
 62
7
  6
CONTINUOUS
370
-3
390
F
  0
LAYER
  5
31F
100
AcDbSymbolTableRecord
100
AcDbLayerTableRecord
  2
SUB_SMA_143000
 70
0
 62
7
  6
CONTINUOUS
370
-3
390
F
  0
LAYER
  5
320
100
AcDbSymbolTableRecord
100
AcDbLayerTableRecord
  2
SUB_SMA_143000_1
 70
0
 62
7
  6
CONTINUOUS
370
-3
390
F
  0
LAYER
  5
321
100
AcDbSymbolTableRecord
100
AcDbLayerTableRecord
  2
SUB_SMA_143000_2
 70
0
 62
7
  6
CONTINUOUS
370
-3
390
F
  0
LAYER
  5
322
100
AcDbSymbolTableRecord
100
AcDbLayerTableRecord
  2
SUB_SMA_143000_3
 70
0
 62
7
  6
CONTINUOUS
370
-3
390
F
  0
LAYER
  5
323
100
AcDbSymbolTableRecord
100
AcDbLayerTableRecord
  2
SUB_SMA_143000_4
 70
0
 62
7
  6
CONTINUOUS
370
-3
390
F
  0
LAYER
  5
324
100
AcDbSymbolTableRecord
100
AcDbLayerTableRecord
  2
SUB_SMA_143000_5
 70
0
 62
7
  6
CONTINUOUS
370
-3
390
F
  0
LAYER
  5
325
100
AcDbSymbolTableRecord
100
AcDbLayerTableRecord
  2
SUPERFICI
 70
0
 62
7
  6
CONTINUOUS
370
-3
390
F
  0
LAYER
  5
326
100
AcDbSymbolTableRecord
100
AcDbLayerTableRecord
  2
SWITCH_SKRP_250000
 70
0
 62
7
  6
CONTINUOUS
370
-3
390
F
  0
LAYER
  5
327
100
AcDbSymbolTableRecord
100
AcDbLayerTableRecord
  2
SWITCH_SKRP_250000_1
 70
0
 62
7
  6
CONTINUOUS
370
-3
390
F
  0
LAYER
  5
328
100
AcDbSymbolTableRecord
100
AcDbLayerTableRecord
  2
SYMBOL_DATA_10000
 70
0
 62
7
  6
CONTINUOUS
370
-3
390
F
  0
LAYER
  5
329
100
AcDbSymbolTableRecord
100
AcDbLayerTableRecord
  2
SYMBOL_NO-PB_10000
 70
0
 62
7
  6
CONTINUOUS
370
-3
390
F
  0
LAYER
  5
32A
100
AcDbSymbolTableRecord
100
AcDbLayerTableRecord
  2
SYMBOL_NO-PB_10000_1
 70
0
 62
7
  6
CONTINUOUS
370
-3
390
F
  0
LAYER
  5
32B
100
AcDbSymbolTableRecord
100
AcDbLayerTableRecord
  2
TO92-H8_0-P2_54_800000
 70
0
 62
7
  6
CONTINUOUS
370
-3
390
F
  0
LAYER
  5
32C
100
AcDbSymbolTableRecord
100
AcDbLayerTableRecord
  2
TP-RND-1_0_3500
 70
0
 62
7
  6
CONTINUOUS
370
-3
390
F
  0
LAYER
  5
32D
100
AcDbSymbolTableRecord
100
AcDbLayerTableRecord
  2
TP-RND-1_0_3500_1
 70
0
 62
7
  6
CONTINUOUS
370
-3
390
F
  0
LAYER
  5
32E
100
AcDbSymbolTableRecord
100
AcDbLayerTableRecord
  2
TP-RND-1_5_1000
 70
0
 62
7
  6
CONTINUOUS
370
-3
390
F
  0
LAYER
  5
32F
100
AcDbSymbolTableRecord
100
AcDbLayerTableRecord
  2
TP-RND-1_5_1000_1
 70
0
 62
7
  6
CONTINUOUS
370
-3
390
F
  0
LAYER
  5
330
100
AcDbSymbolTableRecord
100
AcDbLayerTableRecord
  2
TP-RND-1_5_1000_2
 70
0
 62
7
  6
CONTINUOUS
370
-3
390
F
  0
LAYER
  5
331
100
AcDbSymbolTableRecord
100
AcDbLayerTableRecord
  2
TP-RND-1_5_1000_3
 70
0
 62
7
  6
CONTINUOUS
370
-3
390
F
  0
LAYER
  5
332
100
AcDbSymbolTableRecord
100
AcDbLayerTableRecord
  2
TP-RND-1_5_1000_4
 70
0
 62
7
  6
CONTINUOUS
370
-3
390
F
  0
LAYER
  5
333
100
AcDbSymbolTableRecord
100
AcDbLayerTableRecord
  2
TP-RND-1_5_1000_5
 70
0
 62
7
  6
CONTINUOUS
370
-3
390
F
  0
LAYER
  5
334
100
AcDbSymbolTableRecord
100
AcDbLayerTableRecord
  2
TP_PROGRAMMAZIONE_SWD_D1_5_1000
 70
0
 62
7
  6
CONTINUOUS
370
-3
390
F
  0
LAYER
  5
335
100
AcDbSymbolTableRecord
100
AcDbLayerTableRecord
  2
TRASH
 70
0
 62
7
  6
CONTINUOUS
370
-3
390
F
  0
LAYER
  5
336
100
AcDbSymbolTableRecord
100
AcDbLayerTableRecord
  2
TSSOP16-5_0-6_4-1_1-REF_110000
 70
0
 62
7
  6
CONTINUOUS
370
-3
390
F
  0
LAYER
  5
337
100
AcDbSymbolTableRecord
100
AcDbLayerTableRecord
  2
VAR_S07_D9_S3_6_H11_1100000
 70
0
 62
7
  6
CONTINUOUS
370
-3
390
F
  0
LAYER
  5
338
100
AcDbSymbolTableRecord
100
AcDbLayerTableRecord
  2
VG_CN-M-THT-P5_0-R1-P2-SET-H14_
 70
0
 62
7
  6
CONTINUOUS
370
-3
390
F
  0
LAYER
  5
339
100
AcDbSymbolTableRecord
100
AcDbLayerTableRecord
  2
VG_CN-M-THT-P5_0-R1-P2-SET-H1_1
 70
0
 62
7
  6
CONTINUOUS
370
-3
390
F
  0
LAYER
  5
33A
100
AcDbSymbolTableRecord
100
AcDbLayerTableRecord
  2
VG_CN-M-THT-P5_0-R1-P5-SET-H14_
 70
0
 62
7
  6
CONTINUOUS
370
-3
390
F
  0
LAYER
  5
33B
100
AcDbSymbolTableRecord
100
AcDbLayerTableRecord
  2
VG_CN-MEZZANINE-F-SMT-P0_8-R2-P
 70
0
 62
7
  6
CONTINUOUS
370
-3
390
F
  0
LAYER
  5
33C
100
AcDbSymbolTableRecord
100
AcDbLayerTableRecord
  2
VG_CN-MEZZANINE-M-SMT-P0_8-R2-P
 70
0
 62
7
  6
CONTINUOUS
370
-3
390
F
  0
LAYER
  5
33D
100
AcDbSymbolTableRecord
100
AcDbLayerTableRecord
  2
VG_CN-SOCKET-F-THT-P1_27-R1-P2-
 70
0
 62
7
  6
CONTINUOUS
370
-3
390
F
  0
LAYER
  5
33E
100
AcDbSymbolTableRecord
100
AcDbLayerTableRecord
  2
VG_CN-SOCKET-F-THT-P1_27-R1-P9-
 70
0
 62
7
  6
CONTINUOUS
370
-3
390
F
  0
LAYER
  5
33F
100
AcDbSymbolTableRecord
100
AcDbLayerTableRecord
  2
VG_CN-STRIP-M-SMT-P1_27-R1-P2-T
 70
0
 62
7
  6
CONTINUOUS
370
-3
390
F
  0
LAYER
  5
340
100
AcDbSymbolTableRecord
100
AcDbLayerTableRecord
  2
VG_CN-STRIP-M-SMT-P1_27-R1-P9-T
 70
0
 62
7
  6
CONTINUOUS
370
-3
390
F
  0
LAYER
  5
341
100
AcDbSymbolTableRecord
100
AcDbLayerTableRecord
  2
VG_CN-STRIP-M-SMT-P2_0-R1-P2-SE
 70
0
 62
7
  6
CONTINUOUS
370
-3
390
F
  0
LAYER
  5
342
100
AcDbSymbolTableRecord
100
AcDbLayerTableRecord
  2
VG_CN-STRIP-M-SMT-P2_0-R1-P2-TE
 70
0
 62
7
  6
CONTINUOUS
370
-3
390
F
  0
LAYER
  5
343
100
AcDbSymbolTableRecord
100
AcDbLayerTableRecord
  2
VG_CN-STRIP-M-SMT-P2_0-R1-P9-TE
 70
0
 62
7
  6
CONTINUOUS
370
-3
390
F
  0
LAYER
  5
344
100
AcDbSymbolTableRecord
100
AcDbLayerTableRecord
  2
VG_CN-STRIP-M-THT-P1_27-R1-P2-T
 70
0
 62
7
  6
CONTINUOUS
370
-3
390
F
  0
LAYER
  5
345
100
AcDbSymbolTableRecord
100
AcDbLayerTableRecord
  2
VG_CN-STRIP-M-THT-P1_27-R1-P9-T
 70
0
 62
7
  6
CONTINUOUS
370
-3
390
F
  0
LAYER
  5
346
100
AcDbSymbolTableRecord
100
AcDbLayerTableRecord
  2
VG_FUSE-ASS-3_5-15_0-14_0-0_6-1
 70
0
 62
7
  6
CONTINUOUS
370
-3
390
F
  0
LAYER
  5
347
100
AcDbSymbolTableRecord
100
AcDbLayerTableRecord
  2
VG_FUSE_13X3_H10_1300000
 70
0
 62
7
  6
CONTINUOUS
370
-3
390
F
  0
LAYER
  5
348
100
AcDbSymbolTableRecord
100
AcDbLayerTableRecord
  2
VG_IND-CHIP-0402-POL-1_0-REF_10
 70
0
 62
7
  6
CONTINUOUS
370
-3
390
F
  0
LAYER
  5
349
100
AcDbSymbolTableRecord
100
AcDbLayerTableRecord
  2
VG_IND-CHIP-0402-POL-1_0-REF__1
 70
0
 62
7
  6
CONTINUOUS
370
-3
390
F
  0
LAYER
  5
34A
100
AcDbSymbolTableRecord
100
AcDbLayerTableRecord
  2
VG_IND-SMT-5_0-5_0-4_0-2_3-4_5-
 70
0
 62
7
  6
CONTINUOUS
370
-3
390
F
  0
LAYER
  5
34B
100
AcDbSymbolTableRecord
100
AcDbLayerTableRecord
  2
VG_IND-SMT-7_8-7_0-5_0-2_0-7_5-
 70
0
 62
7
  6
CONTINUOUS
370
-3
390
F
  0
LAYER
  5
34C
100
AcDbSymbolTableRecord
100
AcDbLayerTableRecord
  2
VG_QCS5F_40000
 70
0
 62
7
  6
CONTINUOUS
370
-3
390
F
  0
LAYER
  5
34D
100
AcDbSymbolTableRecord
100
AcDbLayerTableRecord
  2
VG_QFN73-7_0-7_0-7_0-7_0-0_85-0
 70
0
 62
7
  6
CONTINUOUS
370
-3
390
F
  0
LAYER
  5
34E
100
AcDbSymbolTableRecord
100
AcDbLayerTableRecord
  2
VG_RES-ASS-4_0-10_0-0_8-15_0-H6
 70
0
 62
7
  6
CONTINUOUS
370
-3
390
F
  0
LAYER
  5
34F
100
AcDbSymbolTableRecord
100
AcDbLayerTableRecord
  2
VG_TO220F_H16_1600000
 70
0
 62
7
  6
CONTINUOUS
370
-3
390
F
  0
LAYER
  5
350
100
AcDbSymbolTableRecord
100
AcDbLayerTableRecord
  2
VG_TO220F_H16_1600000_1
 70
0
 62
7
  6
CONTINUOUS
370
-3
390
F
  0
LAYER
  5
351
100
AcDbSymbolTableRecord
100
AcDbLayerTableRecord
  2
VG_X-SMT-2-3_2-1_5-1_0_100000
 70
0
 62
7
  6
CONTINUOUS
370
-3
390
F
  0
LAYER
  5
352
100
AcDbSymbolTableRecord
100
AcDbLayerTableRecord
  2
VG_X-SMT-2-5_0-3_2-1_5_150000
 70
0
 62
7
  6
CONTINUOUS
370
-3
390
F
  0
LAYER
  5
353
100
AcDbSymbolTableRecord
100
AcDbLayerTableRecord
  2
XSEC_DATUMS
 70
0
 62
7
  6
CONTINUOUS
370
-3
390
F
  0
LAYER
  5
354
100
AcDbSymbolTableRecord
100
AcDbLayerTableRecord
  2
___SHELL
 70
0
 62
7
  6
CONTINUOUS
370
-3
390
F
  0
ENDTAB
  0
TABLE
  2
STYLE
  5
3
100
AcDbSymbolTable
 70
1
  0
STYLE
  5
11
100
AcDbSymbolTableRecord
100
AcDbTextStyleTableRecord
  2
STANDARD
 70
0
 40
0.0
 41
0.8
 50
0.0
 71
0
 42
0.2
  3
txt
  4

  0
STYLE
  5
355
100
AcDbSymbolTableRecord
100
AcDbTextStyleTableRecord
  2
TEXTSTYLE_1
 70
0
 40
0.0
 41
0.8
 50
0.0
 71
0
 42
0.2
  3
gdt
  4

  0
ENDTAB
  0
TABLE
  2
VIEW
  5
6
100
AcDbSymbolTable
 70
0
  0
ENDTAB
  0
TABLE
  2
UCS
  5
7
100
AcDbSymbolTable
 70
0
  0
ENDTAB
  0
TABLE
  2
APPID
  5
9
100
AcDbSymbolTable
 70
1
  0
APPID
  5
356
100
AcDbSymbolTableRecord
100
AcDbRegAppTableRecord
  2
ACAD
 70
0
  0
ENDTAB
  0
TABLE
  2
BLOCK_RECORD
  5
1
100
AcDbSymbolTable
 70
0
  0
BLOCK_RECORD
  5
357
100
AcDbSymbolTableRecord
100
AcDbBlockTableRecord
  2
*Model_Space
  0
BLOCK_RECORD
  5
358
100
AcDbSymbolTableRecord
100
AcDbBlockTableRecord
  2
*Paper_Space
  0
BLOCK_RECORD
  5
359
100
AcDbSymbolTableRecord
100
AcDbBlockTableRecord
  2
_FILLED
  0
ENDTAB
  0
TABLE
  2
DIMSTYLE
  5
A
100
AcDbSymbolTable
 70
1
100
AcDbDimStyleTable
 71
0
  0
DIMSTYLE
105
35A
100
AcDbSymbolTableRecord
100
AcDbDimStyleTableRecord
  2
STANDARD
 70
0
  3

  4

 40
1.0
 41
3.0
 42
0.5
 43
0.38
 44
1.5
 45
0.0
 46
0.0
 47
0.01
 48
0.01
140
3.0
141
0.09
142
0.0
143
25.4
144
1.0
145
0.0
146
1.0
147
0.625
 71
1
 72
0
 73
0
 74
0
 75
0
 76
0
 77
1
 78
8
 79
2
170
0
171
1
172
0
173
0
174
0
175
0
176
0
177
0
178
0
270
2
179
2
271
2
272
2
273
2
274
2
275
0
280
0
281
0
282
0
283
1
284
8
285
0
286
0
287
3
288
0
340
11
278
44
341
359
342
359
343
359
344
359
  0
ENDTAB
  0
ENDSEC
  0
SECTION
  2
BLOCKS
  0
BLOCK
  5
20
100
AcDbEntity
  8
0
100
AcDbBlockBegin
  2
*Model_Space
 70
0
 10
0.0
 20
0.0
 30
0.0
  3
*Model_Space
  1

  0
ENDBLK
  5
21
100
AcDbEntity
  8
0
100
AcDbBlockEnd
  0
BLOCK
  5
1C
100
AcDbEntity
  8
0
100
AcDbBlockBegin
  2
*Paper_Space
 70
0
 10
0.0
 20
0.0
 30
0.0
  3
*Paper_Space
  1

  0
ENDBLK
  5
1D
100
AcDbEntity
  8
0
100
AcDbBlockEnd
  0
BLOCK
  5
35B
100
AcDbEntity
  8
0
100
AcDbBlockBegin
  2
_FILLED
 70
64
 10
0.0
 20
0.0
  3
_FILLED
  1

  0
SOLID
  5
35C
100
AcDbEntity
  8
0
  6
BYBLOCK
 62
0
100
AcDbTrace
 10
0.0
 20
0.0
 11
-1.0
 21
0.3166666667
 12
-1.0
 22
-0.3166666667
 13
-1.0
 23
-0.3166666667
  0
ENDBLK
  5
35D
100
AcDbEntity
  8
0
  6
BYBLOCK
 62
0
100
AcDbBlockEnd
  0
ENDSEC
  0
SECTION
  2
ENTITIES
  0
LWPOLYLINE
  5
35E
100
AcDbEntity
  8
ASSI
100
AcDbPolyline
 62
7
  6
CONTINUOUS
 90
10
 70
0
 10
3.6748574782
 20
-23.5
 10
3.7403304144
 20
-23.4978093846
 10
3.804984264
 20
-23.4914781931
 10
3.8688190271
 20
-23.4810064255
 10
3.9320970783
 20
-23.4663149731
 10
3.994556043
 20
-23.4474829446
 10
4.0554087969
 20
-23.4247476662
 10
4.1143929653
 20
-23.3981882466
 10
4.1717709229
 20
-23.367725577
 10
4.2275426698
 20
-23.3333596575
  0
LINE
  5
35F
100
AcDbEntity
  8
ASSI
100
AcDbLine
 62
7
  6
CONTINUOUS
 10
3.6748574782
 20
-23.5
 11
-3.6748574782
 21
-23.5
  0
LINE
  5
360
100
AcDbEntity
  8
ASSI
100
AcDbLine
 62
7
  6
CONTINUOUS
 10
3.3633443637
 20
-23.4668353766
 11
-3.3633443637
 21
-23.4668353766
  0
LINE
  5
361
100
AcDbEntity
  8
ASSI
100
AcDbLine
 62
7
  6
CONTINUOUS
 10
3.653791075
 20
-23.4301797403
 11
3.4
 21
-23.4301797403
  0
LINE
  5
362
100
AcDbEntity
  8
ASSI
100
AcDbLine
 62
7
  6
CONTINUOUS
 10
-3.4
 20
-23.4301797403
 11
-3.653791075
 21
-23.4301797403
  0
LINE
  5
363
100
AcDbEntity
  8
0
100
AcDbLine
 62
7
  6
CONTINUOUS
 10
-3.0300365522
 20
-23.375
 11
3.0300365522
 21
-23.375
  0
LINE
  5
364
100
AcDbEntity
  8
0
100
AcDbLine
 62
250
  6
CONTINUOUS
 10
3.0154690987
 20
-23.3164213562
 11
-3.0154690987
 21
-23.3164213562
  0
LINE
  5
365
100
AcDbEntity
  8
0
100
AcDbLine
 62
250
  6
CONTINUOUS
 10
-3.230158461
 20
-23.175
 11
-3.2153472641
 21
-23.175
  0
LINE
  5
366
100
AcDbEntity
  8
0
100
AcDbLine
 62
250
  6
CONTINUOUS
 10
3.2153472641
 20
-23.175
 11
3.230158461
 21
-23.175
  0
LINE
  5
367
100
AcDbEntity
  8
ASSI
100
AcDbLine
 62
7
  6
CONTINUOUS
 10
3.3633443637
 20
-22.5
 11
3.230158461
 21
-22.5
  0
LINE
  5
368
100
AcDbEntity
  8
ASSI
100
AcDbLine
 62
7
  6
CONTINUOUS
 10
-3.230158461
 20
-22.5
 11
-3.3633443637
 21
-22.5
  0
LINE
  5
369
100
AcDbEntity
  8
0
100
AcDbLine
 62
7
  6
CONTINUOUS
 10
-10.6503805997
 20
-22.4
 11
-5.5446027758
 21
-22.4
  0
LINE
  5
36A
100
AcDbEntity
  8
0
100
AcDbLine
 62
7
  6
CONTINUOUS
 10
-3.3848722771
 20
-22.4
 11
-3.3
 21
-22.4
  0
LINE
  5
36B
100
AcDbEntity
  8
0
100
AcDbLine
 62
7
  6
CONTINUOUS
 10
3.3
 20
-22.4
 11
3.3848722771
 21
-22.4
  0
LINE
  5
36C
100
AcDbEntity
  8
0
100
AcDbLine
 62
7
  6
CONTINUOUS
 10
5.5446027758
 20
-22.4
 11
10.6503805997
 21
-22.4
  0
LWPOLYLINE
  5
36D
100
AcDbEntity
  8
ASSI
100
AcDbPolyline
 62
7
  6
CONTINUOUS
 90
10
 70
0
 10
-3.653791075
 20
-23.4301797403
 10
-3.7193524144
 20
-23.4279830815
 10
-3.784091406
 20
-23.4216350423
 10
-3.8480080499
 20
-23.4111356227
 10
-3.9113657378
 20
-23.3964052951
 10
-3.9739010778
 20
-23.3775235872
 10
-4.0348238951
 20
-23.3547290816
 10
-4.0938707981
 20
-23.328101306
 10
-4.1513051783
 20
-23.2975607327
 10
-4.2071270357
 20
-23.2631073618
  0
LWPOLYLINE
  5
36E
100
AcDbEntity
  8
ASSI
100
AcDbPolyline
 62
7
  6
CONTINUOUS
 90
10
 70
0
 10
-4.2275426698
 20
23.3333596575
 10
-4.1717709229
 20
23.367725577
 10
-4.1143929653
 20
23.3981882466
 10
-4.0554087969
 20
23.4247476662
 10
-3.994556043
 20
23.4474829446
 10
-3.9320970783
 20
23.4663149731
 10
-3.8688190271
 20
23.4810064255
 10
-3.804984264
 20
23.4914781931
 10
-3.7403304144
 20
23.4978093846
 10
-3.6748574782
 20
23.5
  0
LINE
  5
36F
100
AcDbEntity
  8
ASSI
100
AcDbLine
 62
7
  6
CONTINUOUS
 10
-2.6175930356
 20
-21.1271628567
 11
-3.4
 21
-21.2
  0
LINE
  5
370
100
AcDbEntity
  8
0
100
AcDbLine
 62
7
  6
CONTINUOUS
 10
-2.6175930356
 20
-21.1271628567
 11
-3.4
 21
-21.2
  0
LINE
  5
371
100
AcDbEntity
  8
ASSI
100
AcDbLine
 62
7
  6
CONTINUOUS
 10
-3.0812528557
 20
-22.2
 11
3.0812528557
 21
-22.2
  0
LINE
  5
372
100
AcDbEntity
  8
0
100
AcDbLine
 62
7
  6
CONTINUOUS
 10
-2.9969695968
 20
-22.2
 11
-3.0812528557
 21
-22.2
  0
LINE
  5
373
100
AcDbEntity
  8
0
100
AcDbLine
 62
7
  6
CONTINUOUS
 10
2.9969695968
 20
-22.2
 11
3.0812528557
 21
-22.2
  0
LINE
  5
374
100
AcDbEntity
  8
0
100
AcDbLine
 62
250
  6
CONTINUOUS
 10
3.1705494094
 20
-21.8921572875
 11
3.0812528557
 21
-21.8921572875
  0
LINE
  5
375
100
AcDbEntity
  8
0
100
AcDbLine
 62
250
  6
CONTINUOUS
 10
-3.1705494094
 20
-21.8921572875
 11
-3.0812528557
 21
-21.8921572875
  0
LINE
  5
376
100
AcDbEntity
  8
ASSI
100
AcDbLine
 62
7
  6
CONTINUOUS
 10
2.7167632191
 20
-21.6560705017
 11
-2.7167632191
 21
-21.6560705017
  0
LINE
  5
377
100
AcDbEntity
  8
0
100
AcDbLine
 62
250
  6
CONTINUOUS
 10
3.1705494094
 20
-21.2417754733
 11
3.0812528557
 21
-21.2417754733
  0
LINE
  5
378
100
AcDbEntity
  8
0
100
AcDbLine
 62
250
  6
CONTINUOUS
 10
-3.1705494094
 20
-21.2417754733
 11
-3.0812528557
 21
-21.2417754733
  0
LINE
  5
379
100
AcDbEntity
  8
ASSI
100
AcDbLine
 62
7
  6
CONTINUOUS
 10
6.9339198284
 20
-21.2
 11
3.4
 21
-21.2
  0
LINE
  5
37A
100
AcDbEntity
  8
ASSI
100
AcDbLine
 62
7
  6
CONTINUOUS
 10
-3.4
 20
-21.2
 11
-6.9339198284
 21
-21.2
  0
LINE
  5
37B
100
AcDbEntity
  8
ASSI
100
AcDbLine
 62
7
  6
CONTINUOUS
 10
6.9069415429
 20
-21.1271628567
 11
2.6175930356
 21
-21.1271628567
  0
LINE
  5
37C
100
AcDbEntity
  8
ASSI
100
AcDbLine
 62
7
  6
CONTINUOUS
 10
-2.6175930356
 20
-21.1271628567
 11
-6.9069415429
 21
-21.1271628567
  0
LINE
  5
37D
100
AcDbEntity
  8
0
100
AcDbLine
 62
7
  6
CONTINUOUS
 10
-9.6325449351
 20
-20.8475922207
 11
-7.4367305552
 21
-20.8475922207
  0
LINE
  5
37E
100
AcDbEntity
  8
0
100
AcDbLine
 62
7
  6
CONTINUOUS
 10
7.4367305552
 20
-20.8475922207
 11
9.6325449351
 21
-20.8475922207
  0
LINE
  5
37F
100
AcDbEntity
  8
0
100
AcDbLine
 62
7
  6
CONTINUOUS
 10
-9.6238174026
 20
-20.8213883311
 11
-7.4658521034
 21
-20.8213883311
  0
LINE
  5
380
100
AcDbEntity
  8
0
100
AcDbLine
 62
7
  6
CONTINUOUS
 10
7.4658521034
 20
-20.8213883311
 11
9.6238174026
 21
-20.8213883311
  0
LINE
  5
381
100
AcDbEntity
  8
ASSI
100
AcDbLine
 62
7
  6
CONTINUOUS
 10
2.6175930356
 20
-21.1271628567
 11
3.4
 21
-21.2
  0
LINE
  5
382
100
AcDbEntity
  8
0
100
AcDbLine
 62
7
  6
CONTINUOUS
 10
2.6175930356
 20
-21.1271628567
 11
3.4
 21
-21.2
  0
LWPOLYLINE
  5
383
100
AcDbEntity
  8
ASSI
100
AcDbPolyline
 62
7
  6
CONTINUOUS
 90
10
 70
0
 10
-4.2275426698
 20
-23.3333596575
 10
-4.1717709229
 20
-23.367725577
 10
-4.1143929653
 20
-23.3981882466
 10
-4.0554087969
 20
-23.4247476662
 10
-3.994556043
 20
-23.4474829446
 10
-3.9320970783
 20
-23.4663149731
 10
-3.8688190271
 20
-23.4810064255
 10
-3.804984264
 20
-23.4914781931
 10
-3.7403304144
 20
-23.4978093846
 10
-3.6748574782
 20
-23.5
  0
LINE
  5
384
100
AcDbEntity
  8
ASSI
100
AcDbLine
 62
7
  6
CONTINUOUS
 10
-10.7862331336
 20
17.2695748947
 11
-10.7193014234
 21
17.3594295692
  0
LINE
  5
385
100
AcDbEntity
  8
RACCORDO
100
AcDbLine
 62
7
  6
CONTINUOUS
 10
-10.7202082353
 20
17.2983042468
 11
-10.0983042468
 21
17.9202082353
  0
LINE
  5
386
100
AcDbEntity
  8
ASSI
100
AcDbLine
 62
7
  6
CONTINUOUS
 10
-10.7202082353
 20
17.2983042468
 11
-10.0983042468
 21
17.9202082353
  0
LINE
  5
387
100
AcDbEntity
  8
ASSI
100
AcDbLine
 62
7
  6
CONTINUOUS
 10
-3.4
 20
23.4301797403
 11
-3.3633443637
 21
23.4668353766
  0
LINE
  5
388
100
AcDbEntity
  8
ASSI
100
AcDbLine
 62
7
  6
CONTINUOUS
 10
-4.0
 20
-19.4790539221
 11
-3.963063554
 21
-19.4781942847
  0
LINE
  5
389
100
AcDbEntity
  8
DRAFT
100
AcDbLine
 62
7
  6
CONTINUOUS
 10
-4.0
 20
-19.4790539221
 11
-3.963063554
 21
-19.4781942847
  0
LINE
  5
38A
100
AcDbEntity
  8
ASSI
100
AcDbLine
 62
7
  6
CONTINUOUS
 10
7.8061624232
 20
-20.3
 11
4.8419262234
 21
-20.3
  0
LINE
  5
38B
100
AcDbEntity
  8
0
100
AcDbLine
 62
7
  6
CONTINUOUS
 10
7.8061624232
 20
-20.3
 11
4.8419262234
 21
-20.3
  0
LINE
  5
38C
100
AcDbEntity
  8
RACCORDO
100
AcDbLine
 62
7
  6
CONTINUOUS
 10
-3.7131017248
 20
-19.6130903017
 11
8.7604844816
 21
-19.6130903017
  0
LINE
  5
38D
100
AcDbEntity
  8
ASSI
100
AcDbLine
 62
7
  6
CONTINUOUS
 10
-3.7131017248
 20
-19.6130903017
 11
8.7604844816
 21
-19.6130903017
  0
LINE
  5
38E
100
AcDbEntity
  8
DRAFT
100
AcDbLine
 62
7
  6
CONTINUOUS
 10
-8.6044685592
 20
-19.5
 11
-4.8
 21
-19.5
  0
LINE
  5
38F
100
AcDbEntity
  8
ASSI
100
AcDbLine
 62
7
  6
CONTINUOUS
 10
-3.9472288157
 20
-19.5
 11
-8.6044685592
 21
-19.5
  0
LINE
  5
390
100
AcDbEntity
  8
0
100
AcDbLine
 62
7
  6
CONTINUOUS
 10
-3.9472288157
 20
-19.5
 11
-4.8
 21
-19.5
  0
LINE
  5
391
100
AcDbEntity
  8
ASSI
100
AcDbLine
 62
7
  6
CONTINUOUS
 10
-4.7371106649
 20
-19.4790539221
 11
-4.0
 21
-19.4790539221
  0
LINE
  5
392
100
AcDbEntity
  8
DRAFT
100
AcDbLine
 62
7
  6
CONTINUOUS
 10
-4.7371106649
 20
-19.4790539221
 11
-4.0
 21
-19.4790539221
  0
LWPOLYLINE
  5
393
100
AcDbEntity
  8
0
100
AcDbPolyline
 62
7
  6
CONTINUOUS
 90
13
 70
0
 10
-3.2371426149
 20
-21.3629352605
 10
-3.2367572566
 20
-21.3631300204
 10
-3.2363740616
 20
-21.3639640472
 10
-3.2359930297
 20
-21.3654373409
 10
-3.2356126714
 20
-21.3675550337
 10
-3.2352344763
 20
-21.3703119934
 10
-3.2348629134
 20
-21.3736928236
 10
-3.2344984821
 20
-21.377698431
 10
-3.234140683
 20
-21.382327909
 10
-3.2337924863
 20
-21.3875631411
 10
-3.2334537839
 20
-21.3934075441
 10
-3.233124684
 20
-21.3998577013
 10
-3.2328084818
 20
-21.4068852456
  0
LINE
  5
394
100
AcDbEntity
  8
RACCORDO
100
AcDbLine
 62
7
  6
CONTINUOUS
 10
-10.7202082353
 20
-17.2983042468
 11
-10.0983042468
 21
-17.9202082353
  0
LINE
  5
395
100
AcDbEntity
  8
ASSI
100
AcDbLine
 62
7
  6
CONTINUOUS
 10
-10.7202082353
 20
-17.2983042468
 11
-10.0983042468
 21
-17.9202082353
  0
LINE
  5
396
100
AcDbEntity
  8
ASSI
100
AcDbLine
 62
7
  6
CONTINUOUS
 10
-3.4
 20
-23.4301797403
 11
-3.3633443637
 21
-23.4668353766
  0
LINE
  5
397
100
AcDbEntity
  8
ASSI
100
AcDbLine
 62
7
  6
CONTINUOUS
 10
-10.7862331336
 20
-17.2695748947
 11
-10.7193014234
 21
-17.3594295692
  0
LINE
  5
398
100
AcDbEntity
  8
ASSI
100
AcDbLine
 62
7
  6
CONTINUOUS
 10
-10.8477227304
 20
17.1767591739
 11
-10.7862331336
 21
17.2695748947
  0
LINE
  5
399
100
AcDbEntity
  8
CURVE
100
AcDbLine
 62
7
  6
CONTINUOUS
 10
-11.1104656801
 20
15.216962846
 11
-11.1059554558
 21
15.2214730704
  0
LINE
  5
39A
100
AcDbEntity
  8
CURVE
100
AcDbLine
 62
7
  6
CONTINUOUS
 10
-11.1283891354
 20
15.1990393907
 11
-11.1237677759
 21
15.2036607503
  0
LINE
  5
39B
100
AcDbEntity
  8
CURVE
100
AcDbLine
 62
7
  6
CONTINUOUS
 10
-11.1055469406
 20
14.6279118894
 11
-11.1028608455
 21
14.6305979844
  0
LINE
  5
39C
100
AcDbEntity
  8
CURVE
100
AcDbLine
 62
7
  6
CONTINUOUS
 10
-11.1309581986
 20
14.6025006314
 11
-11.1282597298
 21
14.6051991002
  0
LINE
  5
39D
100
AcDbEntity
  8
CURVE
100
AcDbLine
 62
7
  6
CONTINUOUS
 10
-11.1055383942
 20
14.0339507395
 11
-11.1028399254
 21
14.0366492083
  0
LINE
  5
39E
100
AcDbEntity
  8
CURVE
100
AcDbLine
 62
7
  6
CONTINUOUS
 10
-11.1309581986
 20
14.0085309352
 11
-11.1282597298
 21
14.011229404
  0
LINE
  5
39F
100
AcDbEntity
  8
CURVE
100
AcDbLine
 62
7
  6
CONTINUOUS
 10
-11.1309581986
 20
13.414561239
 11
-11.080261053
 21
13.4652583846
  0
LWPOLYLINE
  5
3A0
100
AcDbEntity
  8
ASSI
100
AcDbPolyline
 62
7
  6
CONTINUOUS
 90
10
 70
0
 10
4.450000012
 20
23.0998904748
 10
4.4578540352
 20
23.104030175
 10
4.4657248607
 20
23.1081332828
 10
4.4736124948
 20
23.1121997758
 10
4.481516141
 20
23.1162303396
 10
4.4894366074
 20
23.1202242444
 10
4.497376308
 20
23.1241793418
 10
4.5053360524
 20
23.128094898
 10
4.5133150445
 20
23.1319715961
 10
4.5213132903
 20
23.1358094109
  0
LWPOLYLINE
  5
3A1
100
AcDbEntity
  8
DRAFT
100
AcDbPolyline
 62
7
  6
CONTINUOUS
 90
10
 70
0
 10
4.450000012
 20
23.0998904748
 10
4.4578540352
 20
23.104030175
 10
4.4657248607
 20
23.1081332828
 10
4.4736124948
 20
23.1121997758
 10
4.481516141
 20
23.1162303396
 10
4.4894366074
 20
23.1202242444
 10
4.497376308
 20
23.1241793418
 10
4.5053360524
 20
23.128094898
 10
4.5133150445
 20
23.1319715961
 10
4.5213132903
 20
23.1358094109
  0
LWPOLYLINE
  5
3A2
100
AcDbEntity
  8
CURVE
100
AcDbPolyline
 62
250
  6
CONTINUOUS
 90
16
 70
0
 10
-11.1167577847
 20
15.4979581495
 10
-11.1172044317
 20
15.4977365064
 10
-11.1176519329
 20
15.497051103
 10
-11.1180998176
 20
15.4958712284
 10
-11.118547615
 20
15.4941661716
 10
-11.1189948544
 20
15.4919052216
 10
-11.1194410649
 20
15.4890576676
 10
-11.1198857758
 20
15.4855927984
 10
-11.1203285163
 20
15.4814799032
 10
-11.1207688156
 20
15.476688271
 10
-11.1212062029
 20
15.4711871907
 10
-11.1216402075
 20
15.4649459515
 10
-11.1220703586
 20
15.4579338424
 10
-11.1224961853
 20
15.4501201524
 10
-11.1228870204
 20
15.4421293139
 10
-11.1236540855
 20
15.4239876396
  0
LINE
  5
3A3
100
AcDbEntity
  8
ASSI
100
AcDbLine
 62
7
  6
CONTINUOUS
 10
-4.0130903017
 20
-18.6
 11
-9.3
 21
-18.6
  0
LINE
  5
3A4
100
AcDbEntity
  8
0
100
AcDbLine
 62
7
  6
CONTINUOUS
 10
2.5
 20
-18.3
 11
-2.5
 21
-18.3
  0
LINE
  5
3A5
100
AcDbEntity
  8
ASSI
100
AcDbLine
 62
7
  6
CONTINUOUS
 10
2.5
 20
-18.3
 11
-2.5
 21
-18.3
  0
LINE
  5
3A6
100
AcDbEntity
  8
RACCORDO
100
AcDbLine
 62
7
  6
CONTINUOUS
 10
-9.3912243901
 20
-18.2130903017
 11
-4.0130903017
 21
-18.2130903017
  0
LINE
  5
3A7
100
AcDbEntity
  8
ASSI
100
AcDbLine
 62
7
  6
CONTINUOUS
 10
-9.3912243901
 20
-18.2130903017
 11
-4.0130903017
 21
-18.2130903017
  0
LINE
  5
3A8
100
AcDbEntity
  8
ASSI
100
AcDbLine
 62
7
  6
CONTINUOUS
 10
-2.5
 20
-18.2
 11
2.5
 21
-18.2
  0
LINE
  5
3A9
100
AcDbEntity
  8
ASSI
100
AcDbLine
 62
7
  6
CONTINUOUS
 10
-2.5
 20
-17.5
 11
2.5
 21
-17.5
  0
LINE
  5
3AA
100
AcDbEntity
  8
RACCORDO
100
AcDbLine
 62
7
  6
CONTINUOUS
 10
1.5825740794
 20
-17.3
 11
-1.5825740794
 21
-17.3
  0
LINE
  5
3AB
100
AcDbEntity
  8
ASSI
100
AcDbLine
 62
7
  6
CONTINUOUS
 10
1.5825740794
 20
-17.3
 11
-1.5825740794
 21
-17.3
  0
LINE
  5
3AC
100
AcDbEntity
  8
ASSI
100
AcDbLine
 62
7
  6
CONTINUOUS
 10
2.0
 20
-17.25
 11
-2.0
 21
-17.25
  0
LINE
  5
3AD
100
AcDbEntity
  8
DRAFT
100
AcDbLine
 62
7
  6
CONTINUOUS
 10
-2.0
 20
-17.25
 11
2.0
 21
-17.25
  0
LWPOLYLINE
  5
3AE
100
AcDbEntity
  8
0
100
AcDbPolyline
 62
7
  6
CONTINUOUS
 90
13
 70
0
 10
3.2371426149
 20
-21.9370647395
 10
3.2367572566
 20
-21.9368699796
 10
3.2363740616
 20
-21.9360359528
 10
3.2359930297
 20
-21.9345626591
 10
3.2356126714
 20
-21.9324449663
 10
3.2352344763
 20
-21.9296880066
 10
3.2348629134
 20
-21.9263071764
 10
3.2344984821
 20
-21.922301569
 10
3.234140683
 20
-21.917672091
 10
3.2337924863
 20
-21.9124368589
 10
3.2334537839
 20
-21.9065924559
 10
3.233124684
 20
-21.9001422987
 10
3.2328084818
 20
-21.8931147544
  0
LWPOLYLINE
  5
3AF
100
AcDbEntity
  8
ASSI
100
AcDbPolyline
 62
7
  6
CONTINUOUS
 90
10
 70
0
 10
4.450000012
 20
-23.0998904748
 10
4.4578540352
 20
-23.104030175
 10
4.4657248607
 20
-23.1081332828
 10
4.4736124948
 20
-23.1121997758
 10
4.481516141
 20
-23.1162303396
 10
4.4894366074
 20
-23.1202242444
 10
4.497376308
 20
-23.1241793418
 10
4.5053360524
 20
-23.128094898
 10
4.5133150445
 20
-23.1319715961
 10
4.5213132903
 20
-23.1358094109
  0
LWPOLYLINE
  5
3B0
100
AcDbEntity
  8
DRAFT
100
AcDbPolyline
 62
7
  6
CONTINUOUS
 90
10
 70
0
 10
4.450000012
 20
-23.0998904748
 10
4.4578540352
 20
-23.104030175
 10
4.4657248607
 20
-23.1081332828
 10
4.4736124948
 20
-23.1121997758
 10
4.481516141
 20
-23.1162303396
 10
4.4894366074
 20
-23.1202242444
 10
4.497376308
 20
-23.1241793418
 10
4.5053360524
 20
-23.128094898
 10
4.5133150445
 20
-23.1319715961
 10
4.5213132903
 20
-23.1358094109
  0
LINE
  5
3B1
100
AcDbEntity
  8
ASSI
100
AcDbLine
 62
7
  6
CONTINUOUS
 10
-10.8477227304
 20
-17.1767591739
 11
-10.7862331336
 21
-17.2695748947
  0
LWPOLYLINE
  5
3B2
100
AcDbEntity
  8
ASSI
100
AcDbPolyline
 62
7
  6
CONTINUOUS
 90
3
 70
0
 10
-10.9545113172
 20
-16.9819349315
 10
-10.903770214
 20
-17.0809824067
 10
-10.8477227304
 20
-17.1767591739
  0
LWPOLYLINE
  5
3B3
100
AcDbEntity
  8
ASSI
100
AcDbPolyline
 62
7
  6
CONTINUOUS
 90
6
 70
0
 10
-11.0728101035
 20
16.6697957248
 10
-11.0392599851
 20
16.7758858265
 10
-10.9998103071
 20
16.87992641
 10
-10.9545113172
 20
16.9819349315
 10
-10.903770214
 20
17.0809824067
 10
-10.8477227304
 20
17.1767591739
  0
LINE
  5
3B4
100
AcDbEntity
  8
CURVE
100
AcDbLine
 62
7
  6
CONTINUOUS
 10
-11.130958345
 20
12.8205913964
 11
-11.0930033004
 21
12.858546441
  0
LINE
  5
3B5
100
AcDbEntity
  8
CURVE
100
AcDbLine
 62
7
  6
CONTINUOUS
 10
-11.0835332318
 20
12.2740468134
 11
-11.0804774116
 21
12.2771026336
  0
LINE
  5
3B6
100
AcDbEntity
  8
CURVE
100
AcDbLine
 62
7
  6
CONTINUOUS
 10
-11.0818103529
 20
11.681799996
 11
-11.0790983863
 21
11.6845119627
  0
LINE
  5
3B7
100
AcDbEntity
  8
CURVE
100
AcDbLine
 62
7
  6
CONTINUOUS
 10
-11.0867864054
 20
11.0828542474
 11
-11.0823602348
 21
11.087280418
  0
LINE
  5
3B8
100
AcDbEntity
  8
IMPORT_IGES
100
AcDbLine
 62
7
  6
CONTINUOUS
 10
2.5
 20
-16.9466270367
 11
-2.5
 21
-16.9466270367
  0
LINE
  5
3B9
100
AcDbEntity
  8
IMPORT_IGES
100
AcDbLine
 62
7
  6
CONTINUOUS
 10
-2.5
 20
-16.7969592621
 11
2.5
 21
-16.7969592621
  0
LINE
  5
3BA
100
AcDbEntity
  8
0
100
AcDbLine
 62
7
  6
CONTINUOUS
 10
-2.5
 20
-16.6
 11
2.5
 21
-16.6
  0
LINE
  5
3BB
100
AcDbEntity
  8
ASSI
100
AcDbLine
 62
7
  6
CONTINUOUS
 10
-2.5
 20
-16.6
 11
2.5
 21
-16.6
  0
LINE
  5
3BC
100
AcDbEntity
  8
CURVE
100
AcDbLine
 62
250
  6
CONTINUOUS
 10
0.019012
 20
-15.592362
 11
-1.0
 21
-15.592362
  0
LINE
  5
3BD
100
AcDbEntity
  8
CURVE
100
AcDbLine
 62
250
  6
CONTINUOUS
 10
-11.0331632188
 20
-15.5
 11
-11.0558513472
 21
-15.5
  0
LWPOLYLINE
  5
3BE
100
AcDbEntity
  8
ASSI
100
AcDbPolyline
 62
7
  6
CONTINUOUS
 90
4
 70
0
 10
-11.0728101035
 20
-16.6697957248
 10
-11.0392599851
 20
-16.7758858265
 10
-10.9998103071
 20
-16.87992641
 10
-10.9545113172
 20
-16.9819349315
  0
LINE
  5
3BF
100
AcDbEntity
  8
0
100
AcDbLine
 62
7
  6
CONTINUOUS
 10
-3.230158461
 20
22.5048155586
 11
-3.3
 21
22.4
  0
LINE
  5
3C0
100
AcDbEntity
  8
0
100
AcDbLine
 62
250
  6
CONTINUOUS
 10
-3.2101614373
 20
21.1823272297
 11
-3.1705494094
 21
21.2417754733
  0
LINE
  5
3C1
100
AcDbEntity
  8
CURVE
100
AcDbLine
 62
7
  6
CONTINUOUS
 10
-11.0859763154
 20
9.3017552488
 11
-11.0803064384
 21
9.3074251258
  0
LINE
  5
3C2
100
AcDbEntity
  8
CURVE
100
AcDbLine
 62
7
  6
CONTINUOUS
 10
-11.1091524604
 20
9.2785791038
 11
-11.1034820774
 21
9.2842494868
  0
LINE
  5
3C3
100
AcDbEntity
  8
CURVE
100
AcDbLine
 62
7
  6
CONTINUOUS
 10
-11.1309110053
 20
9.2568205589
 11
-11.1252410935
 21
9.2624904707
  0
LINE
  5
3C4
100
AcDbEntity
  8
CURVE
100
AcDbLine
 62
7
  6
CONTINUOUS
 10
-11.0859763154
 20
8.7077855526
 11
-11.0803064384
 21
8.7134554296
  0
LINE
  5
3C5
100
AcDbEntity
  8
CURVE
100
AcDbLine
 62
7
  6
CONTINUOUS
 10
-11.1091524604
 20
8.6846094076
 11
-11.1034820774
 21
8.6902797906
  0
LINE
  5
3C6
100
AcDbEntity
  8
CURVE
100
AcDbLine
 62
7
  6
CONTINUOUS
 10
-11.1309110053
 20
8.6628508627
 11
-11.1252410935
 21
8.6685207745
  0
LWPOLYLINE
  5
3C7
100
AcDbEntity
  8
CURVE
100
AcDbPolyline
 62
250
  6
CONTINUOUS
 90
16
 70
0
 10
-11.1005675869
 20
10.6804049345
 10
-11.0997390384
 20
10.6807364723
 10
-11.0989102481
 20
10.681798186
 10
-11.0980816874
 20
10.6836907256
 10
-11.0972538278
 20
10.6865147414
 10
-11.0964271411
 20
10.6903708835
 10
-11.0956020986
 20
10.6953598022
 10
-11.094779172
 20
10.7015821475
 10
-11.0939588328
 20
10.7091385697
 10
-11.0931415526
 20
10.7181297189
 10
-11.0923278028
 20
10.7286562454
 10
-11.0916561552
 20
10.7386184115
 10
-11.0909887675
 20
10.7497361475
 10
-11.0903271469
 20
10.7620397747
 10
-11.0896728007
 20
10.7755596148
 10
-11.0883919608
 20
10.8063692195
  0
LINE
  5
3C8
100
AcDbEntity
  8
CURVE
100
AcDbLine
 62
250
  6
CONTINUOUS
 10
4.828795
 20
-14.917947
 11
4.456331
 21
-14.917947
  0
LINE
  5
3C9
100
AcDbEntity
  8
CURVE
100
AcDbLine
 62
250
  6
CONTINUOUS
 10
-11.0558513472
 20
-14.7571428239
 11
-11.0331632188
 21
-14.7571428239
  0
LINE
  5
3CA
100
AcDbEntity
  8
CURVE
100
AcDbLine
 62
250
  6
CONTINUOUS
 10
4.456331
 20
-14.567887
 11
4.828795
 21
-14.567887
  0
LINE
  5
3CB
100
AcDbEntity
  8
CURVE
100
AcDbLine
 62
250
  6
CONTINUOUS
 10
4.363915
 20
-14.11141
 11
4.148279
 21
-14.11141
  0
LINE
  5
3CC
100
AcDbEntity
  8
CURVE
100
AcDbLine
 62
250
  6
CONTINUOUS
 10
5.678739
 20
-13.916076
 11
5.461245
 21
-13.916076
  0
LINE
  5
3CD
100
AcDbEntity
  8
CURVE
100
AcDbLine
 62
250
  6
CONTINUOUS
 10
2.267628
 20
-14.380593
 11
5.164153
 21
-14.649839
  0
LINE
  5
3CE
100
AcDbEntity
  8
0
100
AcDbLine
 62
7
  6
CONTINUOUS
 10
-3.3
 20
-22.4
 11
-3.230158461
 21
-22.5048155586
  0
LINE
  5
3CF
100
AcDbEntity
  8
0
100
AcDbLine
 62
250
  6
CONTINUOUS
 10
-3.1705494094
 20
-21.2417754733
 11
-3.2101614373
 21
-21.1823272297
  0
LINE
  5
3D0
100
AcDbEntity
  8
CURVE
100
AcDbLine
 62
250
  6
CONTINUOUS
 10
-11.0962043807
 20
-14.290021
 11
-11.1310326998
 21
-13.72041
  0
LINE
  5
3D1
100
AcDbEntity
  8
CURVE
100
AcDbLine
 62
7
  6
CONTINUOUS
 10
-11.0859763154
 20
8.1138158564
 11
-11.0803064384
 21
8.1194857334
  0
LINE
  5
3D2
100
AcDbEntity
  8
CURVE
100
AcDbLine
 62
7
  6
CONTINUOUS
 10
-11.1091524604
 20
8.0906397114
 11
-11.1034820774
 21
8.0963100944
  0
LINE
  5
3D3
100
AcDbEntity
  8
CURVE
100
AcDbLine
 62
7
  6
CONTINUOUS
 10
-11.1309110053
 20
8.0688811665
 11
-11.1252410935
 21
8.0745510783
  0
LINE
  5
3D4
100
AcDbEntity
  8
CURVE
100
AcDbLine
 62
250
  6
CONTINUOUS
 10
-7.3485281374
 20
10.7514718626
 11
-7.5606601718
 21
10.5393398282
  0
LINE
  5
3D5
100
AcDbEntity
  8
CURVE
100
AcDbLine
 62
7
  6
CONTINUOUS
 10
-11.1309108657
 20
6.8809419137
 11
-11.1168778031
 21
6.8949749763
  0
LINE
  5
3D6
100
AcDbEntity
  8
CURVE
100
AcDbLine
 62
7
  6
CONTINUOUS
 10
-11.1063988145
 20
6.3114842687
 11
-11.0891057067
 21
6.3287773766
  0
LINE
  5
3D7
100
AcDbEntity
  8
CURVE
100
AcDbLine
 62
250
  6
CONTINUOUS
 10
5.191705
 20
-12.431124
 11
1.829484
 21
-12.725174
  0
LINE
  5
3D8
100
AcDbEntity
  8
CURVE
100
AcDbLine
 62
250
  6
CONTINUOUS
 10
5.461803
 20
-13.343073
 11
5.679297
 21
-13.343073
  0
LINE
  5
3D9
100
AcDbEntity
  8
CURVE
100
AcDbLine
 62
250
  6
CONTINUOUS
 10
4.148279
 20
-13.28807
 11
4.363915
 21
-13.28807
  0
LINE
  5
3DA
100
AcDbEntity
  8
CURVE
100
AcDbLine
 62
250
  6
CONTINUOUS
 10
-11.0331632188
 20
-13.2714285493
 11
-11.0558513472
 21
-13.2714285493
  0
LINE
  5
3DB
100
AcDbEntity
  8
CURVE
100
AcDbLine
 62
250
  6
CONTINUOUS
 10
1.829484
 20
-12.899503
 11
1.633036
 21
-12.899503
  0
LINE
  5
3DC
100
AcDbEntity
  8
CURVE
100
AcDbLine
 62
250
  6
CONTINUOUS
 10
-11.1310357361
 20
-12.890935
 11
-11.0804344847
 21
-12.890935
  0
LINE
  5
3DD
100
AcDbEntity
  8
CURVE
100
AcDbLine
 62
250
  6
CONTINUOUS
 10
5.586323
 20
-12.81759
 11
5.191705
 21
-12.81759
  0
LINE
  5
3DE
100
AcDbEntity
  8
CURVE
100
AcDbLine
 62
250
  6
CONTINUOUS
 10
1.633036
 20
-12.781883
 11
1.829484
 21
-12.781883
  0
LINE
  5
3DF
100
AcDbEntity
  8
CURVE
100
AcDbLine
 62
250
  6
CONTINUOUS
 10
5.191705
 20
-12.718216
 11
5.586323
 21
-12.718216
  0
LINE
  5
3E0
100
AcDbEntity
  8
CURVE
100
AcDbLine
 62
250
  6
CONTINUOUS
 10
-11.0526101862
 20
-12.6214287043
 11
-11.0364043801
 21
-12.6214287043
  0
LINE
  5
3E1
100
AcDbEntity
  8
CURVE
100
AcDbLine
 62
250
  6
CONTINUOUS
 10
-11.0804344847
 20
-12.285664
 11
-11.1310357361
 21
-12.285664
  0
LINE
  5
3E2
100
AcDbEntity
  8
CURVE
100
AcDbLine
 62
250
  6
CONTINUOUS
 10
-11.0331632188
 20
-12.0952380657
 11
-11.0558513472
 21
-12.0952380657
  0
LINE
  5
3E3
100
AcDbEntity
  8
CURVE
100
AcDbLine
 62
250
  6
CONTINUOUS
 10
-11.1134741698
 20
-11.250162
 11
-11.0804344847
 21
-11.380779
  0
LINE
  5
3E4
100
AcDbEntity
  8
CURVE
100
AcDbLine
 62
250
  6
CONTINUOUS
 10
-11.0804344847
 20
-11.959827
 11
-11.1310326998
 21
-11.698005
  0
LINE
  5
3E5
100
AcDbEntity
  8
CURVE
100
AcDbLine
 62
250
  6
CONTINUOUS
 10
-11.0426373827
 20
6.1071428895
 11
-11.0521115466
 21
6.2428571105
  0
LINE
  5
3E6
100
AcDbEntity
  8
CURVE
100
AcDbLine
 62
250
  6
CONTINUOUS
 10
-11.0426373827
 20
8.957142663
 11
-11.0521115466
 21
9.092857337
  0
LINE
  5
3E7
100
AcDbEntity
  8
CURVE
100
AcDbLine
 62
250
  6
CONTINUOUS
 10
-11.1171295954
 20
-7.733126
 11
-11.0983519561
 21
-8.0345
  0
LINE
  5
3E8
100
AcDbEntity
  8
CURVE
100
AcDbLine
 62
250
  6
CONTINUOUS
 10
-11.0331632188
 20
-14.3857142746
 11
-11.0558513472
 21
-14.0142856479
  0
LINE
  5
3E9
100
AcDbEntity
  8
CURVE
100
AcDbLine
 62
250
  6
CONTINUOUS
 10
-11.0331632188
 20
-5.31666646
 11
-11.0558513472
 21
-4.9452386856
  0
LINE
  5
3EA
100
AcDbEntity
  8
CURVE
100
AcDbLine
 62
250
  6
CONTINUOUS
 10
-11.0905356903
 20
-8.158312
 11
-11.0804344847
 21
-8.325329
  0
LINE
  5
3EB
100
AcDbEntity
  8
CURVE
100
AcDbLine
 62
250
  6
CONTINUOUS
 10
-11.0804344847
 20
-8.924033
 11
-11.1310326998
 21
-8.014517
  0
LINE
  5
3EC
100
AcDbEntity
  8
CURVE
100
AcDbLine
 62
250
  6
CONTINUOUS
 10
-11.1310326998
 20
-13.115552
 11
-11.0804344847
 21
-14.047617
  0
LINE
  5
3ED
100
AcDbEntity
  8
CURVE
100
AcDbLine
 62
250
  6
CONTINUOUS
 10
-11.0870392493
 20
5.942284
 11
-11.1309108657
 21
6.778946
  0
LWPOLYLINE
  5
3EE
100
AcDbEntity
  8
CURVE
100
AcDbPolyline
 62
250
  6
CONTINUOUS
 90
14
 70
0
 10
-11.1113301053
 20
15.447780415
 10
-11.1117322064
 20
15.4557651247
 10
-11.1121385249
 20
15.4629764975
 10
-11.1125486111
 20
15.4694379487
 10
-11.1129620153
 20
15.4751728938
 10
-11.1133782881
 20
15.480204748
 10
-11.1137969798
 20
15.4845569266
 10
-11.1142176408
 20
15.4882528451
 10
-11.1146398215
 20
15.4913159186
 10
-11.1150630723
 20
15.4937695626
 10
-11.1154869436
 20
15.4956371924
 10
-11.1159109859
 20
15.4969422232
 10
-11.1163347495
 20
15.4977080705
 10
-11.1167577847
 20
15.4979581495
  0
LINE
  5
3EF
100
AcDbEntity
  8
CURVE
100
AcDbLine
 62
250
  6
CONTINUOUS
 10
-11.1309108657
 20
7.181071
 11
-11.0803062814
 21
6.149381
  0
LWPOLYLINE
  5
3F0
100
AcDbEntity
  8
CURVE
100
AcDbPolyline
 62
250
  6
CONTINUOUS
 90
14
 70
0
 10
-11.089674712
 20
12.802875467
 10
-11.0903296051
 20
12.8166972414
 10
-11.0909919847
 20
12.8293071204
 10
-11.0916603008
 20
12.8407378074
 10
-11.0923330033
 20
12.8510220058
 10
-11.0932363174
 20
12.8630356097
 10
-11.0941440476
 20
12.8731825981
 10
-11.0950555485
 20
12.8815839959
 10
-11.0959701745
 20
12.8883608282
 10
-11.09688728
 20
12.8936341198
 10
-11.0978062195
 20
12.8975248957
 10
-11.0987263475
 20
12.9001541809
 10
-11.0996470185
 20
12.9016430004
 10
-11.1005675869
 20
12.9021123791
  0
LINE
  5
3F1
100
AcDbEntity
  8
CURVE
100
AcDbLine
 62
250
  6
CONTINUOUS
 10
-11.1029404198
 20
-10.494355
 11
-11.1310326998
 21
-9.889084
  0
LWPOLYLINE
  5
3F2
100
AcDbEntity
  8
CURVE
100
AcDbPolyline
 62
250
  6
CONTINUOUS
 90
25
 70
0
 10
-11.1111767541
 20
-4.454711032
 10
-11.1116426249
 20
-4.4447010075
 10
-11.1121110242
 20
-4.4356765436
 10
-11.1125844829
 20
-4.4275703245
 10
-11.1130624611
 20
-4.4203834633
 10
-11.1135444191
 20
-4.414117073
 10
-11.1140971749
 20
-4.4081016624
 10
-11.1146536496
 20
-4.4032564582
 10
-11.1152131054
 20
-4.3995576434
 10
-11.1157748044
 20
-4.396981401
 10
-11.1163380088
 20
-4.3955039141
 10
-11.1169019807
 20
-4.3951013658
 10
-11.1174659823
 20
-4.3957499389
 10
-11.1179589772
 20
-4.3971675124
 10
-11.1184509288
 20
-4.3993940001
 10
-11.1189413363
 20
-4.4024516258
 10
-11.1194296988
 20
-4.4063626134
 10
-11.1199155154
 20
-4.4111491869
 10
-11.1203982852
 20
-4.4168335701
 10
-11.1208775073
 20
-4.4234379869
 10
-11.1213526807
 20
-4.4309846614
 10
-11.1218236414
 20
-4.4394976407
 10
-11.1222893045
 20
-4.4489664454
 10
-11.1227489295
 20
-4.4593808677
 10
-11.1236471024
 20
-4.4830057337
  0
LINE
  5
3F3
100
AcDbEntity
  8
CURVE
100
AcDbLine
 62
250
  6
CONTINUOUS
 10
-11.0914216701
 20
12.6527848497
 11
-11.090516495
 21
12.6340135065
  0
LINE
  5
3F4
100
AcDbEntity
  8
CURVE
100
AcDbLine
 62
250
  6
CONTINUOUS
 10
-11.1133364389
 20
-9.735548
 11
-11.0804344847
 21
-10.455216
  0
LINE
  5
3F5
100
AcDbEntity
  8
CURVE
100
AcDbLine
 62
250
  6
CONTINUOUS
 10
-11.1105414039
 20
15.4294306611
 11
-11.1113301053
 21
15.447780415
  0
LINE
  5
3F6
100
AcDbEntity
  8
CURVE
100
AcDbLine
 62
250
  6
CONTINUOUS
 10
-11.1130053587
 20
-4.9915493253
 11
-11.1126069387
 21
-5.0009508776
  0
LINE
  5
3F7
100
AcDbEntity
  8
CURVE
100
AcDbLine
 62
250
  6
CONTINUOUS
 10
-11.090516495
 20
12.6340135065
 11
-11.0896333841
 21
12.6123983469
  0
LINE
  5
3F8
100
AcDbEntity
  8
CURVE
100
AcDbLine
 62
250
  6
CONTINUOUS
 10
-11.0883935855
 20
12.7714654189
 11
-11.089674712
 21
12.802875467
  0
LINE
  5
3F9
100
AcDbEntity
  8
CURVE
100
AcDbLine
 62
250
  6
CONTINUOUS
 10
-11.1102646306
 20
-4.4774810278
 11
-11.1111767541
 21
-4.454711032
  0
LINE
  5
3FA
100
AcDbEntity
  8
CURVE
100
AcDbLine
 62
250
  6
CONTINUOUS
 10
-11.1121666481
 20
15.268259791
 11
-11.1114531202
 21
15.2498858556
  0
LINE
  5
3FB
100
AcDbEntity
  8
CURVE
100
AcDbLine
 62
250
  6
CONTINUOUS
 10
-11.0428867025
 20
-15.128571412
 11
-11.0558513472
 21
-14.7571428239
  0
LINE
  5
3FC
100
AcDbEntity
  8
CURVE
100
AcDbLine
 62
250
  6
CONTINUOUS
 10
-11.0568486281
 20
3.8
 11
-11.0615857096
 21
3.9357142918
  0
LINE
  5
3FD
100
AcDbEntity
  8
CURVE
100
AcDbLine
 62
250
  6
CONTINUOUS
 10
-11.0426373827
 20
4.75
 11
-11.0379003007
 21
4.6142857224
  0
LINE
  5
3FE
100
AcDbEntity
  8
CURVE
100
AcDbLine
 62
250
  6
CONTINUOUS
 10
-11.0114723709
 20
8.183333385
 11
-11.0244370156
 21
8.5547619343
  0
LINE
  5
3FF
100
AcDbEntity
  8
CURVE
100
AcDbLine
 62
250
  6
CONTINUOUS
 10
-11.0114723709
 20
9.2976190329
 11
-11.0244370156
 21
9.6690477371
  0
LINE
  5
400
100
AcDbEntity
  8
CURVE
100
AcDbLine
 62
250
  6
CONTINUOUS
 10
-11.0371107869
 20
11.264285779
 11
-11.0386898143
 21
11.3095237017
  0
LINE
  5
401
100
AcDbEntity
  8
CURVE
100
AcDbLine
 62
250
  6
CONTINUOUS
 10
-11.0363212733
 20
11.4452379227
 11
-11.0347422461
 21
11.4
  0
LINE
  5
402
100
AcDbEntity
  8
CURVE
100
AcDbLine
 62
250
  6
CONTINUOUS
 10
-11.0568486281
 20
14.657143116
 11
-11.0615857096
 21
14.792856884
  0
LINE
  5
403
100
AcDbEntity
  8
CURVE
100
AcDbLine
 62
250
  6
CONTINUOUS
 10
-11.0426373827
 20
15.607143116
 11
-11.0379003007
 21
15.471428442
  0
LINE
  5
404
100
AcDbEntity
  8
CURVE
100
AcDbLine
 62
250
  6
CONTINUOUS
 10
-11.1126069387
 20
-5.0009508776
 11
-11.1122191103
 21
-5.0117938863
  0
LINE
  5
405
100
AcDbEntity
  8
CURVE
100
AcDbLine
 62
250
  6
CONTINUOUS
 10
-11.1097764159
 20
15.4079180694
 11
-11.1105414039
 21
15.4294306611
  0
LINE
  5
406
100
AcDbEntity
  8
CURVE
100
AcDbLine
 62
250
  6
CONTINUOUS
 10
-11.0896333841
 20
12.6123983469
 11
-11.0887782215
 21
12.5877694179
  0
LINE
  5
407
100
AcDbEntity
  8
CURVE
100
AcDbLine
 62
250
  6
CONTINUOUS
 10
-11.0871610057
 20
12.7348153492
 11
-11.0883935855
 21
12.7714654189
  0
LINE
  5
408
100
AcDbEntity
  8
CURVE
100
AcDbLine
 62
250
  6
CONTINUOUS
 10
-11.1093857514
 20
-4.5037706572
 11
-11.1102646306
 21
-4.4774810278
  0
LINE
  5
409
100
AcDbEntity
  8
CURVE
100
AcDbLine
 62
250
  6
CONTINUOUS
 10
-11.1114531202
 20
15.2498858556
 11
-11.110765791
 21
15.2285904206
  0
LINE
  5
40A
100
AcDbEntity
  8
CURVE
100
AcDbLine
 62
250
  6
CONTINUOUS
 10
-11.1122191103
 20
-5.0117938863
 11
-11.1118441753
 21
-5.0240410547
  0
LINE
  5
40B
100
AcDbEntity
  8
CURVE
100
AcDbLine
 62
250
  6
CONTINUOUS
 10
-11.1090386193
 20
15.383356639
 11
-11.1097764159
 21
15.4079180694
  0
LWPOLYLINE
  5
40C
100
AcDbEntity
  8
ASSI
100
AcDbPolyline
 62
7
  6
CONTINUOUS
 90
6
 70
0
 10
-11.15
 20
-16.119659166
 10
-11.1468077508
 20
-16.2316570494
 10
-11.1375097336
 20
-16.3426042235
 10
-11.1221059485
 20
-16.4525006882
 10
-11.10051091
 20
-16.5616735612
 10
-11.0728101035
 20
-16.6697957248
  0
LINE
  5
40D
100
AcDbEntity
  8
CURVE
100
AcDbLine
 62
250
  6
CONTINUOUS
 10
-11.0887782215
 20
12.5877694179
 11
-11.0879568914
 21
12.5599567664
  0
LINE
  5
40E
100
AcDbEntity
  8
CURVE
100
AcDbLine
 62
250
  6
CONTINUOUS
 10
-11.1085457056
 20
-4.5336173522
 11
-11.1093857514
 21
-4.5037706572
  0
LINE
  5
40F
100
AcDbEntity
  8
CURVE
100
AcDbLine
 62
250
  6
CONTINUOUS
 10
-11.085989373
 20
12.6926636314
 11
-11.0871610057
 21
12.7348153492
  0
LINE
  5
410
100
AcDbEntity
  8
CURVE
100
AcDbLine
 62
250
  6
CONTINUOUS
 10
-11.0461278642
 20
-2.9952386856
 11
-11.0558513472
 21
-2.6238090515
  0
LINE
  5
411
100
AcDbEntity
  8
CURVE
100
AcDbLine
 62
250
  6
CONTINUOUS
 10
-11.066322791
 20
13.435714674
 11
-11.0592171678
 21
13.164285326
  0
LINE
  5
412
100
AcDbEntity
  8
CURVE
100
AcDbLine
 62
250
  6
CONTINUOUS
 10
-11.110765791
 20
15.2285904206
 11
-11.1101092782
 21
15.2043585148
  0
LINE
  5
413
100
AcDbEntity
  8
CURVE
100
AcDbLine
 62
250
  6
CONTINUOUS
 10
-11.0331632188
 20
13.164285326
 11
-11.0568486281
 21
14.114285326
  0
LINE
  5
414
100
AcDbEntity
  8
CURVE
100
AcDbLine
 62
250
  6
CONTINUOUS
 10
-11.1118441753
 20
-5.0240410547
 11
-11.111310983
 21
-5.04496302
  0
LINE
  5
415
100
AcDbEntity
  8
CURVE
100
AcDbLine
 62
250
  6
CONTINUOUS
 10
-11.1079928735
 20
15.3411107445
 11
-11.1090386193
 21
15.383356639
  0
LINE
  5
416
100
AcDbEntity
  8
CURVE
100
AcDbLine
 62
250
  6
CONTINUOUS
 10
-11.0879568914
 20
12.5599567664
 11
-11.0868012036
 21
12.5118965374
  0
LINE
  5
417
100
AcDbEntity
  8
CURVE
100
AcDbLine
 62
250
  6
CONTINUOUS
 10
-11.1073781673
 20
-4.5849692718
 11
-11.1085457056
 21
-4.5336173522
  0
LINE
  5
418
100
AcDbEntity
  8
CURVE
100
AcDbLine
 62
250
  6
CONTINUOUS
 10
-11.1101092782
 20
15.2043585148
 11
-11.1091937015
 21
15.1626580256
  0
LINE
  5
419
100
AcDbEntity
  8
CURVE
100
AcDbLine
 62
250
  6
CONTINUOUS
 10
-11.0843726055
 20
12.61853434
 11
-11.085989373
 21
12.6926636314
  0
LINE
  5
41A
100
AcDbEntity
  8
RACCORDO
100
AcDbLine
 62
7
  6
CONTINUOUS
 10
-10.9572394414
 20
-4.5240965683
 11
-10.95586809
 21
-4.5917562907
  0
LINE
  5
41B
100
AcDbEntity
  8
RACCORDO
100
AcDbLine
 62
7
  6
CONTINUOUS
 10
-10.9572394414
 20
0.4759034317
 11
-10.95586809
 21
0.4082437093
  0
LINE
  5
41C
100
AcDbEntity
  8
RACCORDO
100
AcDbLine
 62
7
  6
CONTINUOUS
 10
-10.9572394414
 20
5.4759034317
 11
-10.95586809
 21
5.4082437093
  0
LINE
  5
41D
100
AcDbEntity
  8
RACCORDO
100
AcDbLine
 62
7
  6
CONTINUOUS
 10
-10.9572394414
 20
10.4759034317
 11
-10.95586809
 21
10.4082437093
  0
LINE
  5
41E
100
AcDbEntity
  8
ASSI
100
AcDbLine
 62
7
  6
CONTINUOUS
 10
-10.9572391186
 20
-4.5240970676
 11
-10.9556462375
 21
-4.6039567483
  0
LINE
  5
41F
100
AcDbEntity
  8
ASSI
100
AcDbLine
 62
7
  6
CONTINUOUS
 10
-10.9572391186
 20
0.4759029324
 11
-10.9556462375
 21
0.3960432517
  0
LINE
  5
420
100
AcDbEntity
  8
ASSI
100
AcDbLine
 62
7
  6
CONTINUOUS
 10
-10.9572391186
 20
5.4759029324
 11
-10.9556462375
 21
5.3960432517
  0
LINE
  5
421
100
AcDbEntity
  8
ASSI
100
AcDbLine
 62
7
  6
CONTINUOUS
 10
-10.9572391186
 20
10.4759029324
 11
-10.9556462375
 21
10.3960432517
  0
LINE
  5
422
100
AcDbEntity
  8
CURVE
100
AcDbLine
 62
250
  6
CONTINUOUS
 10
-11.111310983
 20
-5.04496302
 11
-11.1106666704
 21
-5.0774254292
  0
LINE
  5
423
100
AcDbEntity
  8
CURVE
100
AcDbLine
 62
250
  6
CONTINUOUS
 10
-11.0364043801
 20
-12.6214287043
 11
-11.0331632188
 21
-12.8071429014
  0
LINE
  5
424
100
AcDbEntity
  8
CURVE
100
AcDbLine
 62
250
  6
CONTINUOUS
 10
-11.0615857096
 20
3.9357142918
 11
-11.066322791
 21
4.2071428612
  0
LINE
  5
425
100
AcDbEntity
  8
CURVE
100
AcDbLine
 62
250
  6
CONTINUOUS
 10
-11.066322791
 20
5.5642856658
 11
-11.0615857096
 21
5.2928571105
  0
LINE
  5
426
100
AcDbEntity
  8
CURVE
100
AcDbLine
 62
250
  6
CONTINUOUS
 10
-11.0379003007
 20
4.6142857224
 11
-11.0331632188
 21
4.3428571671
  0
LINE
  5
427
100
AcDbEntity
  8
CURVE
100
AcDbLine
 62
250
  6
CONTINUOUS
 10
-11.0331632188
 20
5.5642856658
 11
-11.0426373827
 21
6.1071428895
  0
LINE
  5
428
100
AcDbEntity
  8
CURVE
100
AcDbLine
 62
250
  6
CONTINUOUS
 10
-11.066322791
 20
8.414285779
 11
-11.0615857096
 21
8.142857337
  0
LINE
  5
429
100
AcDbEntity
  8
CURVE
100
AcDbLine
 62
250
  6
CONTINUOUS
 10
-11.0331632188
 20
7.3285713315
 11
-11.0379003007
 21
7.6
  0
LINE
  5
42A
100
AcDbEntity
  8
CURVE
100
AcDbLine
 62
250
  6
CONTINUOUS
 10
-11.0049900485
 20
6.45
 11
-11.0017488872
 21
6.2642857254
  0
LINE
  5
42B
100
AcDbEntity
  8
CURVE
100
AcDbLine
 62
250
  6
CONTINUOUS
 10
-11.0331632188
 20
8.414285779
 11
-11.0426373827
 21
8.957142663
  0
LINE
  5
42C
100
AcDbEntity
  8
CURVE
100
AcDbLine
 62
250
  6
CONTINUOUS
 10
-11.0331632188
 20
10.178571558
 11
-11.0379003007
 21
10.45
  0
LINE
  5
42D
100
AcDbEntity
  8
CURVE
100
AcDbLine
 62
250
  6
CONTINUOUS
 10
-11.0568486281
 20
12.078571558
 11
-11.066322791
 21
12.621428442
  0
LINE
  5
42E
100
AcDbEntity
  8
CURVE
100
AcDbLine
 62
250
  6
CONTINUOUS
 10
-11.0615857096
 20
14.792856884
 11
-11.066322791
 21
15.064285326
  0
LINE
  5
42F
100
AcDbEntity
  8
CURVE
100
AcDbLine
 62
250
  6
CONTINUOUS
 10
-11.0379003007
 20
15.471428442
 11
-11.0331632188
 21
15.2
  0
LINE
  5
430
100
AcDbEntity
  8
CURVE
100
AcDbLine
 62
250
  6
CONTINUOUS
 10
-11.0868012036
 20
12.5118965374
 11
-11.0857543695
 21
12.4561264164
  0
LINE
  5
431
100
AcDbEntity
  8
CURVE
100
AcDbLine
 62
250
  6
CONTINUOUS
 10
-11.1067362346
 20
15.2754466638
 11
-11.1079928735
 21
15.3411107445
  0
LINE
  5
432
100
AcDbEntity
  8
CURVE
100
AcDbLine
 62
250
  6
CONTINUOUS
 10
-11.105667527
 20
-4.685470439
 11
-11.1073781673
 21
-4.5849692718
  0
LINE
  5
433
100
AcDbEntity
  8
RACCORDO
100
AcDbLine
 62
7
  6
CONTINUOUS
 10
-10.95586809
 20
-4.5917562907
 11
-10.9542970731
 21
-4.6864590945
  0
LINE
  5
434
100
AcDbEntity
  8
RACCORDO
100
AcDbLine
 62
7
  6
CONTINUOUS
 10
-10.95586809
 20
0.4082437093
 11
-10.9542970731
 21
0.3135409055
  0
LINE
  5
435
100
AcDbEntity
  8
RACCORDO
100
AcDbLine
 62
7
  6
CONTINUOUS
 10
-10.95586809
 20
5.4082437093
 11
-10.9542970731
 21
5.3135409055
  0
LINE
  5
436
100
AcDbEntity
  8
RACCORDO
100
AcDbLine
 62
7
  6
CONTINUOUS
 10
-10.95586809
 20
10.4082437093
 11
-10.9542970731
 21
10.3135409055
  0
LINE
  5
437
100
AcDbEntity
  8
CURVE
100
AcDbLine
 62
250
  6
CONTINUOUS
 10
-11.0829559289
 20
12.5316703851
 11
-11.0843726055
 21
12.61853434
  0
LINE
  5
438
100
AcDbEntity
  8
ASSI
100
AcDbLine
 62
7
  6
CONTINUOUS
 10
-10.9556462375
 20
-4.6039567483
 11
-10.9540194298
 21
-4.7053199251
  0
LINE
  5
439
100
AcDbEntity
  8
ASSI
100
AcDbLine
 62
7
  6
CONTINUOUS
 10
-10.9556462375
 20
0.3960432517
 11
-10.9540194298
 21
0.2946800749
  0
LINE
  5
43A
100
AcDbEntity
  8
ASSI
100
AcDbLine
 62
7
  6
CONTINUOUS
 10
-10.9556462375
 20
5.3960432517
 11
-10.9540194298
 21
5.2946800749
  0
LINE
  5
43B
100
AcDbEntity
  8
ASSI
100
AcDbLine
 62
7
  6
CONTINUOUS
 10
-10.9556462375
 20
10.3960432517
 11
-10.9540194298
 21
10.2946800749
  0
LINE
  5
43C
100
AcDbEntity
  8
CURVE
100
AcDbLine
 62
250
  6
CONTINUOUS
 10
-11.1091937015
 20
15.1626580256
 11
-11.1080989561
 21
15.0962254819
  0
LINE
  5
43D
100
AcDbEntity
  8
CURVE
100
AcDbLine
 62
250
  6
CONTINUOUS
 10
-11.0857543695
 20
12.4561264164
 11
-11.0845384371
 21
12.3712366322
  0
LINE
  5
43E
100
AcDbEntity
  8
RACCORDO
100
AcDbLine
 62
7
  6
CONTINUOUS
 10
-10.9542970731
 20
-4.6864590945
 11
-10.9527441625
 21
-4.8008493364
  0
LINE
  5
43F
100
AcDbEntity
  8
RACCORDO
100
AcDbLine
 62
7
  6
CONTINUOUS
 10
-10.9542970731
 20
0.3135409055
 11
-10.9527441625
 21
0.1991506636
  0
LINE
  5
440
100
AcDbEntity
  8
RACCORDO
100
AcDbLine
 62
7
  6
CONTINUOUS
 10
-10.9542970731
 20
5.3135409055
 11
-10.9527441625
 21
5.1991506636
  0
LINE
  5
441
100
AcDbEntity
  8
RACCORDO
100
AcDbLine
 62
7
  6
CONTINUOUS
 10
-10.9542970731
 20
10.3135409055
 11
-10.9527441625
 21
10.1991506636
  0
LINE
  5
442
100
AcDbEntity
  8
CURVE
100
AcDbLine
 62
250
  6
CONTINUOUS
 10
-11.1106666704
 20
-5.0774254292
 11
-11.1099889822
 21
-5.1249061628
  0
LINE
  5
443
100
AcDbEntity
  8
ASSI
100
AcDbLine
 62
7
  6
CONTINUOUS
 10
-10.9540194298
 20
-4.7053199251
 11
-10.9524147168
 21
-4.8279721493
  0
LINE
  5
444
100
AcDbEntity
  8
ASSI
100
AcDbLine
 62
7
  6
CONTINUOUS
 10
-10.9540194298
 20
0.2946800749
 11
-10.9524147168
 21
0.1720278507
  0
LINE
  5
445
100
AcDbEntity
  8
ASSI
100
AcDbLine
 62
7
  6
CONTINUOUS
 10
-10.9540194298
 20
5.2946800749
 11
-10.9524147168
 21
5.1720278507
  0
LINE
  5
446
100
AcDbEntity
  8
ASSI
100
AcDbLine
 62
7
  6
CONTINUOUS
 10
-10.9540194298
 20
10.2946800749
 11
-10.9524147168
 21
10.1720278507
  0
LINE
  5
447
100
AcDbEntity
  8
CURVE
100
AcDbLine
 62
250
  6
CONTINUOUS
 10
-11.1054266636
 20
15.1793707017
 11
-11.1067362346
 21
15.2754466638
  0
LINE
  5
448
100
AcDbEntity
  8
CURVE
100
AcDbLine
 62
250
  6
CONTINUOUS
 10
-11.1046633598
 20
-4.7579238083
 11
-11.105667527
 21
-4.685470439
  0
LWPOLYLINE
  5
449
100
AcDbEntity
  8
RACCORDO
100
AcDbPolyline
 62
250
  6
CONTINUOUS
 90
12
 70
0
 10
-10.6501896702
 20
-5.2571045694
 10
-10.6512957907
 20
-5.1567461616
 10
-10.65246417
 20
-5.0642492851
 10
-10.6536957058
 20
-4.9800844235
 10
-10.6549895003
 20
-4.9046902053
 10
-10.6563280233
 20
-4.8384286236
 10
-10.6577121833
 20
-4.7816597352
 10
-10.6591410719
 20
-4.7347161001
 10
-10.6605944339
 20
-4.6978706073
 10
-10.6620655176
 20
-4.6713550506
 10
-10.6635610748
 20
-4.6553542191
 10
-10.6650811053
 20
-4.65
  0
LWPOLYLINE
  5
44A
100
AcDbEntity
  8
ASSI
100
AcDbPolyline
 62
250
  6
CONTINUOUS
 90
12
 70
0
 10
-10.6501896702
 20
-5.2571045694
 10
-10.6512957907
 20
-5.1567461616
 10
-10.65246417
 20
-5.0642492851
 10
-10.6536957058
 20
-4.9800844235
 10
-10.6549895003
 20
-4.9046902053
 10
-10.6563280233
 20
-4.8384286236
 10
-10.6577121833
 20
-4.7816597352
 10
-10.6591410719
 20
-4.7347161001
 10
-10.6605944339
 20
-4.6978706073
 10
-10.6620655176
 20
-4.6713550506
 10
-10.6635610748
 20
-4.6553542191
 10
-10.6650811053
 20
-4.65
  0
LWPOLYLINE
  5
44B
100
AcDbEntity
  8
RACCORDO
100
AcDbPolyline
 62
250
  6
CONTINUOUS
 90
12
 70
0
 10
-10.6501896702
 20
-0.2571045694
 10
-10.6512957907
 20
-0.1567461616
 10
-10.65246417
 20
-0.0642492851
 10
-10.6536957058
 20
0.0199155765
 10
-10.6549895003
 20
0.0953097947
 10
-10.6563280233
 20
0.1615713764
 10
-10.6577121833
 20
0.2183402648
 10
-10.6591410719
 20
0.2652838999
 10
-10.6605944339
 20
0.3021293927
 10
-10.6620655176
 20
0.3286449494
 10
-10.6635610748
 20
0.3446457809
 10
-10.6650811053
 20
0.35
  0
LWPOLYLINE
  5
44C
100
AcDbEntity
  8
ASSI
100
AcDbPolyline
 62
250
  6
CONTINUOUS
 90
12
 70
0
 10
-10.6501896702
 20
-0.2571045694
 10
-10.6512957907
 20
-0.1567461616
 10
-10.65246417
 20
-0.0642492851
 10
-10.6536957058
 20
0.0199155765
 10
-10.6549895003
 20
0.0953097947
 10
-10.6563280233
 20
0.1615713764
 10
-10.6577121833
 20
0.2183402648
 10
-10.6591410719
 20
0.2652838999
 10
-10.6605944339
 20
0.3021293927
 10
-10.6620655176
 20
0.3286449494
 10
-10.6635610748
 20
0.3446457809
 10
-10.6650811053
 20
0.35
  0
LWPOLYLINE
  5
44D
100
AcDbEntity
  8
RACCORDO
100
AcDbPolyline
 62
250
  6
CONTINUOUS
 90
12
 70
0
 10
-10.6501896702
 20
4.7428954306
 10
-10.6512957907
 20
4.8432538384
 10
-10.65246417
 20
4.9357507149
 10
-10.6536957058
 20
5.0199155765
 10
-10.6549895003
 20
5.0953097947
 10
-10.6563280233
 20
5.1615713764
 10
-10.6577121833
 20
5.2183402648
 10
-10.6591410719
 20
5.2652838999
 10
-10.6605944339
 20
5.3021293927
 10
-10.6620655176
 20
5.3286449494
 10
-10.6635610748
 20
5.3446457809
 10
-10.6650811053
 20
5.35
  0
LWPOLYLINE
  5
44E
100
AcDbEntity
  8
ASSI
100
AcDbPolyline
 62
250
  6
CONTINUOUS
 90
12
 70
0
 10
-10.6501896702
 20
4.7428954306
 10
-10.6512957907
 20
4.8432538384
 10
-10.65246417
 20
4.9357507149
 10
-10.6536957058
 20
5.0199155765
 10
-10.6549895003
 20
5.0953097947
 10
-10.6563280233
 20
5.1615713764
 10
-10.6577121833
 20
5.2183402648
 10
-10.6591410719
 20
5.2652838999
 10
-10.6605944339
 20
5.3021293927
 10
-10.6620655176
 20
5.3286449494
 10
-10.6635610748
 20
5.3446457809
 10
-10.6650811053
 20
5.35
  0
LWPOLYLINE
  5
44F
100
AcDbEntity
  8
RACCORDO
100
AcDbPolyline
 62
250
  6
CONTINUOUS
 90
12
 70
0
 10
-10.6501896702
 20
9.7428954306
 10
-10.6512957907
 20
9.8432538384
 10
-10.65246417
 20
9.9357507149
 10
-10.6536957058
 20
10.0199155765
 10
-10.6549895003
 20
10.0953097947
 10
-10.6563280233
 20
10.1615713764
 10
-10.6577121833
 20
10.2183402648
 10
-10.6591410719
 20
10.2652838999
 10
-10.6605944339
 20
10.3021293927
 10
-10.6620655176
 20
10.3286449494
 10
-10.6635610748
 20
10.3446457809
 10
-10.6650811053
 20
10.35
  0
LWPOLYLINE
  5
450
100
AcDbEntity
  8
ASSI
100
AcDbPolyline
 62
250
  6
CONTINUOUS
 90
12
 70
0
 10
-10.6501896702
 20
9.7428954306
 10
-10.6512957907
 20
9.8432538384
 10
-10.65246417
 20
9.9357507149
 10
-10.6536957058
 20
10.0199155765
 10
-10.6549895003
 20
10.0953097947
 10
-10.6563280233
 20
10.1615713764
 10
-10.6577121833
 20
10.2183402648
 10
-10.6591410719
 20
10.2652838999
 10
-10.6605944339
 20
10.3021293927
 10
-10.6620655176
 20
10.3286449494
 10
-10.6635610748
 20
10.3446457809
 10
-10.6650811053
 20
10.35
  0
LINE
  5
451
100
AcDbEntity
  8
RACCORDO
100
AcDbLine
 62
7
  6
CONTINUOUS
 10
-10.9527441625
 20
-4.8008493364
 11
-10.9512300584
 21
-4.9349046753
  0
LINE
  5
452
100
AcDbEntity
  8
RACCORDO
100
AcDbLine
 62
7
  6
CONTINUOUS
 10
-10.9527441625
 20
0.1991506636
 11
-10.9512300584
 21
0.0650953247
  0
LINE
  5
453
100
AcDbEntity
  8
RACCORDO
100
AcDbLine
 62
7
  6
CONTINUOUS
 10
-10.9527441625
 20
5.1991506636
 11
-10.9512300584
 21
5.0650953247
  0
LINE
  5
454
100
AcDbEntity
  8
RACCORDO
100
AcDbLine
 62
7
  6
CONTINUOUS
 10
-10.9527441625
 20
10.1991506636
 11
-10.9512300584
 21
10.0650953247
  0
LINE
  5
455
100
AcDbEntity
  8
CURVE
100
AcDbLine
 62
250
  6
CONTINUOUS
 10
-11.1080989561
 20
15.0962254819
 11
-11.1071503471
 21
15.0152179707
  0
LINE
  5
456
100
AcDbEntity
  8
ASSI
100
AcDbLine
 62
7
  6
CONTINUOUS
 10
-10.9524147168
 20
-4.8279721493
 11
-10.9508585381
 21
-4.971862102
  0
LINE
  5
457
100
AcDbEntity
  8
CURVE
100
AcDbLine
 62
250
  6
CONTINUOUS
 10
-11.0814251457
 20
12.399765916
 11
-11.0829559289
 21
12.5316703851
  0
LINE
  5
458
100
AcDbEntity
  8
ASSI
100
AcDbLine
 62
7
  6
CONTINUOUS
 10
-10.9524147168
 20
0.1720278507
 11
-10.9508585381
 21
0.028137898
  0
LINE
  5
459
100
AcDbEntity
  8
ASSI
100
AcDbLine
 62
7
  6
CONTINUOUS
 10
-10.9524147168
 20
5.1720278507
 11
-10.9508585381
 21
5.028137898
  0
LINE
  5
45A
100
AcDbEntity
  8
ASSI
100
AcDbLine
 62
7
  6
CONTINUOUS
 10
-10.9524147168
 20
10.1720278507
 11
-10.9508585381
 21
10.028137898
  0
LINE
  5
45B
100
AcDbEntity
  8
CURVE
100
AcDbLine
 62
250
  6
CONTINUOUS
 10
-11.0845384371
 20
12.3712366322
 11
-11.0835413715
 21
12.2768924088
  0
LINE
  5
45C
100
AcDbEntity
  8
RACCORDO
100
AcDbLine
 62
7
  6
CONTINUOUS
 10
-10.9512300584
 20
-4.9349046753
 11
-10.9495938844
 21
-5.1121104122
  0
LINE
  5
45D
100
AcDbEntity
  8
RACCORDO
100
AcDbLine
 62
7
  6
CONTINUOUS
 10
-10.9512300584
 20
0.0650953247
 11
-10.9495938844
 21
-0.1121104122
  0
LINE
  5
45E
100
AcDbEntity
  8
RACCORDO
100
AcDbLine
 62
7
  6
CONTINUOUS
 10
-10.9512300584
 20
5.0650953247
 11
-10.9495938844
 21
4.8878895878
  0
LINE
  5
45F
100
AcDbEntity
  8
RACCORDO
100
AcDbLine
 62
7
  6
CONTINUOUS
 10
-10.9512300584
 20
10.0650953247
 11
-10.9495938844
 21
9.8878895878
  0
LINE
  5
460
100
AcDbEntity
  8
ASSI
100
AcDbLine
 62
7
  6
CONTINUOUS
 10
-10.9508585381
 20
-4.971862102
 11
-10.9493908491
 21
-5.136890732
  0
LINE
  5
461
100
AcDbEntity
  8
ASSI
100
AcDbLine
 62
7
  6
CONTINUOUS
 10
-10.9508585381
 20
0.028137898
 11
-10.9493908491
 21
-0.136890732
  0
LINE
  5
462
100
AcDbEntity
  8
ASSI
100
AcDbLine
 62
7
  6
CONTINUOUS
 10
-10.9508585381
 20
5.028137898
 11
-10.9493908491
 21
4.863109268
  0
LINE
  5
463
100
AcDbEntity
  8
ASSI
100
AcDbLine
 62
7
  6
CONTINUOUS
 10
-10.9508585381
 20
10.028137898
 11
-10.9493908491
 21
9.863109268
  0
LINE
  5
464
100
AcDbEntity
  8
RACCORDO
100
AcDbLine
 62
250
  6
CONTINUOUS
 10
-10.6482096721
 20
-5.4795606462
 11
-10.6501896702
 21
-5.2571045694
  0
LINE
  5
465
100
AcDbEntity
  8
ASSI
100
AcDbLine
 62
250
  6
CONTINUOUS
 10
-10.6482096721
 20
-5.4795606462
 11
-10.6501896702
 21
-5.2571045694
  0
LINE
  5
466
100
AcDbEntity
  8
RACCORDO
100
AcDbLine
 62
250
  6
CONTINUOUS
 10
-10.6482096721
 20
-0.4795606462
 11
-10.6501896702
 21
-0.2571045694
  0
LINE
  5
467
100
AcDbEntity
  8
ASSI
100
AcDbLine
 62
250
  6
CONTINUOUS
 10
-10.6482096721
 20
-0.4795606462
 11
-10.6501896702
 21
-0.2571045694
  0
LINE
  5
468
100
AcDbEntity
  8
RACCORDO
100
AcDbLine
 62
250
  6
CONTINUOUS
 10
-10.6482096721
 20
4.5204393538
 11
-10.6501896702
 21
4.7428954306
  0
LINE
  5
469
100
AcDbEntity
  8
ASSI
100
AcDbLine
 62
250
  6
CONTINUOUS
 10
-10.6482096721
 20
4.5204393538
 11
-10.6501896702
 21
4.7428954306
  0
LINE
  5
46A
100
AcDbEntity
  8
RACCORDO
100
AcDbLine
 62
250
  6
CONTINUOUS
 10
-10.6482096721
 20
9.5204393538
 11
-10.6501896702
 21
9.7428954306
  0
LINE
  5
46B
100
AcDbEntity
  8
ASSI
100
AcDbLine
 62
250
  6
CONTINUOUS
 10
-10.6482096721
 20
9.5204393538
 11
-10.6501896702
 21
9.7428954306
  0
LINE
  5
46C
100
AcDbEntity
  8
CURVE
100
AcDbLine
 62
250
  6
CONTINUOUS
 10
-11.1099889822
 20
-5.1249061628
 11
-11.109280497
 21
-5.2010435365
  0
LINE
  5
46D
100
AcDbEntity
  8
CURVE
100
AcDbLine
 62
250
  6
CONTINUOUS
 10
-11.1071503471
 20
15.0152179707
 11
-11.1064289698
 21
14.9264759167
  0
LINE
  5
46E
100
AcDbEntity
  8
CURVE
100
AcDbLine
 62
250
  6
CONTINUOUS
 10
-11.1040992157
 20
15.025338405
 11
-11.1054266636
 21
15.1793707017
  0
LINE
  5
46F
100
AcDbEntity
  8
RACCORDO
100
AcDbLine
 62
7
  6
CONTINUOUS
 10
-10.9495938844
 20
-5.1121104122
 11
-10.9480817879
 21
-5.3145689065
  0
LINE
  5
470
100
AcDbEntity
  8
RACCORDO
100
AcDbLine
 62
7
  6
CONTINUOUS
 10
-10.9495938844
 20
-0.1121104122
 11
-10.9480817879
 21
-0.3145689065
  0
LINE
  5
471
100
AcDbEntity
  8
RACCORDO
100
AcDbLine
 62
7
  6
CONTINUOUS
 10
-10.9495938844
 20
4.8878895878
 11
-10.9480817879
 21
4.6854310935
  0
LINE
  5
472
100
AcDbEntity
  8
RACCORDO
100
AcDbLine
 62
7
  6
CONTINUOUS
 10
-10.9495938844
 20
9.8878895878
 11
-10.9480817879
 21
9.6854310935
  0
LINE
  5
473
100
AcDbEntity
  8
CURVE
100
AcDbLine
 62
250
  6
CONTINUOUS
 10
-11.1044331807
 20
-4.7856463238
 11
-11.1046633598
 21
-4.7579238083
  0
LINE
  5
474
100
AcDbEntity
  8
ASSI
100
AcDbLine
 62
7
  6
CONTINUOUS
 10
-10.9493908491
 20
-5.136890732
 11
-10.9480282082
 21
-5.3226296669
  0
LINE
  5
475
100
AcDbEntity
  8
ASSI
100
AcDbLine
 62
7
  6
CONTINUOUS
 10
-10.9493908491
 20
-0.136890732
 11
-10.9480282082
 21
-0.3226296669
  0
LINE
  5
476
100
AcDbEntity
  8
ASSI
100
AcDbLine
 62
7
  6
CONTINUOUS
 10
-10.9493908491
 20
4.863109268
 11
-10.9480282082
 21
4.6773703331
  0
LINE
  5
477
100
AcDbEntity
  8
ASSI
100
AcDbLine
 62
7
  6
CONTINUOUS
 10
-10.9493908491
 20
9.863109268
 11
-10.9480282082
 21
9.6773703331
  0
LINE
  5
478
100
AcDbEntity
  8
CURVE
100
AcDbLine
 62
250
  6
CONTINUOUS
 10
-11.0835413715
 20
12.2768924088
 11
-11.0827777125
 21
12.1759076541
  0
LINE
  5
479
100
AcDbEntity
  8
RACCORDO
100
AcDbLine
 62
250
  6
CONTINUOUS
 10
-10.6465509778
 20
-5.7274061401
 11
-10.6482096721
 21
-5.4795606462
  0
LINE
  5
47A
100
AcDbEntity
  8
ASSI
100
AcDbLine
 62
250
  6
CONTINUOUS
 10
-10.6465509778
 20
-5.7274061401
 11
-10.6482096721
 21
-5.4795606462
  0
LINE
  5
47B
100
AcDbEntity
  8
RACCORDO
100
AcDbLine
 62
250
  6
CONTINUOUS
 10
-10.6465509778
 20
-0.7274061401
 11
-10.6482096721
 21
-0.4795606462
  0
LINE
  5
47C
100
AcDbEntity
  8
ASSI
100
AcDbLine
 62
250
  6
CONTINUOUS
 10
-10.6465509778
 20
-0.7274061401
 11
-10.6482096721
 21
-0.4795606462
  0
LINE
  5
47D
100
AcDbEntity
  8
RACCORDO
100
AcDbLine
 62
250
  6
CONTINUOUS
 10
-10.6465509778
 20
4.2725938599
 11
-10.6482096721
 21
4.5204393538
  0
LINE
  5
47E
100
AcDbEntity
  8
ASSI
100
AcDbLine
 62
250
  6
CONTINUOUS
 10
-10.6465509778
 20
4.2725938599
 11
-10.6482096721
 21
4.5204393538
  0
LINE
  5
47F
100
AcDbEntity
  8
RACCORDO
100
AcDbLine
 62
250
  6
CONTINUOUS
 10
-10.6465509778
 20
9.2725938599
 11
-10.6482096721
 21
9.5204393538
  0
LINE
  5
480
100
AcDbEntity
  8
ASSI
100
AcDbLine
 62
250
  6
CONTINUOUS
 10
-10.6465509778
 20
9.2725938599
 11
-10.6482096721
 21
9.5204393538
  0
LINE
  5
481
100
AcDbEntity
  8
CURVE
100
AcDbLine
 62
250
  6
CONTINUOUS
 10
-11.080099973
 20
12.2169905163
 11
-11.0814251457
 21
12.399765916
  0
LINE
  5
482
100
AcDbEntity
  8
RACCORDO
100
AcDbLine
 62
7
  6
CONTINUOUS
 10
-10.9480817879
 20
-5.3145689065
 11
-10.9467421547
 21
-5.541207804
  0
LINE
  5
483
100
AcDbEntity
  8
ASSI
100
AcDbLine
 62
7
  6
CONTINUOUS
 10
-10.9480282082
 20
-5.3226296669
 11
-10.9466499448
 21
-5.5590156491
  0
LINE
  5
484
100
AcDbEntity
  8
RACCORDO
100
AcDbLine
 62
7
  6
CONTINUOUS
 10
-10.9480817879
 20
-0.3145689065
 11
-10.9467421547
 21
-0.541207804
  0
LINE
  5
485
100
AcDbEntity
  8
ASSI
100
AcDbLine
 62
7
  6
CONTINUOUS
 10
-10.9480282082
 20
-0.3226296669
 11
-10.9466499448
 21
-0.5590156491
  0
LINE
  5
486
100
AcDbEntity
  8
ASSI
100
AcDbLine
 62
7
  6
CONTINUOUS
 10
-10.9480282082
 20
4.6773703331
 11
-10.9466499448
 21
4.4409843509
  0
LINE
  5
487
100
AcDbEntity
  8
RACCORDO
100
AcDbLine
 62
7
  6
CONTINUOUS
 10
-10.9480817879
 20
4.6854310935
 11
-10.9467421547
 21
4.458792196
  0
LINE
  5
488
100
AcDbEntity
  8
ASSI
100
AcDbLine
 62
7
  6
CONTINUOUS
 10
-10.9480282082
 20
9.6773703331
 11
-10.9466499448
 21
9.4409843509
  0
LINE
  5
489
100
AcDbEntity
  8
RACCORDO
100
AcDbLine
 62
7
  6
CONTINUOUS
 10
-10.9480817879
 20
9.6854310935
 11
-10.9467421547
 21
9.458792196
  0
LINE
  5
48A
100
AcDbEntity
  8
RACCORDO
100
AcDbLine
 62
7
  6
CONTINUOUS
 10
-10.9467421547
 20
-5.541207804
 11
-10.9462883953
 21
-5.632113156
  0
LINE
  5
48B
100
AcDbEntity
  8
RACCORDO
100
AcDbLine
 62
250
  6
CONTINUOUS
 10
-10.6452505244
 20
-5.9961757274
 11
-10.6465509778
 21
-5.7274061401
  0
LINE
  5
48C
100
AcDbEntity
  8
ASSI
100
AcDbLine
 62
250
  6
CONTINUOUS
 10
-10.6452505244
 20
-5.9961757274
 11
-10.6465509778
 21
-5.7274061401
  0
LINE
  5
48D
100
AcDbEntity
  8
RACCORDO
100
AcDbLine
 62
250
  6
CONTINUOUS
 10
-10.6452505244
 20
-0.9961757274
 11
-10.6465509778
 21
-0.7274061401
  0
LINE
  5
48E
100
AcDbEntity
  8
ASSI
100
AcDbLine
 62
250
  6
CONTINUOUS
 10
-10.6452505244
 20
-0.9961757274
 11
-10.6465509778
 21
-0.7274061401
  0
LINE
  5
48F
100
AcDbEntity
  8
RACCORDO
100
AcDbLine
 62
250
  6
CONTINUOUS
 10
-10.6452505244
 20
4.0038242726
 11
-10.6465509778
 21
4.2725938599
  0
LINE
  5
490
100
AcDbEntity
  8
ASSI
100
AcDbLine
 62
250
  6
CONTINUOUS
 10
-10.6452505244
 20
4.0038242726
 11
-10.6465509778
 21
4.2725938599
  0
LINE
  5
491
100
AcDbEntity
  8
RACCORDO
100
AcDbLine
 62
250
  6
CONTINUOUS
 10
-10.6452505244
 20
9.0038242726
 11
-10.6465509778
 21
9.2725938599
  0
LINE
  5
492
100
AcDbEntity
  8
ASSI
100
AcDbLine
 62
250
  6
CONTINUOUS
 10
-10.6452505244
 20
9.0038242726
 11
-10.6465509778
 21
9.2725938599
  0
LINE
  5
493
100
AcDbEntity
  8
CURVE
100
AcDbLine
 62
250
  6
CONTINUOUS
 10
-11.1064289698
 20
14.9264759167
 11
-11.1059160153
 21
14.8281161618
  0
LINE
  5
494
100
AcDbEntity
  8
CURVE
100
AcDbLine
 62
250
  6
CONTINUOUS
 10
-11.0827777125
 20
12.1759076541
 11
-11.0822218163
 21
12.0627415443
  0
LINE
  5
495
100
AcDbEntity
  8
ASSI
100
AcDbLine
 62
7
  6
CONTINUOUS
 10
-10.9466499448
 20
-5.5590156491
 11
-10.9456192175
 21
-5.7853542933
  0
LINE
  5
496
100
AcDbEntity
  8
ASSI
100
AcDbLine
 62
7
  6
CONTINUOUS
 10
-10.9466499448
 20
-0.5590156491
 11
-10.9456192175
 21
-0.7853542933
  0
LINE
  5
497
100
AcDbEntity
  8
RACCORDO
100
AcDbLine
 62
7
  6
CONTINUOUS
 10
-10.9467421547
 20
-0.541207804
 11
-10.9455994404
 21
-0.7903398795
  0
LINE
  5
498
100
AcDbEntity
  8
RACCORDO
100
AcDbLine
 62
7
  6
CONTINUOUS
 10
-10.9467421547
 20
4.458792196
 11
-10.9455994404
 21
4.2096601205
  0
LINE
  5
499
100
AcDbEntity
  8
ASSI
100
AcDbLine
 62
7
  6
CONTINUOUS
 10
-10.9466499448
 20
4.4409843509
 11
-10.9456192175
 21
4.2146457067
  0
LINE
  5
49A
100
AcDbEntity
  8
RACCORDO
100
AcDbLine
 62
7
  6
CONTINUOUS
 10
-10.9467421547
 20
9.458792196
 11
-10.9455994404
 21
9.2096601205
  0
LINE
  5
49B
100
AcDbEntity
  8
ASSI
100
AcDbLine
 62
7
  6
CONTINUOUS
 10
-10.9466499448
 20
9.4409843509
 11
-10.9456192175
 21
9.2146457067
  0
LINE
  5
49C
100
AcDbEntity
  8
CURVE
100
AcDbLine
 62
250
  6
CONTINUOUS
 10
-11.109280497
 20
-5.2010435365
 11
-11.1087881524
 21
-5.2932634599
  0
LINE
  5
49D
100
AcDbEntity
  8
RACCORDO
100
AcDbLine
 62
7
  6
CONTINUOUS
 10
-10.9462883953
 20
-5.632113156
 11
-10.9452325358
 21
-5.8890821103
  0
LINE
  5
49E
100
AcDbEntity
  8
CURVE
100
AcDbLine
 62
250
  6
CONTINUOUS
 10
-11.1043522701
 20
-4.80544429
 11
-11.1044331807
 21
-4.7856463238
  0
LINE
  5
49F
100
AcDbEntity
  8
RACCORDO
100
AcDbLine
 62
7
  6
CONTINUOUS
 10
-10.9452325358
 20
-5.8890821103
 11
-10.9450082004
 21
-5.9564035622
  0
LINE
  5
4A0
100
AcDbEntity
  8
ASSI
100
AcDbLine
 62
7
  6
CONTINUOUS
 10
-10.9456192175
 20
-5.7853542933
 11
-10.9450062045
 21
-5.9570304126
  0
LINE
  5
4A1
100
AcDbEntity
  8
RACCORDO
100
AcDbLine
 62
7
  6
CONTINUOUS
 10
-10.9455994404
 20
-0.7903398795
 11
-10.9447013346
 21
-1.0595041587
  0
LINE
  5
4A2
100
AcDbEntity
  8
ASSI
100
AcDbLine
 62
7
  6
CONTINUOUS
 10
-10.9456192175
 20
-0.7853542933
 11
-10.9446898934
 21
-1.0636359961
  0
LINE
  5
4A3
100
AcDbEntity
  8
ASSI
100
AcDbLine
 62
7
  6
CONTINUOUS
 10
-10.9456192175
 20
4.2146457067
 11
-10.9446898934
 21
3.9363640039
  0
LINE
  5
4A4
100
AcDbEntity
  8
RACCORDO
100
AcDbLine
 62
7
  6
CONTINUOUS
 10
-10.9455994404
 20
4.2096601205
 11
-10.9447013346
 21
3.9404958413
  0
LINE
  5
4A5
100
AcDbEntity
  8
ASSI
100
AcDbLine
 62
7
  6
CONTINUOUS
 10
-10.9456192175
 20
9.2146457067
 11
-10.9446898934
 21
8.9363640039
  0
LINE
  5
4A6
100
AcDbEntity
  8
RACCORDO
100
AcDbLine
 62
7
  6
CONTINUOUS
 10
-10.9455994404
 20
9.2096601205
 11
-10.9447013346
 21
8.9404958413
  0
LINE
  5
4A7
100
AcDbEntity
  8
RACCORDO
100
AcDbLine
 62
250
  6
CONTINUOUS
 10
-10.644334582
 20
-6.2807427344
 11
-10.6452505244
 21
-5.9961757274
  0
LINE
  5
4A8
100
AcDbEntity
  8
ASSI
100
AcDbLine
 62
250
  6
CONTINUOUS
 10
-10.644334582
 20
-6.2807427344
 11
-10.6452505244
 21
-5.9961757274
  0
LINE
  5
4A9
100
AcDbEntity
  8
RACCORDO
100
AcDbLine
 62
250
  6
CONTINUOUS
 10
-10.644334582
 20
-1.2807427344
 11
-10.6452505244
 21
-0.9961757274
  0
LINE
  5
4AA
100
AcDbEntity
  8
ASSI
100
AcDbLine
 62
250
  6
CONTINUOUS
 10
-10.644334582
 20
-1.2807427344
 11
-10.6452505244
 21
-0.9961757274
  0
LINE
  5
4AB
100
AcDbEntity
  8
RACCORDO
100
AcDbLine
 62
250
  6
CONTINUOUS
 10
-10.644334582
 20
3.7192572656
 11
-10.6452505244
 21
4.0038242726
  0
LINE
  5
4AC
100
AcDbEntity
  8
ASSI
100
AcDbLine
 62
250
  6
CONTINUOUS
 10
-10.644334582
 20
3.7192572656
 11
-10.6452505244
 21
4.0038242726
  0
LINE
  5
4AD
100
AcDbEntity
  8
RACCORDO
100
AcDbLine
 62
250
  6
CONTINUOUS
 10
-10.644334582
 20
8.7192572656
 11
-10.6452505244
 21
9.0038242726
  0
LINE
  5
4AE
100
AcDbEntity
  8
ASSI
100
AcDbLine
 62
250
  6
CONTINUOUS
 10
-10.644334582
 20
8.7192572656
 11
-10.6452505244
 21
9.0038242726
  0
LINE
  5
4AF
100
AcDbEntity
  8
RACCORDO
100
AcDbLine
 62
7
  6
CONTINUOUS
 10
-10.9450082004
 20
-5.9564035622
 11
-10.9446067506
 21
-6.0944038526
  0
LINE
  5
4B0
100
AcDbEntity
  8
ASSI
100
AcDbLine
 62
7
  6
CONTINUOUS
 10
-10.9450062045
 20
-5.9570304126
 11
-10.9445000766
 21
-6.1360503471
  0
LINE
  5
4B1
100
AcDbEntity
  8
CURVE
100
AcDbLine
 62
250
  6
CONTINUOUS
 10
-11.0792478616
 20
11.9766660696
 11
-11.080099973
 21
12.2169905163
  0
LINE
  5
4B2
100
AcDbEntity
  8
CURVE
100
AcDbLine
 62
250
  6
CONTINUOUS
 10
-11.1029806141
 20
14.7443310237
 11
-11.1040992157
 21
15.025338405
  0
LINE
  5
4B3
100
AcDbEntity
  8
RACCORDO
100
AcDbLine
 62
7
  6
CONTINUOUS
 10
-10.9446067506
 20
-6.0944038526
 11
-10.9441320888
 21
-6.3085571147
  0
LINE
  5
4B4
100
AcDbEntity
  8
ASSI
100
AcDbLine
 62
7
  6
CONTINUOUS
 10
-10.9446898934
 20
-1.0636359961
 11
-10.9441101021
 21
-1.3210385812
  0
LINE
  5
4B5
100
AcDbEntity
  8
RACCORDO
100
AcDbLine
 62
7
  6
CONTINUOUS
 10
-10.9447013346
 20
-1.0595041587
 11
-10.9440697552
 21
-1.3449201649
  0
LINE
  5
4B6
100
AcDbEntity
  8
ASSI
100
AcDbLine
 62
7
  6
CONTINUOUS
 10
-10.9446898934
 20
3.9363640039
 11
-10.9441101021
 21
3.6789614188
  0
LINE
  5
4B7
100
AcDbEntity
  8
ASSI
100
AcDbLine
 62
7
  6
CONTINUOUS
 10
-10.9446898934
 20
8.9363640039
 11
-10.9441101021
 21
8.6789614188
  0
LINE
  5
4B8
100
AcDbEntity
  8
CURVE
100
AcDbLine
 62
250
  6
CONTINUOUS
 10
-11.0822218163
 20
12.0627415443
 11
-11.0818525564
 21
11.9174940774
  0
LINE
  5
4B9
100
AcDbEntity
  8
RACCORDO
100
AcDbLine
 62
7
  6
CONTINUOUS
 10
-10.9447013346
 20
3.9404958413
 11
-10.9440123972
 21
3.6185690651
  0
LINE
  5
4BA
100
AcDbEntity
  8
RACCORDO
100
AcDbLine
 62
7
  6
CONTINUOUS
 10
-10.9447013346
 20
8.9404958413
 11
-10.9440123972
 21
8.6185690651
  0
LINE
  5
4BB
100
AcDbEntity
  8
CURVE
100
AcDbLine
 62
250
  6
CONTINUOUS
 10
-11.1059160153
 20
14.8281161618
 11
-11.1055857665
 21
14.6953241816
  0
LINE
  5
4BC
100
AcDbEntity
  8
ASSI
100
AcDbLine
 62
7
  6
CONTINUOUS
 10
-10.9445000766
 20
-6.1360503471
 11
-10.9439905131
 21
-6.3963029563
  0
LINE
  5
4BD
100
AcDbEntity
  8
RACCORDO
100
AcDbLine
 62
250
  6
CONTINUOUS
 10
-10.6438170098
 20
-6.5756430429
 11
-10.644334582
 21
-6.2807427344
  0
LINE
  5
4BE
100
AcDbEntity
  8
ASSI
100
AcDbLine
 62
250
  6
CONTINUOUS
 10
-10.6438170098
 20
-6.5756430429
 11
-10.644334582
 21
-6.2807427344
  0
LINE
  5
4BF
100
AcDbEntity
  8
RACCORDO
100
AcDbLine
 62
250
  6
CONTINUOUS
 10
-10.6438170098
 20
-1.5756430429
 11
-10.644334582
 21
-1.2807427344
  0
LINE
  5
4C0
100
AcDbEntity
  8
ASSI
100
AcDbLine
 62
250
  6
CONTINUOUS
 10
-10.6438170098
 20
-1.5756430429
 11
-10.644334582
 21
-1.2807427344
  0
LINE
  5
4C1
100
AcDbEntity
  8
RACCORDO
100
AcDbLine
 62
250
  6
CONTINUOUS
 10
-10.6438170098
 20
3.4243569571
 11
-10.644334582
 21
3.7192572656
  0
LINE
  5
4C2
100
AcDbEntity
  8
ASSI
100
AcDbLine
 62
250
  6
CONTINUOUS
 10
-10.6438170098
 20
3.4243569571
 11
-10.644334582
 21
3.7192572656
  0
LINE
  5
4C3
100
AcDbEntity
  8
RACCORDO
100
AcDbLine
 62
250
  6
CONTINUOUS
 10
-10.6438170098
 20
8.4243569571
 11
-10.644334582
 21
8.7192572656
  0
LINE
  5
4C4
100
AcDbEntity
  8
ASSI
100
AcDbLine
 62
250
  6
CONTINUOUS
 10
-10.6438170098
 20
8.4243569571
 11
-10.644334582
 21
8.7192572656
  0
LINE
  5
4C5
100
AcDbEntity
  8
CURVE
100
AcDbLine
 62
250
  6
CONTINUOUS
 10
-11.1224127904
 20
-5.7788012718
 11
-11.1228291856
 21
-5.585665753
  0
LINE
  5
4C6
100
AcDbEntity
  8
CURVE
100
AcDbLine
 62
250
  6
CONTINUOUS
 10
-11.1087881524
 20
-5.2932634599
 11
-11.1085437681
 21
-5.4017019004
  0
LINE
  5
4C7
100
AcDbEntity
  8
RACCORDO
100
AcDbLine
 62
7
  6
CONTINUOUS
 10
-10.9441320888
 20
-6.3085571147
 11
-10.9438697709
 21
-6.4917504104
  0
LINE
  5
4C8
100
AcDbEntity
  8
ASSI
100
AcDbLine
 62
7
  6
CONTINUOUS
 10
-10.9439905131
 20
-6.3963029563
 11
-10.9438134934
 21
-6.5483321302
  0
LINE
  5
4C9
100
AcDbEntity
  8
RACCORDO
100
AcDbLine
 62
7
  6
CONTINUOUS
 10
-10.9438697709
 20
-6.4917504104
 11
-10.9437692729
 21
-6.6029392816
  0
LINE
  5
4CA
100
AcDbEntity
  8
ASSI
100
AcDbLine
 62
7
  6
CONTINUOUS
 10
-10.9441101021
 20
-1.3210385812
 11
-10.9437543532
 21
-1.62485451
  0
LINE
  5
4CB
100
AcDbEntity
  8
RACCORDO
100
AcDbLine
 62
7
  6
CONTINUOUS
 10
-10.9440697552
 20
-1.3449201649
 11
-10.943744942
 21
-1.6401251963
  0
LINE
  5
4CC
100
AcDbEntity
  8
ASSI
100
AcDbLine
 62
7
  6
CONTINUOUS
 10
-10.9441101021
 20
8.6789614188
 11
-10.9437543532
 21
8.37514549
  0
LINE
  5
4CD
100
AcDbEntity
  8
RACCORDO
100
AcDbLine
 62
7
  6
CONTINUOUS
 10
-10.9440123972
 20
8.6185690651
 11
-10.9437254529
 21
8.3226449015
  0
LINE
  5
4CE
100
AcDbEntity
  8
ASSI
100
AcDbLine
 62
7
  6
CONTINUOUS
 10
-10.9438134934
 20
-6.5483321302
 11
-10.9437040041
 21
-6.7399089166
  0
LINE
  5
4CF
100
AcDbEntity
  8
ASSI
100
AcDbLine
 62
7
  6
CONTINUOUS
 10
-11.15
 20
-16.119659166
 11
-11.15
 21
16.119659166
  0
LINE
  5
4D0
100
AcDbEntity
  8
0
100
AcDbLine
 62
7
  6
CONTINUOUS
 10
-11.15
 20
-21.8997711479
 11
-11.15
 21
21.8997711479
  0
LINE
  5
4D1
100
AcDbEntity
  8
CURVE
100
AcDbLine
 62
250
  6
CONTINUOUS
 10
-11.1310357361
 20
-12.285664
 11
-11.1310357361
 21
-12.890935
  0
LINE
  5
4D2
100
AcDbEntity
  8
CURVE
100
AcDbLine
 62
250
  6
CONTINUOUS
 10
-11.1310326998
 20
-15.50026
 11
-11.1310326998
 21
-14.842748
  0
LINE
  5
4D3
100
AcDbEntity
  8
CURVE
100
AcDbLine
 62
250
  6
CONTINUOUS
 10
-11.1310326998
 20
-13.72041
 11
-11.1310326998
 21
-13.115552
  0
LINE
  5
4D4
100
AcDbEntity
  8
CURVE
100
AcDbLine
 62
250
  6
CONTINUOUS
 10
-11.1310326998
 20
-11.698005
 11
-11.1310326998
 21
-11.093234
  0
LINE
  5
4D5
100
AcDbEntity
  8
CURVE
100
AcDbLine
 62
250
  6
CONTINUOUS
 10
-11.1310326998
 20
-9.889084
 11
-11.1310326998
 21
-9.290227
  0
LINE
  5
4D6
100
AcDbEntity
  8
CURVE
100
AcDbLine
 62
250
  6
CONTINUOUS
 10
-11.1310326998
 20
-8.014517
 11
-11.1310326998
 21
-7.42899
  0
LINE
  5
4D7
100
AcDbEntity
  8
CURVE
100
AcDbLine
 62
250
  6
CONTINUOUS
 10
-11.130958345
 20
10.6804049345
 11
-11.130958345
 21
10.859433236
  0
LINE
  5
4D8
100
AcDbEntity
  8
CURVE
100
AcDbLine
 62
250
  6
CONTINUOUS
 10
-11.130958345
 20
12.7230857555
 11
-11.130958345
 21
12.9021123791
  0
LINE
  5
4D9
100
AcDbEntity
  8
CURVE
100
AcDbLine
 62
250
  6
CONTINUOUS
 10
-11.1309110053
 20
-0.775599
 11
-11.1309110053
 21
-0.365364
  0
LINE
  5
4DA
100
AcDbEntity
  8
CURVE
100
AcDbLine
 62
250
  6
CONTINUOUS
 10
-11.1309110053
 20
1.169952
 11
-11.1309110053
 21
1.535513
  0
LINE
  5
4DB
100
AcDbEntity
  8
CURVE
100
AcDbLine
 62
250
  6
CONTINUOUS
 10
-11.1309110053
 20
2.343691
 11
-11.1309110053
 21
4.346096
  0
LINE
  5
4DC
100
AcDbEntity
  8
CURVE
100
AcDbLine
 62
250
  6
CONTINUOUS
 10
-11.1309108657
 20
4.687221
 11
-11.1309108657
 21
5.105512
  0
LINE
  5
4DD
100
AcDbEntity
  8
CURVE
100
AcDbLine
 62
250
  6
CONTINUOUS
 10
-11.1309108657
 20
6.778946
 11
-11.1309108657
 21
7.181071
  0
LINE
  5
4DE
100
AcDbEntity
  8
CURVE
100
AcDbLine
 62
250
  6
CONTINUOUS
 10
-11.1309110053
 20
7.672513
 11
-11.1309110053
 21
9.67489
  0
LINE
  5
4DF
100
AcDbEntity
  8
CURVE
100
AcDbLine
 62
250
  6
CONTINUOUS
 10
-11.1252410935
 20
9.67489
 11
-11.1252410935
 21
8.058362
  0
LINE
  5
4E0
100
AcDbEntity
  8
CURVE
100
AcDbLine
 62
250
  6
CONTINUOUS
 10
-11.1252410935
 20
4.346096
 11
-11.1252410935
 21
2.729569
  0
LINE
  5
4E1
100
AcDbEntity
  8
CURVE
100
AcDbLine
 62
250
  6
CONTINUOUS
 10
-11.1209173076
 20
-0.401901
 11
-11.1209173076
 21
-0.410067
  0
LINE
  5
4E2
100
AcDbEntity
  8
CURVE
100
AcDbLine
 62
250
  6
CONTINUOUS
 10
-11.1091524604
 20
2.729569
 11
-11.1091524604
 21
4.236429
  0
LINE
  5
4E3
100
AcDbEntity
  8
CURVE
100
AcDbLine
 62
250
  6
CONTINUOUS
 10
-11.1091524604
 20
8.058362
 11
-11.1091524604
 21
9.565307
  0
LINE
  5
4E4
100
AcDbEntity
  8
CURVE
100
AcDbLine
 62
250
  6
CONTINUOUS
 10
-11.1085437681
 20
-5.4017019004
 11
-11.1085225925
 21
-5.7788012718
  0
LINE
  5
4E5
100
AcDbEntity
  8
CURVE
100
AcDbLine
 62
250
  6
CONTINUOUS
 10
-11.1055383942
 20
13.593700287
 11
-11.1055857665
 21
14.6953241816
  0
LINE
  5
4E6
100
AcDbEntity
  8
CURVE
100
AcDbLine
 62
250
  6
CONTINUOUS
 10
-11.1034820774
 20
9.565307
 11
-11.1034820774
 21
8.058362
  0
LINE
  5
4E7
100
AcDbEntity
  8
CURVE
100
AcDbLine
 62
250
  6
CONTINUOUS
 10
-11.1034820774
 20
4.236429
 11
-11.1034820774
 21
2.729569
  0
LINE
  5
4E8
100
AcDbEntity
  8
CURVE
100
AcDbLine
 62
250
  6
CONTINUOUS
 10
-11.1029806141
 20
14.7443310237
 11
-11.1028399254
 21
13.593700287
  0
LINE
  5
4E9
100
AcDbEntity
  8
CURVE
100
AcDbLine
 62
250
  6
CONTINUOUS
 10
-11.0983519561
 20
-8.0345
 11
-11.0983519561
 21
-7.454996
  0
LINE
  5
4EA
100
AcDbEntity
  8
CURVE
100
AcDbLine
 62
250
  6
CONTINUOUS
 10
-11.0905356903
 20
-7.334033
 11
-11.0905356903
 21
-8.158312
  0
LINE
  5
4EB
100
AcDbEntity
  8
CURVE
100
AcDbLine
 62
250
  6
CONTINUOUS
 10
-11.089874118
 20
1.161843
 11
-11.089874118
 21
1.169952
  0
LINE
  5
4EC
100
AcDbEntity
  8
CURVE
100
AcDbLine
 62
250
  6
CONTINUOUS
 10
-11.0870392493
 20
5.934146
 11
-11.0870392493
 21
5.942284
  0
LINE
  5
4ED
100
AcDbEntity
  8
CURVE
100
AcDbLine
 62
250
  6
CONTINUOUS
 10
-11.0859763154
 20
2.729569
 11
-11.0859763154
 21
4.358275
  0
LINE
  5
4EE
100
AcDbEntity
  8
CURVE
100
AcDbLine
 62
250
  6
CONTINUOUS
 10
-11.0859763154
 20
8.058362
 11
-11.0859763154
 21
9.687123
  0
LINE
  5
4EF
100
AcDbEntity
  8
CURVE
100
AcDbLine
 62
250
  6
CONTINUOUS
 10
-11.0804344847
 20
-6.539304
 11
-11.0804344847
 21
-7.177235
  0
LINE
  5
4F0
100
AcDbEntity
  8
CURVE
100
AcDbLine
 62
250
  6
CONTINUOUS
 10
-11.0804344847
 20
-8.325329
 11
-11.0804344847
 21
-8.924033
  0
LINE
  5
4F1
100
AcDbEntity
  8
CURVE
100
AcDbLine
 62
250
  6
CONTINUOUS
 10
-11.0804344847
 20
-9.019077
 11
-11.0804344847
 21
-9.611193
  0
LINE
  5
4F2
100
AcDbEntity
  8
CURVE
100
AcDbLine
 62
250
  6
CONTINUOUS
 10
-11.0804344847
 20
-10.455216
 11
-11.0804344847
 21
-10.540105
  0
LINE
  5
4F3
100
AcDbEntity
  8
CURVE
100
AcDbLine
 62
250
  6
CONTINUOUS
 10
-11.0804344847
 20
-11.380779
 11
-11.0804344847
 21
-11.959827
  0
LINE
  5
4F4
100
AcDbEntity
  8
CURVE
100
AcDbLine
 62
250
  6
CONTINUOUS
 10
-11.0804344847
 20
-14.047617
 11
-11.0804344847
 21
-14.581013
  0
LINE
  5
4F5
100
AcDbEntity
  8
CURVE
100
AcDbLine
 62
250
  6
CONTINUOUS
 10
-11.0804344847
 20
-12.890935
 11
-11.0804344847
 21
-12.285664
  0
LINE
  5
4F6
100
AcDbEntity
  8
CURVE
100
AcDbLine
 62
250
  6
CONTINUOUS
 10
-11.0804344785
 20
-6.3615673444
 11
-11.0804344785
 21
-5.7587313832
  0
LINE
  5
4F7
100
AcDbEntity
  8
CURVE
100
AcDbLine
 62
250
  6
CONTINUOUS
 10
-11.0804344785
 20
-4.8318417383
 11
-11.0804344785
 21
-4.2496410148
  0
LINE
  5
4F8
100
AcDbEntity
  8
CURVE
100
AcDbLine
 62
250
  6
CONTINUOUS
 10
-11.0803064384
 20
9.687123
 11
-11.0803064384
 21
7.672513
  0
LINE
  5
4F9
100
AcDbEntity
  8
CURVE
100
AcDbLine
 62
250
  6
CONTINUOUS
 10
-11.0803062814
 20
6.149381
 11
-11.0803062814
 21
5.710747
  0
LINE
  5
4FA
100
AcDbEntity
  8
CURVE
100
AcDbLine
 62
250
  6
CONTINUOUS
 10
-11.0803064384
 20
4.358275
 11
-11.0803064384
 21
2.343691
  0
LINE
  5
4FB
100
AcDbEntity
  8
CURVE
100
AcDbLine
 62
250
  6
CONTINUOUS
 10
-11.0803064384
 20
1.535513
 11
-11.0803064384
 21
1.113099
  0
LINE
  5
4FC
100
AcDbEntity
  8
CURVE
100
AcDbLine
 62
250
  6
CONTINUOUS
 10
-11.0803064384
 20
-0.410067
 11
-11.0803064384
 21
-0.775599
  0
LINE
  5
4FD
100
AcDbEntity
  8
CURVE
100
AcDbLine
 62
250
  6
CONTINUOUS
 10
-11.080261053
 20
13.593700287
 11
-11.080261053
 21
13.414561239
  0
LINE
  5
4FE
100
AcDbEntity
  8
CURVE
100
AcDbLine
 62
250
  6
CONTINUOUS
 10
-11.066322791
 20
13.842856884
 11
-11.066322791
 21
13.435714674
  0
LINE
  5
4FF
100
AcDbEntity
  8
CURVE
100
AcDbLine
 62
250
  6
CONTINUOUS
 10
-11.066322791
 20
8.821428442
 11
-11.066322791
 21
8.414285779
  0
LINE
  5
500
100
AcDbEntity
  8
CURVE
100
AcDbLine
 62
250
  6
CONTINUOUS
 10
-11.066322791
 20
5.9714286685
 11
-11.066322791
 21
5.5642856658
  0
LINE
  5
501
100
AcDbEntity
  8
CURVE
100
AcDbLine
 62
250
  6
CONTINUOUS
 10
-11.066322791
 20
4.2071428612
 11
-11.066322791
 21
4.3428571671
  0
LINE
  5
502
100
AcDbEntity
  8
CURVE
100
AcDbLine
 62
250
  6
CONTINUOUS
 10
-11.066322791
 20
6.785714221
 11
-11.066322791
 21
7.6
  0
LINE
  5
503
100
AcDbEntity
  8
CURVE
100
AcDbLine
 62
250
  6
CONTINUOUS
 10
-11.066322791
 20
9.635714221
 11
-11.066322791
 21
10.45
  0
LINE
  5
504
100
AcDbEntity
  8
CURVE
100
AcDbLine
 62
250
  6
CONTINUOUS
 10
-11.066322791
 20
15.064285326
 11
-11.066322791
 21
15.2
  0
LINE
  5
505
100
AcDbEntity
  8
CURVE
100
AcDbLine
 62
250
  6
CONTINUOUS
 10
-11.0558513472
 20
-13.2714285493
 11
-11.0558513472
 21
-12.8071429014
  0
LINE
  5
506
100
AcDbEntity
  8
CURVE
100
AcDbLine
 62
250
  6
CONTINUOUS
 10
-11.0558513472
 20
-12.0952380657
 11
-11.0558513472
 21
-11.5380951643
  0
LINE
  5
507
100
AcDbEntity
  8
CURVE
100
AcDbLine
 62
250
  6
CONTINUOUS
 10
-11.0558513472
 20
-6.4309522629
 11
-11.0558513472
 21
-5.6880954742
  0
LINE
  5
508
100
AcDbEntity
  8
CURVE
100
AcDbLine
 62
250
  6
CONTINUOUS
 10
-11.0521115466
 20
10.178571558
 11
-11.0521115466
 21
9.635714221
  0
LINE
  5
509
100
AcDbEntity
  8
CURVE
100
AcDbLine
 62
250
  6
CONTINUOUS
 10
-11.0521115466
 20
7.3285713315
 11
-11.0521115466
 21
6.785714221
  0
LINE
  5
50A
100
AcDbEntity
  8
CURVE
100
AcDbLine
 62
250
  6
CONTINUOUS
 10
-11.0473744642
 20
5.5642856658
 11
-11.0473744642
 21
6.1523810387
  0
LINE
  5
50B
100
AcDbEntity
  8
CURVE
100
AcDbLine
 62
250
  6
CONTINUOUS
 10
-11.0473744642
 20
8.414285779
 11
-11.0473744642
 21
9.0023810387
  0
LINE
  5
50C
100
AcDbEntity
  8
CURVE
100
AcDbLine
 62
250
  6
CONTINUOUS
 10
-11.0461278642
 20
-11.7238096714
 11
-11.0461278642
 21
-12.0952380657
  0
LINE
  5
50D
100
AcDbEntity
  8
CURVE
100
AcDbLine
 62
250
  6
CONTINUOUS
 10
-11.0396455415
 20
-14.2619047582
 11
-11.0396455415
 21
-13.766666615
  0
LINE
  5
50E
100
AcDbEntity
  8
CURVE
100
AcDbLine
 62
250
  6
CONTINUOUS
 10
-11.0396455415
 20
-5.1928574085
 11
-11.0396455415
 21
-4.6976193428
  0
LINE
  5
50F
100
AcDbEntity
  8
CURVE
100
AcDbLine
 62
250
  6
CONTINUOUS
 10
-11.0386898143
 20
11.3095237017
 11
-11.0386898143
 21
11.4
  0
LINE
  5
510
100
AcDbEntity
  8
CURVE
100
AcDbLine
 62
250
  6
CONTINUOUS
 10
-11.0347422461
 20
11.4
 11
-11.0347422461
 21
11.3095237017
  0
LINE
  5
511
100
AcDbEntity
  8
CURVE
100
AcDbLine
 62
250
  6
CONTINUOUS
 10
-11.0331632188
 20
15.2
 11
-11.0331632188
 21
15.064285326
  0
LINE
  5
512
100
AcDbEntity
  8
CURVE
100
AcDbLine
 62
250
  6
CONTINUOUS
 10
-11.0331632188
 20
14.114285326
 11
-11.0331632188
 21
13.164285326
  0
LINE
  5
513
100
AcDbEntity
  8
CURVE
100
AcDbLine
 62
250
  6
CONTINUOUS
 10
-11.0331632188
 20
4.3428571671
 11
-11.0331632188
 21
4.2071428612
  0
LINE
  5
514
100
AcDbEntity
  8
CURVE
100
AcDbLine
 62
250
  6
CONTINUOUS
 10
-11.0331632188
 20
-12.8071429014
 11
-11.0331632188
 21
-13.2714285493
  0
LINE
  5
515
100
AcDbEntity
  8
CURVE
100
AcDbLine
 62
250
  6
CONTINUOUS
 10
-11.0331632188
 20
-12.0952380657
 11
-11.0331632188
 21
-11.5380951643
  0
LINE
  5
516
100
AcDbEntity
  8
CURVE
100
AcDbLine
 62
250
  6
CONTINUOUS
 10
-11.0331632188
 20
-4.2023806572
 11
-11.0331632188
 21
-3.7380954742
  0
LINE
  5
517
100
AcDbEntity
  8
CURVE
100
AcDbLine
 62
250
  6
CONTINUOUS
 10
-11.0331632188
 20
6.785714221
 11
-11.0331632188
 21
7.3285713315
  0
LINE
  5
518
100
AcDbEntity
  8
CURVE
100
AcDbLine
 62
250
  6
CONTINUOUS
 10
-11.0331632188
 20
9.635714221
 11
-11.0331632188
 21
10.178571558
  0
LINE
  5
519
100
AcDbEntity
  8
CURVE
100
AcDbLine
 62
250
  6
CONTINUOUS
 10
-11.0244370156
 20
5.8
 11
-11.0244370156
 21
6.2642857254
  0
LINE
  5
51A
100
AcDbEntity
  8
CURVE
100
AcDbLine
 62
250
  6
CONTINUOUS
 10
-11.0244370156
 20
10.0404761314
 11
-11.0244370156
 21
10.5976190329
  0
LINE
  5
51B
100
AcDbEntity
  8
CURVE
100
AcDbLine
 62
250
  6
CONTINUOUS
 10
-11.0244370156
 20
10.9690477371
 11
-11.0244370156
 21
11.43333354
  0
LINE
  5
51C
100
AcDbEntity
  8
CURVE
100
AcDbLine
 62
250
  6
CONTINUOUS
 10
-11.0244370156
 20
14.7761903286
 11
-11.0244370156
 21
15.5190477371
  0
LINE
  5
51D
100
AcDbEntity
  8
CURVE
100
AcDbLine
 62
250
  6
CONTINUOUS
 10
-11.0147135326
 20
10.4119048357
 11
-11.0147135326
 21
10.0404761314
  0
LINE
  5
51E
100
AcDbEntity
  8
RACCORDO
100
AcDbLine
 62
7
  6
CONTINUOUS
 10
-11.0130903017
 20
16.5912243901
 11
-11.0130903017
 21
10.65
  0
LINE
  5
51F
100
AcDbEntity
  8
ASSI
100
AcDbLine
 62
7
  6
CONTINUOUS
 10
-11.0130903017
 20
16.5912243901
 11
-11.0130903017
 21
10.65
  0
LINE
  5
520
100
AcDbEntity
  8
RACCORDO
100
AcDbLine
 62
7
  6
CONTINUOUS
 10
-11.0130903017
 20
5.75
 11
-11.0130903017
 21
5.65
  0
LINE
  5
521
100
AcDbEntity
  8
ASSI
100
AcDbLine
 62
7
  6
CONTINUOUS
 10
-11.0130903017
 20
5.75
 11
-11.0130903017
 21
5.65
  0
LINE
  5
522
100
AcDbEntity
  8
RACCORDO
100
AcDbLine
 62
7
  6
CONTINUOUS
 10
-11.0130903017
 20
0.75
 11
-11.0130903017
 21
0.65
  0
LINE
  5
523
100
AcDbEntity
  8
ASSI
100
AcDbLine
 62
7
  6
CONTINUOUS
 10
-11.0130903017
 20
0.75
 11
-11.0130903017
 21
0.65
  0
LINE
  5
524
100
AcDbEntity
  8
RACCORDO
100
AcDbLine
 62
7
  6
CONTINUOUS
 10
-11.0130903017
 20
-4.25
 11
-11.0130903017
 21
-4.35
  0
LINE
  5
525
100
AcDbEntity
  8
ASSI
100
AcDbLine
 62
7
  6
CONTINUOUS
 10
-11.0130903017
 20
-4.25
 11
-11.0130903017
 21
-4.35
  0
LINE
  5
526
100
AcDbEntity
  8
RACCORDO
100
AcDbLine
 62
7
  6
CONTINUOUS
 10
-11.0130903017
 20
-9.25
 11
-11.0130903017
 21
-16.5912243901
  0
LINE
  5
527
100
AcDbEntity
  8
ASSI
100
AcDbLine
 62
7
  6
CONTINUOUS
 10
-11.0130903017
 20
-9.25
 11
-11.0130903017
 21
-16.5912243901
  0
LINE
  5
528
100
AcDbEntity
  8
CURVE
100
AcDbLine
 62
250
  6
CONTINUOUS
 10
-11.0017488872
 20
6.2642857254
 11
-11.0017488872
 21
5.8302356342
  0
LINE
  5
529
100
AcDbEntity
  8
CURVE
100
AcDbLine
 62
250
  6
CONTINUOUS
 10
-11.0017488872
 20
10.0404761314
 11
-11.0017488872
 21
10.5697643658
  0
LINE
  5
52A
100
AcDbEntity
  8
ASSI
100
AcDbLine
 62
7
  6
CONTINUOUS
 10
-11.0
 20
10.563227895
 11
-11.0
 21
5.836772105
  0
LINE
  5
52B
100
AcDbEntity
  8
ASSI
100
AcDbLine
 62
7
  6
CONTINUOUS
 10
-11.0
 20
5.563227895
 11
-11.0
 21
0.836772105
  0
LINE
  5
52C
100
AcDbEntity
  8
ASSI
100
AcDbLine
 62
7
  6
CONTINUOUS
 10
-11.0
 20
0.563227895
 11
-11.0
 21
-4.163227895
  0
LINE
  5
52D
100
AcDbEntity
  8
ASSI
100
AcDbLine
 62
7
  6
CONTINUOUS
 10
-11.0
 20
-4.436772105
 11
-11.0
 21
-9.163227895
  0
LINE
  5
52E
100
AcDbEntity
  8
RACCORDO
100
AcDbLine
 62
7
  6
CONTINUOUS
 10
-10.9437692729
 20
-6.6029392816
 11
-10.9436973024
 21
-6.789110396
  0
LINE
  5
52F
100
AcDbEntity
  8
RACCORDO
100
AcDbLine
 62
250
  6
CONTINUOUS
 10
-10.6437143706
 20
8.1248019577
 11
-10.6438170098
 21
8.4243569571
  0
LINE
  5
530
100
AcDbEntity
  8
ASSI
100
AcDbLine
 62
250
  6
CONTINUOUS
 10
-10.6437143706
 20
8.1248019577
 11
-10.6438170098
 21
8.4243569571
  0
LINE
  5
531
100
AcDbEntity
  8
RACCORDO
100
AcDbLine
 62
250
  6
CONTINUOUS
 10
-10.6437143706
 20
3.1248019577
 11
-10.6438170098
 21
3.4243569571
  0
LINE
  5
532
100
AcDbEntity
  8
ASSI
100
AcDbLine
 62
250
  6
CONTINUOUS
 10
-10.6437143706
 20
3.1248019577
 11
-10.6438170098
 21
3.4243569571
  0
LINE
  5
533
100
AcDbEntity
  8
RACCORDO
100
AcDbLine
 62
250
  6
CONTINUOUS
 10
-10.6437143706
 20
-1.8751980423
 11
-10.6438170098
 21
-1.5756430429
  0
LINE
  5
534
100
AcDbEntity
  8
ASSI
100
AcDbLine
 62
250
  6
CONTINUOUS
 10
-10.6437143706
 20
-1.8751980423
 11
-10.6438170098
 21
-1.5756430429
  0
LINE
  5
535
100
AcDbEntity
  8
RACCORDO
100
AcDbLine
 62
250
  6
CONTINUOUS
 10
-10.6437143706
 20
-6.8751980423
 11
-10.6438170098
 21
-6.5756430429
  0
LINE
  5
536
100
AcDbEntity
  8
ASSI
100
AcDbLine
 62
250
  6
CONTINUOUS
 10
-10.6437143706
 20
-6.8751980423
 11
-10.6438170098
 21
-6.5756430429
  0
LINE
  5
537
100
AcDbEntity
  8
CURVE
100
AcDbLine
 62
250
  6
CONTINUOUS
 10
-11.1316165218
 20
-5.5040094671
 11
-11.1304415433
 21
-6.3615673444
  0
LINE
  5
538
100
AcDbEntity
  8
CURVE
100
AcDbLine
 62
250
  6
CONTINUOUS
 10
-11.0818525564
 20
11.9174940774
 11
-11.0817588718
 21
11.7373521736
  0
LINE
  5
539
100
AcDbEntity
  8
ASSI
100
AcDbLine
 62
7
  6
CONTINUOUS
 10
-10.9437543532
 20
8.37514549
 11
-10.9437129979
 21
8.1068471369
  0
LINE
  5
53A
100
AcDbEntity
  8
ASSI
100
AcDbLine
 62
7
  6
CONTINUOUS
 10
-10.9437543532
 20
-1.62485451
 11
-10.9437129979
 21
-1.8931528631
  0
LINE
  5
53B
100
AcDbEntity
  8
CURVE
100
AcDbLine
 62
250
  6
CONTINUOUS
 10
-11.1228291856
 20
-5.585665753
 11
-11.122878389
 21
-5.4341697896
  0
LINE
  5
53C
100
AcDbEntity
  8
ASSI
100
AcDbLine
 62
7
  6
CONTINUOUS
 10
-10.9441101021
 20
3.6789614188
 11
-10.9437288819
 21
3.0686724834
  0
LINE
  5
53D
100
AcDbEntity
  8
RACCORDO
100
AcDbLine
 62
7
  6
CONTINUOUS
 10
-10.943744942
 20
-1.6401251963
 11
-10.9437320773
 21
-1.9377419402
  0
LINE
  5
53E
100
AcDbEntity
  8
ASSI
100
AcDbLine
 62
7
  6
CONTINUOUS
 10
-10.9437040041
 20
-6.7399089166
 11
-10.9437288819
 21
-6.9313275166
  0
LINE
  5
53F
100
AcDbEntity
  8
RACCORDO
100
AcDbLine
 62
7
  6
CONTINUOUS
 10
-10.9437254529
 20
8.3226449015
 11
-10.9437534237
 21
8.0252670015
  0
LINE
  5
540
100
AcDbEntity
  8
RACCORDO
100
AcDbLine
 62
7
  6
CONTINUOUS
 10
-10.9440123972
 20
3.6185690651
 11
-10.9437534237
 21
3.0252670015
  0
LINE
  5
541
100
AcDbEntity
  8
RACCORDO
100
AcDbLine
 62
7
  6
CONTINUOUS
 10
-10.9436973024
 20
-6.789110396
 11
-10.9437534237
 21
-6.9747329985
  0
LINE
  5
542
100
AcDbEntity
  8
CURVE
100
AcDbLine
 62
250
  6
CONTINUOUS
 10
-11.0791320682
 20
11.644835291
 11
-11.0792478616
 21
11.9766660696
  0
LINE
  5
543
100
AcDbEntity
  8
ASSI
100
AcDbLine
 62
7
  6
CONTINUOUS
 10
-10.9437288819
 20
-6.9313275166
 11
-10.943843579
 21
-7.0830286631
  0
LINE
  5
544
100
AcDbEntity
  8
RACCORDO
100
AcDbLine
 62
7
  6
CONTINUOUS
 10
-10.9437534237
 20
-6.9747329985
 11
-10.9438456708
 21
-7.0850822835
  0
LINE
  5
545
100
AcDbEntity
  8
ASSI
100
AcDbLine
 62
7
  6
CONTINUOUS
 10
-10.9437129979
 20
8.1068471369
 11
-10.9439792112
 21
7.8046890574
  0
LINE
  5
546
100
AcDbEntity
  8
ASSI
100
AcDbLine
 62
7
  6
CONTINUOUS
 10
-10.9437129979
 20
-1.8931528631
 11
-10.9439792112
 21
-2.1953109426
  0
LINE
  5
547
100
AcDbEntity
  8
RACCORDO
100
AcDbLine
 62
250
  6
CONTINUOUS
 10
-10.6440250812
 20
7.8268428474
 11
-10.6437143706
 21
8.1248019577
  0
LINE
  5
548
100
AcDbEntity
  8
ASSI
100
AcDbLine
 62
250
  6
CONTINUOUS
 10
-10.6440250812
 20
7.8268428474
 11
-10.6437143706
 21
8.1248019577
  0
LINE
  5
549
100
AcDbEntity
  8
RACCORDO
100
AcDbLine
 62
250
  6
CONTINUOUS
 10
-10.6440250812
 20
2.8268428474
 11
-10.6437143706
 21
3.1248019577
  0
LINE
  5
54A
100
AcDbEntity
  8
ASSI
100
AcDbLine
 62
250
  6
CONTINUOUS
 10
-10.6440250812
 20
2.8268428474
 11
-10.6437143706
 21
3.1248019577
  0
LINE
  5
54B
100
AcDbEntity
  8
RACCORDO
100
AcDbLine
 62
250
  6
CONTINUOUS
 10
-10.6440250812
 20
-2.1731571526
 11
-10.6437143706
 21
-1.8751980423
  0
LINE
  5
54C
100
AcDbEntity
  8
ASSI
100
AcDbLine
 62
250
  6
CONTINUOUS
 10
-10.6440250812
 20
-2.1731571526
 11
-10.6437143706
 21
-1.8751980423
  0
LINE
  5
54D
100
AcDbEntity
  8
RACCORDO
100
AcDbLine
 62
250
  6
CONTINUOUS
 10
-10.6440250812
 20
-7.1731571526
 11
-10.6437143706
 21
-6.8751980423
  0
LINE
  5
54E
100
AcDbEntity
  8
ASSI
100
AcDbLine
 62
250
  6
CONTINUOUS
 10
-10.6440250812
 20
-7.1731571526
 11
-10.6437143706
 21
-6.8751980423
  0
LINE
  5
54F
100
AcDbEntity
  8
RACCORDO
100
AcDbLine
 62
7
  6
CONTINUOUS
 10
-10.9437320773
 20
-1.9377419402
 11
-10.944030691
 21
-2.2302189488
  0
LINE
  5
550
100
AcDbEntity
  8
RACCORDO
100
AcDbLine
 62
7
  6
CONTINUOUS
 10
-10.9438456708
 20
-7.0850822835
 11
-10.944030691
 21
-7.2302189488
  0
LINE
  5
551
100
AcDbEntity
  8
RACCORDO
100
AcDbLine
 62
7
  6
CONTINUOUS
 10
-10.9437534237
 20
8.0252670015
 11
-10.9441507208
 21
7.6983225723
  0
LINE
  5
552
100
AcDbEntity
  8
ASSI
100
AcDbLine
 62
7
  6
CONTINUOUS
 10
-10.9437288819
 20
3.0686724834
 11
-10.944158393
 21
2.6941273779
  0
LINE
  5
553
100
AcDbEntity
  8
ASSI
100
AcDbLine
 62
7
  6
CONTINUOUS
 10
-10.943843579
 20
-7.0830286631
 11
-10.9440937392
 21
-7.2692295087
  0
LINE
  5
554
100
AcDbEntity
  8
CURVE
100
AcDbLine
 62
250
  6
CONTINUOUS
 10
-11.1282597298
 20
13.593700287
 11
-11.1281133809
 21
14.7736967779
  0
LINE
  5
555
100
AcDbEntity
  8
CURVE
100
AcDbLine
 62
250
  6
CONTINUOUS
 10
-11.0817588718
 20
11.7373521736
 11
-11.0819407433
 21
11.603284837
  0
LINE
  5
556
100
AcDbEntity
  8
RACCORDO
100
AcDbLine
 62
7
  6
CONTINUOUS
 10
-10.9437534237
 20
3.0252670015
 11
-10.9445302695
 21
2.5237187611
  0
LINE
  5
557
100
AcDbEntity
  8
RACCORDO
100
AcDbLine
 62
7
  6
CONTINUOUS
 10
-10.944030691
 20
-7.2302189488
 11
-10.9444456635
 21
-7.4418760776
  0
LINE
  5
558
100
AcDbEntity
  8
ASSI
100
AcDbLine
 62
7
  6
CONTINUOUS
 10
-10.9439792112
 20
7.8046890574
 11
-10.9445532168
 21
7.5147096885
  0
LINE
  5
559
100
AcDbEntity
  8
ASSI
100
AcDbLine
 62
7
  6
CONTINUOUS
 10
-10.9439792112
 20
-2.1953109426
 11
-10.9445532168
 21
-2.4852903115
  0
LINE
  5
55A
100
AcDbEntity
  8
RACCORDO
100
AcDbLine
 62
7
  6
CONTINUOUS
 10
-10.944030691
 20
-2.2302189488
 11
-10.9446189123
 21
-2.5104046187
  0
LINE
  5
55B
100
AcDbEntity
  8
ASSI
100
AcDbLine
 62
7
  6
CONTINUOUS
 10
-10.9440937392
 20
-7.2692295087
 11
-10.9445532168
 21
-7.4852903115
  0
LINE
  5
55C
100
AcDbEntity
  8
CURVE
100
AcDbLine
 62
250
  6
CONTINUOUS
 10
-11.122878389
 20
-5.4341697896
 11
-11.122655426
 21
-5.2824965657
  0
LINE
  5
55D
100
AcDbEntity
  8
RACCORDO
100
AcDbLine
 62
250
  6
CONTINUOUS
 10
-10.6447442609
 20
7.5363828404
 11
-10.6440250812
 21
7.8268428474
  0
LINE
  5
55E
100
AcDbEntity
  8
ASSI
100
AcDbLine
 62
250
  6
CONTINUOUS
 10
-10.6447442609
 20
7.5363828404
 11
-10.6440250812
 21
7.8268428474
  0
LINE
  5
55F
100
AcDbEntity
  8
RACCORDO
100
AcDbLine
 62
250
  6
CONTINUOUS
 10
-10.6447442609
 20
2.5363828404
 11
-10.6440250812
 21
2.8268428474
  0
LINE
  5
560
100
AcDbEntity
  8
ASSI
100
AcDbLine
 62
250
  6
CONTINUOUS
 10
-10.6447442609
 20
2.5363828404
 11
-10.6440250812
 21
2.8268428474
  0
LINE
  5
561
100
AcDbEntity
  8
RACCORDO
100
AcDbLine
 62
250
  6
CONTINUOUS
 10
-10.6447442609
 20
-2.4636171596
 11
-10.6440250812
 21
-2.1731571526
  0
LINE
  5
562
100
AcDbEntity
  8
ASSI
100
AcDbLine
 62
250
  6
CONTINUOUS
 10
-10.6447442609
 20
-2.4636171596
 11
-10.6440250812
 21
-2.1731571526
  0
LINE
  5
563
100
AcDbEntity
  8
RACCORDO
100
AcDbLine
 62
250
  6
CONTINUOUS
 10
-10.6447442609
 20
-7.4636171596
 11
-10.6440250812
 21
-7.1731571526
  0
LINE
  5
564
100
AcDbEntity
  8
ASSI
100
AcDbLine
 62
250
  6
CONTINUOUS
 10
-10.6447442609
 20
-7.4636171596
 11
-10.6440250812
 21
-7.1731571526
  0
LINE
  5
565
100
AcDbEntity
  8
RACCORDO
100
AcDbLine
 62
7
  6
CONTINUOUS
 10
-10.9441507208
 20
7.6983225723
 11
-10.944807505
 21
7.4222261076
  0
LINE
  5
566
100
AcDbEntity
  8
RACCORDO
100
AcDbLine
 62
7
  6
CONTINUOUS
 10
-10.9444456635
 20
-7.4418760776
 11
-10.944807505
 21
-7.5777738924
  0
LINE
  5
567
100
AcDbEntity
  8
ASSI
100
AcDbLine
 62
7
  6
CONTINUOUS
 10
-10.944158393
 20
2.6941273779
 11
-10.94505282
 21
2.3427250972
  0
LINE
  5
568
100
AcDbEntity
  8
ASSI
100
AcDbLine
 62
7
  6
CONTINUOUS
 10
-10.9445532168
 20
-7.4852903115
 11
-10.9449456374
 21
-7.6235340045
  0
LINE
  5
569
100
AcDbEntity
  8
CURVE
100
AcDbLine
 62
250
  6
CONTINUOUS
 10
-11.1002358268
 20
-5.7587313832
 11
-11.1001038
 21
-5.3599882891
  0
LINE
  5
56A
100
AcDbEntity
  8
ASSI
100
AcDbLine
 62
7
  6
CONTINUOUS
 10
-10.9445532168
 20
7.5147096885
 11
-10.9453963677
 21
7.2435491381
  0
LINE
  5
56B
100
AcDbEntity
  8
RACCORDO
100
AcDbLine
 62
7
  6
CONTINUOUS
 10
-10.9445302695
 20
2.5237187611
 11
-10.945455373
 21
2.2277201049
  0
LINE
  5
56C
100
AcDbEntity
  8
ASSI
100
AcDbLine
 62
7
  6
CONTINUOUS
 10
-10.9445532168
 20
-2.4852903115
 11
-10.9453963677
 21
-2.7564508619
  0
LINE
  5
56D
100
AcDbEntity
  8
RACCORDO
100
AcDbLine
 62
7
  6
CONTINUOUS
 10
-10.9446189123
 20
-2.5104046187
 11
-10.945455373
 21
-2.7722798951
  0
LINE
  5
56E
100
AcDbEntity
  8
RACCORDO
100
AcDbLine
 62
7
  6
CONTINUOUS
 10
-10.944807505
 20
-7.5777738924
 11
-10.9453387217
 21
-7.740670725
  0
LINE
  5
56F
100
AcDbEntity
  8
CURVE
100
AcDbLine
 62
250
  6
CONTINUOUS
 10
-11.1304265558
 20
14.9299197028
 11
-11.1309581986
 21
13.414561239
  0
LINE
  5
570
100
AcDbEntity
  8
RACCORDO
100
AcDbLine
 62
7
  6
CONTINUOUS
 10
-10.944807505
 20
7.4222261076
 11
-10.9456991168
 21
7.1654917048
  0
LINE
  5
571
100
AcDbEntity
  8
ASSI
100
AcDbLine
 62
7
  6
CONTINUOUS
 10
-10.9453963677
 20
-2.7564508619
 11
-10.945906095
 21
-2.8838374838
  0
LINE
  5
572
100
AcDbEntity
  8
ASSI
100
AcDbLine
 62
7
  6
CONTINUOUS
 10
-10.9449456374
 20
-7.6235340045
 11
-10.945906095
 21
-7.8838374838
  0
LINE
  5
573
100
AcDbEntity
  8
CURVE
100
AcDbLine
 62
250
  6
CONTINUOUS
 10
-11.1281133809
 20
14.7736967779
 11
-11.1277427051
 21
14.8792212724
  0
LINE
  5
574
100
AcDbEntity
  8
CURVE
100
AcDbLine
 62
250
  6
CONTINUOUS
 10
-11.1304466923
 20
-4.9656445225
 11
-11.1316165218
 21
-5.5040094671
  0
LINE
  5
575
100
AcDbEntity
  8
RACCORDO
100
AcDbLine
 62
250
  6
CONTINUOUS
 10
-10.6458583376
 20
7.2590618699
 11
-10.6447442609
 21
7.5363828404
  0
LINE
  5
576
100
AcDbEntity
  8
ASSI
100
AcDbLine
 62
250
  6
CONTINUOUS
 10
-10.6458583376
 20
7.2590618699
 11
-10.6447442609
 21
7.5363828404
  0
LINE
  5
577
100
AcDbEntity
  8
RACCORDO
100
AcDbLine
 62
250
  6
CONTINUOUS
 10
-10.6458583376
 20
2.2590618699
 11
-10.6447442609
 21
2.5363828404
  0
LINE
  5
578
100
AcDbEntity
  8
ASSI
100
AcDbLine
 62
250
  6
CONTINUOUS
 10
-10.6458583376
 20
2.2590618699
 11
-10.6447442609
 21
2.5363828404
  0
LINE
  5
579
100
AcDbEntity
  8
RACCORDO
100
AcDbLine
 62
250
  6
CONTINUOUS
 10
-10.6458583376
 20
-2.7409381301
 11
-10.6447442609
 21
-2.4636171596
  0
LINE
  5
57A
100
AcDbEntity
  8
ASSI
100
AcDbLine
 62
250
  6
CONTINUOUS
 10
-10.6458583376
 20
-2.7409381301
 11
-10.6447442609
 21
-2.4636171596
  0
LINE
  5
57B
100
AcDbEntity
  8
RACCORDO
100
AcDbLine
 62
250
  6
CONTINUOUS
 10
-10.6458583376
 20
-7.7409381301
 11
-10.6447442609
 21
-7.4636171596
  0
LINE
  5
57C
100
AcDbEntity
  8
ASSI
100
AcDbLine
 62
250
  6
CONTINUOUS
 10
-10.6458583376
 20
-7.7409381301
 11
-10.6447442609
 21
-7.4636171596
  0
LINE
  5
57D
100
AcDbEntity
  8
CURVE
100
AcDbLine
 62
250
  6
CONTINUOUS
 10
-11.0819407433
 20
11.603284837
 11
-11.0824666801
 21
11.45733014
  0
LINE
  5
57E
100
AcDbEntity
  8
ASSI
100
AcDbLine
 62
7
  6
CONTINUOUS
 10
-10.9453963677
 20
7.2435491381
 11
-10.9464708301
 21
6.9944409867
  0
LINE
  5
57F
100
AcDbEntity
  8
RACCORDO
100
AcDbLine
 62
7
  6
CONTINUOUS
 10
-10.945455373
 20
-2.7722798951
 11
-10.9463662592
 21
-2.9842324911
  0
LINE
  5
580
100
AcDbEntity
  8
RACCORDO
100
AcDbLine
 62
7
  6
CONTINUOUS
 10
-10.9453387217
 20
-7.740670725
 11
-10.9463662592
 21
-7.9842324911
  0
LINE
  5
581
100
AcDbEntity
  8
CURVE
100
AcDbLine
 62
250
  6
CONTINUOUS
 10
-11.0800356931
 20
11.3569640011
 11
-11.0791320682
 21
11.644835291
  0
LINE
  5
582
100
AcDbEntity
  8
RACCORDO
100
AcDbLine
 62
7
  6
CONTINUOUS
 10
-10.9456991168
 20
7.1654917048
 11
-10.9468012902
 21
6.9300055088
  0
LINE
  5
583
100
AcDbEntity
  8
ASSI
100
AcDbLine
 62
7
  6
CONTINUOUS
 10
-10.945906095
 20
-2.8838374838
 11
-10.947081354
 21
-3.1215118969
  0
LINE
  5
584
100
AcDbEntity
  8
ASSI
100
AcDbLine
 62
7
  6
CONTINUOUS
 10
-10.945906095
 20
-7.8838374838
 11
-10.947081354
 21
-8.1215118969
  0
LINE
  5
585
100
AcDbEntity
  8
ASSI
100
AcDbLine
 62
7
  6
CONTINUOUS
 10
-10.94505282
 20
2.3427250972
 11
-10.9475663375
 21
1.7953566
  0
LINE
  5
586
100
AcDbEntity
  8
RACCORDO
100
AcDbLine
 62
7
  6
CONTINUOUS
 10
-10.9463662592
 20
-2.9842324911
 11
-10.9475748889
 21
-3.206044411
  0
LINE
  5
587
100
AcDbEntity
  8
RACCORDO
100
AcDbLine
 62
7
  6
CONTINUOUS
 10
-10.9463662592
 20
-7.9842324911
 11
-10.9475748889
 21
-8.206044411
  0
LINE
  5
588
100
AcDbEntity
  8
CURVE
100
AcDbLine
 62
250
  6
CONTINUOUS
 10
-11.122655426
 20
-5.2824965657
 11
-11.1222995801
 21
-5.2060405019
  0
LINE
  5
589
100
AcDbEntity
  8
ASSI
100
AcDbLine
 62
7
  6
CONTINUOUS
 10
-10.9464708301
 20
6.9944409867
 11
-10.9477333343
 21
6.7683785729
  0
LINE
  5
58A
100
AcDbEntity
  8
RACCORDO
100
AcDbLine
 62
250
  6
CONTINUOUS
 10
-10.6473385778
 20
7.0001537949
 11
-10.6458583376
 21
7.2590618699
  0
LINE
  5
58B
100
AcDbEntity
  8
ASSI
100
AcDbLine
 62
250
  6
CONTINUOUS
 10
-10.6473385778
 20
7.0001537949
 11
-10.6458583376
 21
7.2590618699
  0
LINE
  5
58C
100
AcDbEntity
  8
RACCORDO
100
AcDbLine
 62
250
  6
CONTINUOUS
 10
-10.6473385778
 20
2.0001537949
 11
-10.6458583376
 21
2.2590618699
  0
LINE
  5
58D
100
AcDbEntity
  8
ASSI
100
AcDbLine
 62
250
  6
CONTINUOUS
 10
-10.6473385778
 20
2.0001537949
 11
-10.6458583376
 21
2.2590618699
  0
LINE
  5
58E
100
AcDbEntity
  8
RACCORDO
100
AcDbLine
 62
250
  6
CONTINUOUS
 10
-10.6473385778
 20
-2.9998462051
 11
-10.6458583376
 21
-2.7409381301
  0
LINE
  5
58F
100
AcDbEntity
  8
ASSI
100
AcDbLine
 62
250
  6
CONTINUOUS
 10
-10.6473385778
 20
-2.9998462051
 11
-10.6458583376
 21
-2.7409381301
  0
LINE
  5
590
100
AcDbEntity
  8
RACCORDO
100
AcDbLine
 62
250
  6
CONTINUOUS
 10
-10.6473385778
 20
-7.9998462051
 11
-10.6458583376
 21
-7.7409381301
  0
LINE
  5
591
100
AcDbEntity
  8
ASSI
100
AcDbLine
 62
250
  6
CONTINUOUS
 10
-10.6473385778
 20
-7.9998462051
 11
-10.6458583376
 21
-7.7409381301
  0
LINE
  5
592
100
AcDbEntity
  8
RACCORDO
100
AcDbLine
 62
7
  6
CONTINUOUS
 10
-10.9468012902
 20
6.9300055088
 11
-10.9480689243
 21
6.7164791768
  0
LINE
  5
593
100
AcDbEntity
  8
RACCORDO
100
AcDbLine
 62
7
  6
CONTINUOUS
 10
-10.945455373
 20
2.2277201049
 11
-10.9482385172
 21
1.6913467689
  0
LINE
  5
594
100
AcDbEntity
  8
ASSI
100
AcDbLine
 62
7
  6
CONTINUOUS
 10
-10.947081354
 20
-3.1215118969
 11
-10.9484275144
 21
-3.3358578404
  0
LINE
  5
595
100
AcDbEntity
  8
ASSI
100
AcDbLine
 62
7
  6
CONTINUOUS
 10
-10.947081354
 20
-8.1215118969
 11
-10.9484275144
 21
-8.3358578404
  0
LINE
  5
596
100
AcDbEntity
  8
CURVE
100
AcDbLine
 62
250
  6
CONTINUOUS
 10
-11.1277427051
 20
14.8792212724
 11
-11.1271916221
 21
14.967761427
  0
LINE
  5
597
100
AcDbEntity
  8
CURVE
100
AcDbLine
 62
250
  6
CONTINUOUS
 10
-11.0824666801
 20
11.45733014
 11
-11.0831328336
 21
11.3525561591
  0
LINE
  5
598
100
AcDbEntity
  8
RACCORDO
100
AcDbLine
 62
7
  6
CONTINUOUS
 10
-10.9475748889
 20
-3.206044411
 11
-10.9489396765
 21
-3.405710711
  0
LINE
  5
599
100
AcDbEntity
  8
RACCORDO
100
AcDbLine
 62
7
  6
CONTINUOUS
 10
-10.9475748889
 20
-8.206044411
 11
-10.9489396765
 21
-8.405710711
  0
LINE
  5
59A
100
AcDbEntity
  8
ASSI
100
AcDbLine
 62
7
  6
CONTINUOUS
 10
-10.9475663375
 20
1.7953566
 11
-10.9489737646
 21
1.5898247797
  0
LINE
  5
59B
100
AcDbEntity
  8
ASSI
100
AcDbLine
 62
7
  6
CONTINUOUS
 10
-10.9477333343
 20
6.7683785729
 11
-10.9491601619
 21
6.5657876045
  0
LINE
  5
59C
100
AcDbEntity
  8
CURVE
100
AcDbLine
 62
250
  6
CONTINUOUS
 10
-11.1001038
 20
-5.3599882891
 11
-11.0996871054
 21
-5.2891910409
  0
LINE
  5
59D
100
AcDbEntity
  8
RACCORDO
100
AcDbLine
 62
7
  6
CONTINUOUS
 10
-10.9480689243
 20
6.7164791768
 11
-10.9494865362
 21
6.5251369411
  0
LINE
  5
59E
100
AcDbEntity
  8
RACCORDO
100
AcDbLine
 62
7
  6
CONTINUOUS
 10
-10.9482385172
 20
1.6913467689
 11
-10.9496721045
 21
1.5027799417
  0
LINE
  5
59F
100
AcDbEntity
  8
CURVE
100
AcDbLine
 62
250
  6
CONTINUOUS
 10
-11.1292547908
 20
15.1172643541
 11
-11.1304265558
 21
14.9299197028
  0
LINE
  5
5A0
100
AcDbEntity
  8
CURVE
100
AcDbLine
 62
250
  6
CONTINUOUS
 10
-11.1294367074
 20
-4.8058835713
 11
-11.1304466923
 21
-4.9656445225
  0
LINE
  5
5A1
100
AcDbEntity
  8
ASSI
100
AcDbLine
 62
7
  6
CONTINUOUS
 10
-10.9484275144
 20
-3.3358578404
 11
-10.9499235651
 21
-3.5266799111
  0
LINE
  5
5A2
100
AcDbEntity
  8
ASSI
100
AcDbLine
 62
7
  6
CONTINUOUS
 10
-10.9484275144
 20
-8.3358578404
 11
-10.9499235651
 21
-8.5266799111
  0
LINE
  5
5A3
100
AcDbEntity
  8
CURVE
100
AcDbLine
 62
250
  6
CONTINUOUS
 10
-11.0813731447
 20
11.1743516391
 11
-11.0800356931
 21
11.3569640011
  0
LINE
  5
5A4
100
AcDbEntity
  8
ASSI
100
AcDbLine
 62
7
  6
CONTINUOUS
 10
-10.9489737646
 20
1.5898247797
 11
-10.9505139329
 21
1.4078308048
  0
LINE
  5
5A5
100
AcDbEntity
  8
RACCORDO
100
AcDbLine
 62
7
  6
CONTINUOUS
 10
-10.9489396765
 20
-3.405710711
 11
-10.950430157
 21
-3.5831814673
  0
LINE
  5
5A6
100
AcDbEntity
  8
RACCORDO
100
AcDbLine
 62
7
  6
CONTINUOUS
 10
-10.9489396765
 20
-8.405710711
 11
-10.950430157
 21
-8.5831814673
  0
LINE
  5
5A7
100
AcDbEntity
  8
ASSI
100
AcDbLine
 62
7
  6
CONTINUOUS
 10
-10.9491601619
 20
6.5657876045
 11
-10.9507142693
 21
6.3867341385
  0
LINE
  5
5A8
100
AcDbEntity
  8
RACCORDO
100
AcDbLine
 62
7
  6
CONTINUOUS
 10
-10.9494865362
 20
6.5251369411
 11
-10.951016158
 21
6.3559685468
  0
LINE
  5
5A9
100
AcDbEntity
  8
RACCORDO
100
AcDbLine
 62
7
  6
CONTINUOUS
 10
-10.9496721045
 20
1.5027799417
 11
-10.9512148114
 21
1.3363718488
  0
LINE
  5
5AA
100
AcDbEntity
  8
CURVE
100
AcDbLine
 62
250
  6
CONTINUOUS
 10
-11.0831328336
 20
11.3525561591
 11
-11.0839538798
 21
11.2642075128
  0
LINE
  5
5AB
100
AcDbEntity
  8
CURVE
100
AcDbLine
 62
250
  6
CONTINUOUS
 10
-11.1222995801
 20
-5.2060405019
 11
-11.1216944084
 21
-5.1343011659
  0
LINE
  5
5AC
100
AcDbEntity
  8
ASSI
100
AcDbLine
 62
7
  6
CONTINUOUS
 10
-10.9499235651
 20
-3.5266799111
 11
-10.9515332381
 21
-3.6940149009
  0
LINE
  5
5AD
100
AcDbEntity
  8
ASSI
100
AcDbLine
 62
7
  6
CONTINUOUS
 10
-10.9499235651
 20
-8.5266799111
 11
-10.9515332381
 21
-8.6940149009
  0
LINE
  5
5AE
100
AcDbEntity
  8
CURVE
100
AcDbLine
 62
250
  6
CONTINUOUS
 10
-11.1271916221
 20
14.967761427
 11
-11.1264508603
 21
15.0465847933
  0
LINE
  5
5AF
100
AcDbEntity
  8
CURVE
100
AcDbLine
 62
250
  6
CONTINUOUS
 10
-11.1034648071
 20
-4.7422609611
 11
-11.1040532787
 21
-4.80544429
  0
LINE
  5
5B0
100
AcDbEntity
  8
RACCORDO
100
AcDbLine
 62
7
  6
CONTINUOUS
 10
-10.950430157
 20
-3.5831814673
 11
-10.9520250355
 21
-3.7386074768
  0
LINE
  5
5B1
100
AcDbEntity
  8
RACCORDO
100
AcDbLine
 62
7
  6
CONTINUOUS
 10
-10.950430157
 20
-8.5831814673
 11
-10.9520250355
 21
-8.7386074768
  0
LINE
  5
5B2
100
AcDbEntity
  8
ASSI
100
AcDbLine
 62
7
  6
CONTINUOUS
 10
-10.9505139329
 20
1.4078308048
 11
-10.9521645838
 21
1.2492272176
  0
LINE
  5
5B3
100
AcDbEntity
  8
ASSI
100
AcDbLine
 62
7
  6
CONTINUOUS
 10
-10.9507142693
 20
6.3867341385
 11
-10.9523778855
 21
6.2310277224
  0
LINE
  5
5B4
100
AcDbEntity
  8
RACCORDO
100
AcDbLine
 62
7
  6
CONTINUOUS
 10
-10.951016158
 20
6.3559685468
 11
-10.9526470045
 21
6.2087215749
  0
LINE
  5
5B5
100
AcDbEntity
  8
RACCORDO
100
AcDbLine
 62
7
  6
CONTINUOUS
 10
-10.9512148114
 20
1.3363718488
 11
-10.9528565476
 21
1.1918384075
  0
LINE
  5
5B6
100
AcDbEntity
  8
CURVE
100
AcDbLine
 62
250
  6
CONTINUOUS
 10
-11.1281574093
 20
15.2181192991
 11
-11.1292547908
 21
15.1172643541
  0
LINE
  5
5B7
100
AcDbEntity
  8
CURVE
100
AcDbLine
 62
250
  6
CONTINUOUS
 10
-11.0996871054
 20
-5.2891910409
 11
-11.0990942878
 21
-5.233203964
  0
LINE
  5
5B8
100
AcDbEntity
  8
ASSI
100
AcDbLine
 62
7
  6
CONTINUOUS
 10
-10.9515332381
 20
-3.6940149009
 11
-10.9532421304
 21
-3.8381743738
  0
LINE
  5
5B9
100
AcDbEntity
  8
ASSI
100
AcDbLine
 62
7
  6
CONTINUOUS
 10
-10.9515332381
 20
-8.6940149009
 11
-10.9532421304
 21
-8.8381743738
  0
LINE
  5
5BA
100
AcDbEntity
  8
CURVE
100
AcDbLine
 62
250
  6
CONTINUOUS
 10
-11.1281342739
 20
-4.6922853923
 11
-11.1294367074
 21
-4.8058835713
  0
LINE
  5
5BB
100
AcDbEntity
  8
CURVE
100
AcDbLine
 62
250
  6
CONTINUOUS
 10
-11.0829241963
 20
11.043142686
 11
-11.0813731447
 21
11.1743516391
  0
LINE
  5
5BC
100
AcDbEntity
  8
ASSI
100
AcDbLine
 62
7
  6
CONTINUOUS
 10
-10.9521645838
 20
1.2492272176
 11
-10.953679448
 21
1.1294024917
  0
LINE
  5
5BD
100
AcDbEntity
  8
RACCORDO
100
AcDbLine
 62
7
  6
CONTINUOUS
 10
-10.9520250355
 20
-3.7386074768
 11
-10.9537028157
 21
-3.872281948
  0
LINE
  5
5BE
100
AcDbEntity
  8
RACCORDO
100
AcDbLine
 62
7
  6
CONTINUOUS
 10
-10.9520250355
 20
-8.7386074768
 11
-10.9537028157
 21
-8.872281948
  0
LINE
  5
5BF
100
AcDbEntity
  8
CURVE
100
AcDbLine
 62
250
  6
CONTINUOUS
 10
-11.0839538798
 20
11.2642075128
 11
-11.0849815397
 21
11.1831251381
  0
LINE
  5
5C0
100
AcDbEntity
  8
ASSI
100
AcDbLine
 62
7
  6
CONTINUOUS
 10
-10.9523778855
 20
6.2310277224
 11
-10.9538993905
 21
6.1137396632
  0
LINE
  5
5C1
100
AcDbEntity
  8
RACCORDO
100
AcDbLine
 62
7
  6
CONTINUOUS
 10
-10.9526470045
 20
6.2087215749
 11
-10.9543456956
 21
6.0832588336
  0
LINE
  5
5C2
100
AcDbEntity
  8
CURVE
100
AcDbLine
 62
250
  6
CONTINUOUS
 10
-11.1264508603
 20
15.0465847933
 11
-11.1254985983
 21
15.1179074642
  0
LINE
  5
5C3
100
AcDbEntity
  8
CURVE
100
AcDbLine
 62
250
  6
CONTINUOUS
 10
-11.1216944084
 20
-5.1343011659
 11
-11.1209808119
 21
-5.0797158652
  0
LINE
  5
5C4
100
AcDbEntity
  8
RACCORDO
100
AcDbLine
 62
7
  6
CONTINUOUS
 10
-10.9528565476
 20
1.1918384075
 11
-10.9545614411
 21
1.0691380922
  0
LINE
  5
5C5
100
AcDbEntity
  8
ASSI
100
AcDbLine
 62
7
  6
CONTINUOUS
 10
-10.9532421304
 20
-3.8381743738
 11
-10.9547869065
 21
-3.945200788
  0
LINE
  5
5C6
100
AcDbEntity
  8
ASSI
100
AcDbLine
 62
7
  6
CONTINUOUS
 10
-10.9532421304
 20
-8.8381743738
 11
-10.9547869065
 21
-8.945200788
  0
LINE
  5
5C7
100
AcDbEntity
  8
CURVE
100
AcDbLine
 62
250
  6
CONTINUOUS
 10
-11.1026690316
 20
-4.6862439096
 11
-11.1034648071
 21
-4.7422609611
  0
LINE
  5
5C8
100
AcDbEntity
  8
ASSI
100
AcDbLine
 62
7
  6
CONTINUOUS
 10
-10.953679448
 20
1.1294024917
 11
-10.9552346089
 21
1.0275613674
  0
LINE
  5
5C9
100
AcDbEntity
  8
RACCORDO
100
AcDbLine
 62
7
  6
CONTINUOUS
 10
-10.9537028157
 20
-3.872281948
 11
-10.9552123323
 21
-3.9711214032
  0
LINE
  5
5CA
100
AcDbEntity
  8
RACCORDO
100
AcDbLine
 62
7
  6
CONTINUOUS
 10
-10.9537028157
 20
-8.872281948
 11
-10.9552123323
 21
-8.9711214032
  0
LINE
  5
5CB
100
AcDbEntity
  8
CURVE
100
AcDbLine
 62
250
  6
CONTINUOUS
 10
-11.1270653487
 20
15.2898581124
 11
-11.1281574093
 21
15.2181192991
  0
LINE
  5
5CC
100
AcDbEntity
  8
ASSI
100
AcDbLine
 62
7
  6
CONTINUOUS
 10
-10.9538993905
 20
6.1137396632
 11
-10.9554591264
 21
6.014503225
  0
LINE
  5
5CD
100
AcDbEntity
  8
CURVE
100
AcDbLine
 62
250
  6
CONTINUOUS
 10
-11.0990942878
 20
-5.233203964
 11
-11.0985094472
 21
-5.1949986857
  0
LINE
  5
5CE
100
AcDbEntity
  8
CURVE
100
AcDbLine
 62
250
  6
CONTINUOUS
 10
-11.066322791
 20
15.2
 11
-11.0615857096
 21
15.471428442
  0
LINE
  5
5CF
100
AcDbEntity
  8
CURVE
100
AcDbLine
 62
250
  6
CONTINUOUS
 10
-11.0615857096
 20
14.114285326
 11
-11.066322791
 21
13.842856884
  0
LINE
  5
5D0
100
AcDbEntity
  8
CURVE
100
AcDbLine
 62
250
  6
CONTINUOUS
 10
-11.0331632188
 20
15.064285326
 11
-11.0379003007
 21
14.792856884
  0
LINE
  5
5D1
100
AcDbEntity
  8
CURVE
100
AcDbLine
 62
250
  6
CONTINUOUS
 10
-11.0473744642
 20
10.45
 11
-11.0521115466
 21
10.178571558
  0
LINE
  5
5D2
100
AcDbEntity
  8
CURVE
100
AcDbLine
 62
250
  6
CONTINUOUS
 10
-11.0244370156
 20
11.43333354
 11
-11.0211958546
 21
11.6190477371
  0
LINE
  5
5D3
100
AcDbEntity
  8
CURVE
100
AcDbLine
 62
250
  6
CONTINUOUS
 10
-11.0615857096
 20
9.092857337
 11
-11.066322791
 21
8.821428442
  0
LINE
  5
5D4
100
AcDbEntity
  8
CURVE
100
AcDbLine
 62
250
  6
CONTINUOUS
 10
-11.0521115466
 20
8.142857337
 11
-11.0473744642
 21
8.414285779
  0
LINE
  5
5D5
100
AcDbEntity
  8
CURVE
100
AcDbLine
 62
250
  6
CONTINUOUS
 10
-11.0473744642
 20
7.6
 11
-11.0521115466
 21
7.3285713315
  0
LINE
  5
5D6
100
AcDbEntity
  8
CURVE
100
AcDbLine
 62
250
  6
CONTINUOUS
 10
-11.0615857096
 20
6.2428571105
 11
-11.066322791
 21
5.9714286685
  0
LINE
  5
5D7
100
AcDbEntity
  8
CURVE
100
AcDbLine
 62
250
  6
CONTINUOUS
 10
-11.0521115466
 20
5.2928571105
 11
-11.0473744642
 21
5.5642856658
  0
LINE
  5
5D8
100
AcDbEntity
  8
CURVE
100
AcDbLine
 62
250
  6
CONTINUOUS
 10
-11.066322791
 20
4.3428571671
 11
-11.0615857096
 21
4.6142857224
  0
LINE
  5
5D9
100
AcDbEntity
  8
CURVE
100
AcDbLine
 62
250
  6
CONTINUOUS
 10
-11.0244370156
 20
6.2642857254
 11
-11.0211958546
 21
6.45
  0
LINE
  5
5DA
100
AcDbEntity
  8
CURVE
100
AcDbLine
 62
250
  6
CONTINUOUS
 10
-11.0331632188
 20
4.2071428612
 11
-11.0379003007
 21
3.9357142918
  0
LINE
  5
5DB
100
AcDbEntity
  8
CURVE
100
AcDbLine
 62
250
  6
CONTINUOUS
 10
-11.0558513472
 20
-12.8071429014
 11
-11.0526101862
 21
-12.6214287043
  0
LINE
  5
5DC
100
AcDbEntity
  8
CURVE
100
AcDbLine
 62
250
  6
CONTINUOUS
 10
-11.1268609624
 20
-4.6129553813
 11
-11.1281342739
 21
-4.6922853923
  0
LINE
  5
5DD
100
AcDbEntity
  8
RACCORDO
100
AcDbLine
 62
7
  6
CONTINUOUS
 10
-10.9543456956
 20
6.0832588336
 11
-10.955866836
 21
5.9917817527
  0
LINE
  5
5DE
100
AcDbEntity
  8
CURVE
100
AcDbLine
 62
250
  6
CONTINUOUS
 10
-11.0843572935
 20
10.9570767495
 11
-11.0829241963
 21
11.043142686
  0
LINE
  5
5DF
100
AcDbEntity
  8
CURVE
100
AcDbLine
 62
250
  6
CONTINUOUS
 10
-11.0849815397
 20
11.1831251381
 11
-11.0862024727
 21
11.110664104
  0
LINE
  5
5E0
100
AcDbEntity
  8
RACCORDO
100
AcDbLine
 62
7
  6
CONTINUOUS
 10
-10.9545614411
 20
1.0691380922
 11
-10.9560852794
 21
0.9801190822
  0
LINE
  5
5E1
100
AcDbEntity
  8
CURVE
100
AcDbLine
 62
250
  6
CONTINUOUS
 10
-11.1254985983
 20
15.1179074642
 11
-11.1246623762
 21
15.1650963408
  0
LINE
  5
5E2
100
AcDbEntity
  8
ASSI
100
AcDbLine
 62
7
  6
CONTINUOUS
 10
-10.9547869065
 20
-3.945200788
 11
-10.9563589387
 21
-4.0340036357
  0
LINE
  5
5E3
100
AcDbEntity
  8
ASSI
100
AcDbLine
 62
7
  6
CONTINUOUS
 10
-10.9547869065
 20
-8.945200788
 11
-10.9563589387
 21
-9.0340036357
  0
LINE
  5
5E4
100
AcDbEntity
  8
CURVE
100
AcDbLine
 62
250
  6
CONTINUOUS
 10
-11.1209808119
 20
-5.0797158652
 11
-11.1204070947
 21
-5.0482344547
  0
LINE
  5
5E5
100
AcDbEntity
  8
RACCORDO
100
AcDbLine
 62
7
  6
CONTINUOUS
 10
-10.9552123323
 20
-3.9711214032
 11
-10.9567395726
 21
-4.0527710156
  0
LINE
  5
5E6
100
AcDbEntity
  8
RACCORDO
100
AcDbLine
 62
7
  6
CONTINUOUS
 10
-10.9552123323
 20
-8.9711214032
 11
-10.9567395726
 21
-9.0527710156
  0
LINE
  5
5E7
100
AcDbEntity
  8
ASSI
100
AcDbLine
 62
7
  6
CONTINUOUS
 10
-10.9552346089
 20
1.0275613674
 11
-10.9568077688
 21
0.9439716036
  0
LINE
  5
5E8
100
AcDbEntity
  8
CURVE
100
AcDbLine
 62
250
  6
CONTINUOUS
 10
-11.1261318469
 20
15.337472614
 11
-11.1270653487
 21
15.2898581124
  0
LWPOLYLINE
  5
5E9
100
AcDbEntity
  8
ASSI
100
AcDbPolyline
 62
7
  6
CONTINUOUS
 90
3
 70
0
 10
-10.9554591264
 20
6.014503225
 10
-10.9570312755
 20
5.9335147766
 10
-10.9572391515
 20
5.9240970167
  0
LINE
  5
5EA
100
AcDbEntity
  8
CURVE
100
AcDbLine
 62
250
  6
CONTINUOUS
 10
-11.1017845218
 20
-4.6406624655
 11
-11.1026690316
 21
-4.6862439096
  0
LINE
  5
5EB
100
AcDbEntity
  8
CURVE
100
AcDbLine
 62
250
  6
CONTINUOUS
 10
-11.1257358104
 20
-4.557884408
 11
-11.1268609624
 21
-4.6129553813
  0
LINE
  5
5EC
100
AcDbEntity
  8
ASSI
100
AcDbLine
 62
7
  6
CONTINUOUS
 10
-10.9568077688
 20
0.9439716036
 11
-10.9572391515
 21
0.9240970167
  0
LINE
  5
5ED
100
AcDbEntity
  8
ASSI
100
AcDbLine
 62
7
  6
CONTINUOUS
 10
-10.9563589387
 20
-4.0340036357
 11
-10.9572391515
 21
-4.0759029833
  0
LINE
  5
5EE
100
AcDbEntity
  8
ASSI
100
AcDbLine
 62
7
  6
CONTINUOUS
 10
-10.9563589387
 20
-9.0340036357
 11
-10.9572391515
 21
-9.0759029833
  0
LINE
  5
5EF
100
AcDbEntity
  8
RACCORDO
100
AcDbLine
 62
7
  6
CONTINUOUS
 10
-10.955866836
 20
5.9917817527
 11
-10.957239675
 21
5.9240962071
  0
LINE
  5
5F0
100
AcDbEntity
  8
CURVE
100
AcDbLine
 62
250
  6
CONTINUOUS
 10
-11.0985094472
 20
-5.1949986857
 11
-11.0978239635
 21
-5.1610711835
  0
LINE
  5
5F1
100
AcDbEntity
  8
RACCORDO
100
AcDbLine
 62
7
  6
CONTINUOUS
 10
-10.9560852794
 20
0.9801190822
 11
-10.957239675
 21
0.9240962071
  0
LINE
  5
5F2
100
AcDbEntity
  8
RACCORDO
100
AcDbLine
 62
7
  6
CONTINUOUS
 10
-10.9567395726
 20
-4.0527710156
 11
-10.957239675
 21
-4.0759037929
  0
LINE
  5
5F3
100
AcDbEntity
  8
RACCORDO
100
AcDbLine
 62
7
  6
CONTINUOUS
 10
-10.9567395726
 20
-9.0527710156
 11
-10.957239675
 21
-9.0759037929
  0
LINE
  5
5F4
100
AcDbEntity
  8
CURVE
100
AcDbLine
 62
250
  6
CONTINUOUS
 10
-11.0862024727
 20
11.110664104
 11
-11.0876271072
 21
11.0456963589
  0
LINE
  5
5F5
100
AcDbEntity
  8
CURVE
100
AcDbLine
 62
250
  6
CONTINUOUS
 10
-11.1246623762
 20
15.1650963408
 11
-11.12373469
 21
15.2061198207
  0
LINE
  5
5F6
100
AcDbEntity
  8
CURVE
100
AcDbLine
 62
250
  6
CONTINUOUS
 10
-11.0859838945
 20
10.8839171292
 11
-11.0843572935
 21
10.9570767495
  0
LINE
  5
5F7
100
AcDbEntity
  8
CURVE
100
AcDbLine
 62
250
  6
CONTINUOUS
 10
-11.1204070947
 20
-5.0482344547
 11
-11.1199298956
 21
-5.0275996704
  0
LINE
  5
5F8
100
AcDbEntity
  8
CURVE
100
AcDbLine
 62
250
  6
CONTINUOUS
 10
-11.0558513472
 20
-3.3666670799
 11
-11.0461278642
 21
-2.9952386856
  0
LINE
  5
5F9
100
AcDbEntity
  8
CURVE
100
AcDbLine
 62
250
  6
CONTINUOUS
 10
-11.1251142707
 20
15.3789944264
 11
-11.1261318469
 21
15.337472614
  0
LINE
  5
5FA
100
AcDbEntity
  8
CURVE
100
AcDbLine
 62
250
  6
CONTINUOUS
 10
-11.1009486045
 20
-4.6068506288
 11
-11.1017845218
 21
-4.6406624655
  0
LINE
  5
5FB
100
AcDbEntity
  8
CURVE
100
AcDbLine
 62
250
  6
CONTINUOUS
 10
-11.1309110053
 20
-0.365364
 11
-11.089874118
 21
1.161843
  0
LINE
  5
5FC
100
AcDbEntity
  8
CURVE
100
AcDbLine
 62
250
  6
CONTINUOUS
 10
-11.0803064384
 20
1.113099
 11
-11.1209173076
 21
-0.401901
  0
LINE
  5
5FD
100
AcDbEntity
  8
CURVE
100
AcDbLine
 62
250
  6
CONTINUOUS
 10
-11.0978239635
 20
-5.1610711835
 11
-11.0971975416
 21
-5.1364611359
  0
LINE
  5
5FE
100
AcDbEntity
  8
CURVE
100
AcDbLine
 62
250
  6
CONTINUOUS
 10
-11.1245122347
 20
-4.5102905766
 11
-11.1257358104
 21
-4.557884408
  0
LWPOLYLINE
  5
5FF
100
AcDbEntity
  8
ASSI
100
AcDbPolyline
 62
7
  6
CONTINUOUS
 90
6
 70
0
 10
-11.15
 20
16.119659166
 10
-11.1468077508
 20
16.2316570494
 10
-11.1375097336
 20
16.3426042235
 10
-11.1221059485
 20
16.4525006882
 10
-11.10051091
 20
16.5616735612
 10
-11.0728101035
 20
16.6697957248
  0
LINE
  5
600
100
AcDbEntity
  8
CURVE
100
AcDbLine
 62
250
  6
CONTINUOUS
 10
-11.12373469
 20
15.2061198207
 11
-11.1230717059
 21
15.2297166542
  0
LINE
  5
601
100
AcDbEntity
  8
CURVE
100
AcDbLine
 62
250
  6
CONTINUOUS
 10
-11.087158306
 20
10.8424075336
 11
-11.0859838945
 21
10.8839171292
  0
LINE
  5
602
100
AcDbEntity
  8
CURVE
100
AcDbLine
 62
250
  6
CONTINUOUS
 10
-11.0876271072
 20
11.0456963589
 11
-11.0889019523
 21
10.9999442615
  0
LINE
  5
603
100
AcDbEntity
  8
CURVE
100
AcDbLine
 62
250
  6
CONTINUOUS
 10
-11.1199298956
 20
-5.0275996704
 11
-11.1194191533
 21
-5.0096268658
  0
LINE
  5
604
100
AcDbEntity
  8
CURVE
100
AcDbLine
 62
250
  6
CONTINUOUS
 10
-11.1243979809
 20
15.4029493319
 11
-11.1251142707
 21
15.3789944264
  0
LINE
  5
605
100
AcDbEntity
  8
CURVE
100
AcDbLine
 62
250
  6
CONTINUOUS
 10
-11.1000641364
 20
-4.5773616341
 11
-11.1009486045
 21
-4.6068506288
  0
LINE
  5
606
100
AcDbEntity
  8
CURVE
100
AcDbLine
 62
250
  6
CONTINUOUS
 10
-11.0971975416
 20
-5.1364611359
 11
-11.0966805929
 21
-5.1196133502
  0
LINE
  5
607
100
AcDbEntity
  8
CURVE
100
AcDbLine
 62
250
  6
CONTINUOUS
 10
-11.1236471024
 20
-4.4830057337
 11
-11.1245122347
 21
-4.5102905766
  0
LINE
  5
608
100
AcDbEntity
  8
CURVE
100
AcDbLine
 62
250
  6
CONTINUOUS
 10
-11.0615857096
 20
15.471428442
 11
-11.0568486281
 21
15.607143116
  0
LINE
  5
609
100
AcDbEntity
  8
CURVE
100
AcDbLine
 62
250
  6
CONTINUOUS
 10
-11.0379003007
 20
14.792856884
 11
-11.0426373827
 21
14.657143116
  0
LINE
  5
60A
100
AcDbEntity
  8
CURVE
100
AcDbLine
 62
250
  6
CONTINUOUS
 10
-11.0386898143
 20
11.4
 11
-11.0371107869
 21
11.4452379227
  0
LINE
  5
60B
100
AcDbEntity
  8
CURVE
100
AcDbLine
 62
250
  6
CONTINUOUS
 10
-11.0347422461
 20
11.3095237017
 11
-11.0363212733
 21
11.264285779
  0
LINE
  5
60C
100
AcDbEntity
  8
CURVE
100
AcDbLine
 62
250
  6
CONTINUOUS
 10
-11.0244370156
 20
8.9261903286
 11
-11.0114723709
 21
9.2976190329
  0
LINE
  5
60D
100
AcDbEntity
  8
CURVE
100
AcDbLine
 62
250
  6
CONTINUOUS
 10
-11.0244370156
 20
7.8119048357
 11
-11.0114723709
 21
8.183333385
  0
LINE
  5
60E
100
AcDbEntity
  8
CURVE
100
AcDbLine
 62
250
  6
CONTINUOUS
 10
-11.0615857096
 20
4.6142857224
 11
-11.0568486281
 21
4.75
  0
LINE
  5
60F
100
AcDbEntity
  8
CURVE
100
AcDbLine
 62
250
  6
CONTINUOUS
 10
-11.0379003007
 20
3.9357142918
 11
-11.0426373827
 21
3.8
  0
LINE
  5
610
100
AcDbEntity
  8
CURVE
100
AcDbLine
 62
250
  6
CONTINUOUS
 10
-11.0558513472
 20
-9.3095238686
 11
-11.0331632188
 21
-8.6595238686
  0
LINE
  5
611
100
AcDbEntity
  8
CURVE
100
AcDbLine
 62
250
  6
CONTINUOUS
 10
-11.0558513472
 20
-15.5
 11
-11.0428867025
 21
-15.128571412
  0
LINE
  5
612
100
AcDbEntity
  8
CURVE
100
AcDbLine
 62
250
  6
CONTINUOUS
 10
-11.0889019523
 20
10.9999442615
 11
-11.0897921278
 21
10.9735121057
  0
LINE
  5
613
100
AcDbEntity
  8
CURVE
100
AcDbLine
 62
250
  6
CONTINUOUS
 10
-11.1230717059
 20
15.2297166542
 11
-11.1223787398
 21
15.2502496786
  0
LINE
  5
614
100
AcDbEntity
  8
CURVE
100
AcDbLine
 62
250
  6
CONTINUOUS
 10
-11.1194191533
 20
-5.0096268658
 11
-11.1190630957
 21
-4.9991716039
  0
LINE
  5
615
100
AcDbEntity
  8
CURVE
100
AcDbLine
 62
250
  6
CONTINUOUS
 10
-11.0883919608
 20
10.8063692195
 11
-11.087158306
 21
10.8424075336
  0
LINE
  5
616
100
AcDbEntity
  8
CURVE
100
AcDbLine
 62
250
  6
CONTINUOUS
 10
-11.0966805929
 20
-5.1196133502
 11
-11.0963250182
 21
-5.1096123767
  0
LINE
  5
617
100
AcDbEntity
  8
CURVE
100
AcDbLine
 62
250
  6
CONTINUOUS
 10
-11.1236540855
 20
15.4239876396
 11
-11.1243979809
 21
15.4029493319
  0
LINE
  5
618
100
AcDbEntity
  8
CURVE
100
AcDbLine
 62
250
  6
CONTINUOUS
 10
-11.0991372222
 20
-4.5511585907
 11
-11.1000641364
 21
-4.5773616341
  0
LWPOLYLINE
  5
619
100
AcDbEntity
  8
RACCORDO
100
AcDbPolyline
 62
250
  6
CONTINUOUS
 90
11
 70
0
 10
-10.6605959949
 20
6.0978371398
 10
-10.6591431173
 20
6.1346568188
 10
-10.6577146865
 20
6.1815678226
 10
-10.6563309065
 20
6.2382992647
 10
-10.6549926726
 20
6.3045200894
 10
-10.6536990894
 20
6.3798712137
 10
-10.652467675
 20
6.4639929856
 10
-10.6512993182
 20
6.5564484105
 10
-10.6501931301
 20
6.6567682598
 10
-10.6491639626
 20
6.7645168339
 10
-10.6473385778
 20
7.0001537949
  0
LWPOLYLINE
  5
61A
100
AcDbEntity
  8
ASSI
100
AcDbPolyline
 62
250
  6
CONTINUOUS
 90
11
 70
0
 10
-10.6605959949
 20
6.0978371398
 10
-10.6591431173
 20
6.1346568188
 10
-10.6577146865
 20
6.1815678226
 10
-10.6563309065
 20
6.2382992647
 10
-10.6549926726
 20
6.3045200894
 10
-10.6536990894
 20
6.3798712137
 10
-10.652467675
 20
6.4639929856
 10
-10.6512993182
 20
6.5564484105
 10
-10.6501931301
 20
6.6567682598
 10
-10.6491639626
 20
6.7645168339
 10
-10.6473385778
 20
7.0001537949
  0
LWPOLYLINE
  5
61B
100
AcDbEntity
  8
RACCORDO
100
AcDbPolyline
 62
250
  6
CONTINUOUS
 90
11
 70
0
 10
-10.6605959949
 20
1.0978371398
 10
-10.6591431173
 20
1.1346568188
 10
-10.6577146865
 20
1.1815678226
 10
-10.6563309065
 20
1.2382992647
 10
-10.6549926726
 20
1.3045200894
 10
-10.6536990894
 20
1.3798712137
 10
-10.652467675
 20
1.4639929856
 10
-10.6512993182
 20
1.5564484105
 10
-10.6501931301
 20
1.6567682598
 10
-10.6491639626
 20
1.7645168339
 10
-10.6473385778
 20
2.0001537949
  0
LWPOLYLINE
  5
61C
100
AcDbEntity
  8
ASSI
100
AcDbPolyline
 62
250
  6
CONTINUOUS
 90
11
 70
0
 10
-10.6605959949
 20
1.0978371398
 10
-10.6591431173
 20
1.1346568188
 10
-10.6577146865
 20
1.1815678226
 10
-10.6563309065
 20
1.2382992647
 10
-10.6549926726
 20
1.3045200894
 10
-10.6536990894
 20
1.3798712137
 10
-10.652467675
 20
1.4639929856
 10
-10.6512993182
 20
1.5564484105
 10
-10.6501931301
 20
1.6567682598
 10
-10.6491639626
 20
1.7645168339
 10
-10.6473385778
 20
2.0001537949
  0
LWPOLYLINE
  5
61D
100
AcDbEntity
  8
RACCORDO
100
AcDbPolyline
 62
250
  6
CONTINUOUS
 90
11
 70
0
 10
-10.6605959949
 20
-3.9021628602
 10
-10.6591431173
 20
-3.8653431812
 10
-10.6577146865
 20
-3.8184321774
 10
-10.6563309065
 20
-3.7617007353
 10
-10.6549926726
 20
-3.6954799106
 10
-10.6536990894
 20
-3.6201287863
 10
-10.652467675
 20
-3.5360070144
 10
-10.6512993182
 20
-3.4435515895
 10
-10.6501931301
 20
-3.3432317402
 10
-10.6491639626
 20
-3.2354831661
 10
-10.6473385778
 20
-2.9998462051
  0
LWPOLYLINE
  5
61E
100
AcDbEntity
  8
ASSI
100
AcDbPolyline
 62
250
  6
CONTINUOUS
 90
11
 70
0
 10
-10.6605959949
 20
-3.9021628602
 10
-10.6591431173
 20
-3.8653431812
 10
-10.6577146865
 20
-3.8184321774
 10
-10.6563309065
 20
-3.7617007353
 10
-10.6549926726
 20
-3.6954799106
 10
-10.6536990894
 20
-3.6201287863
 10
-10.652467675
 20
-3.5360070144
 10
-10.6512993182
 20
-3.4435515895
 10
-10.6501931301
 20
-3.3432317402
 10
-10.6491639626
 20
-3.2354831661
 10
-10.6473385778
 20
-2.9998462051
  0
LWPOLYLINE
  5
61F
100
AcDbEntity
  8
RACCORDO
100
AcDbPolyline
 62
250
  6
CONTINUOUS
 90
11
 70
0
 10
-10.6605959949
 20
-8.9021628602
 10
-10.6591431173
 20
-8.8653431812
 10
-10.6577146865
 20
-8.8184321774
 10
-10.6563309065
 20
-8.7617007353
 10
-10.6549926726
 20
-8.6954799106
 10
-10.6536990894
 20
-8.6201287863
 10
-10.652467675
 20
-8.5360070144
 10
-10.6512993182
 20
-8.4435515895
 10
-10.6501931301
 20
-8.3432317402
 10
-10.6491639626
 20
-8.2354831661
 10
-10.6473385778
 20
-7.9998462051
  0
LWPOLYLINE
  5
620
100
AcDbEntity
  8
ASSI
100
AcDbPolyline
 62
250
  6
CONTINUOUS
 90
11
 70
0
 10
-10.6605959949
 20
-8.9021628602
 10
-10.6591431173
 20
-8.8653431812
 10
-10.6577146865
 20
-8.8184321774
 10
-10.6563309065
 20
-8.7617007353
 10
-10.6549926726
 20
-8.6954799106
 10
-10.6536990894
 20
-8.6201287863
 10
-10.652467675
 20
-8.5360070144
 10
-10.6512993182
 20
-8.4435515895
 10
-10.6501931301
 20
-8.3432317402
 10
-10.6491639626
 20
-8.2354831661
 10
-10.6473385778
 20
-7.9998462051
  0
LINE
  5
621
100
AcDbEntity
  8
CURVE
100
AcDbLine
 62
250
  6
CONTINUOUS
 10
-11.0897921278
 20
10.9735121057
 11
-11.0907086244
 21
10.950386394
  0
LINE
  5
622
100
AcDbEntity
  8
CURVE
100
AcDbLine
 62
250
  6
CONTINUOUS
 10
-11.1190630957
 20
-4.9991716039
 11
-11.1186967384
 21
-4.9899710392
  0
LINE
  5
623
100
AcDbEntity
  8
CURVE
100
AcDbLine
 62
250
  6
CONTINUOUS
 10
-11.0984233198
 20
-4.5335219273
 11
-11.0991372222
 21
-4.5511585907
  0
LINE
  5
624
100
AcDbEntity
  8
CURVE
100
AcDbLine
 62
250
  6
CONTINUOUS
 10
-11.0963250182
 20
-5.1096123767
 11
-11.0959617507
 21
-5.1006216805
  0
LWPOLYLINE
  5
625
100
AcDbEntity
  8
CURVE
100
AcDbPolyline
 62
250
  6
CONTINUOUS
 90
23
 70
0
 10
-11.1223787398
 20
15.2502496786
 10
-11.1216612967
 20
15.2678759939
 10
-11.1212952379
 20
15.2756463996
 10
-11.1208517559
 20
15.2840682402
 10
-11.1204033328
 20
15.2915476369
 10
-11.1199506322
 20
15.2981026426
 10
-11.1194943177
 20
15.3037513104
 10
-11.1190350527
 20
15.3085116933
 10
-11.1185747153
 20
15.3123866173
 10
-11.118112409
 20
15.3153798224
 10
-11.117648439
 20
15.3174750371
 10
-11.1171831107
 20
15.3186559898
 10
-11.1167167295
 20
15.318906409
 10
-11.1162512653
 20
15.3182152345
 10
-11.1157858948
 20
15.3165750499
 10
-11.1153214541
 20
15.3139772767
 10
-11.1148587795
 20
15.3104133364
 10
-11.1143987071
 20
15.3058746505
 10
-11.1139420733
 20
15.3003526405
 10
-11.1134897143
 20
15.2938387281
 10
-11.1130424662
 20
15.2863243346
 10
-11.1126011654
 20
15.2778008818
 10
-11.1121666481
 20
15.268259791
  0
LINE
  5
626
100
AcDbEntity
  8
CURVE
100
AcDbLine
 62
250
  6
CONTINUOUS
 10
-11.0976979044
 20
-4.5175209873
 11
-11.0984233198
 21
-4.5335219273
  0
LINE
  5
627
100
AcDbEntity
  8
CURVE
100
AcDbLine
 62
250
  6
CONTINUOUS
 10
-11.0804344847
 20
-10.540105
 11
-11.1134741698
 21
-11.250162
  0
LINE
  5
628
100
AcDbEntity
  8
CURVE
100
AcDbLine
 62
250
  6
CONTINUOUS
 10
-11.1310326998
 20
-11.093234
 11
-11.1029404198
 21
-10.494355
  0
LINE
  5
629
100
AcDbEntity
  8
CURVE
100
AcDbLine
 62
250
  6
CONTINUOUS
 10
-11.0959617507
 20
-5.1006216805
 11
-11.0950938216
 21
-5.0821496629
  0
LWPOLYLINE
  5
62A
100
AcDbEntity
  8
CURVE
100
AcDbPolyline
 62
250
  6
CONTINUOUS
 90
17
 70
0
 10
-11.0907086244
 20
10.950386394
 10
-11.0916469567
 20
10.9304657437
 10
-11.092123171
 20
10.9216324943
 10
-11.0926033672
 20
10.9135126319
 10
-11.0930870076
 20
10.9060776585
 10
-11.0935735544
 20
10.8992990766
 10
-11.0941990217
 20
10.8915457689
 10
-11.09482791
 20
10.8847684891
 10
-11.0954597691
 20
10.8789171704
 10
-11.096094149
 20
10.8739417463
 10
-11.0967305997
 20
10.8697921503
 10
-11.097368671
 20
10.8664183158
 10
-11.0980079131
 20
10.8637701763
 10
-11.0986478757
 20
10.8617976651
 10
-11.099288109
 20
10.8604507157
 10
-11.0999281627
 20
10.8596792615
 10
-11.1005675869
 20
10.859433236
  0
LINE
  5
62B
100
AcDbEntity
  8
CURVE
100
AcDbLine
 62
250
  6
CONTINUOUS
 10
-11.0803062814
 20
5.710747
 11
-11.1309108657
 21
4.687221
  0
LWPOLYLINE
  5
62C
100
AcDbEntity
  8
CURVE
100
AcDbPolyline
 62
250
  6
CONTINUOUS
 90
12
 70
0
 10
-11.1186967384
 20
-4.9899710392
 10
-11.118321925
 20
-4.9820538098
 10
-11.1181319233
 20
-4.9785853953
 10
-11.1179404988
 20
-4.9754485539
 10
-11.1177478819
 20
-4.9726468654
 10
-11.1175543032
 20
-4.9701839095
 10
-11.1173599929
 20
-4.968063266
 10
-11.1171651816
 20
-4.9662885147
 10
-11.1169700997
 20
-4.9648632352
 10
-11.1167749775
 20
-4.9637910075
 10
-11.1165800456
 20
-4.9630754112
 10
-11.1163855343
 20
-4.9627200261
  0
LINE
  5
62D
100
AcDbEntity
  8
CURVE
100
AcDbLine
 62
250
  6
CONTINUOUS
 10
-11.0969631836
 20
-4.5030172293
 11
-11.0976979044
 21
-4.5175209873
  0
LINE
  5
62E
100
AcDbEntity
  8
CURVE
100
AcDbLine
 62
250
  6
CONTINUOUS
 10
-11.1309108657
 20
5.105512
 11
-11.0870392493
 21
5.934146
  0
LINE
  5
62F
100
AcDbEntity
  8
CURVE
100
AcDbLine
 62
250
  6
CONTINUOUS
 10
-11.0950938216
 20
-5.0821496629
 11
-11.0930230306
 21
-5.0423250787
  0
LINE
  5
630
100
AcDbEntity
  8
CURVE
100
AcDbLine
 62
250
  6
CONTINUOUS
 10
-11.0804344847
 20
-14.581013
 11
-11.1310326998
 21
-15.50026
  0
LINE
  5
631
100
AcDbEntity
  8
CURVE
100
AcDbLine
 62
250
  6
CONTINUOUS
 10
-11.1310326998
 20
-7.42899
 11
-11.0804344847
 21
-6.539304
  0
LINE
  5
632
100
AcDbEntity
  8
CURVE
100
AcDbLine
 62
250
  6
CONTINUOUS
 10
-11.0961585357
 20
-4.4887601707
 11
-11.0969631836
 21
-4.5030172293
  0
LINE
  5
633
100
AcDbEntity
  8
CURVE
100
AcDbLine
 62
250
  6
CONTINUOUS
 10
-11.0930230306
 20
-5.0423250787
 11
-11.0902313036
 21
-4.9943638394
  0
LINE
  5
634
100
AcDbEntity
  8
CURVE
100
AcDbLine
 62
250
  6
CONTINUOUS
 10
-11.0902313036
 20
-4.9943638394
 11
-11.0804344785
 21
-4.8318417383
  0
LINE
  5
635
100
AcDbEntity
  8
CURVE
100
AcDbLine
 62
250
  6
CONTINUOUS
 10
-11.0558513472
 20
-4.9452386856
 11
-11.0331632188
 21
-4.5738090515
  0
LINE
  5
636
100
AcDbEntity
  8
CURVE
100
AcDbLine
 62
250
  6
CONTINUOUS
 10
-11.0558513472
 20
-14.0142856479
 11
-11.0331632188
 21
-13.6428570986
  0
LINE
  5
637
100
AcDbEntity
  8
CURVE
100
AcDbLine
 62
250
  6
CONTINUOUS
 10
-11.1310326998
 20
-14.842748
 11
-11.0962043807
 21
-14.290021
  0
LINE
  5
638
100
AcDbEntity
  8
CURVE
100
AcDbLine
 62
250
  6
CONTINUOUS
 10
-11.0804344847
 20
-7.177235
 11
-11.0905356903
 21
-7.334033
  0
LWPOLYLINE
  5
639
100
AcDbEntity
  8
CURVE
100
AcDbPolyline
 62
250
  6
CONTINUOUS
 90
3
 70
0
 10
-11.0804344785
 20
-4.2496410148
 10
-11.0872822409
 20
-4.3530226239
 10
-11.0961585357
 20
-4.4887601707
  0
LINE
  5
63A
100
AcDbEntity
  8
CURVE
100
AcDbLine
 62
250
  6
CONTINUOUS
 10
-11.0983519561
 20
-7.454996
 11
-11.1171295954
 21
-7.733126
  0
LWPOLYLINE
  5
63B
100
AcDbEntity
  8
RACCORDO
100
AcDbPolyline
 62
250
  6
CONTINUOUS
 90
3
 70
0
 10
-10.6635616216
 20
6.0553504461
 10
-10.6620665849
 20
6.0713400553
 10
-10.6605959949
 20
6.0978371398
  0
LWPOLYLINE
  5
63C
100
AcDbEntity
  8
ASSI
100
AcDbPolyline
 62
250
  6
CONTINUOUS
 90
3
 70
0
 10
-10.6635616216
 20
6.0553504461
 10
-10.6620665849
 20
6.0713400553
 10
-10.6605959949
 20
6.0978371398
  0
LWPOLYLINE
  5
63D
100
AcDbEntity
  8
RACCORDO
100
AcDbPolyline
 62
250
  6
CONTINUOUS
 90
3
 70
0
 10
-10.6635616216
 20
1.0553504461
 10
-10.6620665849
 20
1.0713400553
 10
-10.6605959949
 20
1.0978371398
  0
LWPOLYLINE
  5
63E
100
AcDbEntity
  8
ASSI
100
AcDbPolyline
 62
250
  6
CONTINUOUS
 90
3
 70
0
 10
-10.6635616216
 20
1.0553504461
 10
-10.6620665849
 20
1.0713400553
 10
-10.6605959949
 20
1.0978371398
  0
LWPOLYLINE
  5
63F
100
AcDbEntity
  8
RACCORDO
100
AcDbPolyline
 62
250
  6
CONTINUOUS
 90
3
 70
0
 10
-10.6635616216
 20
-3.9446495539
 10
-10.6620665849
 20
-3.9286599447
 10
-10.6605959949
 20
-3.9021628602
  0
LWPOLYLINE
  5
640
100
AcDbEntity
  8
ASSI
100
AcDbPolyline
 62
250
  6
CONTINUOUS
 90
3
 70
0
 10
-10.6635616216
 20
-3.9446495539
 10
-10.6620665849
 20
-3.9286599447
 10
-10.6605959949
 20
-3.9021628602
  0
LINE
  5
641
100
AcDbEntity
  8
CURVE
100
AcDbLine
 62
7
  6
CONTINUOUS
 10
-11.0980676009
 20
5.7258457861
 11
-11.0803062814
 21
5.7436071056
  0
LINE
  5
642
100
AcDbEntity
  8
CURVE
100
AcDbLine
 62
7
  6
CONTINUOUS
 10
-11.1309108657
 20
5.0990328251
 11
-11.1094912876
 21
5.1204524032
  0
LINE
  5
643
100
AcDbEntity
  8
CURVE
100
AcDbLine
 62
7
  6
CONTINUOUS
 10
-11.1309110053
 20
3.9110932931
 11
-11.1252410935
 21
3.916763205
  0
LINE
  5
644
100
AcDbEntity
  8
CURVE
100
AcDbLine
 62
7
  6
CONTINUOUS
 10
-11.0859763154
 20
3.9560279831
 11
-11.0803064384
 21
3.96169786
  0
LINE
  5
645
100
AcDbEntity
  8
CURVE
100
AcDbLine
 62
7
  6
CONTINUOUS
 10
-11.1091524604
 20
3.932851838
 11
-11.1034820774
 21
3.938522221
  0
LINE
  5
646
100
AcDbEntity
  8
CURVE
100
AcDbLine
 62
7
  6
CONTINUOUS
 10
-11.0859763154
 20
3.3620582869
 11
-11.0803064384
 21
3.3677281638
  0
LINE
  5
647
100
AcDbEntity
  8
CURVE
100
AcDbLine
 62
7
  6
CONTINUOUS
 10
-11.1091524604
 20
3.3388821418
 11
-11.1034820774
 21
3.3445525248
  0
LINE
  5
648
100
AcDbEntity
  8
CURVE
100
AcDbLine
 62
7
  6
CONTINUOUS
 10
-11.1309110053
 20
3.3171235969
 11
-11.1252410935
 21
3.3227935088
  0
LINE
  5
649
100
AcDbEntity
  8
ASSI
100
AcDbLine
 62
250
  6
CONTINUOUS
 10
11.15
 20
16.119659166
 11
11.0130903017
 21
16.0720256498
  0
LINE
  5
64A
100
AcDbEntity
  8
0
100
AcDbLine
 62
250
  6
CONTINUOUS
 10
11.15
 20
16.119659166
 11
11.0130903017
 21
16.0720256498
  0
LINE
  5
64B
100
AcDbEntity
  8
CURVE
100
AcDbLine
 62
250
  6
CONTINUOUS
 10
-1.0
 20
-11.407638
 11
0.019012
 21
-11.407638
  0
LINE
  5
64C
100
AcDbEntity
  8
0
100
AcDbLine
 62
7
  6
CONTINUOUS
 10
7.05
 20
-10.35
 11
-1.45
 21
-10.35
  0
LINE
  5
64D
100
AcDbEntity
  8
ASSI
100
AcDbLine
 62
7
  6
CONTINUOUS
 10
7.05
 20
-10.35
 11
-1.45
 21
-10.35
  0
LINE
  5
64E
100
AcDbEntity
  8
ASSI
100
AcDbLine
 62
250
  6
CONTINUOUS
 10
11.15
 20
-16.119659166
 11
11.0130903017
 21
-16.0720256498
  0
LINE
  5
64F
100
AcDbEntity
  8
0
100
AcDbLine
 62
250
  6
CONTINUOUS
 10
11.15
 20
-16.119659166
 11
11.0130903017
 21
-16.0720256498
  0
LINE
  5
650
100
AcDbEntity
  8
ASSI
100
AcDbLine
 62
7
  6
CONTINUOUS
 10
-9.8
 20
-8.95
 11
-9.8
 21
-4.65
  0
LINE
  5
651
100
AcDbEntity
  8
ASSI
100
AcDbLine
 62
7
  6
CONTINUOUS
 10
-9.8
 20
-3.95
 11
-9.8
 21
0.35
  0
LINE
  5
652
100
AcDbEntity
  8
ASSI
100
AcDbLine
 62
7
  6
CONTINUOUS
 10
-9.8
 20
1.05
 11
-9.8
 21
5.35
  0
LINE
  5
653
100
AcDbEntity
  8
ASSI
100
AcDbLine
 62
7
  6
CONTINUOUS
 10
-9.8
 20
6.05
 11
-9.8
 21
10.35
  0
LINE
  5
654
100
AcDbEntity
  8
0
100
AcDbLine
 62
7
  6
CONTINUOUS
 10
-9.6325449351
 20
20.8475922207
 11
-9.6325449351
 21
18.6517329459
  0
LINE
  5
655
100
AcDbEntity
  8
0
100
AcDbLine
 62
7
  6
CONTINUOUS
 10
-9.6325449351
 20
-18.6517329459
 11
-9.6325449351
 21
-20.8475922207
  0
LINE
  5
656
100
AcDbEntity
  8
DRAFT
100
AcDbLine
 62
7
  6
CONTINUOUS
 10
-9.6238174026
 20
-20.8213883311
 11
-9.6238174026
 21
-18.6617863408
  0
LINE
  5
657
100
AcDbEntity
  8
DRAFT
100
AcDbLine
 62
7
  6
CONTINUOUS
 10
-9.6238174026
 20
18.6617863408
 11
-9.6238174026
 21
20.8213883311
  0
LINE
  5
658
100
AcDbEntity
  8
ASSI
100
AcDbLine
 62
7
  6
CONTINUOUS
 10
-9.5
 20
18.2709460779
 11
-9.5
 21
18.5651508558
  0
LINE
  5
659
100
AcDbEntity
  8
DRAFT
100
AcDbLine
 62
7
  6
CONTINUOUS
 10
-9.5
 20
18.2709460779
 11
-9.5
 21
18.5651508558
  0
LINE
  5
65A
100
AcDbEntity
  8
0
100
AcDbLine
 62
250
  6
CONTINUOUS
 10
-9.3
 20
-18.6
 11
-9.3
 21
-18.2130903017
  0
LWPOLYLINE
  5
65B
100
AcDbEntity
  8
RACCORDO
100
AcDbPolyline
 62
250
  6
CONTINUOUS
 90
3
 70
0
 10
-10.6635616216
 20
-8.9446495539
 10
-10.6620665849
 20
-8.9286599447
 10
-10.6605959949
 20
-8.9021628602
  0
LWPOLYLINE
  5
65C
100
AcDbEntity
  8
ASSI
100
AcDbPolyline
 62
250
  6
CONTINUOUS
 90
3
 70
0
 10
-10.6635616216
 20
-8.9446495539
 10
-10.6620665849
 20
-8.9286599447
 10
-10.6605959949
 20
-8.9021628602
  0
LINE
  5
65D
100
AcDbEntity
  8
CURVE
100
AcDbLine
 62
250
  6
CONTINUOUS
 10
-11.1310326998
 20
-9.290227
 11
-11.0804344847
 21
-9.019077
  0
LINE
  5
65E
100
AcDbEntity
  8
ASSI
100
AcDbLine
 62
7
  6
CONTINUOUS
 10
-1.975007617
 20
18.3
 11
-2.0
 21
18.25
  0
LINE
  5
65F
100
AcDbEntity
  8
DRAFT
100
AcDbLine
 62
7
  6
CONTINUOUS
 10
-1.975007617
 20
18.3
 11
-2.0
 21
18.25
  0
LINE
  5
660
100
AcDbEntity
  8
CURVE
100
AcDbLine
 62
7
  6
CONTINUOUS
 10
-11.0859763154
 20
2.7680885907
 11
-11.0803064384
 21
2.7737584676
  0
LINE
  5
661
100
AcDbEntity
  8
CURVE
100
AcDbLine
 62
7
  6
CONTINUOUS
 10
-11.1091524604
 20
2.7449124456
 11
-11.1034820774
 21
2.7505828286
  0
LINE
  5
662
100
AcDbEntity
  8
CURVE
100
AcDbLine
 62
7
  6
CONTINUOUS
 10
-11.1309110053
 20
2.7231539007
 11
-11.124495906
 21
2.729569
  0
LINE
  5
663
100
AcDbEntity
  8
CURVE
100
AcDbLine
 62
250
  6
CONTINUOUS
 10
-7.0
 20
6.7
 11
-6.814285706
 21
6.8857142746
  0
LINE
  5
664
100
AcDbEntity
  8
CURVE
100
AcDbLine
 62
250
  6
CONTINUOUS
 10
-5.8857142746
 20
7.35
 11
-5.7
 21
7.5357142746
  0
LINE
  5
665
100
AcDbEntity
  8
CURVE
100
AcDbLine
 62
7
  6
CONTINUOUS
 10
-11.1309110053
 20
1.5352145083
 11
-11.1306125136
 21
1.535513
  0
LINE
  5
666
100
AcDbEntity
  8
CURVE
100
AcDbLine
 62
250
  6
CONTINUOUS
 10
-5.7
 20
6.6071429014
 11
-5.8857142746
 21
6.4214285493
  0
LINE
  5
667
100
AcDbEntity
  8
CURVE
100
AcDbLine
 62
7
  6
CONTINUOUS
 10
-11.0948322562
 20
0.9773235612
 11
-11.0836461622
 21
0.9885096552
  0
LINE
  5
668
100
AcDbEntity
  8
CURVE
100
AcDbLine
 62
250
  6
CONTINUOUS
 10
-6.814285706
 20
6.8857142746
 11
-6.628571412
 21
6.9785714507
  0
LINE
  5
669
100
AcDbEntity
  8
CURVE
100
AcDbLine
 62
250
  6
CONTINUOUS
 10
-5.000008974
 20
-10.1000384451
 11
-7.9999897504
 21
-10.1107781351
  0
LINE
  5
66A
100
AcDbEntity
  8
IMPORT_IGES
100
AcDbLine
 62
7
  6
CONTINUOUS
 10
-0.344
 20
-9.9
 11
6.656
 21
-9.9
  0
LINE
  5
66B
100
AcDbEntity
  8
CURVE
100
AcDbLine
 62
250
  6
CONTINUOUS
 10
-11.0331632188
 20
-9.8976193428
 11
-11.0558513472
 21
-9.8976193428
  0
LINE
  5
66C
100
AcDbEntity
  8
IMPORT_IGES
100
AcDbLine
 62
250
  6
CONTINUOUS
 10
-1.45
 20
-9.488239365
 11
-0.344
 21
-9.488239365
  0
LINE
  5
66D
100
AcDbEntity
  8
CURVE
100
AcDbLine
 62
250
  6
CONTINUOUS
 10
-3.9071524836
 20
-9.4428570271
 11
-5.000009612
 21
-9.4428570271
  0
LINE
  5
66E
100
AcDbEntity
  8
CURVE
100
AcDbLine
 62
250
  6
CONTINUOUS
 10
-11.0331632188
 20
-9.3095238686
 11
-11.0558513472
 21
-9.3095238686
  0
LINE
  5
66F
100
AcDbEntity
  8
IMPORT_IGES
100
AcDbLine
 62
7
  6
CONTINUOUS
 10
6.656
 20
-9.3
 11
-1.45
 21
-9.3
  0
LINE
  5
670
100
AcDbEntity
  8
RACCORDO
100
AcDbLine
 62
7
  6
CONTINUOUS
 10
-10.7130788782
 20
-8.95
 11
-9.8
 21
-8.95
  0
LINE
  5
671
100
AcDbEntity
  8
ASSI
100
AcDbLine
 62
7
  6
CONTINUOUS
 10
-10.7130788782
 20
-8.95
 11
-9.8
 21
-8.95
  0
LINE
  5
672
100
AcDbEntity
  8
CURVE
100
AcDbLine
 62
250
  6
CONTINUOUS
 10
-3.7857238688
 20
-8.8761904955
 11
-5.000009612
 21
-8.8761904955
  0
LINE
  5
673
100
AcDbEntity
  8
CURVE
100
AcDbLine
 62
250
  6
CONTINUOUS
 10
-11.0331632188
 20
-8.6595238686
 11
-11.0558513472
 21
-8.6595238686
  0
LINE
  5
674
100
AcDbEntity
  8
CURVE
100
AcDbLine
 62
250
  6
CONTINUOUS
 10
-7.4999987184
 20
-4.10894976
 11
-7.4785193384
 21
-10.1089113129
  0
LINE
  5
675
100
AcDbEntity
  8
CURVE
100
AcDbLine
 62
250
  6
CONTINUOUS
 10
-7.3999993592
 20
-4.1085917704
 11
-7.3785199792
 21
-10.1085533233
  0
LINE
  5
676
100
AcDbEntity
  8
CURVE
100
AcDbLine
 62
250
  6
CONTINUOUS
 10
-7.3
 20
-4.1082337807
 11
-7.2785206199
 21
-10.1081953336
  0
LINE
  5
677
100
AcDbEntity
  8
CURVE
100
AcDbLine
 62
250
  6
CONTINUOUS
 10
-7.2
 20
-4.1078757887
 11
-7.1785206199
 21
-10.1078373416
  0
LINE
  5
678
100
AcDbEntity
  8
CURVE
100
AcDbLine
 62
250
  6
CONTINUOUS
 10
-7.1000006408
 20
-4.1075177991
 11
-7.0785212607
 21
-10.107479352
  0
LINE
  5
679
100
AcDbEntity
  8
CURVE
100
AcDbLine
 62
250
  6
CONTINUOUS
 10
-7.0000012816
 20
-4.1071598094
 11
-6.9785219015
 21
-10.1071213623
  0
LINE
  5
67A
100
AcDbEntity
  8
CURVE
100
AcDbLine
 62
250
  6
CONTINUOUS
 10
-6.9000019224
 20
-4.1068018197
 11
-6.8785225423
 21
-10.1067633726
  0
LINE
  5
67B
100
AcDbEntity
  8
CURVE
100
AcDbLine
 62
250
  6
CONTINUOUS
 10
-6.8000025631
 20
-4.1064438301
 11
-6.7785231831
 21
-10.106405383
  0
LINE
  5
67C
100
AcDbEntity
  8
CURVE
100
AcDbLine
 62
250
  6
CONTINUOUS
 10
-6.7000032039
 20
-4.1060858404
 11
-6.6785238239
 21
-10.1060473933
  0
LINE
  5
67D
100
AcDbEntity
  8
CURVE
100
AcDbLine
 62
250
  6
CONTINUOUS
 10
-8.0
 20
-10.1107781718
 11
-8.0
 21
-15.3527569941
  0
LINE
  5
67E
100
AcDbEntity
  8
CURVE
100
AcDbLine
 62
250
  6
CONTINUOUS
 10
-7.0
 20
2.6142858028
 11
-7.0
 21
2.7071425915
  0
LINE
  5
67F
100
AcDbEntity
  8
CURVE
100
AcDbLine
 62
250
  6
CONTINUOUS
 10
-7.0
 20
3.6357141972
 11
-7.0
 21
3.7285712957
  0
LINE
  5
680
100
AcDbEntity
  8
CURVE
100
AcDbLine
 62
250
  6
CONTINUOUS
 10
-7.0
 20
4.3785712957
 11
-7.0
 21
5.0285712957
  0
LINE
  5
681
100
AcDbEntity
  8
CURVE
100
AcDbLine
 62
250
  6
CONTINUOUS
 10
-7.0
 20
6.6071429014
 11
-7.0
 21
6.7
  0
LINE
  5
682
100
AcDbEntity
  8
CURVE
100
AcDbLine
 62
250
  6
CONTINUOUS
 10
-7.0
 20
7.35
 11
-7.0
 21
8.0
  0
LINE
  5
683
100
AcDbEntity
  8
ASSI
100
AcDbLine
 62
7
  6
CONTINUOUS
 10
-3.4
 20
22.3297297297
 11
-3.3633443637
 21
22.5
  0
LINE
  5
684
100
AcDbEntity
  8
CURVE
100
AcDbLine
 62
250
  6
CONTINUOUS
 10
-11.0804344847
 20
-9.611193
 11
-11.1133364389
 21
-9.735548
  0
LINE
  5
685
100
AcDbEntity
  8
ASSI
100
AcDbLine
 62
7
  6
CONTINUOUS
 10
2.7167632191
 20
21.6560705017
 11
2.9969695968
 21
22.2
  0
LINE
  5
686
100
AcDbEntity
  8
CURVE
100
AcDbLine
 62
7
  6
CONTINUOUS
 10
-11.1112332505
 20
0.3669528708
 11
-11.1000065824
 21
0.3781795389
  0
LINE
  5
687
100
AcDbEntity
  8
CURVE
100
AcDbLine
 62
7
  6
CONTINUOUS
 10
-11.1276342447
 20
-0.2434178197
 11
-11.1163670025
 21
-0.2321505774
  0
LINE
  5
688
100
AcDbEntity
  8
CURVE
100
AcDbLine
 62
250
  6
CONTINUOUS
 10
-7.0
 20
3.7285712957
 11
-6.814285706
 21
3.9142858028
  0
LINE
  5
689
100
AcDbEntity
  8
CURVE
100
AcDbLine
 62
250
  6
CONTINUOUS
 10
-5.8857142746
 20
4.3785712957
 11
-5.7
 21
4.5642858028
  0
LINE
  5
68A
100
AcDbEntity
  8
CURVE
100
AcDbLine
 62
250
  6
CONTINUOUS
 10
-7.0
 20
2.7071425915
 11
-6.814285706
 21
2.8928570986
  0
LINE
  5
68B
100
AcDbEntity
  8
CURVE
100
AcDbLine
 62
250
  6
CONTINUOUS
 10
-5.8857142746
 20
6.4214285493
 11
-6.0714285493
 21
6.3285714507
  0
LINE
  5
68C
100
AcDbEntity
  8
CURVE
100
AcDbLine
 62
250
  6
CONTINUOUS
 10
-5.000009612
 20
-8.35
 11
-3.7857238688
 21
-8.35
  0
LINE
  5
68D
100
AcDbEntity
  8
IMPORT_IGES
100
AcDbLine
 62
7
  6
CONTINUOUS
 10
4.456
 20
-8.2
 11
-0.644
 21
-8.2
  0
LINE
  5
68E
100
AcDbEntity
  8
CURVE
100
AcDbLine
 62
250
  6
CONTINUOUS
 10
-3.9071524836
 20
-7.8642855406
 11
-5.000009612
 21
-7.8642855406
  0
LINE
  5
68F
100
AcDbEntity
  8
CURVE
100
AcDbLine
 62
250
  6
CONTINUOUS
 10
-3.7857238688
 20
-7.297619009
 11
-5.000009612
 21
-7.297619009
  0
LINE
  5
690
100
AcDbEntity
  8
CURVE
100
AcDbLine
 62
250
  6
CONTINUOUS
 10
-11.0331632188
 20
-7.0190477371
 11
-11.0558513472
 21
-7.0190477371
  0
LINE
  5
691
100
AcDbEntity
  8
CURVE
100
AcDbLine
 62
250
  6
CONTINUOUS
 10
-5.000009612
 20
-6.7714285135
 11
-3.7857238688
 21
-6.7714285135
  0
LINE
  5
692
100
AcDbEntity
  8
CURVE
100
AcDbLine
 62
250
  6
CONTINUOUS
 10
1.089722
 20
-11.124378
 11
6.1
 21
-16.06101
  0
LINE
  5
693
100
AcDbEntity
  8
CURVE
100
AcDbLine
 62
250
  6
CONTINUOUS
 10
-5.000009612
 20
-4.7071428716
 11
-4.7571524583
 21
-4.95
  0
LINE
  5
694
100
AcDbEntity
  8
ASSI
100
AcDbLine
 62
7
  6
CONTINUOUS
 10
2.7167632191
 20
-21.6560705017
 11
2.9969695968
 21
-22.2
  0
LINE
  5
695
100
AcDbEntity
  8
ASSI
100
AcDbLine
 62
7
  6
CONTINUOUS
 10
-3.4
 20
-22.3297297297
 11
-3.3633443637
 21
-22.5
  0
LINE
  5
696
100
AcDbEntity
  8
CURVE
100
AcDbLine
 62
250
  6
CONTINUOUS
 10
-6.6000038447
 20
-4.1057278507
 11
-6.5785244646
 21
-10.1056894036
  0
LINE
  5
697
100
AcDbEntity
  8
CURVE
100
AcDbLine
 62
250
  6
CONTINUOUS
 10
-6.5000044855
 20
-4.1053698611
 11
-6.4785251054
 21
-10.105331414
  0
LINE
  5
698
100
AcDbEntity
  8
CURVE
100
AcDbLine
 62
250
  6
CONTINUOUS
 10
-6.4000051263
 20
-4.1050118714
 11
-6.3785257462
 21
-10.1049734243
  0
LINE
  5
699
100
AcDbEntity
  8
CURVE
100
AcDbLine
 62
250
  6
CONTINUOUS
 10
-6.3000057671
 20
-4.1046538817
 11
-6.278526387
 21
-10.1046154346
  0
LINE
  5
69A
100
AcDbEntity
  8
CURVE
100
AcDbLine
 62
250
  6
CONTINUOUS
 10
-6.2000064079
 20
-4.1042958921
 11
-6.1785270278
 21
-10.104257445
  0
LINE
  5
69B
100
AcDbEntity
  8
CURVE
100
AcDbLine
 62
250
  6
CONTINUOUS
 10
-6.1000070486
 20
-4.1039379024
 11
-6.0785276686
 21
-10.1038994553
  0
LINE
  5
69C
100
AcDbEntity
  8
CURVE
100
AcDbLine
 62
250
  6
CONTINUOUS
 10
-6.0000076894
 20
-4.1035799127
 11
-5.9785283094
 21
-10.1035414656
  0
LINE
  5
69D
100
AcDbEntity
  8
CURVE
100
AcDbLine
 62
250
  6
CONTINUOUS
 10
-5.9000083302
 20
-4.1032219231
 11
-5.8785289501
 21
-10.103183476
  0
LINE
  5
69E
100
AcDbEntity
  8
CURVE
100
AcDbLine
 62
250
  6
CONTINUOUS
 10
-5.800008971
 20
-4.1028639334
 11
-5.7785295909
 21
-10.1028254863
  0
LINE
  5
69F
100
AcDbEntity
  8
CURVE
100
AcDbLine
 62
250
  6
CONTINUOUS
 10
-5.700008971
 20
-4.1025059414
 11
-5.6785295909
 21
-10.1024674943
  0
LINE
  5
6A0
100
AcDbEntity
  8
CURVE
100
AcDbLine
 62
250
  6
CONTINUOUS
 10
-5.6000096118
 20
-4.1021479518
 11
-5.5785302317
 21
-10.1021095047
  0
LINE
  5
6A1
100
AcDbEntity
  8
CURVE
100
AcDbLine
 62
250
  6
CONTINUOUS
 10
-6.5357142746
 20
5.9571429014
 11
-6.5357142746
 21
5.4
  0
LINE
  5
6A2
100
AcDbEntity
  8
CURVE
100
AcDbLine
 62
250
  6
CONTINUOUS
 10
-6.5
 20
10.4
 11
-6.5
 21
10.1
  0
LINE
  5
6A3
100
AcDbEntity
  8
CURVE
100
AcDbLine
 62
250
  6
CONTINUOUS
 10
-6.5
 20
12.8
 11
-6.5
 21
13.1
  0
LINE
  5
6A4
100
AcDbEntity
  8
ASSI
100
AcDbLine
 62
250
  6
CONTINUOUS
 10
-5.8
 20
-18.6
 11
-5.8
 21
-18.2130903017
  0
LINE
  5
6A5
100
AcDbEntity
  8
CURVE
100
AcDbLine
 62
250
  6
CONTINUOUS
 10
-5.7
 20
6.7
 11
-5.7
 21
6.6071429014
  0
LINE
  5
6A6
100
AcDbEntity
  8
CURVE
100
AcDbLine
 62
250
  6
CONTINUOUS
 10
-5.7
 20
3.7285712957
 11
-5.7
 21
3.6357141972
  0
LINE
  5
6A7
100
AcDbEntity
  8
CURVE
100
AcDbLine
 62
250
  6
CONTINUOUS
 10
-5.7
 20
2.7071425915
 11
-5.7
 21
2.6142858028
  0
LINE
  5
6A8
100
AcDbEntity
  8
CURVE
100
AcDbLine
 62
250
  6
CONTINUOUS
 10
-5.7
 20
4.5642858028
 11
-5.7
 21
4.8428570986
  0
LINE
  5
6A9
100
AcDbEntity
  8
CURVE
100
AcDbLine
 62
250
  6
CONTINUOUS
 10
-5.7
 20
7.5357142746
 11
-5.7
 21
7.814285706
  0
LINE
  5
6AA
100
AcDbEntity
  8
CURVE
100
AcDbLine
 62
250
  6
CONTINUOUS
 10
-5.500008971
 20
-10.1017899598
 11
-5.5000096118
 21
-4.1017899598
  0
LINE
  5
6AB
100
AcDbEntity
  8
CURVE
100
AcDbLine
 62
250
  6
CONTINUOUS
 10
-5.0
 20
-15.3527557127
 11
-5.000008974
 21
-10.1000384451
  0
LINE
  5
6AC
100
AcDbEntity
  8
CURVE
100
AcDbLine
 62
250
  6
CONTINUOUS
 10
-5.000009612
 20
-4.3428571537
 11
-5.000009612
 21
-4.7071428716
  0
LINE
  5
6AD
100
AcDbEntity
  8
CURVE
100
AcDbLine
 62
250
  6
CONTINUOUS
 10
-5.0
 20
12.0
 11
-5.0
 21
11.2
  0
LINE
  5
6AE
100
AcDbEntity
  8
CURVE
100
AcDbLine
 62
250
  6
CONTINUOUS
 10
-5.7
 20
3.6357141972
 11
-5.8857142746
 21
3.45
  0
LINE
  5
6AF
100
AcDbEntity
  8
CURVE
100
AcDbLine
 62
250
  6
CONTINUOUS
 10
-5.7
 20
2.6142858028
 11
-5.8857142746
 21
2.4285716057
  0
LINE
  5
6B0
100
AcDbEntity
  8
CURVE
100
AcDbLine
 62
250
  6
CONTINUOUS
 10
-6.814285706
 20
3.9142858028
 11
-6.628571412
 21
4.0071429014
  0
LINE
  5
6B1
100
AcDbEntity
  8
CURVE
100
AcDbLine
 62
250
  6
CONTINUOUS
 10
-5.8857142746
 20
3.45
 11
-6.0714285493
 21
3.3571429014
  0
LINE
  5
6B2
100
AcDbEntity
  8
CURVE
100
AcDbLine
 62
250
  6
CONTINUOUS
 10
-6.814285706
 20
2.8928570986
 11
-6.628571412
 21
2.9857141972
  0
LINE
  5
6B3
100
AcDbEntity
  8
CURVE
100
AcDbLine
 62
250
  6
CONTINUOUS
 10
9.4
 20
-6.5
 11
7.5
 21
-6.5
  0
LINE
  5
6B4
100
AcDbEntity
  8
CURVE
100
AcDbLine
 62
250
  6
CONTINUOUS
 10
-11.1304415433
 20
-6.3615673444
 11
-11.0804344785
 21
-6.3615673444
  0
LINE
  5
6B5
100
AcDbEntity
  8
CURVE
100
AcDbLine
 62
250
  6
CONTINUOUS
 10
-11.0331632188
 20
-6.0595238686
 11
-11.0558513472
 21
-6.0595238686
  0
LINE
  5
6B6
100
AcDbEntity
  8
CURVE
100
AcDbLine
 62
250
  6
CONTINUOUS
 10
-11.1085225925
 20
-5.7788012718
 11
-11.1224127904
 21
-5.7788012718
  0
LINE
  5
6B7
100
AcDbEntity
  8
CURVE
100
AcDbLine
 62
250
  6
CONTINUOUS
 10
-11.0804344785
 20
-5.7587313832
 11
-11.1002358268
 21
-5.7587313832
  0
LINE
  5
6B8
100
AcDbEntity
  8
IMPORT_IGES
100
AcDbLine
 62
7
  6
CONTINUOUS
 10
-0.644
 20
-5.4
 11
4.456
 21
-5.4
  0
LINE
  5
6B9
100
AcDbEntity
  8
CURVE
100
AcDbLine
 62
250
  6
CONTINUOUS
 10
10.575
 20
-5.103125
 11
10.540625
 21
-5.103125
  0
LINE
  5
6BA
100
AcDbEntity
  8
CURVE
100
AcDbLine
 62
250
  6
CONTINUOUS
 10
10.09375
 20
-5.0
 11
9.990625
 21
-5.0
  0
LINE
  5
6BB
100
AcDbEntity
  8
CURVE
100
AcDbLine
 62
250
  6
CONTINUOUS
 10
-3.6642953552
 20
-4.3428571537
 11
-4.150009612
 21
-4.1
  0
LINE
  5
6BC
100
AcDbEntity
  8
CURVE
100
AcDbLine
 62
250
  6
CONTINUOUS
 10
-3.300009612
 20
-4.7071428716
 11
-3.6642953552
 21
-4.3428571537
  0
LWPOLYLINE
  5
6BD
100
AcDbEntity
  8
0
100
AcDbPolyline
 62
250
  6
CONTINUOUS
 90
28
 70
0
 10
-3.2153472641
 20
-23.175
 10
-3.2147372556
 20
-23.1830963351
 10
-3.2134740017
 20
-23.1911661287
 10
-3.2115616436
 20
-23.1991829261
 10
-3.2090064561
 20
-23.2071204309
 10
-3.2058168125
 20
-23.2149526382
 10
-3.2020031448
 20
-23.2226539174
 10
-3.197577925
 20
-23.2301990496
 10
-3.1925556639
 20
-23.2375632649
 10
-3.1869528528
 20
-23.244722373
 10
-3.1807878764
 20
-23.2516528873
 10
-3.174080933
 20
-23.2583321054
 10
-3.1668540021
 20
-23.2647381382
 10
-3.1591307709
 20
-23.270849987
 10
-3.1509365613
 20
-23.2766476111
 10
-3.1422982388
 20
-23.282112001
 10
-3.1332441206
 20
-23.2872252432
 10
-3.1238038906
 20
-23.2919705732
 10
-3.1140085065
 20
-23.2963324295
 10
-3.1038900873
 20
-23.3002965111
 10
-3.0934817999
 20
-23.3038498255
 10
-3.0828177602
 20
-23.3069807264
 10
-3.0719327646
 20
-23.3096789864
 10
-3.0608626562
 20
-23.3119357097
 10
-3.0496442254
 20
-23.313743428
 10
-3.0383144325
 20
-23.3150962584
 10
-3.0269102621
 20
-23.3159898571
 10
-3.0154690987
 20
-23.3164213562
  0
LWPOLYLINE
  5
6BE
100
AcDbEntity
  8
0
100
AcDbPolyline
 62
250
  6
CONTINUOUS
 90
18
 70
0
 10
-3.1705494094
 20
-21.8921572875
 10
-3.1699393744
 20
-21.9002538516
 10
-3.1686760548
 20
-21.9083238834
 10
-3.1667635895
 20
-21.9163409259
 10
-3.1642082473
 20
-21.9242786905
 10
-3.161018402
 20
-21.9321111585
 10
-3.1572045007
 20
-21.9398126657
 10
-3.1527790344
 20
-21.947357972
 10
-3.1477565105
 20
-21.9547223276
 10
-3.1421534032
 20
-21.9618815701
 10
-3.1359880845
 20
-21.968812223
 10
-3.1292807625
 20
-21.9754915676
 10
-3.1220534283
 20
-21.9818977025
 10
-3.1143297631
 20
-21.9880096337
 10
-3.1061350994
 20
-21.9938073119
 10
-3.0974963496
 20
-21.9992717005
 10
-3.0884418844
 20
-22.0043848663
 10
-3.0812528557
 20
-22.0079983771
  0
LINE
  5
6BF
100
AcDbEntity
  8
0
100
AcDbLine
 62
7
  6
CONTINUOUS
 10
-3.2328084818
 20
-21.4068852456
 11
-3.2322130619
 21
-21.4227632414
  0
LWPOLYLINE
  5
6C0
100
AcDbEntity
  8
0
100
AcDbPolyline
 62
250
  6
CONTINUOUS
 90
28
 70
0
 10
-3.2153472641
 20
-23.175
 10
-3.2150090758
 20
-23.1866294132
 10
-3.2139956539
 20
-23.1982194859
 10
-3.2123104256
 20
-23.2097309976
 10
-3.2099590927
 20
-23.2211249875
 10
-3.2069496093
 20
-23.2323629045
 10
-3.2032921508
 20
-23.2434067365
 10
-3.1989990826
 20
-23.254219124
 10
-3.1940849321
 20
-23.2647634607
 10
-3.1885663379
 20
-23.2750040374
 10
-3.182461982
 20
-23.2849061886
 10
-3.1757925153
 20
-23.2944364164
 10
-3.1685805008
 20
-23.3035624775
 10
-3.1608503227
 20
-23.3122535084
 10
-3.1526281558
 20
-23.3204800736
 10
-3.1439418813
 20
-23.3282142833
 10
-3.1348209519
 20
-23.3354299351
 10
-3.1252961933
 20
-23.3421026636
 10
-3.1153997435
 20
-23.348209955
 10
-3.1051649689
 20
-23.3537311945
 10
-3.0946266108
 20
-23.358647617
 10
-3.0838205937
 20
-23.3629424803
 10
-3.0727832719
 20
-23.3666013563
 10
-3.0615522262
 20
-23.3696118076
 10
-3.0501664509
 20
-23.3719635135
 10
-3.0386648379
 20
-23.3736486888
 10
-3.0270859964
 20
-23.3746619221
 10
-3.0154690987
 20
-23.375
  0
LINE
  5
6C1
100
AcDbEntity
  8
0
100
AcDbLine
 62
7
  6
CONTINUOUS
 10
-3.2322130619
 20
-21.4227632414
 11
-3.2316879572
 21
-21.4404699926
  0
LINE
  5
6C2
100
AcDbEntity
  8
0
100
AcDbLine
 62
7
  6
CONTINUOUS
 10
-3.2316879572
 20
-21.4404699926
 11
-3.2312414323
 21
-21.4596385379
  0
LINE
  5
6C3
100
AcDbEntity
  8
0
100
AcDbLine
 62
7
  6
CONTINUOUS
 10
-3.2312414323
 20
-21.4596385379
 11
-3.230881115
 21
-21.47972141
  0
LINE
  5
6C4
100
AcDbEntity
  8
0
100
AcDbLine
 62
7
  6
CONTINUOUS
 10
-3.230881115
 20
-21.47972141
 11
-3.2305027658
 21
-21.5095049571
  0
LINE
  5
6C5
100
AcDbEntity
  8
0
100
AcDbLine
 62
7
  6
CONTINUOUS
 10
-3.2305027658
 20
-21.5095049571
 11
-3.2302485193
 21
-21.5451764569
  0
LINE
  5
6C6
100
AcDbEntity
  8
0
100
AcDbLine
 62
7
  6
CONTINUOUS
 10
-3.2302485193
 20
-21.5451764569
 11
-3.2301583439
 21
-21.5831972605
  0
LINE
  5
6C7
100
AcDbEntity
  8
DRAFT
100
AcDbLine
 62
7
  6
CONTINUOUS
 10
-4.8
 20
-18.6
 11
-4.8
 21
-19.5
  0
LINE
  5
6C8
100
AcDbEntity
  8
ASSI
100
AcDbLine
 62
7
  6
CONTINUOUS
 10
-4.8
 20
-19.5
 11
-4.8
 21
-18.2130903017
  0
LINE
  5
6C9
100
AcDbEntity
  8
ASSI
100
AcDbLine
 62
7
  6
CONTINUOUS
 10
-4.8
 20
18.2709460779
 11
-4.8
 21
19.5
  0
LINE
  5
6CA
100
AcDbEntity
  8
DRAFT
100
AcDbLine
 62
7
  6
CONTINUOUS
 10
-4.8
 20
18.2709460779
 11
-4.8
 21
19.5
  0
LINE
  5
6CB
100
AcDbEntity
  8
ASSI
100
AcDbLine
 62
7
  6
CONTINUOUS
 10
-4.7371106649
 20
-18.6
 11
-4.7371106649
 21
-19.4790539221
  0
LINE
  5
6CC
100
AcDbEntity
  8
DRAFT
100
AcDbLine
 62
7
  6
CONTINUOUS
 10
-4.7371106649
 20
-18.6
 11
-4.7371106649
 21
-19.4790539221
  0
LINE
  5
6CD
100
AcDbEntity
  8
ASSI
100
AcDbLine
 62
7
  6
CONTINUOUS
 10
-4.7371106649
 20
18.25
 11
-4.7371106649
 21
19.4790539221
  0
LINE
  5
6CE
100
AcDbEntity
  8
DRAFT
100
AcDbLine
 62
7
  6
CONTINUOUS
 10
-4.7371106649
 20
18.25
 11
-4.7371106649
 21
19.4790539221
  0
LINE
  5
6CF
100
AcDbEntity
  8
CURVE
100
AcDbLine
 62
250
  6
CONTINUOUS
 10
-4.0285809972
 20
-4.7071428716
 11
-4.0285809972
 21
-4.1809523825
  0
LINE
  5
6D0
100
AcDbEntity
  8
RACCORDO
100
AcDbLine
 62
7
  6
CONTINUOUS
 10
-4.0130903017
 20
19.3131017248
 11
-4.0130903017
 21
18.5130788786
  0
LINE
  5
6D1
100
AcDbEntity
  8
ASSI
100
AcDbLine
 62
7
  6
CONTINUOUS
 10
-4.0130903017
 20
19.3131017248
 11
-4.0130903017
 21
18.5130788786
  0
LINE
  5
6D2
100
AcDbEntity
  8
RACCORDO
100
AcDbLine
 62
7
  6
CONTINUOUS
 10
-4.0130903017
 20
-19.3131017248
 11
-4.0130903017
 21
-18.2130903017
  0
LINE
  5
6D3
100
AcDbEntity
  8
ASSI
100
AcDbLine
 62
7
  6
CONTINUOUS
 10
-4.0130903017
 20
-19.3131017248
 11
-4.0130903017
 21
-18.2130903017
  0
LINE
  5
6D4
100
AcDbEntity
  8
ASSI
100
AcDbLine
 62
7
  6
CONTINUOUS
 10
-4.0
 20
19.4790539221
 11
-4.0
 21
19.3998764394
  0
LINE
  5
6D5
100
AcDbEntity
  8
DRAFT
100
AcDbLine
 62
7
  6
CONTINUOUS
 10
-4.0
 20
19.4790539221
 11
-4.0
 21
19.3998764394
  0
LINE
  5
6D6
100
AcDbEntity
  8
ASSI
100
AcDbLine
 62
7
  6
CONTINUOUS
 10
-4.0
 20
-19.4790539221
 11
-4.0
 21
-19.3998764394
  0
LINE
  5
6D7
100
AcDbEntity
  8
DRAFT
100
AcDbLine
 62
7
  6
CONTINUOUS
 10
-4.0
 20
-19.4790539221
 11
-4.0
 21
-19.3998764394
  0
LINE
  5
6D8
100
AcDbEntity
  8
CURVE
100
AcDbLine
 62
250
  6
CONTINUOUS
 10
-3.7857238688
 20
-6.7714285135
 11
-3.7857238688
 21
-7.7428570271
  0
LINE
  5
6D9
100
AcDbEntity
  8
CURVE
100
AcDbLine
 62
250
  6
CONTINUOUS
 10
-3.7857238688
 20
-8.35
 11
-3.7857238688
 21
-9.3214285135
  0
LINE
  5
6DA
100
AcDbEntity
  8
ASSI
100
AcDbLine
 62
7
  6
CONTINUOUS
 10
-3.4
 20
-21.2
 11
-3.4
 21
-23.4301797403
  0
LINE
  5
6DB
100
AcDbEntity
  8
ASSI
100
AcDbLine
 62
7
  6
CONTINUOUS
 10
-3.4
 20
21.2
 11
-3.4
 21
23.4301797403
  0
LINE
  5
6DC
100
AcDbEntity
  8
ASSI
100
AcDbLine
 62
7
  6
CONTINUOUS
 10
-3.3633443637
 20
23.4668353766
 11
-3.3633443637
 21
22.5
  0
LINE
  5
6DD
100
AcDbEntity
  8
ASSI
100
AcDbLine
 62
7
  6
CONTINUOUS
 10
-3.3633443637
 20
-23.4668353766
 11
-3.3633443637
 21
-22.5
  0
LINE
  5
6DE
100
AcDbEntity
  8
0
100
AcDbLine
 62
7
  6
CONTINUOUS
 10
-3.3
 20
22.4
 11
-3.3
 21
21.9098076211
  0
LINE
  5
6DF
100
AcDbEntity
  8
0
100
AcDbLine
 62
7
  6
CONTINUOUS
 10
-3.3
 20
21.3901923789
 11
-3.3
 21
21.190690632
  0
LINE
  5
6E0
100
AcDbEntity
  8
0
100
AcDbLine
 62
7
  6
CONTINUOUS
 10
-3.3
 20
-21.190690632
 11
-3.3
 21
-21.3901923789
  0
LINE
  5
6E1
100
AcDbEntity
  8
0
100
AcDbLine
 62
7
  6
CONTINUOUS
 10
-3.3
 20
-21.9098076211
 11
-3.3
 21
-22.4
  0
LINE
  5
6E2
100
AcDbEntity
  8
0
100
AcDbLine
 62
7
  6
CONTINUOUS
 10
-3.2301586136
 20
21.5826833361
 11
-3.230258713
 21
21.5429874186
  0
LINE
  5
6E3
100
AcDbEntity
  8
0
100
AcDbLine
 62
7
  6
CONTINUOUS
 10
-3.230258713
 20
21.5429874186
 11
-3.2305217625
 21
21.5075949852
  0
LINE
  5
6E4
100
AcDbEntity
  8
0
100
AcDbLine
 62
7
  6
CONTINUOUS
 10
-3.2305217625
 20
21.5075949852
 11
-3.2308932145
 21
21.4789226653
  0
LINE
  5
6E5
100
AcDbEntity
  8
0
100
AcDbLine
 62
7
  6
CONTINUOUS
 10
-3.2308932145
 20
21.4789226653
 11
-3.2312409264
 21
21.4596632094
  0
LINE
  5
6E6
100
AcDbEntity
  8
0
100
AcDbLine
 62
7
  6
CONTINUOUS
 10
-3.2312409264
 20
21.4596632094
 11
-3.2316746145
 21
21.4409735761
  0
LWPOLYLINE
  5
6E7
100
AcDbEntity
  8
0
100
AcDbPolyline
 62
250
  6
CONTINUOUS
 90
28
 70
0
 10
-3.2153472641
 20
23.175
 10
-3.2150090855
 20
23.1866292474
 10
-3.213995694
 20
23.1982191432
 10
-3.2123105187
 20
23.209730469
 10
-3.209959264
 20
23.2211242645
 10
-3.2069498851
 20
23.2323619827
 10
-3.2032925572
 20
23.2434056193
 10
-3.1989996452
 20
23.2542178192
 10
-3.194085677
 20
23.2647619765
 10
-3.1885672924
 20
23.2750023833
 10
-3.1824631726
 20
23.2849043774
 10
-3.1757939687
 20
23.2944344631
 10
-3.1685822453
 20
23.3035603973
 10
-3.1608524059
 20
23.312251299
 10
-3.1526306075
 20
23.3204777593
 10
-3.1439446666
 20
23.328211945
 10
-3.1348239611
 20
23.3354276937
 10
-3.1252993661
 20
23.3421005757
 10
-3.1154031503
 20
23.3482079871
 10
-3.1051688298
 20
23.3537292545
 10
-3.0946310155
 20
23.3586457161
 10
-3.0838253318
 20
23.362940755
 10
-3.0727880487
 20
23.3665999256
 10
-3.0615567984
 20
23.3696107235
 10
-3.0501704569
 20
23.3719628069
 10
-3.0386678728
 20
23.373648334
 10
-3.0270876932
 20
23.3746618232
 10
-3.0154690987
 20
23.375
  0
LINE
  5
6E8
100
AcDbEntity
  8
0
100
AcDbLine
 62
7
  6
CONTINUOUS
 10
-3.2316746145
 20
21.4409735761
 11
-3.2321885457
 21
21.4235067995
  0
LWPOLYLINE
  5
6E9
100
AcDbEntity
  8
0
100
AcDbPolyline
 62
7
  6
CONTINUOUS
 90
14
 70
0
 10
-3.2321885457
 20
21.4235067995
 10
-3.2327757803
 20
21.4076619337
 10
-3.2330898019
 20
21.4005965261
 10
-3.2334178617
 20
21.3940731808
 10
-3.2337566113
 20
21.388145381
 10
-3.2341060192
 20
21.3828191704
 10
-3.2344661168
 20
21.3780885054
 10
-3.2348336503
 20
21.3739887383
 10
-3.2352092344
 20
21.3705232993
 10
-3.2355922545
 20
21.3676887582
 10
-3.2359776124
 20
21.3655101776
 10
-3.2363636087
 20
21.3639959115
 10
-3.2367519429
 20
21.3631376058
 10
-3.2371426149
 20
21.3629352605
  0
LWPOLYLINE
  5
6EA
100
AcDbEntity
  8
0
100
AcDbPolyline
 62
250
  6
CONTINUOUS
 90
28
 70
0
 10
-3.2153472641
 20
23.175
 10
-3.2147372557
 20
23.1830963341
 10
-3.2134739981
 20
23.1911661471
 10
-3.2115616274
 20
23.1991829839
 10
-3.2090064109
 20
23.207120555
 10
-3.2058167188
 20
23.2149528461
 10
-3.2020029908
 20
23.2226542025
 10
-3.1975777117
 20
23.2301993862
 10
-3.192555385
 20
23.2375636461
 10
-3.1869524773
 20
23.2447228226
 10
-3.1807873466
 20
23.2516534474
 10
-3.1740802029
 20
23.258332791
 10
-3.1668530606
 20
23.2647389266
 10
-3.1591296224
 20
23.2708508464
 10
-3.1509352031
 20
23.2766485197
 10
-3.1422966787
 20
23.2821129337
 10
-3.1332423903
 20
23.2872261656
 10
-3.1238020072
 20
23.2919714649
 10
-3.1140064335
 20
23.2963332962
 10
-3.1038877159
 20
23.3002973795
 10
-3.093479086
 20
23.3038506864
 10
-3.0828148165
 20
23.3069815226
 10
-3.0719297228
 20
23.3096796729
 10
-3.0608596464
 20
23.3119362586
 10
-3.0496415187
 20
23.3137438074
 10
-3.0383123517
 20
23.315096464
 10
-3.0269090852
 20
23.3159899253
 10
-3.0154690987
 20
23.3164213562
  0
LWPOLYLINE
  5
6EB
100
AcDbEntity
  8
0
100
AcDbPolyline
 62
250
  6
CONTINUOUS
 90
18
 70
0
 10
-3.1705494094
 20
21.8921572875
 10
-3.1699393843
 20
21.900253766
 10
-3.1686760907
 20
21.9083237015
 10
-3.1667636701
 20
21.916340638
 10
-3.1642083949
 20
21.9242782854
 10
-3.1610186406
 20
21.9321106294
 10
-3.1572048518
 20
21.9398120161
 10
-3.1527795156
 20
21.9473572125
 10
-3.1477571422
 20
21.9547214641
 10
-3.1421542122
 20
21.9618806016
 10
-3.135989104
 20
21.9688111451
 10
-3.1292820227
 20
21.9754903842
 10
-3.1220549526
 20
21.9818964262
 10
-3.1143315858
 20
21.98800827
 10
-3.1061372429
 20
21.9938058779
 10
-3.0974987852
 20
21.9992702444
 10
-3.0884445215
 20
22.0043834606
 10
-3.0812528557
 20
22.0079984201
  0
LINE
  5
6EC
100
AcDbEntity
  8
ASSI
100
AcDbLine
 62
250
  6
CONTINUOUS
 10
3.653791075
 20
23.4301797403
 11
3.6748574782
 21
23.5
  0
LINE
  5
6ED
100
AcDbEntity
  8
CURVE
100
AcDbLine
 62
250
  6
CONTINUOUS
 10
-5.8857142746
 20
2.4285716057
 11
-6.0714285493
 21
2.3357141972
  0
LINE
  5
6EE
100
AcDbEntity
  8
CURVE
100
AcDbLine
 62
250
  6
CONTINUOUS
 10
-5.5000096118
 20
-4.1017899598
 11
-7.4999967961
 21
-4.1089497532
  0
LINE
  5
6EF
100
AcDbEntity
  8
CURVE
100
AcDbLine
 62
250
  6
CONTINUOUS
 10
-4.7571524583
 20
-4.95
 11
-4.2714381762
 21
-4.95
  0
LINE
  5
6F0
100
AcDbEntity
  8
CURVE
100
AcDbLine
 62
250
  6
CONTINUOUS
 10
-11.1040532787
 20
-4.80544429
 11
-11.1043522701
 21
-4.80544429
  0
LINE
  5
6F1
100
AcDbEntity
  8
RACCORDO
100
AcDbLine
 62
7
  6
CONTINUOUS
 10
-10.7130788782
 20
-4.65
 11
-9.8
 21
-4.65
  0
LINE
  5
6F2
100
AcDbEntity
  8
ASSI
100
AcDbLine
 62
7
  6
CONTINUOUS
 10
-10.7130788782
 20
-4.65
 11
-9.8
 21
-4.65
  0
LINE
  5
6F3
100
AcDbEntity
  8
CURVE
100
AcDbLine
 62
250
  6
CONTINUOUS
 10
-11.0558513472
 20
-4.2023806572
 11
-11.0331632188
 21
-4.2023806572
  0
LINE
  5
6F4
100
AcDbEntity
  8
CURVE
100
AcDbLine
 62
250
  6
CONTINUOUS
 10
-4.150009612
 20
-4.1
 11
-4.7571524583
 21
-4.1
  0
LINE
  5
6F5
100
AcDbEntity
  8
RACCORDO
100
AcDbLine
 62
7
  6
CONTINUOUS
 10
-10.7130788782
 20
-3.95
 11
-9.8
 21
-3.95
  0
LINE
  5
6F6
100
AcDbEntity
  8
ASSI
100
AcDbLine
 62
7
  6
CONTINUOUS
 10
-10.7130788782
 20
-3.95
 11
-9.8
 21
-3.95
  0
LINE
  5
6F7
100
AcDbEntity
  8
ASSI
100
AcDbLine
 62
250
  6
CONTINUOUS
 10
3.653791075
 20
-23.4301797403
 11
3.6748574782
 21
-23.5
  0
LINE
  5
6F8
100
AcDbEntity
  8
0
100
AcDbLine
 62
7
  6
CONTINUOUS
 10
-3.2328084818
 20
21.8931147544
 11
-3.2322130619
 21
21.8772367586
  0
LINE
  5
6F9
100
AcDbEntity
  8
0
100
AcDbLine
 62
250
  6
CONTINUOUS
 10
-3.1705494094
 20
21.8921572875
 11
-3.2153472641
 21
23.175
  0
LINE
  5
6FA
100
AcDbEntity
  8
0
100
AcDbLine
 62
250
  6
CONTINUOUS
 10
-2.9765077582
 20
22.2007145431
 11
-3.0154690987
 21
23.3164213562
  0
LINE
  5
6FB
100
AcDbEntity
  8
ASSI
100
AcDbLine
 62
7
  6
CONTINUOUS
 10
-1.9830904059
 20
-17.5
 11
-1.9912724675
 21
-17.25
  0
LINE
  5
6FC
100
AcDbEntity
  8
DRAFT
100
AcDbLine
 62
7
  6
CONTINUOUS
 10
-1.9830904059
 20
-17.5
 11
-1.9912724675
 21
-17.25
  0
LWPOLYLINE
  5
6FD
100
AcDbEntity
  8
0
100
AcDbPolyline
 62
250
  6
CONTINUOUS
 90
7
 70
0
 10
-3.1705494094
 20
21.2417754733
 10
-3.1701904831
 20
21.2301701344
 10
-3.1691573438
 20
21.2186040134
 10
-3.1674534829
 20
21.2071161944
 10
-3.1650846596
 20
21.195745503
 10
-3.1620588784
 20
21.1845303565
 10
-3.1597613947
 20
21.1776353042
  0
LINE
  5
6FE
100
AcDbEntity
  8
0
100
AcDbLine
 62
7
  6
CONTINUOUS
 10
-3.2322130619
 20
21.8772367586
 11
-3.2316879572
 21
21.8595300074
  0
LINE
  5
6FF
100
AcDbEntity
  8
0
100
AcDbLine
 62
7
  6
CONTINUOUS
 10
-3.2316879572
 20
21.8595300074
 11
-3.2312414323
 21
21.8403614621
  0
LINE
  5
700
100
AcDbEntity
  8
0
100
AcDbLine
 62
7
  6
CONTINUOUS
 10
-3.2312414323
 20
21.8403614621
 11
-3.230881115
 21
21.82027859
  0
LINE
  5
701
100
AcDbEntity
  8
0
100
AcDbLine
 62
7
  6
CONTINUOUS
 10
-3.230881115
 20
21.82027859
 11
-3.2305027658
 21
21.7904950429
  0
LINE
  5
702
100
AcDbEntity
  8
0
100
AcDbLine
 62
7
  6
CONTINUOUS
 10
-3.2305027658
 20
21.7904950429
 11
-3.2302485193
 21
21.7548235431
  0
LINE
  5
703
100
AcDbEntity
  8
0
100
AcDbLine
 62
7
  6
CONTINUOUS
 10
-3.230158461
 20
23.175
 11
-3.230158461
 21
22.5048155586
  0
LINE
  5
704
100
AcDbEntity
  8
0
100
AcDbLine
 62
7
  6
CONTINUOUS
 10
-3.2302485193
 20
21.7548235431
 11
-3.2301586136
 21
21.5826833361
  0
LINE
  5
705
100
AcDbEntity
  8
0
100
AcDbLine
 62
7
  6
CONTINUOUS
 10
-3.230158461
 20
-22.5048155586
 11
-3.230158461
 21
-23.175
  0
LINE
  5
706
100
AcDbEntity
  8
0
100
AcDbLine
 62
250
  6
CONTINUOUS
 10
-3.1705494094
 20
-21.8921572875
 11
-3.1705494094
 21
-21.2417754733
  0
LINE
  5
707
100
AcDbEntity
  8
0
100
AcDbLine
 62
250
  6
CONTINUOUS
 10
-3.1705494094
 20
21.2417754733
 11
-3.1705494094
 21
21.8921572875
  0
LINE
  5
708
100
AcDbEntity
  8
ASSI
100
AcDbLine
 62
7
  6
CONTINUOUS
 10
-3.0812528557
 20
22.2
 11
-3.0812528557
 21
21.1703266555
  0
LINE
  5
709
100
AcDbEntity
  8
0
100
AcDbLine
 62
7
  6
CONTINUOUS
 10
-3.0812528557
 20
22.2
 11
-3.0812528557
 21
21.1703266555
  0
LINE
  5
70A
100
AcDbEntity
  8
ASSI
100
AcDbLine
 62
7
  6
CONTINUOUS
 10
-3.0812528557
 20
-22.2
 11
-3.0812528557
 21
-21.1703266555
  0
LINE
  5
70B
100
AcDbEntity
  8
0
100
AcDbLine
 62
7
  6
CONTINUOUS
 10
-3.0812528557
 20
-22.2
 11
-3.0812528557
 21
-21.1703266555
  0
LINE
  5
70C
100
AcDbEntity
  8
0
100
AcDbLine
 62
250
  6
CONTINUOUS
 10
-3.0154690987
 20
-23.375
 11
-3.0154690987
 21
-23.3164213562
  0
LINE
  5
70D
100
AcDbEntity
  8
0
100
AcDbLine
 62
250
  6
CONTINUOUS
 10
-3.0154690987
 20
23.3164213562
 11
-3.0154690987
 21
23.375
  0
LINE
  5
70E
100
AcDbEntity
  8
0
100
AcDbLine
 62
7
  6
CONTINUOUS
 10
-2.5
 20
-18.3
 11
-2.5
 21
-16.6
  0
LINE
  5
70F
100
AcDbEntity
  8
ASSI
100
AcDbLine
 62
7
  6
CONTINUOUS
 10
-2.5
 20
-18.3
 11
-2.5
 21
-16.6
  0
LINE
  5
710
100
AcDbEntity
  8
0
100
AcDbLine
 62
7
  6
CONTINUOUS
 10
-2.5
 20
16.6
 11
-2.5
 21
18.3
  0
LINE
  5
711
100
AcDbEntity
  8
ASSI
100
AcDbLine
 62
7
  6
CONTINUOUS
 10
-2.5
 20
16.6
 11
-2.5
 21
18.3
  0
LINE
  5
712
100
AcDbEntity
  8
0
100
AcDbLine
 62
7
  6
CONTINUOUS
 10
-2.1
 20
18.2
 11
-2.1
 21
18.25
  0
LINE
  5
713
100
AcDbEntity
  8
ASSI
100
AcDbLine
 62
7
  6
CONTINUOUS
 10
-2.0
 20
18.25
 11
-2.0
 21
18.2
  0
LINE
  5
714
100
AcDbEntity
  8
DRAFT
100
AcDbLine
 62
7
  6
CONTINUOUS
 10
-2.0
 20
18.25
 11
-2.0
 21
18.2
  0
LINE
  5
715
100
AcDbEntity
  8
ASSI
100
AcDbLine
 62
7
  6
CONTINUOUS
 10
-2.0
 20
-17.25
 11
-2.0
 21
-17.5
  0
LINE
  5
716
100
AcDbEntity
  8
DRAFT
100
AcDbLine
 62
7
  6
CONTINUOUS
 10
-2.0
 20
-17.25
 11
-2.0
 21
-17.5
  0
LINE
  5
717
100
AcDbEntity
  8
RACCORDO
100
AcDbLine
 62
7
  6
CONTINUOUS
 10
-1.9825893107
 20
-18.3
 11
-1.9825893107
 21
-18.2
  0
LINE
  5
718
100
AcDbEntity
  8
ASSI
100
AcDbLine
 62
7
  6
CONTINUOUS
 10
-1.9825893107
 20
-18.3
 11
-1.9825893107
 21
-18.2
  0
LINE
  5
719
100
AcDbEntity
  8
ASSI
100
AcDbLine
 62
7
  6
CONTINUOUS
 10
-1.9650898701
 20
18.2
 11
-1.9650898701
 21
18.3
  0
LINE
  5
71A
100
AcDbEntity
  8
DRAFT
100
AcDbLine
 62
7
  6
CONTINUOUS
 10
-1.9650898701
 20
18.2
 11
-1.9650898701
 21
18.3
  0
LINE
  5
71B
100
AcDbEntity
  8
RACCORDO
100
AcDbLine
 62
7
  6
CONTINUOUS
 10
-1.9040044543
 20
18.2
 11
-1.9040044543
 21
18.3
  0
LINE
  5
71C
100
AcDbEntity
  8
ASSI
100
AcDbLine
 62
7
  6
CONTINUOUS
 10
-1.9040044543
 20
18.2
 11
-1.9040044543
 21
18.3
  0
LINE
  5
71D
100
AcDbEntity
  8
0
100
AcDbLine
 62
7
  6
CONTINUOUS
 10
-1.8
 20
16.6
 11
-1.8
 21
17.29
  0
LINE
  5
71E
100
AcDbEntity
  8
0
100
AcDbLine
 62
7
  6
CONTINUOUS
 10
-1.6
 20
17.5
 11
-1.6
 21
17.3
  0
LINE
  5
71F
100
AcDbEntity
  8
0
100
AcDbLine
 62
7
  6
CONTINUOUS
 10
-3.2301583439
 20
-21.5831972605
 11
-3.230258713
 21
-21.7570125814
  0
LINE
  5
720
100
AcDbEntity
  8
0
100
AcDbLine
 62
7
  6
CONTINUOUS
 10
-3.230258713
 20
-21.7570125814
 11
-3.2305217625
 21
-21.7924050148
  0
LINE
  5
721
100
AcDbEntity
  8
0
100
AcDbLine
 62
7
  6
CONTINUOUS
 10
-3.2305217625
 20
-21.7924050148
 11
-3.2308932145
 21
-21.8210773347
  0
LINE
  5
722
100
AcDbEntity
  8
0
100
AcDbLine
 62
7
  6
CONTINUOUS
 10
-3.2308932145
 20
-21.8210773347
 11
-3.2312409264
 21
-21.8403367906
  0
LINE
  5
723
100
AcDbEntity
  8
0
100
AcDbLine
 62
7
  6
CONTINUOUS
 10
-3.2312409264
 20
-21.8403367906
 11
-3.2316746145
 21
-21.8590264239
  0
LWPOLYLINE
  5
724
100
AcDbEntity
  8
0
100
AcDbPolyline
 62
250
  6
CONTINUOUS
 90
7
 70
0
 10
-3.1705494094
 20
-21.2417754733
 10
-3.1701906188
 20
-21.2301723929
 10
-3.1691578767
 20
-21.2186085024
 10
-3.1674546709
 20
-21.2071228632
 10
-3.1650867524
 20
-21.1957542655
 10
-3.1620621198
 20
-21.1845411184
 10
-3.1597615291
 20
-21.1776353168
  0
LINE
  5
725
100
AcDbEntity
  8
0
100
AcDbLine
 62
7
  6
CONTINUOUS
 10
-3.2316746145
 20
-21.8590264239
 11
-3.2321885457
 21
-21.8764932005
  0
LINE
  5
726
100
AcDbEntity
  8
0
100
AcDbLine
 62
250
  6
CONTINUOUS
 10
-3.2153472641
 20
-23.175
 11
-3.1705494094
 21
-21.8921572875
  0
LINE
  5
727
100
AcDbEntity
  8
0
100
AcDbLine
 62
250
  6
CONTINUOUS
 10
-3.0154690987
 20
-23.3164213562
 11
-2.9765077582
 21
-22.2007145431
  0
LWPOLYLINE
  5
728
100
AcDbEntity
  8
0
100
AcDbPolyline
 62
7
  6
CONTINUOUS
 90
14
 70
0
 10
-3.2321885457
 20
-21.8764932005
 10
-3.2327757803
 20
-21.8923380663
 10
-3.2330898019
 20
-21.8994034739
 10
-3.2334178617
 20
-21.9059268192
 10
-3.2337566113
 20
-21.911854619
 10
-3.2341060192
 20
-21.9171808296
 10
-3.2344661168
 20
-21.9219114946
 10
-3.2348336503
 20
-21.9260112617
 10
-3.2352092344
 20
-21.9294767007
 10
-3.2355922545
 20
-21.9323112418
 10
-3.2359776124
 20
-21.9344898224
 10
-3.2363636087
 20
-21.9360040885
 10
-3.2367519429
 20
-21.9368623942
 10
-3.2371426149
 20
-21.9370647395
  0
LWPOLYLINE
  5
729
100
AcDbEntity
  8
ASSI
100
AcDbPolyline
 62
7
  6
CONTINUOUS
 90
10
 70
0
 10
-5.1202192371
 20
-22.6298666026
 10
-5.1214359216
 20
-22.6386610598
 10
-5.1226124787
 20
-22.6474588494
 10
-5.1237488851
 20
-22.6562599696
 10
-5.1248460567
 20
-22.6650639052
 10
-5.125903032
 20
-22.6738711674
 10
-5.126916969
 20
-22.6826832939
 10
-5.1278869018
 20
-22.6915007959
 10
-5.1288137439
 20
-22.7003231576
 10
-5.1296974695
 20
-22.7091503762
  0
LWPOLYLINE
  5
72A
100
AcDbEntity
  8
DRAFT
100
AcDbPolyline
 62
7
  6
CONTINUOUS
 90
10
 70
0
 10
-5.1202192371
 20
-22.6298666026
 10
-5.1214359216
 20
-22.6386610598
 10
-5.1226124787
 20
-22.6474588494
 10
-5.1237488851
 20
-22.6562599696
 10
-5.1248460567
 20
-22.6650639052
 10
-5.125903032
 20
-22.6738711674
 10
-5.126916969
 20
-22.6826832939
 10
-5.1278869018
 20
-22.6915007959
 10
-5.1288137439
 20
-22.7003231576
 10
-5.1296974695
 20
-22.7091503762
  0
LINE
  5
72B
100
AcDbEntity
  8
ASSI
100
AcDbLine
 62
250
  6
CONTINUOUS
 10
4.2071270357
 20
23.2631073618
 11
4.2275426698
 21
23.3333596575
  0
LINE
  5
72C
100
AcDbEntity
  8
DRAFT
100
AcDbLine
 62
7
  6
CONTINUOUS
 10
-9.6238174026
 20
-20.8213883311
 11
-9.6325449351
 21
-20.8475922207
  0
LINE
  5
72D
100
AcDbEntity
  8
CURVE
100
AcDbLine
 62
250
  6
CONTINUOUS
 10
-6.0714285493
 20
1.4071425915
 11
-7.0
 21
1.1285716057
  0
LINE
  5
72E
100
AcDbEntity
  8
IMPORT_IGES
100
AcDbLine
 62
7
  6
CONTINUOUS
 10
4.456
 20
-3.2
 11
-0.644
 21
-3.2
  0
LINE
  5
72F
100
AcDbEntity
  8
CURVE
100
AcDbLine
 62
250
  6
CONTINUOUS
 10
-11.0461278642
 20
-2.9952386856
 11
-11.0331632188
 21
-2.9952386856
  0
LINE
  5
730
100
AcDbEntity
  8
CURVE
100
AcDbLine
 62
250
  6
CONTINUOUS
 10
8.9848264889
 20
-2.57
 11
9.5048264889
 21
-2.57
  0
LINE
  5
731
100
AcDbEntity
  8
CURVE
100
AcDbLine
 62
250
  6
CONTINUOUS
 10
10.196875
 20
-5.034375
 11
10.09375
 21
-5.0
  0
LINE
  5
732
100
AcDbEntity
  8
CURVE
100
AcDbLine
 62
250
  6
CONTINUOUS
 10
-6.814285706
 20
2.4285716057
 11
-7.0
 21
2.6142858028
  0
LINE
  5
733
100
AcDbEntity
  8
CURVE
100
AcDbLine
 62
250
  6
CONTINUOUS
 10
-6.814285706
 20
3.45
 11
-7.0
 21
3.6357141972
  0
LINE
  5
734
100
AcDbEntity
  8
CURVE
100
AcDbLine
 62
250
  6
CONTINUOUS
 10
-5.8857142746
 20
2.8928570986
 11
-5.7
 21
2.7071425915
  0
LINE
  5
735
100
AcDbEntity
  8
DRAFT
100
AcDbLine
 62
7
  6
CONTINUOUS
 10
-9.6325449351
 20
20.8475922207
 11
-9.6238174026
 21
20.8213883311
  0
LINE
  5
736
100
AcDbEntity
  8
ASSI
100
AcDbLine
 62
250
  6
CONTINUOUS
 10
4.2071270357
 20
-23.2631073618
 11
4.2275426698
 21
-23.3333596575
  0
LWPOLYLINE
  5
737
100
AcDbEntity
  8
ASSI
100
AcDbPolyline
 62
7
  6
CONTINUOUS
 90
10
 70
0
 10
-5.1202192371
 20
22.6298666026
 10
-5.1214359216
 20
22.6386610598
 10
-5.1226124787
 20
22.6474588494
 10
-5.1237488851
 20
22.6562599696
 10
-5.1248460567
 20
22.6650639052
 10
-5.125903032
 20
22.6738711674
 10
-5.126916969
 20
22.6826832939
 10
-5.1278869018
 20
22.6915007959
 10
-5.1288137439
 20
22.7003231576
 10
-5.1296974695
 20
22.7091503762
  0
LWPOLYLINE
  5
738
100
AcDbEntity
  8
DRAFT
100
AcDbPolyline
 62
7
  6
CONTINUOUS
 90
10
 70
0
 10
-5.1202192371
 20
22.6298666026
 10
-5.1214359216
 20
22.6386610598
 10
-5.1226124787
 20
22.6474588494
 10
-5.1237488851
 20
22.6562599696
 10
-5.1248460567
 20
22.6650639052
 10
-5.125903032
 20
22.6738711674
 10
-5.126916969
 20
22.6826832939
 10
-5.1278869018
 20
22.6915007959
 10
-5.1288137439
 20
22.7003231576
 10
-5.1296974695
 20
22.7091503762
  0
LINE
  5
739
100
AcDbEntity
  8
0
100
AcDbLine
 62
7
  6
CONTINUOUS
 10
-1.45
 20
-10.35
 11
-1.45
 21
11.15
  0
LINE
  5
73A
100
AcDbEntity
  8
ASSI
100
AcDbLine
 62
7
  6
CONTINUOUS
 10
-1.45
 20
-10.35
 11
-1.45
 21
11.15
  0
LINE
  5
73B
100
AcDbEntity
  8
IMPORT_IGES
100
AcDbLine
 62
7
  6
CONTINUOUS
 10
-1.044
 20
10.7
 11
-1.044
 21
-9.3
  0
LINE
  5
73C
100
AcDbEntity
  8
CURVE
100
AcDbLine
 62
250
  6
CONTINUOUS
 10
-1.0
 20
-15.592362
 11
-1.0
 21
-11.407638
  0
LINE
  5
73D
100
AcDbEntity
  8
IMPORT_IGES
100
AcDbLine
 62
7
  6
CONTINUOUS
 10
-0.644
 20
-8.2
 11
-0.644
 21
-5.4
  0
LINE
  5
73E
100
AcDbEntity
  8
IMPORT_IGES
100
AcDbLine
 62
7
  6
CONTINUOUS
 10
-0.644
 20
-3.2
 11
-0.644
 21
-0.4
  0
LINE
  5
73F
100
AcDbEntity
  8
IMPORT_IGES
100
AcDbLine
 62
7
  6
CONTINUOUS
 10
-0.644
 20
1.8
 11
-0.644
 21
4.6
  0
LINE
  5
740
100
AcDbEntity
  8
IMPORT_IGES
100
AcDbLine
 62
7
  6
CONTINUOUS
 10
-0.644
 20
6.8
 11
-0.644
 21
9.6
  0
LINE
  5
741
100
AcDbEntity
  8
IMPORT_IGES
100
AcDbLine
 62
7
  6
CONTINUOUS
 10
-0.344
 20
-9.3
 11
-0.344
 21
-9.9
  0
LINE
  5
742
100
AcDbEntity
  8
CURVE
100
AcDbLine
 62
250
  6
CONTINUOUS
 10
0.019012
 20
-11.407638
 11
0.019012
 21
-15.592362
  0
LINE
  5
743
100
AcDbEntity
  8
ASSI
100
AcDbLine
 62
7
  6
CONTINUOUS
 10
2.7167632191
 20
21.6560705017
 11
2.6175930356
 21
21.1271628567
  0
LINE
  5
744
100
AcDbEntity
  8
ASSI
100
AcDbLine
 62
7
  6
CONTINUOUS
 10
6.9069415429
 20
21.1271628567
 11
6.9339198284
 21
21.2
  0
LINE
  5
745
100
AcDbEntity
  8
CURVE
100
AcDbLine
 62
250
  6
CONTINUOUS
 10
-4.7571524583
 20
-4.1
 11
-5.000009612
 21
-4.3428571537
  0
LINE
  5
746
100
AcDbEntity
  8
CURVE
100
AcDbLine
 62
250
  6
CONTINUOUS
 10
9.9071428642
 20
5.4285713911
 11
10.0642857283
 21
5.5071429133
  0
LINE
  5
747
100
AcDbEntity
  8
CURVE
100
AcDbLine
 62
250
  6
CONTINUOUS
 10
10.85
 20
4.6428572178
 11
9.75
 21
4.3285713911
  0
LINE
  5
748
100
AcDbEntity
  8
CURVE
100
AcDbLine
 62
250
  6
CONTINUOUS
 10
10.85
 20
-1.1452379704
 11
9.75
 21
-1.1452379704
  0
LINE
  5
749
100
AcDbEntity
  8
CURVE
100
AcDbLine
 62
250
  6
CONTINUOUS
 10
-11.0803064384
 20
-0.775599
 11
-11.1309110053
 21
-0.775599
  0
LINE
  5
74A
100
AcDbEntity
  8
CURVE
100
AcDbLine
 62
250
  6
CONTINUOUS
 10
9.75
 20
-0.5952379704
 11
10.85
 21
-0.5952379704
  0
LINE
  5
74B
100
AcDbEntity
  8
CURVE
100
AcDbLine
 62
250
  6
CONTINUOUS
 10
-11.1209173076
 20
-0.410067
 11
-11.0803064384
 21
-0.410067
  0
LINE
  5
74C
100
AcDbEntity
  8
IMPORT_IGES
100
AcDbLine
 62
7
  6
CONTINUOUS
 10
-0.644
 20
-0.4
 11
4.456
 21
-0.4
  0
LINE
  5
74D
100
AcDbEntity
  8
CURVE
100
AcDbLine
 62
250
  6
CONTINUOUS
 10
10.5357143044
 20
-0.2809524059
 11
10.0642857283
 21
-0.2809524059
  0
LINE
  5
74E
100
AcDbEntity
  8
CURVE
100
AcDbLine
 62
250
  6
CONTINUOUS
 10
-7.0
 20
1.1285716057
 11
-5.7
 21
0.85
  0
LINE
  5
74F
100
AcDbEntity
  8
CURVE
100
AcDbLine
 62
250
  6
CONTINUOUS
 10
-7.0
 20
1.6857141972
 11
-6.0714285493
 21
1.4071425915
  0
LINE
  5
750
100
AcDbEntity
  8
CURVE
100
AcDbLine
 62
250
  6
CONTINUOUS
 10
10.678125
 20
-5.1375
 11
10.575
 21
-5.103125
  0
LINE
  5
751
100
AcDbEntity
  8
CURVE
100
AcDbLine
 62
250
  6
CONTINUOUS
 10
-6.628571412
 20
2.3357141972
 11
-6.814285706
 21
2.4285716057
  0
LINE
  5
752
100
AcDbEntity
  8
CURVE
100
AcDbLine
 62
250
  6
CONTINUOUS
 10
-6.0714285493
 20
2.9857141972
 11
-5.8857142746
 21
2.8928570986
  0
LINE
  5
753
100
AcDbEntity
  8
CURVE
100
AcDbLine
 62
250
  6
CONTINUOUS
 10
-6.628571412
 20
3.3571429014
 11
-6.814285706
 21
3.45
  0
LINE
  5
754
100
AcDbEntity
  8
CURVE
100
AcDbLine
 62
250
  6
CONTINUOUS
 10
-7.0
 20
5.0285712957
 11
-6.0714285493
 21
4.3785712957
  0
LINE
  5
755
100
AcDbEntity
  8
CURVE
100
AcDbLine
 62
250
  6
CONTINUOUS
 10
-5.8857142746
 20
3.9142858028
 11
-5.7
 21
3.7285712957
  0
LINE
  5
756
100
AcDbEntity
  8
CURVE
100
AcDbLine
 62
250
  6
CONTINUOUS
 10
-6.814285706
 20
6.4214285493
 11
-7.0
 21
6.6071429014
  0
LINE
  5
757
100
AcDbEntity
  8
ASSI
100
AcDbLine
 62
7
  6
CONTINUOUS
 10
6.9069415429
 20
-21.1271628567
 11
6.9339198284
 21
-21.2
  0
LINE
  5
758
100
AcDbEntity
  8
ASSI
100
AcDbLine
 62
7
  6
CONTINUOUS
 10
2.7167632191
 20
-21.6560705017
 11
2.6175930356
 21
-21.1271628567
  0
LINE
  5
759
100
AcDbEntity
  8
IMPORT_IGES
100
AcDbLine
 62
7
  6
CONTINUOUS
 10
1.556
 20
-8.2
 11
1.556
 21
-5.4
  0
LINE
  5
75A
100
AcDbEntity
  8
IMPORT_IGES
100
AcDbLine
 62
7
  6
CONTINUOUS
 10
1.556
 20
-3.2
 11
1.556
 21
-0.4
  0
LINE
  5
75B
100
AcDbEntity
  8
IMPORT_IGES
100
AcDbLine
 62
7
  6
CONTINUOUS
 10
1.556
 20
1.8
 11
1.556
 21
4.6
  0
LINE
  5
75C
100
AcDbEntity
  8
IMPORT_IGES
100
AcDbLine
 62
7
  6
CONTINUOUS
 10
1.556
 20
6.8
 11
1.556
 21
9.6
  0
LINE
  5
75D
100
AcDbEntity
  8
CURVE
100
AcDbLine
 62
250
  6
CONTINUOUS
 10
1.633036
 20
-12.899503
 11
1.633036
 21
-12.781883
  0
LINE
  5
75E
100
AcDbEntity
  8
CURVE
100
AcDbLine
 62
250
  6
CONTINUOUS
 10
1.829484
 20
-12.725174
 11
1.829484
 21
-14.071041
  0
LINE
  5
75F
100
AcDbEntity
  8
RACCORDO
100
AcDbLine
 62
7
  6
CONTINUOUS
 10
1.9040044543
 20
18.2
 11
1.9040044543
 21
18.3
  0
LINE
  5
760
100
AcDbEntity
  8
ASSI
100
AcDbLine
 62
7
  6
CONTINUOUS
 10
1.9040044543
 20
18.2
 11
1.9040044543
 21
18.3
  0
LINE
  5
761
100
AcDbEntity
  8
ASSI
100
AcDbLine
 62
7
  6
CONTINUOUS
 10
1.9650898701
 20
18.2
 11
1.9650898701
 21
18.3
  0
LINE
  5
762
100
AcDbEntity
  8
DRAFT
100
AcDbLine
 62
7
  6
CONTINUOUS
 10
1.9650898701
 20
18.2
 11
1.9650898701
 21
18.3
  0
LINE
  5
763
100
AcDbEntity
  8
ASSI
100
AcDbLine
 62
7
  6
CONTINUOUS
 10
-2.7167632191
 20
-21.6560705017
 11
-2.6175930356
 21
-21.1271628567
  0
LINE
  5
764
100
AcDbEntity
  8
ASSI
100
AcDbLine
 62
7
  6
CONTINUOUS
 10
-6.9069415429
 20
-21.1271628567
 11
-6.9339198284
 21
-21.2
  0
LINE
  5
765
100
AcDbEntity
  8
CURVE
100
AcDbLine
 62
250
  6
CONTINUOUS
 10
-4.2714381762
 20
-4.95
 11
-4.0285809972
 21
-4.7071428716
  0
LINE
  5
766
100
AcDbEntity
  8
CURVE
100
AcDbLine
 62
250
  6
CONTINUOUS
 10
9.4
 20
7.8214285553
 11
9.1285714447
 21
7.55
  0
LINE
  5
767
100
AcDbEntity
  8
CURVE
100
AcDbLine
 62
250
  6
CONTINUOUS
 10
10.6928571522
 20
5.0357143044
 11
10.5357143044
 21
4.9571429133
  0
LINE
  5
768
100
AcDbEntity
  8
CURVE
100
AcDbLine
 62
250
  6
CONTINUOUS
 10
9.4
 20
3.5
 11
7.5
 21
2.55
  0
LWPOLYLINE
  5
769
100
AcDbEntity
  8
CURVE
100
AcDbPolyline
 62
250
  6
CONTINUOUS
 90
15
 70
0
 10
-11.1163855343
 20
-4.9627200261
 10
-11.1161385844
 20
-4.9626240272
 10
-11.1158911839
 20
-4.9627858047
 10
-11.1156435697
 20
-4.9632257158
 10
-11.1153959788
 20
-4.9639641177
 10
-11.1151486484
 20
-4.9650213675
 10
-11.1149018153
 20
-4.9664178224
 10
-11.1146557167
 20
-4.9681738395
 10
-11.1144105896
 20
-4.9703097761
 10
-11.1141666708
 20
-4.9728459892
 10
-11.1139241976
 20
-4.9758028361
 10
-11.1136834069
 20
-4.9792006738
 10
-11.1134445358
 20
-4.9830598595
 10
-11.1132078212
 20
-4.9874007505
 10
-11.1130053587
 20
-4.9915493253
  0
LINE
  5
76A
100
AcDbEntity
  8
CURVE
100
AcDbLine
 62
250
  6
CONTINUOUS
 10
10.0642857283
 20
0.2690475941
 11
10.5357143044
 21
0.2690475941
  0
LINE
  5
76B
100
AcDbEntity
  8
RACCORDO
100
AcDbLine
 62
7
  6
CONTINUOUS
 10
-10.7130788782
 20
0.35
 11
-9.8
 21
0.35
  0
LINE
  5
76C
100
AcDbEntity
  8
ASSI
100
AcDbLine
 62
7
  6
CONTINUOUS
 10
-10.7130788782
 20
0.35
 11
-9.8
 21
0.35
  0
LINE
  5
76D
100
AcDbEntity
  8
CURVE
100
AcDbLine
 62
250
  6
CONTINUOUS
 10
9.9071428642
 20
0.5833331585
 11
10.2214285761
 21
0.5833331585
  0
LINE
  5
76E
100
AcDbEntity
  8
RACCORDO
100
AcDbLine
 62
7
  6
CONTINUOUS
 10
-10.7130788782
 20
1.05
 11
-9.8
 21
1.05
  0
LINE
  5
76F
100
AcDbEntity
  8
ASSI
100
AcDbLine
 62
7
  6
CONTINUOUS
 10
-10.7130788782
 20
1.05
 11
-9.8
 21
1.05
  0
LINE
  5
770
100
AcDbEntity
  8
CURVE
100
AcDbLine
 62
250
  6
CONTINUOUS
 10
10.3
 20
1.1333331585
 11
9.9071428642
 21
1.1333331585
  0
LINE
  5
771
100
AcDbEntity
  8
CURVE
100
AcDbLine
 62
250
  6
CONTINUOUS
 10
-11.089874118
 20
1.169952
 11
-11.1309110053
 21
1.169952
  0
LINE
  5
772
100
AcDbEntity
  8
CURVE
100
AcDbLine
 62
250
  6
CONTINUOUS
 10
-11.1309110053
 20
1.535513
 11
-11.0803064384
 21
1.535513
  0
LINE
  5
773
100
AcDbEntity
  8
IMPORT_IGES
100
AcDbLine
 62
7
  6
CONTINUOUS
 10
4.456
 20
1.8
 11
-0.644
 21
1.8
  0
LINE
  5
774
100
AcDbEntity
  8
CURVE
100
AcDbLine
 62
250
  6
CONTINUOUS
 10
-6.0714285493
 20
4.0071429014
 11
-5.8857142746
 21
3.9142858028
  0
LINE
  5
775
100
AcDbEntity
  8
CURVE
100
AcDbLine
 62
250
  6
CONTINUOUS
 10
-5.7
 20
4.8428570986
 11
-5.9785714507
 21
5.0285712957
  0
LINE
  5
776
100
AcDbEntity
  8
CURVE
100
AcDbLine
 62
250
  6
CONTINUOUS
 10
-5.8857142746
 20
6.8857142746
 11
-5.7
 21
6.7
  0
LINE
  5
777
100
AcDbEntity
  8
ASSI
100
AcDbLine
 62
7
  6
CONTINUOUS
 10
-6.9069415429
 20
21.1271628567
 11
-6.9339198284
 21
21.2
  0
LINE
  5
778
100
AcDbEntity
  8
ASSI
100
AcDbLine
 62
7
  6
CONTINUOUS
 10
-2.7167632191
 20
21.6560705017
 11
-2.6175930356
 21
21.1271628567
  0
LINE
  5
779
100
AcDbEntity
  8
0
100
AcDbLine
 62
7
  6
CONTINUOUS
 10
3.2328084818
 20
-21.8931147544
 11
3.2322130619
 21
-21.8772367586
  0
LINE
  5
77A
100
AcDbEntity
  8
0
100
AcDbLine
 62
250
  6
CONTINUOUS
 10
2.9765077582
 20
-22.2007145431
 11
3.0154690987
 21
-23.3164213562
  0
LINE
  5
77B
100
AcDbEntity
  8
0
100
AcDbLine
 62
250
  6
CONTINUOUS
 10
3.1705494094
 20
-21.8921572875
 11
3.2153472641
 21
-23.175
  0
LINE
  5
77C
100
AcDbEntity
  8
ASSI
100
AcDbLine
 62
7
  6
CONTINUOUS
 10
1.9912724675
 20
17.25
 11
1.9896360552
 21
17.3
  0
LINE
  5
77D
100
AcDbEntity
  8
DRAFT
100
AcDbLine
 62
7
  6
CONTINUOUS
 10
1.9912724675
 20
17.25
 11
1.9896360552
 21
17.3
  0
LWPOLYLINE
  5
77E
100
AcDbEntity
  8
0
100
AcDbPolyline
 62
250
  6
CONTINUOUS
 90
7
 70
0
 10
3.1705494094
 20
-21.2417754733
 10
3.1701904831
 20
-21.2301701344
 10
3.1691573438
 20
-21.2186040134
 10
3.1674534829
 20
-21.2071161944
 10
3.1650846596
 20
-21.195745503
 10
3.1620588784
 20
-21.1845303565
 10
3.1597613947
 20
-21.1776353042
  0
LINE
  5
77F
100
AcDbEntity
  8
0
100
AcDbLine
 62
7
  6
CONTINUOUS
 10
3.2322130619
 20
-21.8772367586
 11
3.2316879572
 21
-21.8595300074
  0
LINE
  5
780
100
AcDbEntity
  8
0
100
AcDbLine
 62
7
  6
CONTINUOUS
 10
3.2316879572
 20
-21.8595300074
 11
3.2312414323
 21
-21.8403614621
  0
LINE
  5
781
100
AcDbEntity
  8
0
100
AcDbLine
 62
7
  6
CONTINUOUS
 10
3.2312414323
 20
-21.8403614621
 11
3.230881115
 21
-21.82027859
  0
LINE
  5
782
100
AcDbEntity
  8
0
100
AcDbLine
 62
7
  6
CONTINUOUS
 10
3.2312414323
 20
21.4596385379
 11
3.230881115
 21
21.47972141
  0
LINE
  5
783
100
AcDbEntity
  8
0
100
AcDbLine
 62
7
  6
CONTINUOUS
 10
3.230881115
 20
-21.82027859
 11
3.2305027658
 21
-21.7904950429
  0
LINE
  5
784
100
AcDbEntity
  8
0
100
AcDbLine
 62
7
  6
CONTINUOUS
 10
3.230881115
 20
21.47972141
 11
3.2305027658
 21
21.5095049571
  0
LINE
  5
785
100
AcDbEntity
  8
0
100
AcDbLine
 62
7
  6
CONTINUOUS
 10
3.2305027658
 20
-21.7904950429
 11
3.2302485193
 21
-21.7548235431
  0
LINE
  5
786
100
AcDbEntity
  8
0
100
AcDbLine
 62
7
  6
CONTINUOUS
 10
3.2305027658
 20
21.5095049571
 11
3.2302485193
 21
21.5451764569
  0
LINE
  5
787
100
AcDbEntity
  8
RACCORDO
100
AcDbLine
 62
7
  6
CONTINUOUS
 10
1.9825893107
 20
-18.3
 11
1.9825893107
 21
-18.2
  0
LINE
  5
788
100
AcDbEntity
  8
ASSI
100
AcDbLine
 62
7
  6
CONTINUOUS
 10
1.9825893107
 20
-18.3
 11
1.9825893107
 21
-18.2
  0
LINE
  5
789
100
AcDbEntity
  8
ASSI
100
AcDbLine
 62
7
  6
CONTINUOUS
 10
2.0
 20
18.25
 11
2.0
 21
18.2
  0
LINE
  5
78A
100
AcDbEntity
  8
DRAFT
100
AcDbLine
 62
7
  6
CONTINUOUS
 10
2.0
 20
18.25
 11
2.0
 21
18.2
  0
LINE
  5
78B
100
AcDbEntity
  8
ASSI
100
AcDbLine
 62
7
  6
CONTINUOUS
 10
2.0
 20
17.3
 11
2.0
 21
17.25
  0
LINE
  5
78C
100
AcDbEntity
  8
DRAFT
100
AcDbLine
 62
7
  6
CONTINUOUS
 10
2.0
 20
17.3
 11
2.0
 21
17.25
  0
LINE
  5
78D
100
AcDbEntity
  8
ASSI
100
AcDbLine
 62
7
  6
CONTINUOUS
 10
2.0
 20
-17.25
 11
2.0
 21
-17.5
  0
LINE
  5
78E
100
AcDbEntity
  8
DRAFT
100
AcDbLine
 62
7
  6
CONTINUOUS
 10
2.0
 20
-17.25
 11
2.0
 21
-17.5
  0
LINE
  5
78F
100
AcDbEntity
  8
0
100
AcDbLine
 62
7
  6
CONTINUOUS
 10
2.1
 20
18.2
 11
2.1
 21
18.25
  0
LINE
  5
790
100
AcDbEntity
  8
0
100
AcDbLine
 62
7
  6
CONTINUOUS
 10
2.5
 20
18.3
 11
2.5
 21
16.6
  0
LINE
  5
791
100
AcDbEntity
  8
ASSI
100
AcDbLine
 62
7
  6
CONTINUOUS
 10
2.5
 20
18.3
 11
2.5
 21
16.6
  0
LINE
  5
792
100
AcDbEntity
  8
0
100
AcDbLine
 62
7
  6
CONTINUOUS
 10
2.5
 20
-16.6
 11
2.5
 21
-18.3
  0
LINE
  5
793
100
AcDbEntity
  8
ASSI
100
AcDbLine
 62
7
  6
CONTINUOUS
 10
2.5
 20
-16.6
 11
2.5
 21
-18.3
  0
LINE
  5
794
100
AcDbEntity
  8
0
100
AcDbLine
 62
250
  6
CONTINUOUS
 10
3.0154690987
 20
23.375
 11
3.0154690987
 21
23.3164213562
  0
LINE
  5
795
100
AcDbEntity
  8
0
100
AcDbLine
 62
250
  6
CONTINUOUS
 10
3.0154690987
 20
-23.3164213562
 11
3.0154690987
 21
-23.375
  0
LINE
  5
796
100
AcDbEntity
  8
ASSI
100
AcDbLine
 62
7
  6
CONTINUOUS
 10
3.0812528557
 20
22.2
 11
3.0812528557
 21
21.1703266555
  0
LINE
  5
797
100
AcDbEntity
  8
0
100
AcDbLine
 62
7
  6
CONTINUOUS
 10
3.0812528557
 20
22.2
 11
3.0812528557
 21
21.1703266555
  0
LINE
  5
798
100
AcDbEntity
  8
ASSI
100
AcDbLine
 62
7
  6
CONTINUOUS
 10
3.0812528557
 20
-22.2
 11
3.0812528557
 21
-21.1703266555
  0
LINE
  5
799
100
AcDbEntity
  8
0
100
AcDbLine
 62
7
  6
CONTINUOUS
 10
3.0812528557
 20
-22.2
 11
3.0812528557
 21
-21.1703266555
  0
LINE
  5
79A
100
AcDbEntity
  8
0
100
AcDbLine
 62
250
  6
CONTINUOUS
 10
3.1705494094
 20
21.8921572875
 11
3.1705494094
 21
21.2417754733
  0
LINE
  5
79B
100
AcDbEntity
  8
0
100
AcDbLine
 62
250
  6
CONTINUOUS
 10
3.1705494094
 20
-21.2417754733
 11
3.1705494094
 21
-21.8921572875
  0
LINE
  5
79C
100
AcDbEntity
  8
0
100
AcDbLine
 62
7
  6
CONTINUOUS
 10
3.230158461
 20
23.175
 11
3.230158461
 21
22.5048155586
  0
LINE
  5
79D
100
AcDbEntity
  8
0
100
AcDbLine
 62
7
  6
CONTINUOUS
 10
3.2301586136
 20
21.7173166639
 11
3.2302485193
 21
21.5451764569
  0
LINE
  5
79E
100
AcDbEntity
  8
0
100
AcDbLine
 62
7
  6
CONTINUOUS
 10
3.230158461
 20
-22.5048155586
 11
3.230158461
 21
-23.175
  0
LINE
  5
79F
100
AcDbEntity
  8
0
100
AcDbLine
 62
7
  6
CONTINUOUS
 10
3.3
 20
22.4
 11
3.3
 21
21.9098076211
  0
LINE
  5
7A0
100
AcDbEntity
  8
0
100
AcDbLine
 62
7
  6
CONTINUOUS
 10
3.3
 20
21.3901923789
 11
3.3
 21
21.190690632
  0
LINE
  5
7A1
100
AcDbEntity
  8
0
100
AcDbLine
 62
7
  6
CONTINUOUS
 10
3.3
 20
-21.190690632
 11
3.3
 21
-21.3901923789
  0
LINE
  5
7A2
100
AcDbEntity
  8
0
100
AcDbLine
 62
7
  6
CONTINUOUS
 10
3.3
 20
-21.9098076211
 11
3.3
 21
-22.4
  0
LINE
  5
7A3
100
AcDbEntity
  8
ASSI
100
AcDbLine
 62
7
  6
CONTINUOUS
 10
3.3633443637
 20
-22.5
 11
3.3633443637
 21
-23.4668353766
  0
LINE
  5
7A4
100
AcDbEntity
  8
ASSI
100
AcDbLine
 62
7
  6
CONTINUOUS
 10
3.3633443637
 20
22.5
 11
3.3633443637
 21
23.4668353766
  0
LINE
  5
7A5
100
AcDbEntity
  8
ASSI
100
AcDbLine
 62
7
  6
CONTINUOUS
 10
3.4
 20
23.4301797403
 11
3.4
 21
21.2
  0
LINE
  5
7A6
100
AcDbEntity
  8
ASSI
100
AcDbLine
 62
7
  6
CONTINUOUS
 10
3.4
 20
-23.4301797403
 11
3.4
 21
-21.2
  0
LINE
  5
7A7
100
AcDbEntity
  8
0
100
AcDbLine
 62
7
  6
CONTINUOUS
 10
3.2301586136
 20
21.7173166639
 11
3.230258713
 21
21.7570125814
  0
LINE
  5
7A8
100
AcDbEntity
  8
0
100
AcDbLine
 62
7
  6
CONTINUOUS
 10
3.2302485193
 20
-21.7548235431
 11
3.230258713
 21
-21.5429874186
  0
LINE
  5
7A9
100
AcDbEntity
  8
0
100
AcDbLine
 62
7
  6
CONTINUOUS
 10
3.230258713
 20
21.7570125814
 11
3.2305217625
 21
21.7924050148
  0
LINE
  5
7AA
100
AcDbEntity
  8
0
100
AcDbLine
 62
7
  6
CONTINUOUS
 10
3.230258713
 20
-21.5429874186
 11
3.2305217625
 21
-21.5075949852
  0
LINE
  5
7AB
100
AcDbEntity
  8
0
100
AcDbLine
 62
7
  6
CONTINUOUS
 10
3.2305217625
 20
21.7924050148
 11
3.2308932145
 21
21.8210773347
  0
LINE
  5
7AC
100
AcDbEntity
  8
0
100
AcDbLine
 62
7
  6
CONTINUOUS
 10
3.2305217625
 20
-21.5075949852
 11
3.2308932145
 21
-21.4789226653
  0
LINE
  5
7AD
100
AcDbEntity
  8
0
100
AcDbLine
 62
7
  6
CONTINUOUS
 10
3.2308932145
 20
21.8210773347
 11
3.2312409264
 21
21.8403367906
  0
LWPOLYLINE
  5
7AE
100
AcDbEntity
  8
0
100
AcDbPolyline
 62
7
  6
CONTINUOUS
 90
3
 70
0
 10
3.2308932145
 20
-21.4789226653
 10
3.2312409264
 20
-21.4596632094
 10
3.2314472814
 20
-21.4502468887
  0
LINE
  5
7AF
100
AcDbEntity
  8
0
100
AcDbLine
 62
7
  6
CONTINUOUS
 10
3.2312409264
 20
21.8403367906
 11
3.2316746145
 21
21.8590264239
  0
LWPOLYLINE
  5
7B0
100
AcDbEntity
  8
0
100
AcDbPolyline
 62
250
  6
CONTINUOUS
 90
7
 70
0
 10
3.1705494094
 20
21.2417754733
 10
3.1701906188
 20
21.2301723929
 10
3.1691578767
 20
21.2186085024
 10
3.1674546709
 20
21.2071228632
 10
3.1650867524
 20
21.1957542655
 10
3.1620621198
 20
21.1845411184
 10
3.1597615291
 20
21.1776353168
  0
LINE
  5
7B1
100
AcDbEntity
  8
0
100
AcDbLine
 62
7
  6
CONTINUOUS
 10
3.2316746145
 20
21.8590264239
 11
3.2321885457
 21
21.8764932005
  0
LINE
  5
7B2
100
AcDbEntity
  8
ASSI
100
AcDbLine
 62
7
  6
CONTINUOUS
 10
1.9830904059
 20
-17.5
 11
1.9912724675
 21
-17.25
  0
LINE
  5
7B3
100
AcDbEntity
  8
DRAFT
100
AcDbLine
 62
7
  6
CONTINUOUS
 10
1.9830904059
 20
-17.5
 11
1.9912724675
 21
-17.25
  0
LINE
  5
7B4
100
AcDbEntity
  8
0
100
AcDbLine
 62
250
  6
CONTINUOUS
 10
3.0154690987
 20
23.3164213562
 11
2.9765077582
 21
22.2007145431
  0
LINE
  5
7B5
100
AcDbEntity
  8
0
100
AcDbLine
 62
250
  6
CONTINUOUS
 10
3.2153472641
 20
23.175
 11
3.1705494094
 21
21.8921572875
  0
LWPOLYLINE
  5
7B6
100
AcDbEntity
  8
0
100
AcDbPolyline
 62
7
  6
CONTINUOUS
 90
14
 70
0
 10
3.2321885457
 20
21.8764932005
 10
3.2327757803
 20
21.8923380663
 10
3.2330898019
 20
21.8994034739
 10
3.2334178617
 20
21.9059268192
 10
3.2337566113
 20
21.911854619
 10
3.2341060192
 20
21.9171808296
 10
3.2344661168
 20
21.9219114946
 10
3.2348336503
 20
21.9260112617
 10
3.2352092344
 20
21.9294767007
 10
3.2355922545
 20
21.9323112418
 10
3.2359776124
 20
21.9344898224
 10
3.2363636087
 20
21.9360040885
 10
3.2367519429
 20
21.9368623942
 10
3.2371426149
 20
21.9370647395
  0
LWPOLYLINE
  5
7B7
100
AcDbEntity
  8
ASSI
100
AcDbPolyline
 62
7
  6
CONTINUOUS
 90
10
 70
0
 10
5.1202192371
 20
22.6298666026
 10
5.1214359216
 20
22.6386610598
 10
5.1226124787
 20
22.6474588494
 10
5.1237488851
 20
22.6562599696
 10
5.1248460567
 20
22.6650639052
 10
5.125903032
 20
22.6738711674
 10
5.126916969
 20
22.6826832939
 10
5.1278869018
 20
22.6915007959
 10
5.1288137439
 20
22.7003231576
 10
5.1296974695
 20
22.7091503762
  0
LWPOLYLINE
  5
7B8
100
AcDbEntity
  8
DRAFT
100
AcDbPolyline
 62
7
  6
CONTINUOUS
 90
10
 70
0
 10
5.1202192371
 20
22.6298666026
 10
5.1214359216
 20
22.6386610598
 10
5.1226124787
 20
22.6474588494
 10
5.1237488851
 20
22.6562599696
 10
5.1248460567
 20
22.6650639052
 10
5.125903032
 20
22.6738711674
 10
5.126916969
 20
22.6826832939
 10
5.1278869018
 20
22.6915007959
 10
5.1288137439
 20
22.7003231576
 10
5.1296974695
 20
22.7091503762
  0
LINE
  5
7B9
100
AcDbEntity
  8
ASSI
100
AcDbLine
 62
250
  6
CONTINUOUS
 10
-4.2275426698
 20
-23.3333596575
 11
-4.2071270357
 21
-23.2631073618
  0
LINE
  5
7BA
100
AcDbEntity
  8
ASSI
100
AcDbLine
 62
250
  6
CONTINUOUS
 10
-3.6748574782
 20
-23.5
 11
-3.653791075
 21
-23.4301797403
  0
LINE
  5
7BB
100
AcDbEntity
  8
DRAFT
100
AcDbLine
 62
7
  6
CONTINUOUS
 10
9.6325449351
 20
20.8475922207
 11
9.6238174026
 21
20.8213883311
  0
LINE
  5
7BC
100
AcDbEntity
  8
CURVE
100
AcDbLine
 62
250
  6
CONTINUOUS
 10
-3.7857238688
 20
-7.7428570271
 11
-3.9071524836
 21
-7.8642855406
  0
LINE
  5
7BD
100
AcDbEntity
  8
CURVE
100
AcDbLine
 62
250
  6
CONTINUOUS
 10
9.75
 20
5.2714286089
 11
9.9071428642
 21
5.4285713911
  0
LINE
  5
7BE
100
AcDbEntity
  8
CURVE
100
AcDbLine
 62
250
  6
CONTINUOUS
 10
10.6928571522
 20
5.8214286089
 11
10.85
 21
5.9785714567
  0
LINE
  5
7BF
100
AcDbEntity
  8
CURVE
100
AcDbLine
 62
250
  6
CONTINUOUS
 10
-5.7
 20
1.9642858028
 11
-7.0
 21
1.6857141972
  0
LINE
  5
7C0
100
AcDbEntity
  8
CURVE
100
AcDbLine
 62
250
  6
CONTINUOUS
 10
-6.0714285493
 20
2.3357141972
 11
-6.628571412
 21
2.3357141972
  0
LINE
  5
7C1
100
AcDbEntity
  8
CURVE
100
AcDbLine
 62
250
  6
CONTINUOUS
 10
-11.0803064384
 20
2.343691
 11
-11.1309110053
 21
2.343691
  0
LINE
  5
7C2
100
AcDbEntity
  8
CURVE
100
AcDbLine
 62
250
  6
CONTINUOUS
 10
7.5
 20
2.55
 11
9.4
 21
2.55
  0
LINE
  5
7C3
100
AcDbEntity
  8
CURVE
100
AcDbLine
 62
250
  6
CONTINUOUS
 10
-11.1034820774
 20
2.729569
 11
-11.0859763154
 21
2.729569
  0
LINE
  5
7C4
100
AcDbEntity
  8
CURVE
100
AcDbLine
 62
250
  6
CONTINUOUS
 10
-11.1252410935
 20
2.729569
 11
-11.1091524604
 21
2.729569
  0
LINE
  5
7C5
100
AcDbEntity
  8
CURVE
100
AcDbLine
 62
250
  6
CONTINUOUS
 10
-6.628571412
 20
2.9857141972
 11
-6.0714285493
 21
2.9857141972
  0
LINE
  5
7C6
100
AcDbEntity
  8
CURVE
100
AcDbLine
 62
250
  6
CONTINUOUS
 10
-6.0714285493
 20
3.3571429014
 11
-6.628571412
 21
3.3571429014
  0
LINE
  5
7C7
100
AcDbEntity
  8
CURVE
100
AcDbLine
 62
250
  6
CONTINUOUS
 10
7.5
 20
3.5
 11
9.4
 21
3.5
  0
LINE
  5
7C8
100
AcDbEntity
  8
CURVE
100
AcDbLine
 62
250
  6
CONTINUOUS
 10
-6.628571412
 20
6.3285714507
 11
-6.814285706
 21
6.4214285493
  0
LINE
  5
7C9
100
AcDbEntity
  8
CURVE
100
AcDbLine
 62
250
  6
CONTINUOUS
 10
-6.0714285493
 20
6.9785714507
 11
-5.8857142746
 21
6.8857142746
  0
LINE
  5
7CA
100
AcDbEntity
  8
CURVE
100
AcDbLine
 62
250
  6
CONTINUOUS
 10
7.53
 20
-1.429833395
 11
9.5048264889
 21
-2.57
  0
LINE
  5
7CB
100
AcDbEntity
  8
CURVE
100
AcDbLine
 62
250
  6
CONTINUOUS
 10
-5.7
 20
7.814285706
 11
-5.9785714507
 21
8.0
  0
LINE
  5
7CC
100
AcDbEntity
  8
CURVE
100
AcDbLine
 62
250
  6
CONTINUOUS
 10
-7.0
 20
8.0
 11
-6.0714285493
 21
7.35
  0
LINE
  5
7CD
100
AcDbEntity
  8
CURVE
100
AcDbLine
 62
250
  6
CONTINUOUS
 10
9.853125
 20
-5.61875
 11
9.921875
 21
-5.6875
  0
LINE
  5
7CE
100
AcDbEntity
  8
CURVE
100
AcDbLine
 62
250
  6
CONTINUOUS
 10
-7.3485281374
 20
12.4485281374
 11
-7.5606601718
 21
12.6606601718
  0
LINE
  5
7CF
100
AcDbEntity
  8
CURVE
100
AcDbLine
 62
250
  6
CONTINUOUS
 10
10.265625
 20
-5.103125
 11
10.196875
 21
-5.034375
  0
LINE
  5
7D0
100
AcDbEntity
  8
DRAFT
100
AcDbLine
 62
7
  6
CONTINUOUS
 10
9.6238174026
 20
-20.8213883311
 11
9.6325449351
 21
-20.8475922207
  0
LINE
  5
7D1
100
AcDbEntity
  8
ASSI
100
AcDbLine
 62
250
  6
CONTINUOUS
 10
-3.6748574782
 20
23.5
 11
-3.653791075
 21
23.4301797403
  0
LINE
  5
7D2
100
AcDbEntity
  8
ASSI
100
AcDbLine
 62
250
  6
CONTINUOUS
 10
-4.2275426698
 20
23.3333596575
 11
-4.2071270357
 21
23.2631073618
  0
LWPOLYLINE
  5
7D3
100
AcDbEntity
  8
ASSI
100
AcDbPolyline
 62
7
  6
CONTINUOUS
 90
10
 70
0
 10
5.1202192371
 20
-22.6298666026
 10
5.1214359216
 20
-22.6386610598
 10
5.1226124787
 20
-22.6474588494
 10
5.1237488851
 20
-22.6562599696
 10
5.1248460567
 20
-22.6650639052
 10
5.125903032
 20
-22.6738711674
 10
5.126916969
 20
-22.6826832939
 10
5.1278869018
 20
-22.6915007959
 10
5.1288137439
 20
-22.7003231576
 10
5.1296974695
 20
-22.7091503762
  0
LWPOLYLINE
  5
7D4
100
AcDbEntity
  8
DRAFT
100
AcDbPolyline
 62
7
  6
CONTINUOUS
 90
10
 70
0
 10
5.1202192371
 20
-22.6298666026
 10
5.1214359216
 20
-22.6386610598
 10
5.1226124787
 20
-22.6474588494
 10
5.1237488851
 20
-22.6562599696
 10
5.1248460567
 20
-22.6650639052
 10
5.125903032
 20
-22.6738711674
 10
5.126916969
 20
-22.6826832939
 10
5.1278869018
 20
-22.6915007959
 10
5.1288137439
 20
-22.7003231576
 10
5.1296974695
 20
-22.7091503762
  0
LWPOLYLINE
  5
7D5
100
AcDbEntity
  8
0
100
AcDbPolyline
 62
250
  6
CONTINUOUS
 90
18
 70
0
 10
3.1705494094
 20
21.8921572875
 10
3.1699393744
 20
21.9002538516
 10
3.1686760548
 20
21.9083238834
 10
3.1667635895
 20
21.9163409259
 10
3.1642082473
 20
21.9242786905
 10
3.161018402
 20
21.9321111585
 10
3.1572045007
 20
21.9398126657
 10
3.1527790344
 20
21.947357972
 10
3.1477565105
 20
21.9547223276
 10
3.1421534032
 20
21.9618815701
 10
3.1359880845
 20
21.968812223
 10
3.1292807625
 20
21.9754915676
 10
3.1220534283
 20
21.9818977025
 10
3.1143297631
 20
21.9880096337
 10
3.1061350994
 20
21.9938073119
 10
3.0974963496
 20
21.9992717005
 10
3.0884418844
 20
22.0043848663
 10
3.0812528557
 20
22.0079983771
  0
LWPOLYLINE
  5
7D6
100
AcDbEntity
  8
0
100
AcDbPolyline
 62
250
  6
CONTINUOUS
 90
28
 70
0
 10
3.2153472641
 20
23.175
 10
3.2147372556
 20
23.1830963351
 10
3.2134740017
 20
23.1911661287
 10
3.2115616436
 20
23.1991829261
 10
3.2090064561
 20
23.2071204309
 10
3.2058168125
 20
23.2149526382
 10
3.2020031448
 20
23.2226539174
 10
3.197577925
 20
23.2301990496
 10
3.1925556639
 20
23.2375632649
 10
3.1869528528
 20
23.244722373
 10
3.1807878764
 20
23.2516528873
 10
3.174080933
 20
23.2583321054
 10
3.1668540021
 20
23.2647381382
 10
3.1591307709
 20
23.270849987
 10
3.1509365613
 20
23.2766476111
 10
3.1422982388
 20
23.282112001
 10
3.1332441206
 20
23.2872252432
 10
3.1238038906
 20
23.2919705732
 10
3.1140085065
 20
23.2963324295
 10
3.1038900873
 20
23.3002965111
 10
3.0934817999
 20
23.3038498255
 10
3.0828177602
 20
23.3069807264
 10
3.0719327646
 20
23.3096789864
 10
3.0608626562
 20
23.3119357097
 10
3.0496442254
 20
23.313743428
 10
3.0383144325
 20
23.3150962584
 10
3.0269102621
 20
23.3159898571
 10
3.0154690987
 20
23.3164213562
  0
LINE
  5
7D7
100
AcDbEntity
  8
ASSI
100
AcDbLine
 62
7
  6
CONTINUOUS
 10
4.8059268116
 20
-19.6130903017
 11
4.8419262234
 21
-20.3
  0
LINE
  5
7D8
100
AcDbEntity
  8
0
100
AcDbLine
 62
7
  6
CONTINUOUS
 10
4.8059268116
 20
-19.6130903017
 11
4.8419262234
 21
-20.3
  0
LWPOLYLINE
  5
7D9
100
AcDbEntity
  8
CURVE
100
AcDbPolyline
 62
250
  6
CONTINUOUS
 90
57
 70
0
 10
5.6271163321
 20
-13.3430726704
 10
5.6254410184
 20
-13.3056019211
 10
5.6231067644
 20
-13.2680536133
 10
5.6201265515
 20
-13.2304820334
 10
5.6165133616
 20
-13.1929414676
 10
5.6122801764
 20
-13.155486202
 10
5.6074399776
 20
-13.1181705228
 10
5.6020057468
 20
-13.0810487164
 10
5.5959904659
 20
-13.0441750688
 10
5.5894071164
 20
-13.0076038664
 10
5.5822686802
 20
-12.9713893953
 10
5.577390825
 20
-12.9483427971
 10
5.5722459936
 20
-12.9254360402
 10
5.5667907004
 20
-12.9026395177
 10
5.5609814601
 20
-12.8799236227
 10
5.5547747871
 20
-12.8572587486
 10
5.5481271961
 20
-12.8346152884
 10
5.5409952015
 20
-12.8119636353
 10
5.5333353178
 20
-12.7892741825
 10
5.5251040598
 20
-12.7665173232
 10
5.5162579418
 20
-12.7436634507
 10
5.5067534784
 20
-12.720682958
 10
5.4965471841
 20
-12.6975462383
 10
5.4855955736
 20
-12.6742236849
 10
5.4798068852
 20
-12.6624465914
 10
5.4738199318
 20
-12.6506401302
 10
5.4676350469
 20
-12.6388291758
 10
5.4612525641
 20
-12.6270386026
 10
5.454672817
 20
-12.6152932849
 10
5.4478961391
 20
-12.6036180971
 10
5.4409228639
 20
-12.5920379136
 10
5.4337533251
 20
-12.5805776088
 10
5.4263878562
 20
-12.5692620572
 10
5.4188267908
 20
-12.558116133
 10
5.4110704624
 20
-12.5471647107
 10
5.4031192046
 20
-12.5364326646
 10
5.394973351
 20
-12.5259448692
 10
5.3866332351
 20
-12.5157261988
 10
5.3780991905
 20
-12.5058015279
 10
5.3693715507
 20
-12.4961957308
 10
5.3604506494
 20
-12.4869336819
 10
5.3513368201
 20
-12.4780402556
 10
5.3420303964
 20
-12.4695403262
 10
5.3325317117
 20
-12.4614587683
 10
5.3228410998
 20
-12.4538204561
 10
5.3129588941
 20
-12.446650264
 10
5.3028854282
 20
-12.4399730665
 10
5.2926210357
 20
-12.433813738
 10
5.2821660502
 20
-12.4281971527
 10
5.2715208051
 20
-12.4231481852
 10
5.2606856341
 20
-12.4186917098
 10
5.2496608708
 20
-12.4148526008
 10
5.2384468487
 20
-12.4116557327
 10
5.2270439013
 20
-12.4091259799
 10
5.2154523623
 20
-12.4072882168
 10
5.2036725652
 20
-12.4061673176
 10
5.1917048435
 20
-12.405788157
  0
LINE
  5
7DA
100
AcDbEntity
  8
0
100
AcDbLine
 62
7
  6
CONTINUOUS
 10
3.2328084818
 20
21.4068852456
 11
3.2322130619
 21
21.4227632414
  0
LWPOLYLINE
  5
7DB
100
AcDbEntity
  8
0
100
AcDbPolyline
 62
250
  6
CONTINUOUS
 90
28
 70
0
 10
3.2153472641
 20
23.175
 10
3.2150090758
 20
23.1866294132
 10
3.2139956539
 20
23.1982194859
 10
3.2123104256
 20
23.2097309976
 10
3.2099590927
 20
23.2211249875
 10
3.2069496093
 20
23.2323629045
 10
3.2032921508
 20
23.2434067365
 10
3.1989990826
 20
23.254219124
 10
3.1940849321
 20
23.2647634607
 10
3.1885663379
 20
23.2750040374
 10
3.182461982
 20
23.2849061886
 10
3.1757925153
 20
23.2944364164
 10
3.1685805008
 20
23.3035624775
 10
3.1608503227
 20
23.3122535084
 10
3.1526281558
 20
23.3204800736
 10
3.1439418813
 20
23.3282142833
 10
3.1348209519
 20
23.3354299351
 10
3.1252961933
 20
23.3421026636
 10
3.1153997435
 20
23.348209955
 10
3.1051649689
 20
23.3537311945
 10
3.0946266108
 20
23.358647617
 10
3.0838205937
 20
23.3629424803
 10
3.0727832719
 20
23.3666013563
 10
3.0615522262
 20
23.3696118076
 10
3.0501664509
 20
23.3719635135
 10
3.0386648379
 20
23.3736486888
 10
3.0270859964
 20
23.3746619221
 10
3.0154690987
 20
23.375
  0
LINE
  5
7DC
100
AcDbEntity
  8
0
100
AcDbLine
 62
7
  6
CONTINUOUS
 10
3.2322130619
 20
21.4227632414
 11
3.2316879572
 21
21.4404699926
  0
LINE
  5
7DD
100
AcDbEntity
  8
0
100
AcDbLine
 62
7
  6
CONTINUOUS
 10
3.2316879572
 20
21.4404699926
 11
3.2312414323
 21
21.4596385379
  0
LINE
  5
7DE
100
AcDbEntity
  8
CURVE
100
AcDbLine
 62
250
  6
CONTINUOUS
 10
4.148279
 20
-14.11141
 11
4.148279
 21
-13.28807
  0
LINE
  5
7DF
100
AcDbEntity
  8
CURVE
100
AcDbLine
 62
250
  6
CONTINUOUS
 10
4.363915
 20
-13.28807
 11
4.363915
 21
-14.11141
  0
LINE
  5
7E0
100
AcDbEntity
  8
IMPORT_IGES
100
AcDbLine
 62
7
  6
CONTINUOUS
 10
4.456
 20
9.6
 11
4.456
 21
6.8
  0
LINE
  5
7E1
100
AcDbEntity
  8
IMPORT_IGES
100
AcDbLine
 62
7
  6
CONTINUOUS
 10
4.456
 20
4.6
 11
4.456
 21
1.8
  0
LINE
  5
7E2
100
AcDbEntity
  8
IMPORT_IGES
100
AcDbLine
 62
7
  6
CONTINUOUS
 10
4.456
 20
-0.4
 11
4.456
 21
-3.2
  0
LINE
  5
7E3
100
AcDbEntity
  8
IMPORT_IGES
100
AcDbLine
 62
7
  6
CONTINUOUS
 10
4.456
 20
-5.4
 11
4.456
 21
-8.2
  0
LINE
  5
7E4
100
AcDbEntity
  8
CURVE
100
AcDbLine
 62
250
  6
CONTINUOUS
 10
4.456331
 20
-14.917947
 11
4.456331
 21
-14.567887
  0
LINE
  5
7E5
100
AcDbEntity
  8
CURVE
100
AcDbLine
 62
250
  6
CONTINUOUS
 10
4.828795
 20
-14.567887
 11
4.828795
 21
-14.917947
  0
LINE
  5
7E6
100
AcDbEntity
  8
ASSI
100
AcDbLine
 62
7
  6
CONTINUOUS
 10
4.8419262234
 20
20.3
 11
4.8419262234
 21
19.6130903017
  0
LINE
  5
7E7
100
AcDbEntity
  8
0
100
AcDbLine
 62
7
  6
CONTINUOUS
 10
4.8419262234
 20
20.3
 11
4.8419262234
 21
19.6130903017
  0
LINE
  5
7E8
100
AcDbEntity
  8
ASSI
100
AcDbLine
 62
7
  6
CONTINUOUS
 10
4.8419262234
 20
-19.6130903017
 11
4.8419262234
 21
-20.3
  0
LINE
  5
7E9
100
AcDbEntity
  8
0
100
AcDbLine
 62
7
  6
CONTINUOUS
 10
4.8419262234
 20
-19.6130903017
 11
4.8419262234
 21
-20.3
  0
LINE
  5
7EA
100
AcDbEntity
  8
CURVE
100
AcDbLine
 62
250
  6
CONTINUOUS
 10
5.191705
 20
-12.190027
 11
5.191705
 21
-14.627934
  0
LINE
  5
7EB
100
AcDbEntity
  8
IMPORT_IGES
100
AcDbLine
 62
7
  6
CONTINUOUS
 10
5.206
 20
10.91
 11
5.206
 21
11.15
  0
LINE
  5
7EC
100
AcDbEntity
  8
0
100
AcDbLine
 62
7
  6
CONTINUOUS
 10
3.2314472814
 20
-21.4502468887
 11
3.2319212941
 21
-21.4320570468
  0
LWPOLYLINE
  5
7ED
100
AcDbEntity
  8
0
100
AcDbPolyline
 62
250
  6
CONTINUOUS
 90
28
 70
0
 10
3.2153472641
 20
-23.175
 10
3.2150090855
 20
-23.1866292474
 10
3.213995694
 20
-23.1982191432
 10
3.2123105187
 20
-23.209730469
 10
3.209959264
 20
-23.2211242645
 10
3.2069498851
 20
-23.2323619827
 10
3.2032925572
 20
-23.2434056193
 10
3.1989996452
 20
-23.2542178192
 10
3.194085677
 20
-23.2647619765
 10
3.1885672924
 20
-23.2750023833
 10
3.1824631726
 20
-23.2849043774
 10
3.1757939687
 20
-23.2944344631
 10
3.1685822453
 20
-23.3035603973
 10
3.1608524059
 20
-23.312251299
 10
3.1526306075
 20
-23.3204777593
 10
3.1439446666
 20
-23.328211945
 10
3.1348239611
 20
-23.3354276937
 10
3.1252993661
 20
-23.3421005757
 10
3.1154031503
 20
-23.3482079871
 10
3.1051688298
 20
-23.3537292545
 10
3.0946310155
 20
-23.3586457161
 10
3.0838253318
 20
-23.362940755
 10
3.0727880487
 20
-23.3665999256
 10
3.0615567984
 20
-23.3696107235
 10
3.0501704569
 20
-23.3719628069
 10
3.0386678728
 20
-23.373648334
 10
3.0270876932
 20
-23.3746618232
 10
3.0154690987
 20
-23.375
  0
LWPOLYLINE
  5
7EE
100
AcDbEntity
  8
0
100
AcDbPolyline
 62
7
  6
CONTINUOUS
 90
15
 70
0
 10
3.2319212941
 20
-21.4320570468
 10
3.2324751439
 20
-21.4153133355
 10
3.2327757803
 20
-21.4076619337
 10
3.2330898019
 20
-21.4005965261
 10
3.2334178617
 20
-21.3940731808
 10
3.2337566113
 20
-21.388145381
 10
3.2341060192
 20
-21.3828191704
 10
3.2344661168
 20
-21.3780885054
 10
3.2348336503
 20
-21.3739887383
 10
3.2352092344
 20
-21.3705232993
 10
3.2355922545
 20
-21.3676887582
 10
3.2359776124
 20
-21.3655101776
 10
3.2363636087
 20
-21.3639959115
 10
3.2367519429
 20
-21.3631376058
 10
3.2371426149
 20
-21.3629352605
  0
LINE
  5
7EF
100
AcDbEntity
  8
ASSI
100
AcDbLine
 62
7
  6
CONTINUOUS
 10
4.8059268116
 20
19.6130903017
 11
4.8419262234
 21
20.3
  0
LINE
  5
7F0
100
AcDbEntity
  8
0
100
AcDbLine
 62
7
  6
CONTINUOUS
 10
4.8059268116
 20
19.6130903017
 11
4.8419262234
 21
20.3
  0
LWPOLYLINE
  5
7F1
100
AcDbEntity
  8
0
100
AcDbPolyline
 62
250
  6
CONTINUOUS
 90
18
 70
0
 10
3.1705494094
 20
-21.8921572875
 10
3.1699393843
 20
-21.900253766
 10
3.1686760907
 20
-21.9083237015
 10
3.1667636701
 20
-21.916340638
 10
3.1642083949
 20
-21.9242782854
 10
3.1610186406
 20
-21.9321106294
 10
3.1572048518
 20
-21.9398120161
 10
3.1527795156
 20
-21.9473572125
 10
3.1477571422
 20
-21.9547214641
 10
3.1421542122
 20
-21.9618806016
 10
3.135989104
 20
-21.9688111451
 10
3.1292820227
 20
-21.9754903842
 10
3.1220549526
 20
-21.9818964262
 10
3.1143315858
 20
-21.98800827
 10
3.1061372429
 20
-21.9938058779
 10
3.0974987852
 20
-21.9992702444
 10
3.0884445215
 20
-22.0043834606
 10
3.0812528557
 20
-22.0079984201
  0
LWPOLYLINE
  5
7F2
100
AcDbEntity
  8
0
100
AcDbPolyline
 62
250
  6
CONTINUOUS
 90
28
 70
0
 10
3.2153472641
 20
-23.175
 10
3.2147372557
 20
-23.1830963341
 10
3.2134739981
 20
-23.1911661471
 10
3.2115616274
 20
-23.1991829839
 10
3.2090064109
 20
-23.207120555
 10
3.2058167188
 20
-23.2149528461
 10
3.2020029908
 20
-23.2226542025
 10
3.1975777117
 20
-23.2301993862
 10
3.192555385
 20
-23.2375636461
 10
3.1869524773
 20
-23.2447228226
 10
3.1807873466
 20
-23.2516534474
 10
3.1740802029
 20
-23.258332791
 10
3.1668530606
 20
-23.2647389266
 10
3.1591296224
 20
-23.2708508464
 10
3.1509352031
 20
-23.2766485197
 10
3.1422966787
 20
-23.2821129337
 10
3.1332423903
 20
-23.2872261656
 10
3.1238020072
 20
-23.2919714649
 10
3.1140064335
 20
-23.2963332962
 10
3.1038877159
 20
-23.3002973795
 10
3.093479086
 20
-23.3038506864
 10
3.0828148165
 20
-23.3069815226
 10
3.0719297228
 20
-23.3096796729
 10
3.0608596464
 20
-23.3119362586
 10
3.0496415187
 20
-23.3137438074
 10
3.0383123517
 20
-23.315096464
 10
3.0269090852
 20
-23.3159899253
 10
3.0154690987
 20
-23.3164213562
  0
LINE
  5
7F3
100
AcDbEntity
  8
CURVE
100
AcDbLine
 62
250
  6
CONTINUOUS
 10
-3.7857238688
 20
-9.3214285135
 11
-3.9071524836
 21
-9.4428570271
  0
LINE
  5
7F4
100
AcDbEntity
  8
CURVE
100
AcDbLine
 62
250
  6
CONTINUOUS
 10
10.85
 20
5.1928570867
 11
10.6928571522
 21
5.0357143044
  0
LINE
  5
7F5
100
AcDbEntity
  8
CURVE
100
AcDbLine
 62
250
  6
CONTINUOUS
 10
9.9071428642
 20
0.1904759407
 11
10.0642857283
 21
0.2690475941
  0
LINE
  5
7F6
100
AcDbEntity
  8
CURVE
100
AcDbLine
 62
250
  6
CONTINUOUS
 10
10.6928571522
 20
-0.2023807526
 11
10.5357143044
 21
-0.2809524059
  0
LINE
  5
7F7
100
AcDbEntity
  8
CURVE
100
AcDbLine
 62
250
  6
CONTINUOUS
 10
-11.0426373827
 20
3.8
 11
-11.0568486281
 21
3.8
  0
LINE
  5
7F8
100
AcDbEntity
  8
CURVE
100
AcDbLine
 62
250
  6
CONTINUOUS
 10
-6.628571412
 20
4.0071429014
 11
-6.0714285493
 21
4.0071429014
  0
LINE
  5
7F9
100
AcDbEntity
  8
CURVE
100
AcDbLine
 62
250
  6
CONTINUOUS
 10
-11.1091524604
 20
4.236429
 11
-11.1034820774
 21
4.236429
  0
LINE
  5
7FA
100
AcDbEntity
  8
CURVE
100
AcDbLine
 62
250
  6
CONTINUOUS
 10
-11.1309110053
 20
4.346096
 11
-11.1252410935
 21
4.346096
  0
LINE
  5
7FB
100
AcDbEntity
  8
CURVE
100
AcDbLine
 62
250
  6
CONTINUOUS
 10
-11.0859763154
 20
4.358275
 11
-11.0803064384
 21
4.358275
  0
LINE
  5
7FC
100
AcDbEntity
  8
CURVE
100
AcDbLine
 62
250
  6
CONTINUOUS
 10
-6.0714285493
 20
4.3785712957
 11
-5.8857142746
 21
4.3785712957
  0
LINE
  5
7FD
100
AcDbEntity
  8
IMPORT_IGES
100
AcDbLine
 62
7
  6
CONTINUOUS
 10
-0.644
 20
4.6
 11
4.456
 21
4.6
  0
LINE
  5
7FE
100
AcDbEntity
  8
CURVE
100
AcDbLine
 62
250
  6
CONTINUOUS
 10
-11.0568486281
 20
4.75
 11
-11.0426373827
 21
4.75
  0
LINE
  5
7FF
100
AcDbEntity
  8
CURVE
100
AcDbLine
 62
250
  6
CONTINUOUS
 10
10.5357143044
 20
4.9571429133
 11
10.0642857283
 21
4.9571429133
  0
LINE
  5
800
100
AcDbEntity
  8
CURVE
100
AcDbLine
 62
250
  6
CONTINUOUS
 10
-11.0615857096
 20
5.2928571105
 11
-11.0521115466
 21
5.2928571105
  0
LINE
  5
801
100
AcDbEntity
  8
RACCORDO
100
AcDbLine
 62
7
  6
CONTINUOUS
 10
-10.7130788782
 20
5.35
 11
-9.8
 21
5.35
  0
LINE
  5
802
100
AcDbEntity
  8
ASSI
100
AcDbLine
 62
7
  6
CONTINUOUS
 10
-10.7130788782
 20
5.35
 11
-9.8
 21
5.35
  0
LINE
  5
803
100
AcDbEntity
  8
CURVE
100
AcDbLine
 62
250
  6
CONTINUOUS
 10
10.0642857283
 20
-0.2809524059
 11
9.9071428642
 21
-0.2023807526
  0
LINE
  5
804
100
AcDbEntity
  8
CURVE
100
AcDbLine
 62
250
  6
CONTINUOUS
 10
10.5357143044
 20
0.2690475941
 11
10.6928571522
 21
0.1904759407
  0
LINE
  5
805
100
AcDbEntity
  8
CURVE
100
AcDbLine
 62
250
  6
CONTINUOUS
 10
10.5357143044
 20
-1.9309518814
 11
9.75
 21
-1.4595240593
  0
LINE
  5
806
100
AcDbEntity
  8
CURVE
100
AcDbLine
 62
250
  6
CONTINUOUS
 10
10.746875
 20
-5.20625
 11
10.678125
 21
-5.1375
  0
LINE
  5
807
100
AcDbEntity
  8
CURVE
100
AcDbLine
 62
250
  6
CONTINUOUS
 10
9.784375
 20
-5.515625
 11
9.853125
 21
-5.61875
  0
LINE
  5
808
100
AcDbEntity
  8
CURVE
100
AcDbLine
 62
250
  6
CONTINUOUS
 10
5.586323
 20
-12.718216
 11
5.586323
 21
-12.81759
  0
LINE
  5
809
100
AcDbEntity
  8
IMPORT_IGES
100
AcDbLine
 62
7
  6
CONTINUOUS
 10
5.906
 20
10.91
 11
5.906
 21
10.9
  0
LINE
  5
80A
100
AcDbEntity
  8
IMPORT_IGES
100
AcDbLine
 62
250
  6
CONTINUOUS
 10
6.106
 20
10.9
 11
6.106
 21
10.91
  0
LINE
  5
80B
100
AcDbEntity
  8
IMPORT_IGES
100
AcDbLine
 62
250
  6
CONTINUOUS
 10
6.256
 20
10.9
 11
6.256
 21
10.7
  0
LINE
  5
80C
100
AcDbEntity
  8
IMPORT_IGES
100
AcDbLine
 62
7
  6
CONTINUOUS
 10
6.646
 20
11.15
 11
6.646
 21
10.91
  0
LINE
  5
80D
100
AcDbEntity
  8
IMPORT_IGES
100
AcDbLine
 62
7
  6
CONTINUOUS
 10
6.656
 20
-10.35
 11
6.656
 21
11.15
  0
LINE
  5
80E
100
AcDbEntity
  8
0
100
AcDbLine
 62
7
  6
CONTINUOUS
 10
7.05
 20
11.15
 11
7.05
 21
-10.35
  0
LINE
  5
80F
100
AcDbEntity
  8
ASSI
100
AcDbLine
 62
7
  6
CONTINUOUS
 10
7.05
 20
11.15
 11
7.05
 21
-10.35
  0
LINE
  5
810
100
AcDbEntity
  8
CURVE
100
AcDbLine
 62
250
  6
CONTINUOUS
 10
5.461245
 20
-13.916076
 11
5.461803
 21
-13.343073
  0
LINE
  5
811
100
AcDbEntity
  8
CURVE
100
AcDbLine
 62
250
  6
CONTINUOUS
 10
5.679297
 20
-13.343073
 11
5.678739
 21
-13.916076
  0
LINE
  5
812
100
AcDbEntity
  8
CURVE
100
AcDbLine
 62
250
  6
CONTINUOUS
 10
10.1690476269
 20
3.5166665792
 11
10.0119047627
 21
3.3071427822
  0
LINE
  5
813
100
AcDbEntity
  8
CURVE
100
AcDbLine
 62
250
  6
CONTINUOUS
 10
9.9071428642
 20
1.1333331585
 11
9.75
 21
0.9761903763
  0
LINE
  5
814
100
AcDbEntity
  8
CURVE
100
AcDbLine
 62
250
  6
CONTINUOUS
 10
10.2214285761
 20
0.5833331585
 11
10.3785714567
 21
0.7404759407
  0
LINE
  5
815
100
AcDbEntity
  8
CURVE
100
AcDbLine
 62
250
  6
CONTINUOUS
 10
9.75
 20
0.0333331585
 11
9.9071428642
 21
0.1904759407
  0
LINE
  5
816
100
AcDbEntity
  8
CURVE
100
AcDbLine
 62
250
  6
CONTINUOUS
 10
10.0642857283
 20
5.5071429133
 11
10.5357143044
 21
5.5071429133
  0
LINE
  5
817
100
AcDbEntity
  8
CURVE
100
AcDbLine
 62
250
  6
CONTINUOUS
 10
-11.0130903017
 20
5.8
 11
-11.0244370156
 21
5.8
  0
LINE
  5
818
100
AcDbEntity
  8
CURVE
100
AcDbLine
 62
250
  6
CONTINUOUS
 10
10.5357143044
 20
5.8214286089
 11
10.6928571522
 21
5.8214286089
  0
LINE
  5
819
100
AcDbEntity
  8
RACCORDO
100
AcDbLine
 62
7
  6
CONTINUOUS
 10
-10.7130788782
 20
6.05
 11
-9.8
 21
6.05
  0
LINE
  5
81A
100
AcDbEntity
  8
ASSI
100
AcDbLine
 62
7
  6
CONTINUOUS
 10
-10.7130788782
 20
6.05
 11
-9.8
 21
6.05
  0
LINE
  5
81B
100
AcDbEntity
  8
CURVE
100
AcDbLine
 62
250
  6
CONTINUOUS
 10
-11.0521115466
 20
6.2428571105
 11
-11.0615857096
 21
6.2428571105
  0
LINE
  5
81C
100
AcDbEntity
  8
CURVE
100
AcDbLine
 62
250
  6
CONTINUOUS
 10
-6.0714285493
 20
6.3285714507
 11
-6.628571412
 21
6.3285714507
  0
LINE
  5
81D
100
AcDbEntity
  8
CURVE
100
AcDbLine
 62
250
  6
CONTINUOUS
 10
-11.0211958546
 20
6.45
 11
-11.0049900485
 21
6.45
  0
LINE
  5
81E
100
AcDbEntity
  8
CURVE
100
AcDbLine
 62
250
  6
CONTINUOUS
 10
10.85
 20
6.6857142717
 11
9.75
 21
6.6857142717
  0
LINE
  5
81F
100
AcDbEntity
  8
CURVE
100
AcDbLine
 62
250
  6
CONTINUOUS
 10
-11.0521115466
 20
6.785714221
 11
-11.066322791
 21
6.785714221
  0
LINE
  5
820
100
AcDbEntity
  8
IMPORT_IGES
100
AcDbLine
 62
7
  6
CONTINUOUS
 10
4.456
 20
6.8
 11
-0.644
 21
6.8
  0
LINE
  5
821
100
AcDbEntity
  8
CURVE
100
AcDbLine
 62
250
  6
CONTINUOUS
 10
-6.628571412
 20
6.9785714507
 11
-6.0714285493
 21
6.9785714507
  0
LINE
  5
822
100
AcDbEntity
  8
CURVE
100
AcDbLine
 62
250
  6
CONTINUOUS
 10
9.75
 20
4.3285713911
 11
10.85
 21
4.0142858267
  0
LINE
  5
823
100
AcDbEntity
  8
CURVE
100
AcDbLine
 62
250
  6
CONTINUOUS
 10
10.6142856956
 20
0.9761903763
 11
10.3
 21
1.1333331585
  0
LINE
  5
824
100
AcDbEntity
  8
CURVE
100
AcDbLine
 62
250
  6
CONTINUOUS
 10
9.9071428642
 20
-0.2023807526
 11
9.75
 21
-0.0452379704
  0
LINE
  5
825
100
AcDbEntity
  8
CURVE
100
AcDbLine
 62
250
  6
CONTINUOUS
 10
9.5048264889
 20
-2.57
 11
9.2448264889
 21
-2.11966679
  0
LINE
  5
826
100
AcDbEntity
  8
CURVE
100
AcDbLine
 62
250
  6
CONTINUOUS
 10
10.334375
 20
-5.240625
 11
10.265625
 21
-5.103125
  0
LINE
  5
827
100
AcDbEntity
  8
CURVE
100
AcDbLine
 62
250
  6
CONTINUOUS
 10
8.1142857164
 20
-2.1814285895
 11
8.3285714626
 21
-2.7528572163
  0
LINE
  5
828
100
AcDbEntity
  8
CURVE
100
AcDbLine
 62
250
  6
CONTINUOUS
 10
7.5
 20
-6.5
 11
7.5
 21
-7.1785714447
  0
LINE
  5
829
100
AcDbEntity
  8
CURVE
100
AcDbLine
 62
250
  6
CONTINUOUS
 10
8.3142857224
 20
7.8214285553
 11
8.3142857224
 21
8.5
  0
LINE
  5
82A
100
AcDbEntity
  8
ASSI
100
AcDbLine
 62
7
  6
CONTINUOUS
 10
3.4
 20
-22.3297297297
 11
3.3633443637
 21
-22.5
  0
LINE
  5
82B
100
AcDbEntity
  8
ASSI
100
AcDbLine
 62
7
  6
CONTINUOUS
 10
-2.7167632191
 20
-21.6560705017
 11
-2.9969695968
 21
-22.2
  0
LINE
  5
82C
100
AcDbEntity
  8
CURVE
100
AcDbLine
 62
250
  6
CONTINUOUS
 10
8.5428571641
 20
-1.6100000075
 11
8.1142857164
 21
-2.1814285895
  0
LINE
  5
82D
100
AcDbEntity
  8
CURVE
100
AcDbLine
 62
250
  6
CONTINUOUS
 10
10.85
 20
-0.0452379704
 11
10.6928571522
 21
-0.2023807526
  0
LINE
  5
82E
100
AcDbEntity
  8
CURVE
100
AcDbLine
 62
250
  6
CONTINUOUS
 10
9.990625
 20
-5.0
 11
9.8875
 21
-5.034375
  0
LINE
  5
82F
100
AcDbEntity
  8
CURVE
100
AcDbLine
 62
250
  6
CONTINUOUS
 10
-11.0017488872
 20
7.2238095164
 11
-11.0244370156
 21
7.2238095164
  0
LINE
  5
830
100
AcDbEntity
  8
CURVE
100
AcDbLine
 62
250
  6
CONTINUOUS
 10
-6.0714285493
 20
7.35
 11
-5.8857142746
 21
7.35
  0
LINE
  5
831
100
AcDbEntity
  8
CURVE
100
AcDbLine
 62
250
  6
CONTINUOUS
 10
9.1285714447
 20
7.55
 11
8.5857143342
 21
7.55
  0
LINE
  5
832
100
AcDbEntity
  8
CURVE
100
AcDbLine
 62
250
  6
CONTINUOUS
 10
-11.0379003007
 20
7.6
 11
-11.0473744642
 21
7.6
  0
LINE
  5
833
100
AcDbEntity
  8
CURVE
100
AcDbLine
 62
250
  6
CONTINUOUS
 10
-11.0803064384
 20
7.672513
 11
-11.1309110053
 21
7.672513
  0
LINE
  5
834
100
AcDbEntity
  8
CURVE
100
AcDbLine
 62
250
  6
CONTINUOUS
 10
-11.0017488872
 20
7.8119048357
 11
-11.0244370156
 21
7.8119048357
  0
LINE
  5
835
100
AcDbEntity
  8
CURVE
100
AcDbLine
 62
250
  6
CONTINUOUS
 10
-11.1034820774
 20
8.058362
 11
-11.0859763154
 21
8.058362
  0
LINE
  5
836
100
AcDbEntity
  8
CURVE
100
AcDbLine
 62
250
  6
CONTINUOUS
 10
-11.1252410935
 20
8.058362
 11
-11.1091524604
 21
8.058362
  0
LINE
  5
837
100
AcDbEntity
  8
CURVE
100
AcDbLine
 62
250
  6
CONTINUOUS
 10
-11.0615857096
 20
8.142857337
 11
-11.0521115466
 21
8.142857337
  0
LINE
  5
838
100
AcDbEntity
  8
CURVE
100
AcDbLine
 62
250
  6
CONTINUOUS
 10
7.5
 20
8.5
 11
9.4
 21
8.5
  0
LINE
  5
839
100
AcDbEntity
  8
CURVE
100
AcDbLine
 62
250
  6
CONTINUOUS
 10
-11.0244370156
 20
8.5547619343
 11
-11.0017488872
 21
8.5547619343
  0
LWPOLYLINE
  5
83A
100
AcDbEntity
  8
CURVE
100
AcDbPolyline
 62
250
  6
CONTINUOUS
 90
17
 70
0
 10
-11.1005675869
 20
12.7230857555
 10
-11.0999569116
 20
12.7228954368
 10
-11.0993462089
 20
12.7222911373
 10
-11.098735647
 20
12.721222842
 10
-11.0981253942
 20
12.7196405359
 10
-11.0975156186
 20
12.717494204
 10
-11.0969064883
 20
12.7147338314
 10
-11.0962981716
 20
12.7113094029
 10
-11.0956908365
 20
12.7071709037
 10
-11.0950846513
 20
12.7022683186
 10
-11.0944797842
 20
12.6965516328
 10
-11.0938764032
 20
12.6899708312
 10
-11.0932746767
 20
12.6824758988
 10
-11.0928079318
 20
12.6759814809
 10
-11.0923430254
 20
12.6688823295
 10
-11.091880693
 20
12.6611572004
 10
-11.0914216701
 20
12.6527848497
  0
LINE
  5
83B
100
AcDbEntity
  8
CURVE
100
AcDbLine
 62
250
  6
CONTINUOUS
 10
9.75
 20
0.7404759407
 11
9.9071428642
 21
0.5833331585
  0
LINE
  5
83C
100
AcDbEntity
  8
CURVE
100
AcDbLine
 62
250
  6
CONTINUOUS
 10
10.6928571522
 20
0.1904759407
 11
10.85
 21
0.0333331585
  0
LINE
  5
83D
100
AcDbEntity
  8
CURVE
100
AcDbLine
 62
250
  6
CONTINUOUS
 10
10.85
 20
0.7404759407
 11
10.6142856956
 21
0.9761903763
  0
LINE
  5
83E
100
AcDbEntity
  8
ASSI
100
AcDbLine
 62
7
  6
CONTINUOUS
 10
-2.7167632191
 20
21.6560705017
 11
-2.9969695968
 21
22.2
  0
LINE
  5
83F
100
AcDbEntity
  8
CURVE
100
AcDbLine
 62
250
  6
CONTINUOUS
 10
8.3285714626
 20
-1.1099999981
 11
8.5428571641
 21
-1.6100000075
  0
LINE
  5
840
100
AcDbEntity
  8
CURVE
100
AcDbLine
 62
250
  6
CONTINUOUS
 10
10.78125
 20
-5.309375
 11
10.746875
 21
-5.20625
  0
LINE
  5
841
100
AcDbEntity
  8
CURVE
100
AcDbLine
 62
250
  6
CONTINUOUS
 10
9.75
 20
-5.378125
 11
9.784375
 21
-5.515625
  0
LINE
  5
842
100
AcDbEntity
  8
CURVE
100
AcDbLine
 62
250
  6
CONTINUOUS
 10
10.36875
 20
-5.378125
 11
10.334375
 21
-5.240625
  0
LINE
  5
843
100
AcDbEntity
  8
ASSI
100
AcDbLine
 62
7
  6
CONTINUOUS
 10
3.4
 20
22.3297297297
 11
3.3633443637
 21
22.5
  0
LINE
  5
844
100
AcDbEntity
  8
CURVE
100
AcDbLine
 62
250
  6
CONTINUOUS
 10
9.4
 20
8.5
 11
9.4
 21
7.8214285553
  0
LINE
  5
845
100
AcDbEntity
  8
DRAFT
100
AcDbLine
 62
7
  6
CONTINUOUS
 10
9.6238174026
 20
-20.8213883311
 11
9.6238174026
 21
-19.1486597746
  0
LINE
  5
846
100
AcDbEntity
  8
DRAFT
100
AcDbLine
 62
7
  6
CONTINUOUS
 10
9.6238174026
 20
19.1486597746
 11
9.6238174026
 21
20.8213883311
  0
LINE
  5
847
100
AcDbEntity
  8
0
100
AcDbLine
 62
7
  6
CONTINUOUS
 10
9.6325449351
 20
-20.8475922207
 11
9.6325449351
 21
-19.1389625163
  0
LINE
  5
848
100
AcDbEntity
  8
0
100
AcDbLine
 62
7
  6
CONTINUOUS
 10
9.6325449351
 20
19.1389625163
 11
9.6325449351
 21
20.8475922207
  0
LINE
  5
849
100
AcDbEntity
  8
CURVE
100
AcDbLine
 62
250
  6
CONTINUOUS
 10
9.75
 20
0.9761903763
 11
9.75
 21
0.7404759407
  0
LINE
  5
84A
100
AcDbEntity
  8
CURVE
100
AcDbLine
 62
250
  6
CONTINUOUS
 10
9.75
 20
-1.4595240593
 11
9.75
 21
-1.9309518814
  0
LINE
  5
84B
100
AcDbEntity
  8
CURVE
100
AcDbLine
 62
250
  6
CONTINUOUS
 10
9.75
 20
-5.275
 11
9.75
 21
-5.378125
  0
LINE
  5
84C
100
AcDbEntity
  8
CURVE
100
AcDbLine
 62
250
  6
CONTINUOUS
 10
9.75
 20
-0.0452379704
 11
9.75
 21
0.0333331585
  0
LINE
  5
84D
100
AcDbEntity
  8
CURVE
100
AcDbLine
 62
250
  6
CONTINUOUS
 10
9.75
 20
5.1928570867
 11
9.75
 21
5.2714286089
  0
LINE
  5
84E
100
AcDbEntity
  8
CURVE
100
AcDbLine
 62
250
  6
CONTINUOUS
 10
9.75
 20
5.8214286089
 11
9.75
 21
6.3714285433
  0
LINE
  5
84F
100
AcDbEntity
  8
CURVE
100
AcDbLine
 62
250
  6
CONTINUOUS
 10
10.36875
 20
-5.34375
 11
10.36875
 21
-5.378125
  0
LINE
  5
850
100
AcDbEntity
  8
CURVE
100
AcDbLine
 62
250
  6
CONTINUOUS
 10
10.3785714567
 20
-0.5952379704
 11
10.3785714567
 21
-1.1452379704
  0
LINE
  5
851
100
AcDbEntity
  8
CURVE
100
AcDbLine
 62
250
  6
CONTINUOUS
 10
10.3785714567
 20
0.7404759407
 11
10.3785714567
 21
1.0809524059
  0
LINE
  5
852
100
AcDbEntity
  8
CURVE
100
AcDbLine
 62
250
  6
CONTINUOUS
 10
10.5357143044
 20
-1.4595240593
 11
10.5357143044
 21
-1.9309518814
  0
LINE
  5
853
100
AcDbEntity
  8
CURVE
100
AcDbLine
 62
250
  6
CONTINUOUS
 10
9.2448264889
 20
-2.11966679
 11
8.9848264889
 21
-2.57
  0
LINE
  5
854
100
AcDbEntity
  8
CURVE
100
AcDbLine
 62
250
  6
CONTINUOUS
 10
9.8875
 20
-5.034375
 11
9.81875
 21
-5.103125
  0
LINE
  5
855
100
AcDbEntity
  8
CURVE
100
AcDbLine
 62
250
  6
CONTINUOUS
 10
10.540625
 20
-5.103125
 11
10.471875
 21
-5.1375
  0
LINE
  5
856
100
AcDbEntity
  8
CURVE
100
AcDbLine
 62
250
  6
CONTINUOUS
 10
-11.0017488872
 20
8.9261903286
 11
-11.0244370156
 21
8.9261903286
  0
LINE
  5
857
100
AcDbEntity
  8
CURVE
100
AcDbLine
 62
250
  6
CONTINUOUS
 10
-11.0521115466
 20
9.092857337
 11
-11.0615857096
 21
9.092857337
  0
LINE
  5
858
100
AcDbEntity
  8
CURVE
100
AcDbLine
 62
250
  6
CONTINUOUS
 10
-11.1091524604
 20
9.565307
 11
-11.1034820774
 21
9.565307
  0
LINE
  5
859
100
AcDbEntity
  8
IMPORT_IGES
100
AcDbLine
 62
7
  6
CONTINUOUS
 10
-0.644
 20
9.6
 11
4.456
 21
9.6
  0
LINE
  5
85A
100
AcDbEntity
  8
CURVE
100
AcDbLine
 62
250
  6
CONTINUOUS
 10
-11.0521115466
 20
9.635714221
 11
-11.066322791
 21
9.635714221
  0
LINE
  5
85B
100
AcDbEntity
  8
CURVE
100
AcDbLine
 62
250
  6
CONTINUOUS
 10
-11.0244370156
 20
9.6690477371
 11
-11.0017488872
 21
9.6690477371
  0
LINE
  5
85C
100
AcDbEntity
  8
CURVE
100
AcDbLine
 62
250
  6
CONTINUOUS
 10
-11.1309110053
 20
9.67489
 11
-11.1252410935
 21
9.67489
  0
LINE
  5
85D
100
AcDbEntity
  8
CURVE
100
AcDbLine
 62
250
  6
CONTINUOUS
 10
-11.0859763154
 20
9.687123
 11
-11.0803064384
 21
9.687123
  0
LINE
  5
85E
100
AcDbEntity
  8
CURVE
100
AcDbLine
 62
250
  6
CONTINUOUS
 10
-11.0017488872
 20
10.0404761314
 11
-11.0244370156
 21
10.0404761314
  0
LINE
  5
85F
100
AcDbEntity
  8
RACCORDO
100
AcDbLine
 62
7
  6
CONTINUOUS
 10
-10.7130788782
 20
10.35
 11
-9.8
 21
10.35
  0
LINE
  5
860
100
AcDbEntity
  8
ASSI
100
AcDbLine
 62
7
  6
CONTINUOUS
 10
-10.7130788782
 20
10.35
 11
-9.8
 21
10.35
  0
LINE
  5
861
100
AcDbEntity
  8
CURVE
100
AcDbLine
 62
250
  6
CONTINUOUS
 10
-11.0379003007
 20
10.45
 11
-11.0473744642
 21
10.45
  0
LINE
  5
862
100
AcDbEntity
  8
CURVE
100
AcDbLine
 62
250
  6
CONTINUOUS
 10
10.0642857283
 20
4.9571429133
 11
9.9071428642
 21
5.0357143044
  0
LINE
  5
863
100
AcDbEntity
  8
CURVE
100
AcDbLine
 62
250
  6
CONTINUOUS
 10
10.5357143044
 20
5.5071429133
 11
10.6928571522
 21
5.4285713911
  0
LINE
  5
864
100
AcDbEntity
  8
CURVE
100
AcDbLine
 62
250
  6
CONTINUOUS
 10
9.9071428642
 20
5.0357143044
 11
9.75
 21
5.1928570867
  0
LINE
  5
865
100
AcDbEntity
  8
ASSI
100
AcDbLine
 62
7
  6
CONTINUOUS
 10
1.975007617
 20
18.3
 11
2.0
 21
18.25
  0
LINE
  5
866
100
AcDbEntity
  8
DRAFT
100
AcDbLine
 62
7
  6
CONTINUOUS
 10
1.975007617
 20
18.3
 11
2.0
 21
18.25
  0
LINE
  5
867
100
AcDbEntity
  8
CURVE
100
AcDbLine
 62
250
  6
CONTINUOUS
 10
10.0119047627
 20
3.3071427822
 11
10.090476203
 21
3.0976189852
  0
LINE
  5
868
100
AcDbEntity
  8
CURVE
100
AcDbLine
 62
250
  6
CONTINUOUS
 10
10.78125
 20
-5.378125
 11
10.78125
 21
-5.309375
  0
LINE
  5
869
100
AcDbEntity
  8
CURVE
100
AcDbLine
 62
250
  6
CONTINUOUS
 10
10.85
 20
5.2714286089
 11
10.85
 21
5.1928570867
  0
LINE
  5
86A
100
AcDbEntity
  8
CURVE
100
AcDbLine
 62
250
  6
CONTINUOUS
 10
10.85
 20
0.0333331585
 11
10.85
 21
-0.0452379704
  0
LINE
  5
86B
100
AcDbEntity
  8
CURVE
100
AcDbLine
 62
250
  6
CONTINUOUS
 10
10.85
 20
5.9785714567
 11
10.85
 21
6.2142856956
  0
LINE
  5
86C
100
AcDbEntity
  8
RACCORDO
100
AcDbLine
 62
7
  6
CONTINUOUS
 10
11.0130903017
 20
-17.2213018263
 11
11.0130903017
 21
17.2213018263
  0
LINE
  5
86D
100
AcDbEntity
  8
ASSI
100
AcDbLine
 62
7
  6
CONTINUOUS
 10
11.0130903017
 20
-17.2213018263
 11
11.0130903017
 21
17.2213018263
  0
LINE
  5
86E
100
AcDbEntity
  8
ASSI
100
AcDbLine
 62
7
  6
CONTINUOUS
 10
11.15
 20
16.119659166
 11
11.15
 21
-16.119659166
  0
LINE
  5
86F
100
AcDbEntity
  8
0
100
AcDbLine
 62
7
  6
CONTINUOUS
 10
11.15
 20
21.8997711479
 11
11.15
 21
-21.8997711479
  0
LINE
  5
870
100
AcDbEntity
  8
CURVE
100
AcDbLine
 62
250
  6
CONTINUOUS
 10
10.746875
 20
-5.515625
 11
10.78125
 21
-5.378125
  0
LINE
  5
871
100
AcDbEntity
  8
CURVE
100
AcDbLine
 62
250
  6
CONTINUOUS
 10
9.784375
 20
-5.171875
 11
9.75
 21
-5.275
  0
LINE
  5
872
100
AcDbEntity
  8
CURVE
100
AcDbLine
 62
250
  6
CONTINUOUS
 10
10.403125
 20
-5.240625
 11
10.36875
 21
-5.34375
  0
LINE
  5
873
100
AcDbEntity
  8
CURVE
100
AcDbLine
 62
250
  6
CONTINUOUS
 10
10.7125
 20
-5.61875
 11
10.746875
 21
-5.515625
  0
LINE
  5
874
100
AcDbEntity
  8
CURVE
100
AcDbLine
 62
250
  6
CONTINUOUS
 10
9.81875
 20
-5.103125
 11
9.784375
 21
-5.171875
  0
LINE
  5
875
100
AcDbEntity
  8
CURVE
100
AcDbLine
 62
250
  6
CONTINUOUS
 10
10.4375
 20
-5.171875
 11
10.403125
 21
-5.240625
  0
LINE
  5
876
100
AcDbEntity
  8
CURVE
100
AcDbLine
 62
250
  6
CONTINUOUS
 10
10.678125
 20
-5.6875
 11
10.7125
 21
-5.61875
  0
LINE
  5
877
100
AcDbEntity
  8
CURVE
100
AcDbLine
 62
250
  6
CONTINUOUS
 10
10.471875
 20
-5.1375
 11
10.4375
 21
-5.171875
  0
LINE
  5
878
100
AcDbEntity
  8
CURVE
100
AcDbLine
 62
250
  6
CONTINUOUS
 10
6.076325
 20
-10.99987
 11
1.099039
 21
-15.731556
  0
LINE
  5
879
100
AcDbEntity
  8
ASSI
100
AcDbLine
 62
250
  6
CONTINUOUS
 10
-11.0130903017
 20
-16.0720256498
 11
-11.15
 21
-16.119659166
  0
LINE
  5
87A
100
AcDbEntity
  8
0
100
AcDbLine
 62
250
  6
CONTINUOUS
 10
-11.0130903017
 20
-16.0720256498
 11
-11.15
 21
-16.119659166
  0
LINE
  5
87B
100
AcDbEntity
  8
CURVE
100
AcDbLine
 62
250
  6
CONTINUOUS
 10
-11.1005675869
 20
10.6804049345
 11
-11.130958345
 21
10.6804049345
  0
LINE
  5
87C
100
AcDbEntity
  8
IMPORT_IGES
100
AcDbLine
 62
7
  6
CONTINUOUS
 10
6.656
 20
10.7
 11
-1.45
 21
10.7
  0
LINE
  5
87D
100
AcDbEntity
  8
CURVE
100
AcDbLine
 62
250
  6
CONTINUOUS
 10
-11.130958345
 20
10.859433236
 11
-11.1005675869
 21
10.859433236
  0
LINE
  5
87E
100
AcDbEntity
  8
IMPORT_IGES
100
AcDbLine
 62
7
  6
CONTINUOUS
 10
5.906
 20
10.9
 11
6.656
 21
10.9
  0
LINE
  5
87F
100
AcDbEntity
  8
IMPORT_IGES
100
AcDbLine
 62
7
  6
CONTINUOUS
 10
6.646
 20
10.91
 11
5.206
 21
10.91
  0
LINE
  5
880
100
AcDbEntity
  8
0
100
AcDbLine
 62
7
  6
CONTINUOUS
 10
-1.45
 20
11.15
 11
7.05
 21
11.15
  0
LINE
  5
881
100
AcDbEntity
  8
ASSI
100
AcDbLine
 62
7
  6
CONTINUOUS
 10
-1.45
 20
11.15
 11
7.05
 21
11.15
  0
LINE
  5
882
100
AcDbEntity
  8
CURVE
100
AcDbLine
 62
250
  6
CONTINUOUS
 10
-5.0
 20
11.2
 11
-5.583484861
 21
11.2
  0
LINE
  5
883
100
AcDbEntity
  8
CURVE
100
AcDbLine
 62
250
  6
CONTINUOUS
 10
-11.0363212733
 20
11.264285779
 11
-11.0371107869
 21
11.264285779
  0
LINE
  5
884
100
AcDbEntity
  8
CURVE
100
AcDbLine
 62
250
  6
CONTINUOUS
 10
-11.0371107869
 20
11.4452379227
 11
-11.0363212733
 21
11.4452379227
  0
LINE
  5
885
100
AcDbEntity
  8
CURVE
100
AcDbLine
 62
250
  6
CONTINUOUS
 10
-7.7
 20
11.6
 11
-8.0
 21
11.6
  0
LINE
  5
886
100
AcDbEntity
  8
CURVE
100
AcDbLine
 62
250
  6
CONTINUOUS
 10
-11.0211958546
 20
11.6190477371
 11
-11.0147135326
 21
11.6190477371
  0
LINE
  5
887
100
AcDbEntity
  8
CURVE
100
AcDbLine
 62
250
  6
CONTINUOUS
 10
-5.583484861
 20
12.0
 11
-5.0
 21
12.0
  0
LINE
  5
888
100
AcDbEntity
  8
ASSI
100
AcDbLine
 62
250
  6
CONTINUOUS
 10
-11.0130903017
 20
16.0720256498
 11
-11.15
 21
16.119659166
  0
LINE
  5
889
100
AcDbEntity
  8
0
100
AcDbLine
 62
250
  6
CONTINUOUS
 10
-11.0130903017
 20
16.0720256498
 11
-11.15
 21
16.119659166
  0
LINE
  5
88A
100
AcDbEntity
  8
CURVE
100
AcDbLine
 62
250
  6
CONTINUOUS
 10
10.85
 20
6.2142856956
 11
10.6142856956
 21
6.3714285433
  0
LINE
  5
88B
100
AcDbEntity
  8
CURVE
100
AcDbLine
 62
250
  6
CONTINUOUS
 10
9.75
 20
6.3714285433
 11
10.5357143044
 21
5.8214286089
  0
LINE
  5
88C
100
AcDbEntity
  8
CURVE
100
AcDbLine
 62
250
  6
CONTINUOUS
 10
10.6928571522
 20
5.4285713911
 11
10.85
 21
5.2714286089
  0
LINE
  5
88D
100
AcDbEntity
  8
CURVE
100
AcDbLine
 62
250
  6
CONTINUOUS
 10
8.5857143342
 20
7.55
 11
8.3142857224
 21
7.8214285553
  0
LINE
  5
88E
100
AcDbEntity
  8
CURVE
100
AcDbLine
 62
250
  6
CONTINUOUS
 10
10.090476203
 20
3.7
 11
10.1690476269
 21
3.5166665792
  0
LWPOLYLINE
  5
88F
100
AcDbEntity
  8
CURVE
100
AcDbPolyline
 62
250
  6
CONTINUOUS
 90
36
 70
0
 10
5.3448875901
 20
-14.603542891
 10
5.3580314318
 20
-14.5901079138
 10
5.37077377
 20
-14.5762969087
 10
5.3831203026
 20
-14.562124287
 10
5.3950767278
 20
-14.5476044602
 10
5.4066487435
 20
-14.5327518397
 10
5.4178420478
 20
-14.517580837
 10
5.4286623388
 20
-14.5021058634
 10
5.4391153146
 20
-14.4863413305
 10
5.4492066732
 20
-14.4703016496
 10
5.4589421127
 20
-14.4540012322
 10
5.4683273311
 20
-14.4374544897
 10
5.4773680266
 20
-14.4206758336
 10
5.4860698971
 20
-14.4036796753
 10
5.4944386407
 20
-14.3864804262
 10
5.5024799556
 20
-14.3690924979
 10
5.5101995396
 20
-14.3515303016
 10
5.5176030911
 20
-14.3338082489
 10
5.5246963079
 20
-14.3159407511
 10
5.5314848881
 20
-14.2979422198
 10
5.5379745299
 20
-14.2798270664
 10
5.5441709312
 20
-14.2616097022
 10
5.5500797901
 20
-14.2433045388
 10
5.5557068048
 20
-14.2249259875
 10
5.5610576732
 20
-14.2064884599
 10
5.5661380934
 20
-14.1880063672
 10
5.5709537635
 20
-14.1694941211
 10
5.5755103815
 20
-14.1509661329
 10
5.5798136456
 20
-14.132436814
 10
5.5856589197
 20
-14.1054102254
 10
5.5910384118
 20
-14.0784004564
 10
5.5960139279
 20
-14.0513964603
 10
5.6006472739
 20
-14.0243871904
 10
5.6050002558
 20
-13.9973615999
 10
5.6091346796
 20
-13.9703086422
 10
5.6169950762
 20
-13.9160764381
  0
LINE
  5
890
100
AcDbEntity
  8
ASSI
100
AcDbLine
 62
250
  6
CONTINUOUS
 10
-10.6926112819
 20
-17.3508568069
 11
-10.7193014234
 21
-17.3594295692
  0
LINE
  5
891
100
AcDbEntity
  8
0
100
AcDbLine
 62
250
  6
CONTINUOUS
 10
-10.6926112819
 20
-17.3508568069
 11
-10.7193014234
 21
-17.3594295692
  0
LINE
  5
892
100
AcDbEntity
  8
CURVE
100
AcDbLine
 62
250
  6
CONTINUOUS
 10
-11.066322791
 20
12.621428442
 11
-11.0331632188
 21
12.621428442
  0
LINE
  5
893
100
AcDbEntity
  8
CURVE
100
AcDbLine
 62
250
  6
CONTINUOUS
 10
-11.1005675869
 20
12.7230857555
 11
-11.130958345
 21
12.7230857555
  0
LINE
  5
894
100
AcDbEntity
  8
CURVE
100
AcDbLine
 62
250
  6
CONTINUOUS
 10
-11.130958345
 20
12.9021123791
 11
-11.1005675869
 21
12.9021123791
  0
LINE
  5
895
100
AcDbEntity
  8
CURVE
100
AcDbLine
 62
250
  6
CONTINUOUS
 10
-11.0130903017
 20
13.2595238686
 11
-11.0244370156
 21
13.2595238686
  0
LINE
  5
896
100
AcDbEntity
  8
CURVE
100
AcDbLine
 62
250
  6
CONTINUOUS
 10
-11.080261053
 20
13.414561239
 11
-11.1309581986
 21
13.414561239
  0
LINE
  5
897
100
AcDbEntity
  8
CURVE
100
AcDbLine
 62
250
  6
CONTINUOUS
 10
-11.1028399254
 20
13.593700287
 11
-11.080261053
 21
13.593700287
  0
LINE
  5
898
100
AcDbEntity
  8
CURVE
100
AcDbLine
 62
250
  6
CONTINUOUS
 10
-11.1282597298
 20
13.593700287
 11
-11.1055383942
 21
13.593700287
  0
LINE
  5
899
100
AcDbEntity
  8
ASSI
100
AcDbLine
 62
250
  6
CONTINUOUS
 10
-10.6737248747
 20
17.3447876075
 11
-10.7193014234
 21
17.3594295692
  0
LINE
  5
89A
100
AcDbEntity
  8
0
100
AcDbLine
 62
250
  6
CONTINUOUS
 10
-10.6737248747
 20
17.3447876075
 11
-10.7193014234
 21
17.3594295692
  0
LINE
  5
89B
100
AcDbEntity
  8
CURVE
100
AcDbLine
 62
250
  6
CONTINUOUS
 10
10.5357143044
 20
7.0
 11
10.85
 21
6.6857142717
  0
LINE
  5
89C
100
AcDbEntity
  8
0
100
AcDbLine
 62
250
  6
CONTINUOUS
 10
3.2101614373
 20
-21.1823272297
 11
3.1705494094
 21
-21.2417754733
  0
LINE
  5
89D
100
AcDbEntity
  8
0
100
AcDbLine
 62
7
  6
CONTINUOUS
 10
3.3
 20
-22.4
 11
3.230158461
 21
-22.5048155586
  0
LINE
  5
89E
100
AcDbEntity
  8
CURVE
100
AcDbLine
 62
250
  6
CONTINUOUS
 10
-11.0568486281
 20
14.114285326
 11
-11.0615857096
 21
14.114285326
  0
LINE
  5
89F
100
AcDbEntity
  8
CURVE
100
AcDbLine
 62
250
  6
CONTINUOUS
 10
-11.0426373827
 20
14.657143116
 11
-11.0568486281
 21
14.657143116
  0
LINE
  5
8A0
100
AcDbEntity
  8
CURVE
100
AcDbLine
 62
250
  6
CONTINUOUS
 10
-11.0130903017
 20
15.1476193428
 11
-11.0244370156
 21
15.1476193428
  0
LINE
  5
8A1
100
AcDbEntity
  8
CURVE
100
AcDbLine
 62
250
  6
CONTINUOUS
 10
-11.0568486281
 20
15.607143116
 11
-11.0426373827
 21
15.607143116
  0
LINE
  5
8A2
100
AcDbEntity
  8
ASSI
100
AcDbLine
 62
7
  6
CONTINUOUS
 10
-4.8
 20
18.2709460779
 11
-4.7371106649
 21
18.25
  0
LINE
  5
8A3
100
AcDbEntity
  8
DRAFT
100
AcDbLine
 62
7
  6
CONTINUOUS
 10
-4.8
 20
18.2709460779
 11
-4.7371106649
 21
18.25
  0
LINE
  5
8A4
100
AcDbEntity
  8
0
100
AcDbLine
 62
250
  6
CONTINUOUS
 10
3.1705494094
 20
21.2417754733
 11
3.2101614373
 21
21.1823272297
  0
LINE
  5
8A5
100
AcDbEntity
  8
0
100
AcDbLine
 62
7
  6
CONTINUOUS
 10
3.230158461
 20
22.5048155586
 11
3.3
 21
22.4
  0
LWPOLYLINE
  5
8A6
100
AcDbEntity
  8
ASSI
100
AcDbPolyline
 62
7
  6
CONTINUOUS
 90
8
 70
0
 10
11.0130903017
 20
-16.8449030979
 10
11.0392599851
 20
-16.7758858265
 10
11.0728101035
 20
-16.6697957248
 10
11.10051091
 20
-16.5616735612
 10
11.1221059485
 20
-16.4525006882
 10
11.1375097336
 20
-16.3426042235
 10
11.1468077508
 20
-16.2316570494
 10
11.15
 20
-16.119659166
  0
LINE
  5
8A7
100
AcDbEntity
  8
ASSI
100
AcDbLine
 62
7
  6
CONTINUOUS
 10
-4.7371106649
 20
-19.4790539221
 11
-4.8
 21
-19.5
  0
LINE
  5
8A8
100
AcDbEntity
  8
DRAFT
100
AcDbLine
 62
7
  6
CONTINUOUS
 10
-4.7371106649
 20
-19.4790539221
 11
-4.8
 21
-19.5
  0
LINE
  5
8A9
100
AcDbEntity
  8
0
100
AcDbLine
 62
7
  6
CONTINUOUS
 10
2.5
 20
16.6
 11
-2.5
 21
16.6
  0
LINE
  5
8AA
100
AcDbEntity
  8
ASSI
100
AcDbLine
 62
7
  6
CONTINUOUS
 10
2.5
 20
16.6
 11
-2.5
 21
16.6
  0
LINE
  5
8AB
100
AcDbEntity
  8
0
100
AcDbLine
 62
250
  6
CONTINUOUS
 10
-2.5
 20
16.89
 11
-1.8
 21
16.89
  0
LINE
  5
8AC
100
AcDbEntity
  8
ASSI
100
AcDbLine
 62
7
  6
CONTINUOUS
 10
2.0
 20
17.25
 11
-1.8
 21
17.25
  0
LINE
  5
8AD
100
AcDbEntity
  8
DRAFT
100
AcDbLine
 62
7
  6
CONTINUOUS
 10
2.0
 20
17.25
 11
-1.8
 21
17.25
  0
LINE
  5
8AE
100
AcDbEntity
  8
0
100
AcDbLine
 62
7
  6
CONTINUOUS
 10
-2.5
 20
17.29
 11
-1.8
 21
17.29
  0
LINE
  5
8AF
100
AcDbEntity
  8
0
100
AcDbLine
 62
7
  6
CONTINUOUS
 10
2.5
 20
17.3
 11
-2.5
 21
17.3
  0
LINE
  5
8B0
100
AcDbEntity
  8
0
100
AcDbLine
 62
7
  6
CONTINUOUS
 10
2.5
 20
17.5
 11
-2.5
 21
17.5
  0
LINE
  5
8B1
100
AcDbEntity
  8
ASSI
100
AcDbLine
 62
7
  6
CONTINUOUS
 10
-4.7371106649
 20
19.4790539221
 11
-4.8
 21
19.5
  0
LINE
  5
8B2
100
AcDbEntity
  8
DRAFT
100
AcDbLine
 62
7
  6
CONTINUOUS
 10
-4.7371106649
 20
19.4790539221
 11
-4.8
 21
19.5
  0
LWPOLYLINE
  5
8B3
100
AcDbEntity
  8
ASSI
100
AcDbPolyline
 62
7
  6
CONTINUOUS
 90
8
 70
0
 10
11.0130903017
 20
16.8449030979
 10
11.0392599851
 20
16.7758858265
 10
11.0728101035
 20
16.6697957248
 10
11.10051091
 20
16.5616735612
 10
11.1221059485
 20
16.4525006882
 10
11.1375097336
 20
16.3426042235
 10
11.1468077508
 20
16.2316570494
 10
11.15
 20
16.119659166
  0
LINE
  5
8B4
100
AcDbEntity
  8
ASSI
100
AcDbLine
 62
7
  6
CONTINUOUS
 10
3.4
 20
-23.4301797403
 11
3.3633443637
 21
-23.4668353766
  0
LWPOLYLINE
  5
8B5
100
AcDbEntity
  8
ASSI
100
AcDbPolyline
 62
7
  6
CONTINUOUS
 90
10
 70
0
 10
-4.450000012
 20
-23.0998904748
 10
-4.4578540352
 20
-23.104030175
 10
-4.4657248607
 20
-23.1081332828
 10
-4.4736124948
 20
-23.1121997758
 10
-4.481516141
 20
-23.1162303396
 10
-4.4894366074
 20
-23.1202242444
 10
-4.497376308
 20
-23.1241793418
 10
-4.5053360524
 20
-23.128094898
 10
-4.5133150445
 20
-23.1319715961
 10
-4.5213132903
 20
-23.1358094109
  0
LWPOLYLINE
  5
8B6
100
AcDbEntity
  8
DRAFT
100
AcDbPolyline
 62
7
  6
CONTINUOUS
 90
10
 70
0
 10
-4.450000012
 20
-23.0998904748
 10
-4.4578540352
 20
-23.104030175
 10
-4.4657248607
 20
-23.1081332828
 10
-4.4736124948
 20
-23.1121997758
 10
-4.481516141
 20
-23.1162303396
 10
-4.4894366074
 20
-23.1202242444
 10
-4.497376308
 20
-23.1241793418
 10
-4.5053360524
 20
-23.128094898
 10
-4.5133150445
 20
-23.1319715961
 10
-4.5213132903
 20
-23.1358094109
  0
LINE
  5
8B7
100
AcDbEntity
  8
ASSI
100
AcDbLine
 62
7
  6
CONTINUOUS
 10
2.5
 20
18.2
 11
-2.5
 21
18.2
  0
LINE
  5
8B8
100
AcDbEntity
  8
RACCORDO
100
AcDbLine
 62
7
  6
CONTINUOUS
 10
-9.3912243901
 20
18.2130903017
 11
-4.3130788786
 21
18.2130903017
  0
LINE
  5
8B9
100
AcDbEntity
  8
ASSI
100
AcDbLine
 62
7
  6
CONTINUOUS
 10
-9.3912243901
 20
18.2130903017
 11
-4.3130788786
 21
18.2130903017
  0
LINE
  5
8BA
100
AcDbEntity
  8
ASSI
100
AcDbLine
 62
7
  6
CONTINUOUS
 10
-4.7371106649
 20
18.25
 11
-4.1697266445
 21
18.25
  0
LINE
  5
8BB
100
AcDbEntity
  8
DRAFT
100
AcDbLine
 62
7
  6
CONTINUOUS
 10
-4.7371106649
 20
18.25
 11
-4.1697266445
 21
18.25
  0
LINE
  5
8BC
100
AcDbEntity
  8
ASSI
100
AcDbLine
 62
7
  6
CONTINUOUS
 10
2.5
 20
18.25
 11
2.0
 21
18.25
  0
LINE
  5
8BD
100
AcDbEntity
  8
DRAFT
100
AcDbLine
 62
7
  6
CONTINUOUS
 10
2.5
 20
18.25
 11
2.0
 21
18.25
  0
LINE
  5
8BE
100
AcDbEntity
  8
ASSI
100
AcDbLine
 62
7
  6
CONTINUOUS
 10
-2.0
 20
18.25
 11
-2.5
 21
18.25
  0
LINE
  5
8BF
100
AcDbEntity
  8
DRAFT
100
AcDbLine
 62
7
  6
CONTINUOUS
 10
-2.0
 20
18.25
 11
-2.5
 21
18.25
  0
LINE
  5
8C0
100
AcDbEntity
  8
ASSI
100
AcDbLine
 62
7
  6
CONTINUOUS
 10
-9.5
 20
18.2709460779
 11
-4.8
 21
18.2709460779
  0
LINE
  5
8C1
100
AcDbEntity
  8
DRAFT
100
AcDbLine
 62
7
  6
CONTINUOUS
 10
-9.5
 20
18.2709460779
 11
-4.8
 21
18.2709460779
  0
LINE
  5
8C2
100
AcDbEntity
  8
0
100
AcDbLine
 62
7
  6
CONTINUOUS
 10
-2.5
 20
18.3
 11
2.5
 21
18.3
  0
LINE
  5
8C3
100
AcDbEntity
  8
ASSI
100
AcDbLine
 62
7
  6
CONTINUOUS
 10
-2.5
 20
18.3
 11
2.5
 21
18.3
  0
LWPOLYLINE
  5
8C4
100
AcDbEntity
  8
0
100
AcDbPolyline
 62
7
  6
CONTINUOUS
 90
13
 70
0
 10
-3.2371426149
 20
21.9370647395
 10
-3.2367572566
 20
21.9368699796
 10
-3.2363740616
 20
21.9360359528
 10
-3.2359930297
 20
21.9345626591
 10
-3.2356126714
 20
21.9324449663
 10
-3.2352344763
 20
21.9296880066
 10
-3.2348629134
 20
21.9263071764
 10
-3.2344984821
 20
21.922301569
 10
-3.234140683
 20
21.917672091
 10
-3.2337924863
 20
21.9124368589
 10
-3.2334537839
 20
21.9065924559
 10
-3.233124684
 20
21.9001422987
 10
-3.2328084818
 20
21.8931147544
  0
LWPOLYLINE
  5
8C5
100
AcDbEntity
  8
ASSI
100
AcDbPolyline
 62
7
  6
CONTINUOUS
 90
10
 70
0
 10
-4.450000012
 20
23.0998904748
 10
-4.4578540352
 20
23.104030175
 10
-4.4657248607
 20
23.1081332828
 10
-4.4736124948
 20
23.1121997758
 10
-4.481516141
 20
23.1162303396
 10
-4.4894366074
 20
23.1202242444
 10
-4.497376308
 20
23.1241793418
 10
-4.5053360524
 20
23.128094898
 10
-4.5133150445
 20
23.1319715961
 10
-4.5213132903
 20
23.1358094109
  0
LWPOLYLINE
  5
8C6
100
AcDbEntity
  8
DRAFT
100
AcDbPolyline
 62
7
  6
CONTINUOUS
 90
10
 70
0
 10
-4.450000012
 20
23.0998904748
 10
-4.4578540352
 20
23.104030175
 10
-4.4657248607
 20
23.1081332828
 10
-4.4736124948
 20
23.1121997758
 10
-4.481516141
 20
23.1162303396
 10
-4.4894366074
 20
23.1202242444
 10
-4.497376308
 20
23.1241793418
 10
-4.5053360524
 20
23.128094898
 10
-4.5133150445
 20
23.1319715961
 10
-4.5213132903
 20
23.1358094109
  0
LINE
  5
8C7
100
AcDbEntity
  8
ASSI
100
AcDbLine
 62
7
  6
CONTINUOUS
 10
3.4
 20
23.4301797403
 11
3.3633443637
 21
23.4668353766
  0
LINE
  5
8C8
100
AcDbEntity
  8
RACCORDO
100
AcDbLine
 62
7
  6
CONTINUOUS
 10
10.7563942225
 20
-17.8902410858
 11
9.5037503254
 21
-19.2820676381
  0
LINE
  5
8C9
100
AcDbEntity
  8
ASSI
100
AcDbLine
 62
7
  6
CONTINUOUS
 10
10.7563942225
 20
-17.8902410858
 11
9.5037503254
 21
-19.2820676381
  0
LINE
  5
8CA
100
AcDbEntity
  8
ASSI
100
AcDbLine
 62
7
  6
CONTINUOUS
 10
3.4
 20
21.2
 11
2.6175930356
 21
21.1271628567
  0
LINE
  5
8CB
100
AcDbEntity
  8
0
100
AcDbLine
 62
7
  6
CONTINUOUS
 10
3.4
 20
21.2
 11
2.6175930356
 21
21.1271628567
  0
LINE
  5
8CC
100
AcDbEntity
  8
ASSI
100
AcDbLine
 62
7
  6
CONTINUOUS
 10
-4.7371106649
 20
19.4790539221
 11
-4.0
 21
19.4790539221
  0
LINE
  5
8CD
100
AcDbEntity
  8
DRAFT
100
AcDbLine
 62
7
  6
CONTINUOUS
 10
-4.7371106649
 20
19.4790539221
 11
-4.0
 21
19.4790539221
  0
LINE
  5
8CE
100
AcDbEntity
  8
DRAFT
100
AcDbLine
 62
7
  6
CONTINUOUS
 10
-8.6044685592
 20
19.5
 11
-4.8
 21
19.5
  0
LINE
  5
8CF
100
AcDbEntity
  8
ASSI
100
AcDbLine
 62
7
  6
CONTINUOUS
 10
-3.9472288157
 20
19.5
 11
-8.6044685592
 21
19.5
  0
LINE
  5
8D0
100
AcDbEntity
  8
0
100
AcDbLine
 62
7
  6
CONTINUOUS
 10
-3.9472288157
 20
19.5
 11
-4.8
 21
19.5
  0
LINE
  5
8D1
100
AcDbEntity
  8
RACCORDO
100
AcDbLine
 62
7
  6
CONTINUOUS
 10
8.7604844816
 20
19.6130903017
 11
-3.7131017248
 21
19.6130903017
  0
LINE
  5
8D2
100
AcDbEntity
  8
ASSI
100
AcDbLine
 62
7
  6
CONTINUOUS
 10
8.7604844816
 20
19.6130903017
 11
-3.7131017248
 21
19.6130903017
  0
LINE
  5
8D3
100
AcDbEntity
  8
ASSI
100
AcDbLine
 62
7
  6
CONTINUOUS
 10
7.8061624232
 20
20.3
 11
4.8419262234
 21
20.3
  0
LINE
  5
8D4
100
AcDbEntity
  8
0
100
AcDbLine
 62
7
  6
CONTINUOUS
 10
7.8061624232
 20
20.3
 11
4.8419262234
 21
20.3
  0
LINE
  5
8D5
100
AcDbEntity
  8
0
100
AcDbLine
 62
7
  6
CONTINUOUS
 10
9.6238174026
 20
20.8213883311
 11
7.4658521034
 21
20.8213883311
  0
LINE
  5
8D6
100
AcDbEntity
  8
0
100
AcDbLine
 62
7
  6
CONTINUOUS
 10
-7.4658521034
 20
20.8213883311
 11
-9.6238174026
 21
20.8213883311
  0
LINE
  5
8D7
100
AcDbEntity
  8
0
100
AcDbLine
 62
7
  6
CONTINUOUS
 10
9.6325449351
 20
20.8475922207
 11
7.4367305552
 21
20.8475922207
  0
LINE
  5
8D8
100
AcDbEntity
  8
0
100
AcDbLine
 62
7
  6
CONTINUOUS
 10
-7.4367305552
 20
20.8475922207
 11
-9.6325449351
 21
20.8475922207
  0
LINE
  5
8D9
100
AcDbEntity
  8
ASSI
100
AcDbLine
 62
7
  6
CONTINUOUS
 10
-4.0
 20
19.4790539221
 11
-3.963063554
 21
19.4781942847
  0
LINE
  5
8DA
100
AcDbEntity
  8
DRAFT
100
AcDbLine
 62
7
  6
CONTINUOUS
 10
-4.0
 20
19.4790539221
 11
-3.963063554
 21
19.4781942847
  0
LINE
  5
8DB
100
AcDbEntity
  8
ASSI
100
AcDbLine
 62
7
  6
CONTINUOUS
 10
-2.6175930356
 20
21.1271628567
 11
-3.4
 21
21.2
  0
LINE
  5
8DC
100
AcDbEntity
  8
0
100
AcDbLine
 62
7
  6
CONTINUOUS
 10
-2.6175930356
 20
21.1271628567
 11
-3.4
 21
21.2
  0
LWPOLYLINE
  5
8DD
100
AcDbEntity
  8
0
100
AcDbPolyline
 62
7
  6
CONTINUOUS
 90
13
 70
0
 10
3.2371426149
 20
21.3629352605
 10
3.2367572566
 20
21.3631300204
 10
3.2363740616
 20
21.3639640472
 10
3.2359930297
 20
21.3654373409
 10
3.2356126714
 20
21.3675550337
 10
3.2352344763
 20
21.3703119934
 10
3.2348629134
 20
21.3736928236
 10
3.2344984821
 20
21.377698431
 10
3.234140683
 20
21.382327909
 10
3.2337924863
 20
21.3875631411
 10
3.2334537839
 20
21.3934075441
 10
3.233124684
 20
21.3998577013
 10
3.2328084818
 20
21.4068852456
  0
LINE
  5
8DE
100
AcDbEntity
  8
RACCORDO
100
AcDbLine
 62
7
  6
CONTINUOUS
 10
9.5037503254
 20
19.2820676381
 11
10.7563942225
 21
17.8902410858
  0
LINE
  5
8DF
100
AcDbEntity
  8
ASSI
100
AcDbLine
 62
7
  6
CONTINUOUS
 10
9.5037503254
 20
19.2820676381
 11
10.7563942225
 21
17.8902410858
  0
LWPOLYLINE
  5
8E0
100
AcDbEntity
  8
ASSI
100
AcDbPolyline
 62
7
  6
CONTINUOUS
 90
10
 70
0
 10
4.2071270357
 20
-23.2631073618
 10
4.1513051783
 20
-23.2975607327
 10
4.0938707981
 20
-23.328101306
 10
4.0348238951
 20
-23.3547290816
 10
3.9739010778
 20
-23.3775235872
 10
3.9113657378
 20
-23.3964052951
 10
3.8480080499
 20
-23.4111356227
 10
3.784091406
 20
-23.4216350423
 10
3.7193524144
 20
-23.4279830815
 10
3.653791075
 20
-23.4301797403
  0
LINE
  5
8E1
100
AcDbEntity
  8
ASSI
100
AcDbLine
 62
7
  6
CONTINUOUS
 10
6.9069415429
 20
21.1271628567
 11
2.6175930356
 21
21.1271628567
  0
LINE
  5
8E2
100
AcDbEntity
  8
ASSI
100
AcDbLine
 62
7
  6
CONTINUOUS
 10
-2.6175930356
 20
21.1271628567
 11
-6.9069415429
 21
21.1271628567
  0
LINE
  5
8E3
100
AcDbEntity
  8
ASSI
100
AcDbLine
 62
7
  6
CONTINUOUS
 10
6.9339198284
 20
21.2
 11
3.4
 21
21.2
  0
LINE
  5
8E4
100
AcDbEntity
  8
ASSI
100
AcDbLine
 62
7
  6
CONTINUOUS
 10
-3.4
 20
21.2
 11
-6.9339198284
 21
21.2
  0
LINE
  5
8E5
100
AcDbEntity
  8
0
100
AcDbLine
 62
250
  6
CONTINUOUS
 10
-3.1705494094
 20
21.2417754733
 11
-3.0812528557
 21
21.2417754733
  0
LINE
  5
8E6
100
AcDbEntity
  8
0
100
AcDbLine
 62
250
  6
CONTINUOUS
 10
3.1705494094
 20
21.2417754733
 11
3.0812528557
 21
21.2417754733
  0
LINE
  5
8E7
100
AcDbEntity
  8
ASSI
100
AcDbLine
 62
7
  6
CONTINUOUS
 10
2.7167632191
 20
21.6560705017
 11
-2.7167632191
 21
21.6560705017
  0
LINE
  5
8E8
100
AcDbEntity
  8
0
100
AcDbLine
 62
250
  6
CONTINUOUS
 10
-3.1705494094
 20
21.8921572875
 11
-3.0812528557
 21
21.8921572875
  0
LINE
  5
8E9
100
AcDbEntity
  8
0
100
AcDbLine
 62
250
  6
CONTINUOUS
 10
3.1705494094
 20
21.8921572875
 11
3.0812528557
 21
21.8921572875
  0
LINE
  5
8EA
100
AcDbEntity
  8
ASSI
100
AcDbLine
 62
7
  6
CONTINUOUS
 10
3.0812528557
 20
22.2
 11
-3.0812528557
 21
22.2
  0
LINE
  5
8EB
100
AcDbEntity
  8
0
100
AcDbLine
 62
7
  6
CONTINUOUS
 10
2.9969695968
 20
22.2
 11
3.0812528557
 21
22.2
  0
LINE
  5
8EC
100
AcDbEntity
  8
0
100
AcDbLine
 62
7
  6
CONTINUOUS
 10
-2.9969695968
 20
22.2
 11
-3.0812528557
 21
22.2
  0
LINE
  5
8ED
100
AcDbEntity
  8
0
100
AcDbLine
 62
7
  6
CONTINUOUS
 10
10.6503805997
 20
22.4
 11
5.5446027758
 21
22.4
  0
LINE
  5
8EE
100
AcDbEntity
  8
0
100
AcDbLine
 62
7
  6
CONTINUOUS
 10
3.3848722771
 20
22.4
 11
3.3
 21
22.4
  0
LINE
  5
8EF
100
AcDbEntity
  8
0
100
AcDbLine
 62
7
  6
CONTINUOUS
 10
-3.3
 20
22.4
 11
-3.3848722771
 21
22.4
  0
LINE
  5
8F0
100
AcDbEntity
  8
0
100
AcDbLine
 62
7
  6
CONTINUOUS
 10
-5.5446027758
 20
22.4
 11
-10.6503805997
 21
22.4
  0
LINE
  5
8F1
100
AcDbEntity
  8
ASSI
100
AcDbLine
 62
7
  6
CONTINUOUS
 10
3.3633443637
 20
22.5
 11
3.230158461
 21
22.5
  0
LINE
  5
8F2
100
AcDbEntity
  8
ASSI
100
AcDbLine
 62
7
  6
CONTINUOUS
 10
-3.230158461
 20
22.5
 11
-3.3633443637
 21
22.5
  0
LWPOLYLINE
  5
8F3
100
AcDbEntity
  8
ASSI
100
AcDbPolyline
 62
7
  6
CONTINUOUS
 90
10
 70
0
 10
4.2071270357
 20
23.2631073618
 10
4.1513051783
 20
23.2975607327
 10
4.0938707981
 20
23.328101306
 10
4.0348238951
 20
23.3547290816
 10
3.9739010778
 20
23.3775235872
 10
3.9113657378
 20
23.3964052951
 10
3.8480080499
 20
23.4111356227
 10
3.784091406
 20
23.4216350423
 10
3.7193524144
 20
23.4279830815
 10
3.653791075
 20
23.4301797403
  0
LWPOLYLINE
  5
8F4
100
AcDbEntity
  8
ASSI
100
AcDbPolyline
 62
7
  6
CONTINUOUS
 90
10
 70
0
 10
-3.653791075
 20
23.4301797403
 10
-3.7193524144
 20
23.4279830815
 10
-3.784091406
 20
23.4216350423
 10
-3.8480080499
 20
23.4111356227
 10
-3.9113657378
 20
23.3964052951
 10
-3.9739010778
 20
23.3775235872
 10
-4.0348238951
 20
23.3547290816
 10
-4.0938707981
 20
23.328101306
 10
-4.1513051783
 20
23.2975607327
 10
-4.2071270357
 20
23.2631073618
  0
LINE
  5
8F5
100
AcDbEntity
  8
0
100
AcDbLine
 62
250
  6
CONTINUOUS
 10
3.230158461
 20
23.175
 11
3.2153472641
 21
23.175
  0
LINE
  5
8F6
100
AcDbEntity
  8
0
100
AcDbLine
 62
250
  6
CONTINUOUS
 10
-3.2153472641
 20
23.175
 11
-3.230158461
 21
23.175
  0
LINE
  5
8F7
100
AcDbEntity
  8
0
100
AcDbLine
 62
250
  6
CONTINUOUS
 10
-3.0154690987
 20
23.3164213562
 11
3.0154690987
 21
23.3164213562
  0
LINE
  5
8F8
100
AcDbEntity
  8
0
100
AcDbLine
 62
7
  6
CONTINUOUS
 10
3.0300365522
 20
23.375
 11
-3.0300365522
 21
23.375
  0
LINE
  5
8F9
100
AcDbEntity
  8
ASSI
100
AcDbLine
 62
7
  6
CONTINUOUS
 10
3.653791075
 20
23.4301797403
 11
3.4
 21
23.4301797403
  0
LINE
  5
8FA
100
AcDbEntity
  8
ASSI
100
AcDbLine
 62
7
  6
CONTINUOUS
 10
-3.4
 20
23.4301797403
 11
-3.653791075
 21
23.4301797403
  0
LINE
  5
8FB
100
AcDbEntity
  8
ASSI
100
AcDbLine
 62
7
  6
CONTINUOUS
 10
3.3633443637
 20
23.4668353766
 11
-3.3633443637
 21
23.4668353766
  0
LINE
  5
8FC
100
AcDbEntity
  8
ASSI
100
AcDbLine
 62
7
  6
CONTINUOUS
 10
3.6748574782
 20
23.5
 11
-3.6748574782
 21
23.5
  0
LWPOLYLINE
  5
8FD
100
AcDbEntity
  8
ASSI
100
AcDbPolyline
 62
7
  6
CONTINUOUS
 90
10
 70
0
 10
3.6748574782
 20
23.5
 10
3.7403304144
 20
23.4978093846
 10
3.804984264
 20
23.4914781931
 10
3.8688190271
 20
23.4810064255
 10
3.9320970783
 20
23.4663149731
 10
3.994556043
 20
23.4474829446
 10
4.0554087969
 20
23.4247476662
 10
4.1143929653
 20
23.3981882466
 10
4.1717709229
 20
23.367725577
 10
4.2275426698
 20
23.3333596575
  0
ARC
  5
8FE
100
AcDbEntity
  8
0
100
AcDbCircle
 62
7
  6
CONTINUOUS
 10
-9.3
 20
-17.2
 40
1.4
100
AcDbArc
 50
185.4639502082
 51
270.0
  0
ARC
  5
8FF
100
AcDbEntity
  8
CURVE
100
AcDbCircle
 62
250
  6
CONTINUOUS
 10
-5.75
 20
-15.3527569941
 40
0.75
100
AcDbArc
 50
0.0000978867
 51
180.0
  0
ARC
  5
900
100
AcDbEntity
  8
CURVE
100
AcDbCircle
 62
250
  6
CONTINUOUS
 10
-7.25
 20
-15.3527569941
 40
0.75
100
AcDbArc
 50
180.0
 51
360.0
  0
ARC
  5
901
100
AcDbEntity
  8
ASSI
100
AcDbCircle
 62
7
  6
CONTINUOUS
 10
-10.29
 20
-16.7059083707
 40
0.71
100
AcDbArc
 50
184.7002073557
 51
220.2989413348
  0
ARC
  5
902
100
AcDbEntity
  8
ASSI
100
AcDbCircle
 62
7
  6
CONTINUOUS
 10
-9.5059083707
 20
-17.49
 40
0.71
100
AcDbArc
 50
229.7010824605
 51
265.2998163984
  0
ARC
  5
903
100
AcDbEntity
  8
ASSI
100
AcDbCircle
 62
7
  6
CONTINUOUS
 10
-4.95
 20
-23.1
 40
0.5
100
AcDbArc
 50
0.0125506627
 51
109.9035905342
  0
ARC
  5
904
100
AcDbEntity
  8
DRAFT
100
AcDbCircle
 62
7
  6
CONTINUOUS
 10
-4.95
 20
-23.1
 40
0.5
100
AcDbArc
 50
0.0125506627
 51
109.9035905342
  0
ARC
  5
905
100
AcDbEntity
  8
ASSI
100
AcDbCircle
 62
7
  6
CONTINUOUS
 10
-4.95
 20
-23.1
 40
0.4301797403
100
AcDbArc
 50
355.2250074248
 51
114.6911337721
  0
ARC
  5
906
100
AcDbEntity
  8
DRAFT
100
AcDbCircle
 62
7
  6
CONTINUOUS
 10
-4.95
 20
-23.1
 40
0.4301797403
100
AcDbArc
 50
355.2250074248
 51
114.6911337721
  0
ARC
  5
907
100
AcDbEntity
  8
0
100
AcDbCircle
 62
7
  6
CONTINUOUS
 10
-3.15
 20
-21.65
 40
0.3
100
AcDbArc
 50
106.8864186508
 51
146.4559866173
  0
ARC
  5
908
100
AcDbEntity
  8
0
100
AcDbCircle
 62
7
  6
CONTINUOUS
 10
-3.15
 20
-21.65
 40
0.3
100
AcDbArc
 50
213.5334312097
 51
253.1135813492
  0
ARC
  5
909
100
AcDbEntity
  8
0
100
AcDbCircle
 62
250
  6
CONTINUOUS
 10
-3.15
 20
-21.65
 40
0.1
100
AcDbArc
 50
143.2816890224
 51
216.7183109776
  0
ARC
  5
90A
100
AcDbEntity
  8
ASSI
100
AcDbCircle
 62
7
  6
CONTINUOUS
 10
-11.25
 20
-0.0
 40
28.0
100
AcDbArc
 50
303.5572123136
 51
304.2816320876
  0
ARC
  5
90B
100
AcDbEntity
  8
ASSI
100
AcDbCircle
 62
7
  6
CONTINUOUS
 10
-11.25
 20
-0.0
 40
28.0
100
AcDbArc
 50
305.8022267155
 51
315.5291938399
  0
ARC
  5
90C
100
AcDbEntity
  8
ASSI
100
AcDbCircle
 62
7
  6
CONTINUOUS
 10
-11.25
 20
-0.0
 40
28.0
100
AcDbArc
 50
44.4708061601
 51
54.1977732845
  0
ARC
  5
90D
100
AcDbEntity
  8
ASSI
100
AcDbCircle
 62
7
  6
CONTINUOUS
 10
-11.25
 20
-0.0
 40
28.0
100
AcDbArc
 50
55.7183679124
 51
56.4427876864
  0
ARC
  5
90E
100
AcDbEntity
  8
DRAFT
100
AcDbCircle
 62
7
  6
CONTINUOUS
 10
-11.25
 20
-0.0
 40
28.0
100
AcDbArc
 50
303.5572123136
 51
304.2816320876
  0
ARC
  5
90F
100
AcDbEntity
  8
DRAFT
100
AcDbCircle
 62
7
  6
CONTINUOUS
 10
-11.25
 20
-0.0
 40
28.0
100
AcDbArc
 50
305.8022267155
 51
315.5291938399
  0
ARC
  5
910
100
AcDbEntity
  8
DRAFT
100
AcDbCircle
 62
7
  6
CONTINUOUS
 10
-11.25
 20
-0.0
 40
28.0
100
AcDbArc
 50
44.4708061601
 51
54.1977732845
  0
ARC
  5
911
100
AcDbEntity
  8
DRAFT
100
AcDbCircle
 62
7
  6
CONTINUOUS
 10
-11.25
 20
-0.0
 40
28.0
100
AcDbArc
 50
55.7183679124
 51
56.4427876864
  0
ARC
  5
912
100
AcDbEntity
  8
ASSI
100
AcDbCircle
 62
7
  6
CONTINUOUS
 10
-11.25
 20
-0.0
 40
27.9301797403
100
AcDbArc
 50
305.881601122
 51
310.6207502002
  0
ARC
  5
913
100
AcDbEntity
  8
ASSI
100
AcDbCircle
 62
7
  6
CONTINUOUS
 10
-11.25
 20
-0.0
 40
27.9301797403
100
AcDbArc
 50
303.6019742715
 51
304.2022576811
  0
ARC
  5
914
100
AcDbEntity
  8
ASSI
100
AcDbCircle
 62
7
  6
CONTINUOUS
 10
-11.25
 20
-0.0
 40
27.9301797403
100
AcDbArc
 50
55.7977423189
 51
56.3980257285
  0
ARC
  5
915
100
AcDbEntity
  8
ASSI
100
AcDbCircle
 62
7
  6
CONTINUOUS
 10
-11.25
 20
-0.0
 40
27.9301797403
100
AcDbArc
 50
49.3792497998
 51
54.118398878
  0
ARC
  5
916
100
AcDbEntity
  8
DRAFT
100
AcDbCircle
 62
7
  6
CONTINUOUS
 10
-11.25
 20
-0.0
 40
27.9301797403
100
AcDbArc
 50
305.881601122
 51
310.6207502002
  0
ARC
  5
917
100
AcDbEntity
  8
DRAFT
100
AcDbCircle
 62
7
  6
CONTINUOUS
 10
-11.25
 20
-0.0
 40
27.9301797403
100
AcDbArc
 50
303.6019742715
 51
304.2022576811
  0
ARC
  5
918
100
AcDbEntity
  8
DRAFT
100
AcDbCircle
 62
7
  6
CONTINUOUS
 10
-11.25
 20
-0.0
 40
27.9301797403
100
AcDbArc
 50
55.7977423189
 51
56.3980257285
  0
ARC
  5
919
100
AcDbEntity
  8
DRAFT
100
AcDbCircle
 62
7
  6
CONTINUOUS
 10
-11.25
 20
-0.0
 40
27.9301797403
100
AcDbArc
 50
49.3792497998
 51
54.118398878
  0
ARC
  5
91A
100
AcDbEntity
  8
ASSI
100
AcDbCircle
 62
7
  6
CONTINUOUS
 10
-11.25
 20
-0.0
 40
27.8429044156
100
AcDbArc
 50
313.1897897291
 51
315.2162365255
  0
ARC
  5
91B
100
AcDbEntity
  8
ASSI
100
AcDbCircle
 62
7
  6
CONTINUOUS
 10
-11.25
 20
-0.0
 40
27.8429044156
100
AcDbArc
 50
44.7837634745
 51
46.8102102709
  0
ARC
  5
91C
100
AcDbEntity
  8
0
100
AcDbCircle
 62
7
  6
CONTINUOUS
 10
-11.25
 20
-0.0
 40
27.8429044156
100
AcDbArc
 50
313.1897897291
 51
315.2162365255
  0
ARC
  5
91D
100
AcDbEntity
  8
0
100
AcDbCircle
 62
7
  6
CONTINUOUS
 10
-11.25
 20
-0.0
 40
27.8429044156
100
AcDbArc
 50
44.7837634745
 51
46.8102102709
  0
ARC
  5
91E
100
AcDbEntity
  8
IMPORT_IGES
100
AcDbCircle
 62
7
  6
CONTINUOUS
 10
-7.6
 20
17.4
 40
1.0
100
AcDbArc
 50
54.4342837103
 51
60.6110478832
  0
ARC
  5
91F
100
AcDbEntity
  8
CURVE
100
AcDbCircle
 62
250
  6
CONTINUOUS
 10
-6.5
 20
11.6
 40
1.0
100
AcDbArc
 50
23.5781784782
 51
336.4218215218
  0
ARC
  5
920
100
AcDbEntity
  8
ASSI
100
AcDbCircle
 62
7
  6
CONTINUOUS
 10
-9.5059083707
 20
17.49
 40
0.71
100
AcDbArc
 50
94.7020215745
 51
130.2988538673
  0
ARC
  5
921
100
AcDbEntity
  8
ASSI
100
AcDbCircle
 62
7
  6
CONTINUOUS
 10
-10.29
 20
16.7059083707
 40
0.71
100
AcDbArc
 50
139.7020215745
 51
175.2988538673
  0
ARC
  5
922
100
AcDbEntity
  8
ASSI
100
AcDbCircle
 62
7
  6
CONTINUOUS
 10
-4.95
 20
23.1
 40
0.5
100
AcDbArc
 50
250.0964094658
 51
359.9874493373
  0
ARC
  5
923
100
AcDbEntity
  8
DRAFT
100
AcDbCircle
 62
7
  6
CONTINUOUS
 10
-4.95
 20
23.1
 40
0.5
100
AcDbArc
 50
250.0964094658
 51
359.9874493373
  0
ARC
  5
924
100
AcDbEntity
  8
ASSI
100
AcDbCircle
 62
7
  6
CONTINUOUS
 10
-4.95
 20
23.1
 40
0.4301797403
100
AcDbArc
 50
245.3088662279
 51
4.7749925752
  0
ARC
  5
925
100
AcDbEntity
  8
DRAFT
100
AcDbCircle
 62
7
  6
CONTINUOUS
 10
-4.95
 20
23.1
 40
0.4301797403
100
AcDbArc
 50
245.3088662279
 51
4.7749925752
  0
ARC
  5
926
100
AcDbEntity
  8
0
100
AcDbCircle
 62
7
  6
CONTINUOUS
 10
-3.15
 20
21.65
 40
0.3
100
AcDbArc
 50
106.8864186508
 51
146.4559866173
  0
ARC
  5
927
100
AcDbEntity
  8
0
100
AcDbCircle
 62
7
  6
CONTINUOUS
 10
-3.15
 20
21.65
 40
0.3
100
AcDbArc
 50
213.5334312097
 51
253.1135813492
  0
ARC
  5
928
100
AcDbEntity
  8
0
100
AcDbCircle
 62
250
  6
CONTINUOUS
 10
-3.15
 20
21.65
 40
0.1
100
AcDbArc
 50
143.2816890224
 51
216.7183109776
  0
ARC
  5
929
100
AcDbEntity
  8
ASSI
100
AcDbCircle
 62
7
  6
CONTINUOUS
 10
10.29
 20
-17.3275474363
 40
0.71
100
AcDbArc
 50
324.4898609697
 51
353.5218156683
  0
ARC
  5
92A
100
AcDbEntity
  8
ASSI
100
AcDbCircle
 62
7
  6
CONTINUOUS
 10
8.8837926927
 20
-18.89
 40
0.71
100
AcDbArc
 50
273.427692326
 51
314.5850347915
  0
ARC
  5
92B
100
AcDbEntity
  8
ASSI
100
AcDbCircle
 62
7
  6
CONTINUOUS
 10
4.95
 20
-23.1
 40
0.5
100
AcDbArc
 50
70.0964094658
 51
179.9874493373
  0
ARC
  5
92C
100
AcDbEntity
  8
DRAFT
100
AcDbCircle
 62
7
  6
CONTINUOUS
 10
4.95
 20
-23.1
 40
0.5
100
AcDbArc
 50
70.0964094658
 51
179.9874493373
  0
ARC
  5
92D
100
AcDbEntity
  8
ASSI
100
AcDbCircle
 62
7
  6
CONTINUOUS
 10
4.95
 20
-23.1
 40
0.4301797403
100
AcDbArc
 50
65.3088662279
 51
184.7749925752
  0
ARC
  5
92E
100
AcDbEntity
  8
DRAFT
100
AcDbCircle
 62
7
  6
CONTINUOUS
 10
4.95
 20
-23.1
 40
0.4301797403
100
AcDbArc
 50
65.3088662279
 51
184.7749925752
  0
CIRCLE
  5
92F
100
AcDbEntity
  8
CURVE
100
AcDbCircle
 62
250
  6
CONTINUOUS
 10
1.950628
 20
-14.3647
 40
0.317592
  0
ARC
  5
930
100
AcDbEntity
  8
0
100
AcDbCircle
 62
7
  6
CONTINUOUS
 10
3.15
 20
-21.65
 40
0.3
100
AcDbArc
 50
286.8864186508
 51
326.4559866173
  0
ARC
  5
931
100
AcDbEntity
  8
0
100
AcDbCircle
 62
7
  6
CONTINUOUS
 10
3.15
 20
-21.65
 40
0.3
100
AcDbArc
 50
33.5334312097
 51
73.1135813492
  0
CIRCLE
  5
932
100
AcDbEntity
  8
CURVE
100
AcDbCircle
 62
250
  6
CONTINUOUS
 10
5.296182
 20
-14.789913
 40
0.192582
  0
CIRCLE
  5
933
100
AcDbEntity
  8
CURVE
100
AcDbCircle
 62
250
  6
CONTINUOUS
 10
1.950628
 20
-14.3647
 40
0.14051
  0
ARC
  5
934
100
AcDbEntity
  8
0
100
AcDbCircle
 62
250
  6
CONTINUOUS
 10
3.15
 20
-21.65
 40
0.1
100
AcDbArc
 50
323.2816890224
 51
36.7183109776
  0
ARC
  5
935
100
AcDbEntity
  8
ASSI
100
AcDbCircle
 62
7
  6
CONTINUOUS
 10
4.95
 20
23.1
 40
0.5
100
AcDbArc
 50
180.0125506627
 51
289.9035905342
  0
ARC
  5
936
100
AcDbEntity
  8
DRAFT
100
AcDbCircle
 62
7
  6
CONTINUOUS
 10
4.95
 20
23.1
 40
0.5
100
AcDbArc
 50
180.0125506627
 51
289.9035905342
  0
ARC
  5
937
100
AcDbEntity
  8
ASSI
100
AcDbCircle
 62
7
  6
CONTINUOUS
 10
4.95
 20
23.1
 40
0.4301797403
100
AcDbArc
 50
175.2250074248
 51
294.6911337721
  0
ARC
  5
938
100
AcDbEntity
  8
DRAFT
100
AcDbCircle
 62
7
  6
CONTINUOUS
 10
4.95
 20
23.1
 40
0.4301797403
100
AcDbArc
 50
175.2250074248
 51
294.6911337721
  0
ARC
  5
939
100
AcDbEntity
  8
0
100
AcDbCircle
 62
7
  6
CONTINUOUS
 10
3.15
 20
21.65
 40
0.3
100
AcDbArc
 50
286.8864186508
 51
326.4559866173
  0
ARC
  5
93A
100
AcDbEntity
  8
0
100
AcDbCircle
 62
7
  6
CONTINUOUS
 10
3.15
 20
21.65
 40
0.3
100
AcDbArc
 50
33.5334312097
 51
73.1135813492
  0
ARC
  5
93B
100
AcDbEntity
  8
0
100
AcDbCircle
 62
250
  6
CONTINUOUS
 10
3.15
 20
21.65
 40
0.1
100
AcDbArc
 50
323.2816890224
 51
36.7183109776
  0
ARC
  5
93C
100
AcDbEntity
  8
ASSI
100
AcDbCircle
 62
7
  6
CONTINUOUS
 10
11.25
 20
-0.0
 40
28.0
100
AcDbArc
 50
218.3146467789
 51
218.424306065
  0
ARC
  5
93D
100
AcDbEntity
  8
ASSI
100
AcDbCircle
 62
7
  6
CONTINUOUS
 10
11.25
 20
-0.0
 40
28.0
100
AcDbArc
 50
221.4379886773
 51
234.1977732845
  0
ARC
  5
93E
100
AcDbEntity
  8
ASSI
100
AcDbCircle
 62
7
  6
CONTINUOUS
 10
11.25
 20
-0.0
 40
28.0
100
AcDbArc
 50
235.7183679124
 51
236.4427876864
  0
ARC
  5
93F
100
AcDbEntity
  8
ASSI
100
AcDbCircle
 62
7
  6
CONTINUOUS
 10
11.25
 20
-0.0
 40
28.0
100
AcDbArc
 50
123.5572123136
 51
124.2816320876
  0
ARC
  5
940
100
AcDbEntity
  8
ASSI
100
AcDbCircle
 62
7
  6
CONTINUOUS
 10
11.25
 20
-0.0
 40
28.0
100
AcDbArc
 50
125.8022267155
 51
141.6853532211
  0
ARC
  5
941
100
AcDbEntity
  8
DRAFT
100
AcDbCircle
 62
7
  6
CONTINUOUS
 10
11.25
 20
-0.0
 40
28.0
100
AcDbArc
 50
218.3146467789
 51
218.424306065
  0
ARC
  5
942
100
AcDbEntity
  8
DRAFT
100
AcDbCircle
 62
7
  6
CONTINUOUS
 10
11.25
 20
-0.0
 40
28.0
100
AcDbArc
 50
221.4379886773
 51
234.1977732845
  0
ARC
  5
943
100
AcDbEntity
  8
DRAFT
100
AcDbCircle
 62
7
  6
CONTINUOUS
 10
11.25
 20
-0.0
 40
28.0
100
AcDbArc
 50
235.7183679124
 51
236.4427876864
  0
ARC
  5
944
100
AcDbEntity
  8
DRAFT
100
AcDbCircle
 62
7
  6
CONTINUOUS
 10
11.25
 20
-0.0
 40
28.0
100
AcDbArc
 50
123.5572123136
 51
124.2816320876
  0
ARC
  5
945
100
AcDbEntity
  8
DRAFT
100
AcDbCircle
 62
7
  6
CONTINUOUS
 10
11.25
 20
-0.0
 40
28.0
100
AcDbArc
 50
125.8022267155
 51
141.6853532211
  0
ARC
  5
946
100
AcDbEntity
  8
ASSI
100
AcDbCircle
 62
7
  6
CONTINUOUS
 10
11.25
 20
-0.0
 40
27.9301797403
100
AcDbArc
 50
235.7977423189
 51
236.3980257285
  0
ARC
  5
947
100
AcDbEntity
  8
ASSI
100
AcDbCircle
 62
7
  6
CONTINUOUS
 10
11.25
 20
-0.0
 40
27.9301797403
100
AcDbArc
 50
229.3792497998
 51
234.118398878
  0
ARC
  5
948
100
AcDbEntity
  8
ASSI
100
AcDbCircle
 62
7
  6
CONTINUOUS
 10
11.25
 20
-0.0
 40
27.9301797403
100
AcDbArc
 50
125.881601122
 51
130.6207502002
  0
ARC
  5
949
100
AcDbEntity
  8
ASSI
100
AcDbCircle
 62
7
  6
CONTINUOUS
 10
11.25
 20
-0.0
 40
27.9301797403
100
AcDbArc
 50
123.6019742715
 51
124.2022576811
  0
ARC
  5
94A
100
AcDbEntity
  8
DRAFT
100
AcDbCircle
 62
7
  6
CONTINUOUS
 10
11.25
 20
-0.0
 40
27.9301797403
100
AcDbArc
 50
235.7977423189
 51
236.3980257285
  0
ARC
  5
94B
100
AcDbEntity
  8
DRAFT
100
AcDbCircle
 62
7
  6
CONTINUOUS
 10
11.25
 20
-0.0
 40
27.9301797403
100
AcDbArc
 50
229.3792497998
 51
234.118398878
  0
ARC
  5
94C
100
AcDbEntity
  8
DRAFT
100
AcDbCircle
 62
7
  6
CONTINUOUS
 10
11.25
 20
-0.0
 40
27.9301797403
100
AcDbArc
 50
125.881601122
 51
130.6207502002
  0
ARC
  5
94D
100
AcDbEntity
  8
DRAFT
100
AcDbCircle
 62
7
  6
CONTINUOUS
 10
11.25
 20
-0.0
 40
27.9301797403
100
AcDbArc
 50
123.6019742715
 51
124.2022576811
  0
ARC
  5
94E
100
AcDbEntity
  8
ASSI
100
AcDbCircle
 62
7
  6
CONTINUOUS
 10
11.25
 20
-0.0
 40
27.8429044156
100
AcDbArc
 50
138.1808094883
 51
139.6390437922
  0
ARC
  5
94F
100
AcDbEntity
  8
DRAFT
100
AcDbCircle
 62
7
  6
CONTINUOUS
 10
11.25
 20
-0.0
 40
27.8429044156
100
AcDbArc
 50
138.1808094883
 51
139.6390437922
  0
ARC
  5
950
100
AcDbEntity
  8
ASSI
100
AcDbCircle
 62
7
  6
CONTINUOUS
 10
11.25
 20
-0.0
 40
27.8289403637
100
AcDbArc
 50
221.9155921656
 51
224.4839467039
  0
ARC
  5
951
100
AcDbEntity
  8
ASSI
100
AcDbCircle
 62
7
  6
CONTINUOUS
 10
11.25
 20
-0.0
 40
27.8289403637
100
AcDbArc
 50
135.5160532961
 51
138.2129529938
  0
ARC
  5
952
100
AcDbEntity
  8
DRAFT
100
AcDbCircle
 62
7
  6
CONTINUOUS
 10
11.25
 20
-0.0
 40
27.8289403637
100
AcDbArc
 50
135.5160532961
 51
138.2129529938
  0
ARC
  5
953
100
AcDbEntity
  8
DRAFT
100
AcDbCircle
 62
7
  6
CONTINUOUS
 10
11.25
 20
-0.0
 40
27.8289403637
100
AcDbArc
 50
221.9155921656
 51
224.4839467039
  0
ARC
  5
954
100
AcDbEntity
  8
ASSI
100
AcDbCircle
 62
7
  6
CONTINUOUS
 10
11.25
 20
-0.0
 40
26.4214581899
100
AcDbArc
 50
136.2493084096
 51
136.4222022968
  0
ARC
  5
955
100
AcDbEntity
  8
DRAFT
100
AcDbCircle
 62
7
  6
CONTINUOUS
 10
11.25
 20
-0.0
 40
26.4214581899
100
AcDbArc
 50
136.2493084096
 51
136.4222022968
  0
ARC
  5
956
100
AcDbEntity
  8
ASSI
100
AcDbCircle
 62
7
  6
CONTINUOUS
 10
10.29
 20
17.3275474363
 40
0.71
100
AcDbArc
 50
6.4755046239
 51
35.5106126115
  0
ARC
  5
957
100
AcDbEntity
  8
ASSI
100
AcDbCircle
 62
7
  6
CONTINUOUS
 10
8.8837926927
 20
18.89
 40
0.71
100
AcDbArc
 50
45.4158531121
 51
86.5714133434
  0
ELLIPSE
  5
958
100
AcDbEntity
  8
0
100
AcDbEllipse
 62
7
  6
CONTINUOUS
 10
-3.0300365522
 20
23.175
 30
0.0
 11
0.2001219089
 21
0.0
 31
0.0
 40
0.999390827
 41
1.5707963268
 42
3.1415926536
  0
ELLIPSE
  5
959
100
AcDbEntity
  8
0
100
AcDbEllipse
 62
7
  6
CONTINUOUS
 10
3.0300365522
 20
23.175
 30
0.0
 11
0.2001219089
 21
-0.0
 31
0.0
 40
0.999390827
 41
0.0
 42
1.5707963268
  0
ELLIPSE
  5
95A
100
AcDbEntity
  8
0
100
AcDbEllipse
 62
7
  6
CONTINUOUS
 10
-3.0300365522
 20
-23.175
 30
0.0
 11
0.2001219089
 21
0.0
 31
0.0
 40
0.999390827
 41
-3.1415926536
 42
-1.5707963268
  0
ELLIPSE
  5
95B
100
AcDbEntity
  8
0
100
AcDbEllipse
 62
7
  6
CONTINUOUS
 10
3.0300365522
 20
-23.175
 30
0.0
 11
0.2001219089
 21
0.0
 31
0.0
 40
0.999390827
 41
-1.5707963268
 42
0.0
  0
ELLIPSE
  5
95C
100
AcDbEntity
  8
0
100
AcDbEllipse
 62
7
  6
CONTINUOUS
 10
-10.649923836
 20
21.899313827
 30
0.0
 11
-0.1582391023
 21
0.4751033573
 31
0.0
 40
0.9984778551
 41
-0.3210503505
 42
1.2488325878
  0
ELLIPSE
  5
95D
100
AcDbEntity
  8
0
100
AcDbEllipse
 62
7
  6
CONTINUOUS
 10
-10.649923836
 20
-21.899313827
 30
0.0
 11
0.1582391023
 21
0.4751033573
 31
0.0
 40
0.9984778551
 41
1.8927600658
 42
3.4626430041
  0
ELLIPSE
  5
95E
100
AcDbEntity
  8
0
100
AcDbEllipse
 62
7
  6
CONTINUOUS
 10
10.649923836
 20
-21.899313827
 30
0.0
 11
0.1582391023
 21
-0.4751033573
 31
0.0
 40
0.9984778551
 41
-0.3210503505
 42
1.2488325878
  0
ELLIPSE
  5
95F
100
AcDbEntity
  8
0
100
AcDbEllipse
 62
7
  6
CONTINUOUS
 10
10.649923836
 20
21.899313827
 30
0.0
 11
-0.1582391023
 21
-0.4751033573
 31
0.0
 40
0.9984778551
 41
1.8927600658
 42
3.4626430041
  0
ELLIPSE
  5
960
100
AcDbEntity
  8
ASSI
100
AcDbEllipse
 62
7
  6
CONTINUOUS
 10
-11.25
 20
-0.4799609489
 30
0.0
 11
0.0
 21
27.4969443471
 31
0.0
 40
0.9998476487
 41
-2.4202061644
 42
-2.3757647915
  0
ELLIPSE
  5
961
100
AcDbEntity
  8
ASSI
100
AcDbEllipse
 62
7
  6
CONTINUOUS
 10
-11.25
 20
0.4799609489
 30
0.0
 11
0.0
 21
27.4969443471
 31
0.0
 40
0.9998476487
 41
-0.7658278621
 42
-0.7213864892
  0
ELLIPSE
  5
962
100
AcDbEntity
  8
ASSI
100
AcDbEllipse
 62
7
  6
CONTINUOUS
 10
11.25
 20
-0.4799609489
 30
0.0
 11
-0.0
 21
27.4969443471
 31
0.0
 40
0.9998476487
 41
-3.9485283289
 42
-3.8629791428
  0
ELLIPSE
  5
963
100
AcDbEntity
  8
ASSI
100
AcDbEllipse
 62
7
  6
CONTINUOUS
 10
11.25
 20
0.4799609489
 30
0.0
 11
0.0
 21
27.4969443471
 31
0.0
 40
0.9998476487
 41
7.0045717964
 42
7.0901209825
  0
ELLIPSE
  5
964
100
AcDbEntity
  8
0
100
AcDbEllipse
 62
7
  6
CONTINUOUS
 10
-11.25
 20
0.4799609489
 30
0.0
 11
0.0
 21
27.4969443471
 31
0.0
 40
0.9998476487
 41
-0.7658278621
 42
-0.7213864892
  0
ELLIPSE
  5
965
100
AcDbEntity
  8
0
100
AcDbEllipse
 62
7
  6
CONTINUOUS
 10
-11.25
 20
-0.4799609489
 30
0.0
 11
0.0
 21
27.4969443471
 31
0.0
 40
0.9998476487
 41
-2.4202061644
 42
-2.3757647915
  0
ELLIPSE
  5
966
100
AcDbEntity
  8
DRAFT
100
AcDbEllipse
 62
7
  6
CONTINUOUS
 10
11.25
 20
0.4799609489
 30
0.0
 11
0.0
 21
27.4969443471
 31
0.0
 40
0.9998476487
 41
7.0045717964
 42
7.0901209825
  0
ELLIPSE
  5
967
100
AcDbEntity
  8
DRAFT
100
AcDbEllipse
 62
7
  6
CONTINUOUS
 10
11.25
 20
-0.4799609489
 30
0.0
 11
-0.0
 21
27.4969443471
 31
0.0
 40
0.9998476487
 41
2.3346569783
 42
2.4202061644
  0
ELLIPSE
  5
968
100
AcDbEntity
  8
RACCORDO
100
AcDbEllipse
 62
7
  6
CONTINUOUS
 10
-4.3131017252
 20
18.5131017252
 30
0.0
 11
-0.2121481893
 21
0.2121481893
 31
0.0
 40
0.9999238505
 41
-3.9269527408
 42
-2.3562325664
  0
ELLIPSE
  5
969
100
AcDbEntity
  8
RACCORDO
100
AcDbEllipse
 62
7
  6
CONTINUOUS
 10
-3.7130788782
 20
19.3130788782
 30
0.0
 11
0.2121481893
 21
-0.2121481893
 31
0.0
 40
0.9999238505
 41
2.3562325664
 42
3.9269527408
  0
ELLIPSE
  5
96A
100
AcDbEntity
  8
RACCORDO
100
AcDbEllipse
 62
7
  6
CONTINUOUS
 10
8.7604505648
 20
18.6130522233
 30
0.0
 11
0.4068571494
 21
0.9135417473
 31
0.0
 40
0.9999543711
 41
-0.4189736545
 42
0.4189736545
  0
ELLIPSE
  5
96B
100
AcDbEntity
  8
RACCORDO
100
AcDbEllipse
 62
7
  6
CONTINUOUS
 10
10.0130522233
 20
17.2212726028
 30
0.0
 11
0.9336611973
 21
0.3582794181
 31
0.0
 40
0.9999563165
 41
-0.3663929394
 42
0.3663929394
  0
ELLIPSE
  5
96C
100
AcDbEntity
  8
RACCORDO
100
AcDbEllipse
 62
7
  6
CONTINUOUS
 10
10.0130522233
 20
-17.2212726028
 30
0.0
 11
0.9336611973
 21
-0.3582794181
 31
0.0
 40
0.9999563165
 41
-0.3663929394
 42
0.3663929394
  0
ELLIPSE
  5
96D
100
AcDbEntity
  8
RACCORDO
100
AcDbEllipse
 62
7
  6
CONTINUOUS
 10
8.7604505648
 20
-18.6130522233
 30
0.0
 11
-0.4068571494
 21
0.9135417473
 31
0.0
 40
0.9999543711
 41
2.7226189991
 42
3.5605663081
  0
ELLIPSE
  5
96E
100
AcDbEntity
  8
RACCORDO
100
AcDbEllipse
 62
7
  6
CONTINUOUS
 10
-3.7130788782
 20
-19.3130788782
 30
0.0
 11
-0.2121481893
 21
-0.2121481893
 31
0.0
 40
0.9999238505
 41
-0.7853600872
 42
0.7853600872
  0
ELLIPSE
  5
96F
100
AcDbEntity
  8
RACCORDO
100
AcDbEllipse
 62
7
  6
CONTINUOUS
 10
-9.3911928455
 20
-17.2130522233
 30
0.0
 11
-0.3827005044
 21
-0.9239207481
 31
0.0
 40
0.9999553905
 41
-0.3926833098
 42
0.3926833098
  0
ELLIPSE
  5
970
100
AcDbEntity
  8
RACCORDO
100
AcDbEllipse
 62
7
  6
CONTINUOUS
 10
-10.0130522233
 20
-16.5911928455
 30
0.0
 11
0.9239207481
 21
0.3827005044
 31
0.0
 40
0.9999553905
 41
2.7489093438
 42
3.5342759634
  0
ELLIPSE
  5
971
100
AcDbEntity
  8
RACCORDO
100
AcDbEllipse
 62
7
  6
CONTINUOUS
 10
-10.7130788782
 20
-9.25
 30
0.0
 11
0.3000114235
 21
-0.0
 31
0.0
 40
0.9999619231
 41
7.853981634
 42
9.4247779608
  0
ELLIPSE
  5
972
100
AcDbEntity
  8
RACCORDO
100
AcDbEllipse
 62
7
  6
CONTINUOUS
 10
-10.7130788782
 20
-4.35
 30
0.0
 11
-0.3000114235
 21
0.0
 31
0.0
 40
0.9999619231
 41
6.2831853072
 42
7.853981634
  0
ELLIPSE
  5
973
100
AcDbEntity
  8
RACCORDO
100
AcDbEllipse
 62
7
  6
CONTINUOUS
 10
-10.7130788782
 20
-4.25
 30
0.0
 11
0.3000114235
 21
0.0
 31
0.0
 40
0.9999619231
 41
7.853981634
 42
9.4247779608
  0
ELLIPSE
  5
974
100
AcDbEntity
  8
RACCORDO
100
AcDbEllipse
 62
7
  6
CONTINUOUS
 10
-10.7130788782
 20
0.65
 30
0.0
 11
-0.3000114235
 21
0.0
 31
0.0
 40
0.9999619231
 41
6.2831853072
 42
7.853981634
  0
ELLIPSE
  5
975
100
AcDbEntity
  8
RACCORDO
100
AcDbEllipse
 62
7
  6
CONTINUOUS
 10
-10.7130788782
 20
0.75
 30
0.0
 11
0.3000114235
 21
0.0
 31
0.0
 40
0.9999619231
 41
7.853981634
 42
9.4247779608
  0
ELLIPSE
  5
976
100
AcDbEntity
  8
RACCORDO
100
AcDbEllipse
 62
7
  6
CONTINUOUS
 10
-10.7130788782
 20
5.65
 30
0.0
 11
-0.3000114235
 21
0.0
 31
0.0
 40
0.9999619231
 41
6.2831853072
 42
7.853981634
  0
ELLIPSE
  5
977
100
AcDbEntity
  8
RACCORDO
100
AcDbEllipse
 62
7
  6
CONTINUOUS
 10
-10.7130788782
 20
5.75
 30
0.0
 11
0.3000114235
 21
0.0
 31
0.0
 40
0.9999619231
 41
7.853981634
 42
9.4247779608
  0
ELLIPSE
  5
978
100
AcDbEntity
  8
RACCORDO
100
AcDbEllipse
 62
7
  6
CONTINUOUS
 10
-10.7130788782
 20
10.65
 30
0.0
 11
-0.3000114235
 21
0.0
 31
0.0
 40
0.9999619231
 41
6.2831853072
 42
7.853981634
  0
ELLIPSE
  5
979
100
AcDbEntity
  8
RACCORDO
100
AcDbEllipse
 62
7
  6
CONTINUOUS
 10
-10.0130522233
 20
16.5911928455
 30
0.0
 11
-0.9239207481
 21
0.3827005044
 31
0.0
 40
0.9999553905
 41
-0.3926833098
 42
0.3926833098
  0
ELLIPSE
  5
97A
100
AcDbEntity
  8
RACCORDO
100
AcDbEllipse
 62
7
  6
CONTINUOUS
 10
-9.3911928455
 20
17.2130522233
 30
0.0
 11
-0.3827005044
 21
0.9239207481
 31
0.0
 40
0.9999553905
 41
-0.3926833098
 42
0.3926833098
  0
ELLIPSE
  5
97B
100
AcDbEntity
  8
0
100
AcDbEllipse
 62
7
  6
CONTINUOUS
 10
-9.8349074712
 20
-6.8
 30
0.0
 11
0.0
 21
2.15
 31
0.0
 40
0.0087268678
 41
0.0
 42
3.1415926536
  0
ELLIPSE
  5
97C
100
AcDbEntity
  8
0
100
AcDbEllipse
 62
7
  6
CONTINUOUS
 10
-9.8349074712
 20
8.2
 30
0.0
 11
-0.0
 21
2.15
 31
0.0
 40
0.0087268678
 41
0.0
 42
3.1415926536
  0
ELLIPSE
  5
97D
100
AcDbEntity
  8
0
100
AcDbEllipse
 62
7
  6
CONTINUOUS
 10
-9.8349074712
 20
3.2
 30
0.0
 11
0.0
 21
2.15
 31
0.0
 40
0.0087268678
 41
0.0
 42
3.1415926536
  0
ELLIPSE
  5
97E
100
AcDbEntity
  8
0
100
AcDbEllipse
 62
7
  6
CONTINUOUS
 10
-9.8349074712
 20
-1.8
 30
0.0
 11
-0.0
 21
2.15
 31
0.0
 40
0.0087268678
 41
0.0
 42
3.1415926536
  0
ELLIPSE
  5
97F
100
AcDbEntity
  8
RACCORDO
100
AcDbEllipse
 62
7
  6
CONTINUOUS
 10
-1.5825740794
 20
-17.7
 30
0.0
 11
0.4000152314
 21
0.0
 31
0.0
 40
0.9999619231
 41
1.5707963268
 42
2.6178226392
  0
ELLIPSE
  5
980
100
AcDbEntity
  8
RACCORDO
100
AcDbEllipse
 62
7
  6
CONTINUOUS
 10
1.5825740794
 20
-17.7
 30
0.0
 11
0.4000152314
 21
0.0
 31
0.0
 40
0.9999619231
 41
0.5237700144
 42
1.5707963268
  0
ELLIPSE
  5
981
100
AcDbEntity
  8
ASSI
100
AcDbEllipse
 62
7
  6
CONTINUOUS
 10
-3.7130788782
 20
19.3130788782
 30
0.0
 11
0.2121481893
 21
-0.2121481893
 31
0.0
 40
0.9999238505
 41
2.3562325664
 42
3.9269527408
  0
ELLIPSE
  5
982
100
AcDbEntity
  8
ASSI
100
AcDbEllipse
 62
7
  6
CONTINUOUS
 10
8.7604505648
 20
18.6130522233
 30
0.0
 11
0.4068571494
 21
0.9135417473
 31
0.0
 40
0.9999543711
 41
-0.4189736545
 42
0.4189736545
  0
ELLIPSE
  5
983
100
AcDbEntity
  8
ASSI
100
AcDbEllipse
 62
7
  6
CONTINUOUS
 10
10.0130522233
 20
17.2212726028
 30
0.0
 11
0.9336611973
 21
0.3582794181
 31
0.0
 40
0.9999563165
 41
-0.3663929394
 42
0.3663929394
  0
ELLIPSE
  5
984
100
AcDbEntity
  8
ASSI
100
AcDbEllipse
 62
7
  6
CONTINUOUS
 10
10.0130522233
 20
-17.2212726028
 30
0.0
 11
0.9336611973
 21
-0.3582794181
 31
0.0
 40
0.9999563165
 41
-0.3663929394
 42
0.3663929394
  0
ELLIPSE
  5
985
100
AcDbEntity
  8
ASSI
100
AcDbEllipse
 62
7
  6
CONTINUOUS
 10
8.7604505648
 20
-18.6130522233
 30
0.0
 11
-0.4068571494
 21
0.9135417473
 31
0.0
 40
0.9999543711
 41
2.7226189991
 42
3.5605663081
  0
ELLIPSE
  5
986
100
AcDbEntity
  8
ASSI
100
AcDbEllipse
 62
7
  6
CONTINUOUS
 10
-3.7130788782
 20
-19.3130788782
 30
0.0
 11
-0.2121481893
 21
-0.2121481893
 31
0.0
 40
0.9999238505
 41
-0.7853600872
 42
0.7853600872
  0
ELLIPSE
  5
987
100
AcDbEntity
  8
ASSI
100
AcDbEllipse
 62
7
  6
CONTINUOUS
 10
-9.3911928455
 20
-17.2130522233
 30
0.0
 11
-0.3827005044
 21
-0.9239207481
 31
0.0
 40
0.9999553905
 41
-0.3926833098
 42
0.3926833098
  0
ELLIPSE
  5
988
100
AcDbEntity
  8
ASSI
100
AcDbEllipse
 62
7
  6
CONTINUOUS
 10
-10.0130522233
 20
-16.5911928455
 30
0.0
 11
0.9239207481
 21
0.3827005044
 31
0.0
 40
0.9999553905
 41
2.7489093438
 42
3.5342759634
  0
ELLIPSE
  5
989
100
AcDbEntity
  8
ASSI
100
AcDbEllipse
 62
7
  6
CONTINUOUS
 10
-10.7130788782
 20
-9.25
 30
0.0
 11
0.3000114235
 21
-0.0
 31
0.0
 40
0.9999619231
 41
7.853981634
 42
9.4247779608
  0
ELLIPSE
  5
98A
100
AcDbEntity
  8
ASSI
100
AcDbEllipse
 62
7
  6
CONTINUOUS
 10
-10.7130788782
 20
-4.35
 30
0.0
 11
-0.3000114235
 21
0.0
 31
0.0
 40
0.9999619231
 41
6.2831853072
 42
7.853981634
  0
ELLIPSE
  5
98B
100
AcDbEntity
  8
ASSI
100
AcDbEllipse
 62
7
  6
CONTINUOUS
 10
-10.7130788782
 20
-4.25
 30
0.0
 11
0.3000114235
 21
0.0
 31
0.0
 40
0.9999619231
 41
7.853981634
 42
9.4247779608
  0
ELLIPSE
  5
98C
100
AcDbEntity
  8
ASSI
100
AcDbEllipse
 62
7
  6
CONTINUOUS
 10
-10.7130788782
 20
0.65
 30
0.0
 11
-0.3000114235
 21
0.0
 31
0.0
 40
0.9999619231
 41
6.2831853072
 42
7.853981634
  0
ELLIPSE
  5
98D
100
AcDbEntity
  8
ASSI
100
AcDbEllipse
 62
7
  6
CONTINUOUS
 10
-10.7130788782
 20
0.75
 30
0.0
 11
0.3000114235
 21
0.0
 31
0.0
 40
0.9999619231
 41
7.853981634
 42
9.4247779608
  0
ELLIPSE
  5
98E
100
AcDbEntity
  8
ASSI
100
AcDbEllipse
 62
7
  6
CONTINUOUS
 10
-10.7130788782
 20
5.65
 30
0.0
 11
-0.3000114235
 21
0.0
 31
0.0
 40
0.9999619231
 41
6.2831853072
 42
7.853981634
  0
ELLIPSE
  5
98F
100
AcDbEntity
  8
ASSI
100
AcDbEllipse
 62
7
  6
CONTINUOUS
 10
-10.7130788782
 20
5.75
 30
0.0
 11
0.3000114235
 21
0.0
 31
0.0
 40
0.9999619231
 41
7.853981634
 42
9.4247779608
  0
ELLIPSE
  5
990
100
AcDbEntity
  8
ASSI
100
AcDbEllipse
 62
7
  6
CONTINUOUS
 10
-10.7130788782
 20
10.65
 30
0.0
 11
-0.3000114235
 21
0.0
 31
0.0
 40
0.9999619231
 41
6.2831853072
 42
7.853981634
  0
ELLIPSE
  5
991
100
AcDbEntity
  8
ASSI
100
AcDbEllipse
 62
7
  6
CONTINUOUS
 10
-10.0130522233
 20
16.5911928455
 30
0.0
 11
-0.9239207481
 21
0.3827005044
 31
0.0
 40
0.9999553905
 41
-0.3926833098
 42
0.3926833098
  0
ELLIPSE
  5
992
100
AcDbEntity
  8
ASSI
100
AcDbEllipse
 62
7
  6
CONTINUOUS
 10
-9.3911928455
 20
17.2130522233
 30
0.0
 11
-0.3827005044
 21
0.9239207481
 31
0.0
 40
0.9999553905
 41
-0.3926833098
 42
0.3926833098
  0
ELLIPSE
  5
993
100
AcDbEntity
  8
ASSI
100
AcDbEllipse
 62
7
  6
CONTINUOUS
 10
-1.5825740794
 20
-17.7
 30
0.0
 11
0.4000152314
 21
0.0
 31
0.0
 40
0.9999619231
 41
1.5707963268
 42
2.6178226392
  0
ELLIPSE
  5
994
100
AcDbEntity
  8
ASSI
100
AcDbEllipse
 62
7
  6
CONTINUOUS
 10
1.5825740794
 20
-17.7
 30
0.0
 11
0.4000152314
 21
0.0
 31
0.0
 40
0.9999619231
 41
0.5237700144
 42
1.5707963268
  0
ELLIPSE
  5
995
100
AcDbEntity
  8
ASSI
100
AcDbEllipse
 62
7
  6
CONTINUOUS
 10
-9.8349074712
 20
-1.8
 30
0.0
 11
-0.0
 21
2.15
 31
0.0
 40
0.0087268678
 41
0.0
 42
3.1415926536
  0
ELLIPSE
  5
996
100
AcDbEntity
  8
ASSI
100
AcDbEllipse
 62
7
  6
CONTINUOUS
 10
-9.8349074712
 20
3.2
 30
0.0
 11
0.0
 21
2.15
 31
0.0
 40
0.0087268678
 41
0.0
 42
3.1415926536
  0
ELLIPSE
  5
997
100
AcDbEntity
  8
ASSI
100
AcDbEllipse
 62
7
  6
CONTINUOUS
 10
-9.8349074712
 20
8.2
 30
0.0
 11
-0.0
 21
2.15
 31
0.0
 40
0.0087268678
 41
0.0
 42
3.1415926536
  0
ELLIPSE
  5
998
100
AcDbEntity
  8
ASSI
100
AcDbEllipse
 62
7
  6
CONTINUOUS
 10
-9.8349074712
 20
-6.8
 30
0.0
 11
0.0
 21
2.15
 31
0.0
 40
0.0087268678
 41
0.0
 42
3.1415926536
  0
ELLIPSE
  5
999
100
AcDbEntity
  8
ASSI
100
AcDbEllipse
 62
7
  6
CONTINUOUS
 10
-4.3131017252
 20
18.5131017252
 30
0.0
 11
-0.2121481893
 21
0.2121481893
 31
0.0
 40
0.9999238505
 41
-3.9269527408
 42
-2.3562325664
  0
ENDSEC
  0
SECTION
  2
OBJECTS
  0
DICTIONARY
  5
C
100
AcDbDictionary
280
0
281
1
  3
ACAD_GROUP
350
D
  3
ACAD_MLINESTYLE
350
17
  3
ACAD_LAYOUT
350
1A
  3
ACAD_PLOTSETTINGS
350
19
  3
ACAD_PLOTSTYLENAME
350
E
  0
DICTIONARY
  5
D
102
{ACAD_REACTORS
330
C
102
}
100
AcDbDictionary
280
0
281
1
  0
ACDBDICTIONARYWDFLT
  5
E
102
{ACAD_REACTORS
330
C
102
}
100
AcDbDictionary
281
1
  3
Normal
350
F
100
AcDbDictionaryWithDefault
340
F
  0
DICTIONARY
  5
17
102
{ACAD_REACTORS
330
C
102
}
100
AcDbDictionary
280
0
281
1
  3
Standard
350
18
  0
DICTIONARY
  5
19
102
{ACAD_REACTORS
330
C
102
}
100
AcDbDictionary
281
1
  0
DICTIONARY
  5
1A
102
{ACAD_REACTORS
330
C
102
}
100
AcDbDictionary
281
1
  3
Model
350
99A
  3
Layout1
350
99B
  0
ACDBPLACEHOLDER
  5
F
102
{ACAD_REACTORS
330
E
102
}
  0
MLINESTYLE
  5
18
102
{ACAD_REACTORS
330
17
102
}
100
AcDbMlineStyle
  2
STANDARD
 70
0
  3

 62
256
 51
90.0
 52
90.0
 71
2
 49
0.5
 62
256
  6
BYLAYER
 49
-0.5
 62
256
  6
BYLAYER
  0
LAYOUT
  5
99A
102
{ACAD_REACTORS
330
1A
102
}
100
AcDbPlotSettings
  1

  2
none_device
  4
ISO_A3_(420.00_x_297.00_MM)
  6

 40
0.0
 41
0.0
 42
0.0
 43
0.0
 44
420.0
 45
297.0
 46
0.0
 47
0.0
 48
0.0
 49
0.0
140
0.0
141
0.0
142
1.0
143
1.0
 70
1024
 72
1
 73
0
 74
0
  7

 75
0
147
1.0
148
0.0
149
0.0
100
AcDbLayout
  1
Model
 70
0
 71
0
 10
0.0
 20
0.0
 11
420.0
 21
297.0
 12
0.0
 22
0.0
 32
0.0
 14
0.0
 24
0.0
 34
0.0
 15
0.0
 25
0.0
 35
0.0
146
0.0
 13
0.0
 23
0.0
 33
0.0
 16
1.0
 26
0.0
 36
0.0
 17
0.0
 27
1.0
 37
0.0
 76
0
330
357
345
0
346
0
  0
LAYOUT
  5
99B
102
{ACAD_REACTORS
330
1A
102
}
100
AcDbPlotSettings
  1

  2
none_device
  4
ISO_A3_(420.00_x_297.00_MM)
  6

 40
0.0
 41
0.0
 42
0.0
 43
0.0
 44
420.0
 45
297.0
 46
0.0
 47
0.0
 48
0.0
 49
0.0
140
0.0
141
0.0
142
1.0
143
1.0
 70
0
 72
1
 73
0
 74
0
  7

 75
0
147
1.0
148
0.0
149
0.0
100
AcDbLayout
  1
Layout1
 70
0
 71
1
 10
0.0
 20
0.0
 11
420.0
 21
297.0
 12
0.0
 22
0.0
 32
0.0
 14
0.0
 24
0.0
 34
0.0
 15
0.0
 25
0.0
 35
0.0
146
0.0
 13
0.0
 23
0.0
 33
0.0
 16
1.0
 26
0.0
 36
0.0
 17
0.0
 27
1.0
 37
0.0
 76
0
330
358
345
0
346
0
  0
ENDSEC
  0
EOF
