  0
SECTION
  2
HEADER
  9
$ACADVER
  1
AC1024
  9
$DWGCODEPAGE
  3
ANSI_1252
  9
$EXTMAX
 10
420.0
 20
297.0
 30
0.0
  9
$EXTMIN
 10
0.0
 20
-0.0
 30
0.0
  9
$LIMMIN
 10
0.0
 20
-0.0
  9
$LIMMAX
 10
420.0
 20
297.0
  9
$VIEWCTR
 10
210.0
 20
148.5
  9
$VIEWSIZE
 40
297.0
  9
$CLAYER
  8
0
  9
$LTSCALE
 40
23.1
  9
$CELTYPE
  6
BYLAYER
  9
$DIMSCALE
 40
1.0
  9
$DIMASZ
 40
3.0
  9
$DIMEXO
 40
0.5
  9
$DIMDLI
 40
15.96
  9
$DIMEXE
 40
1.5
  9
$DIMCEN
 40
3.78
  9
$DIMLFAC
 40
1.0
  9
$DIMBLK
  1
_FILLED
  9
$DIMALT
 70
0
  9
$DIMALTF
 40
0.0393700787
  9
$DIMTXT
 40
3.0
  9
$DIMTOL
 70
1
  9
$DIMLIM
 70
0
  9
$DIMTFAC
 40
1.0
  9
$DIMTP
 40
0.01
  9
$DIMTM
 40
0.01
  9
$DIMGAP
 40
0.625
  9
$DIMDSEP
 70
44
  9
$AUNITS
 70
0
  9
$PDMODE
 70
3
  9
$PDSIZE
 40
3.0
  9
$HANDSEED
  5
67E
  9
$TILEMODE
 70
1
  9
$MEASUREMENT
 70
1
  9
$INSUNITS
 70
4
  0
ENDSEC
  0
SECTION
  2
CLASSES
  0
CLASS
  1
ACDBDICTIONARYWDFLT
  2
AcDbDictionaryWithDefault
  3
AutoCAD 2000
 90
0
 91
1
280
0
281
0
  0
CLASS
  1
ACDBPLACEHOLDER
  2
AcDbPlaceHolder
  3
AutoCAD 2000
 90
0
 91
1
280
0
281
0
  0
CLASS
  1
LAYOUT
  2
AcDbLayout
  3
AutoCAD 2000
 90
0
 91
0
280
0
281
0
  0
ENDSEC
  0
SECTION
  2
TABLES
  0
TABLE
  2
VPORT
  5
8
100
AcDbSymbolTable
 70
2
  0
VPORT
  5
1F4
100
AcDbSymbolTableRecord
100
AcDbViewportTableRecord
  2
*ACTIVE
 70
0
 10
0.0
 20
0.0
 11
1.0
 21
1.0
 12
210.0
 22
148.5
 13
0.0
 23
0.0
 14
1.0
 24
1.0
 15
0.0
 25
0.0
 16
0.0
 26
0.0
 36
1.0
 17
0.0
 27
0.0
 37
0.0
 40
297.0
 41
1.4141414141
 42
50.0
 43
0.0
 44
0.0
 50
0.0
 51
0.0
 71
0
 72
100
 73
1
 74
1
 75
0
 76
0
 77
0
 78
0
  0
ENDTAB
  0
TABLE
  2
LTYPE
  5
5
100
AcDbSymbolTable
 70
6
  0
LTYPE
  5
14
100
AcDbSymbolTableRecord
100
AcDbLinetypeTableRecord
  2
BYBLOCK
 70
0
  3

 72
65
 73
0
 40
0.0
  0
LTYPE
  5
15
100
AcDbSymbolTableRecord
100
AcDbLinetypeTableRecord
  2
BYLAYER
 70
0
  3

 72
65
 73
0
 40
0.0
  0
LTYPE
  5
16
100
AcDbSymbolTableRecord
100
AcDbLinetypeTableRecord
  2
CONTINUOUS
 70
64
  3
Solid line
 72
65
 73
0
 40
0.0
  0
LTYPE
  5
1F5
100
AcDbSymbolTableRecord
100
AcDbLinetypeTableRecord
  2
CENTER
 70
64
  3
____ _ ____ _ ____ _ ____ _ ____ _ ____ _ ____
 72
65
 73
4
 40
0.6
 49
0.375
 74
0
 49
-0.075
 74
0
 49
0.075
 74
0
 49
-0.075
 74
0
  0
LTYPE
  5
1F6
100
AcDbSymbolTableRecord
100
AcDbLinetypeTableRecord
  2
HIDDEN
 70
64
  3
- - - - - - - - - - - - - - - - - - - -
 72
65
 73
2
 40
0.2
 49
0.1
 74
0
 49
-0.1
 74
0
  0
LTYPE
  5
1F7
100
AcDbSymbolTableRecord
100
AcDbLinetypeTableRecord
  2
PHANTOM
 70
64
  3
_____ _ _ _____ _ _ _____ _ _ _____
 72
65
 73
6
 40
0.8
 49
0.45
 74
0
 49
-0.05
 74
0
 49
0.1
 74
0
 49
-0.05
 74
0
 49
0.1
 74
0
 49
-0.05
 74
0
  0
LTYPE
  5
1F8
100
AcDbSymbolTableRecord
100
AcDbLinetypeTableRecord
  2
DOT
 70
64
  3
. . . . . . . . . . . . . . . . . . . .
 72
65
 73
2
 40
0.2
 49
0.1
 74
0
 49
-0.1
 74
0
  0
LTYPE
  5
1F9
100
AcDbSymbolTableRecord
100
AcDbLinetypeTableRecord
  2
DASHED
 70
64
  3
- - - - - - - - - - - - - - - - - - - -
 72
65
 73
2
 40
0.2
 49
0.1
 74
0
 49
-0.1
 74
0
  0
ENDTAB
  0
TABLE
  2
LAYER
  5
2
100
AcDbSymbolTable
 70
36
  0
LAYER
  5
10
100
AcDbSymbolTableRecord
100
AcDbLayerTableRecord
  2
0
 70
0
 62
7
  6
CONTINUOUS
370
-3
390
F
  0
LAYER
  5
1FA
100
AcDbSymbolTableRecord
100
AcDbLayerTableRecord
  2
DEFAULT_1
 70
0
 62
7
  6
CENTER
370
-3
390
F
  0
LAYER
  5
1FB
100
AcDbSymbolTableRecord
100
AcDbLayerTableRecord
  2
DEFAULT_2
 70
0
 62
7
  6
HIDDEN
370
-3
390
F
  0
LAYER
  5
1FC
100
AcDbSymbolTableRecord
100
AcDbLayerTableRecord
  2
DEFAULT_3
 70
0
 62
7
  6
PHANTOM
370
-3
390
F
  0
LAYER
  5
1FD
100
AcDbSymbolTableRecord
100
AcDbLayerTableRecord
  2
0402_C_REF_70000
 70
0
 62
7
  6
CONTINUOUS
370
-3
390
F
  0
LAYER
  5
1FE
100
AcDbSymbolTableRecord
100
AcDbLayerTableRecord
  2
0402_C_REF_70000_1
 70
0
 62
7
  6
CONTINUOUS
370
-3
390
F
  0
LAYER
  5
1FF
100
AcDbSymbolTableRecord
100
AcDbLayerTableRecord
  2
0402_C_REF_70000_10
 70
0
 62
7
  6
CONTINUOUS
370
-3
390
F
  0
LAYER
  5
200
100
AcDbSymbolTableRecord
100
AcDbLayerTableRecord
  2
0402_C_REF_70000_11
 70
0
 62
7
  6
CONTINUOUS
370
-3
390
F
  0
LAYER
  5
201
100
AcDbSymbolTableRecord
100
AcDbLayerTableRecord
  2
0402_C_REF_70000_12
 70
0
 62
7
  6
CONTINUOUS
370
-3
390
F
  0
LAYER
  5
202
100
AcDbSymbolTableRecord
100
AcDbLayerTableRecord
  2
0402_C_REF_70000_13
 70
0
 62
7
  6
CONTINUOUS
370
-3
390
F
  0
LAYER
  5
203
100
AcDbSymbolTableRecord
100
AcDbLayerTableRecord
  2
0402_C_REF_70000_14
 70
0
 62
7
  6
CONTINUOUS
370
-3
390
F
  0
LAYER
  5
204
100
AcDbSymbolTableRecord
100
AcDbLayerTableRecord
  2
0402_C_REF_70000_15
 70
0
 62
7
  6
CONTINUOUS
370
-3
390
F
  0
LAYER
  5
205
100
AcDbSymbolTableRecord
100
AcDbLayerTableRecord
  2
0402_C_REF_70000_16
 70
0
 62
7
  6
CONTINUOUS
370
-3
390
F
  0
LAYER
  5
206
100
AcDbSymbolTableRecord
100
AcDbLayerTableRecord
  2
0402_C_REF_70000_17
 70
0
 62
7
  6
CONTINUOUS
370
-3
390
F
  0
LAYER
  5
207
100
AcDbSymbolTableRecord
100
AcDbLayerTableRecord
  2
0402_C_REF_70000_18
 70
0
 62
7
  6
CONTINUOUS
370
-3
390
F
  0
LAYER
  5
208
100
AcDbSymbolTableRecord
100
AcDbLayerTableRecord
  2
0402_C_REF_70000_19
 70
0
 62
7
  6
CONTINUOUS
370
-3
390
F
  0
LAYER
  5
209
100
AcDbSymbolTableRecord
100
AcDbLayerTableRecord
  2
0402_C_REF_70000_2
 70
0
 62
7
  6
CONTINUOUS
370
-3
390
F
  0
LAYER
  5
20A
100
AcDbSymbolTableRecord
100
AcDbLayerTableRecord
  2
0402_C_REF_70000_20
 70
0
 62
7
  6
CONTINUOUS
370
-3
390
F
  0
LAYER
  5
20B
100
AcDbSymbolTableRecord
100
AcDbLayerTableRecord
  2
0402_C_REF_70000_3
 70
0
 62
7
  6
CONTINUOUS
370
-3
390
F
  0
LAYER
  5
20C
100
AcDbSymbolTableRecord
100
AcDbLayerTableRecord
  2
0402_C_REF_70000_4
 70
0
 62
7
  6
CONTINUOUS
370
-3
390
F
  0
LAYER
  5
20D
100
AcDbSymbolTableRecord
100
AcDbLayerTableRecord
  2
0402_C_REF_70000_5
 70
0
 62
7
  6
CONTINUOUS
370
-3
390
F
  0
LAYER
  5
20E
100
AcDbSymbolTableRecord
100
AcDbLayerTableRecord
  2
0402_C_REF_70000_6
 70
0
 62
7
  6
CONTINUOUS
370
-3
390
F
  0
LAYER
  5
20F
100
AcDbSymbolTableRecord
100
AcDbLayerTableRecord
  2
0402_C_REF_70000_7
 70
0
 62
7
  6
CONTINUOUS
370
-3
390
F
  0
LAYER
  5
210
100
AcDbSymbolTableRecord
100
AcDbLayerTableRecord
  2
0402_C_REF_70000_8
 70
0
 62
7
  6
CONTINUOUS
370
-3
390
F
  0
LAYER
  5
211
100
AcDbSymbolTableRecord
100
AcDbLayerTableRecord
  2
0402_C_REF_70000_9
 70
0
 62
7
  6
CONTINUOUS
370
-3
390
F
  0
LAYER
  5
212
100
AcDbSymbolTableRecord
100
AcDbLayerTableRecord
  2
0402_L_REF_55000
 70
0
 62
7
  6
CONTINUOUS
370
-3
390
F
  0
LAYER
  5
213
100
AcDbSymbolTableRecord
100
AcDbLayerTableRecord
  2
0402_R_REF_30000
 70
0
 62
7
  6
CONTINUOUS
370
-3
390
F
  0
LAYER
  5
214
100
AcDbSymbolTableRecord
100
AcDbLayerTableRecord
  2
0402_R_REF_30000_1
 70
0
 62
7
  6
CONTINUOUS
370
-3
390
F
  0
LAYER
  5
215
100
AcDbSymbolTableRecord
100
AcDbLayerTableRecord
  2
0402_R_REF_30000_10
 70
0
 62
7
  6
CONTINUOUS
370
-3
390
F
  0
LAYER
  5
216
100
AcDbSymbolTableRecord
100
AcDbLayerTableRecord
  2
0402_R_REF_30000_11
 70
0
 62
7
  6
CONTINUOUS
370
-3
390
F
  0
LAYER
  5
217
100
AcDbSymbolTableRecord
100
AcDbLayerTableRecord
  2
0402_R_REF_30000_12
 70
0
 62
7
  6
CONTINUOUS
370
-3
390
F
  0
LAYER
  5
218
100
AcDbSymbolTableRecord
100
AcDbLayerTableRecord
  2
0402_R_REF_30000_13
 70
0
 62
7
  6
CONTINUOUS
370
-3
390
F
  0
LAYER
  5
219
100
AcDbSymbolTableRecord
100
AcDbLayerTableRecord
  2
0402_R_REF_30000_14
 70
0
 62
7
  6
CONTINUOUS
370
-3
390
F
  0
LAYER
  5
21A
100
AcDbSymbolTableRecord
100
AcDbLayerTableRecord
  2
0402_R_REF_30000_15
 70
0
 62
7
  6
CONTINUOUS
370
-3
390
F
  0
LAYER
  5
21B
100
AcDbSymbolTableRecord
100
AcDbLayerTableRecord
  2
0402_R_REF_30000_16
 70
0
 62
7
  6
CONTINUOUS
370
-3
390
F
  0
LAYER
  5
21C
100
AcDbSymbolTableRecord
100
AcDbLayerTableRecord
  2
0402_R_REF_30000_17
 70
0
 62
7
  6
CONTINUOUS
370
-3
390
F
  0
LAYER
  5
21D
100
AcDbSymbolTableRecord
100
AcDbLayerTableRecord
  2
0402_R_REF_30000_18
 70
0
 62
7
  6
CONTINUOUS
370
-3
390
F
  0
LAYER
  5
21E
100
AcDbSymbolTableRecord
100
AcDbLayerTableRecord
  2
0402_R_REF_30000_2
 70
0
 62
7
  6
CONTINUOUS
370
-3
390
F
  0
LAYER
  5
21F
100
AcDbSymbolTableRecord
100
AcDbLayerTableRecord
  2
0402_R_REF_30000_3
 70
0
 62
7
  6
CONTINUOUS
370
-3
390
F
  0
LAYER
  5
220
100
AcDbSymbolTableRecord
100
AcDbLayerTableRecord
  2
0402_R_REF_30000_4
 70
0
 62
7
  6
CONTINUOUS
370
-3
390
F
  0
LAYER
  5
221
100
AcDbSymbolTableRecord
100
AcDbLayerTableRecord
  2
0402_R_REF_30000_5
 70
0
 62
7
  6
CONTINUOUS
370
-3
390
F
  0
LAYER
  5
222
100
AcDbSymbolTableRecord
100
AcDbLayerTableRecord
  2
0402_R_REF_30000_6
 70
0
 62
7
  6
CONTINUOUS
370
-3
390
F
  0
LAYER
  5
223
100
AcDbSymbolTableRecord
100
AcDbLayerTableRecord
  2
0402_R_REF_30000_7
 70
0
 62
7
  6
CONTINUOUS
370
-3
390
F
  0
LAYER
  5
224
100
AcDbSymbolTableRecord
100
AcDbLayerTableRecord
  2
0402_R_REF_30000_8
 70
0
 62
7
  6
CONTINUOUS
370
-3
390
F
  0
LAYER
  5
225
100
AcDbSymbolTableRecord
100
AcDbLayerTableRecord
  2
0402_R_REF_30000_9
 70
0
 62
7
  6
CONTINUOUS
370
-3
390
F
  0
LAYER
  5
226
100
AcDbSymbolTableRecord
100
AcDbLayerTableRecord
  2
0603_C_REF_90000
 70
0
 62
7
  6
CONTINUOUS
370
-3
390
F
  0
LAYER
  5
227
100
AcDbSymbolTableRecord
100
AcDbLayerTableRecord
  2
0603_C_REF_90000_1
 70
0
 62
7
  6
CONTINUOUS
370
-3
390
F
  0
LAYER
  5
228
100
AcDbSymbolTableRecord
100
AcDbLayerTableRecord
  2
0603_C_REF_90000_2
 70
0
 62
7
  6
CONTINUOUS
370
-3
390
F
  0
LAYER
  5
229
100
AcDbSymbolTableRecord
100
AcDbLayerTableRecord
  2
0603_C_REF_90000_3
 70
0
 62
7
  6
CONTINUOUS
370
-3
390
F
  0
LAYER
  5
22A
100
AcDbSymbolTableRecord
100
AcDbLayerTableRecord
  2
0603_C_REF_90000_4
 70
0
 62
7
  6
CONTINUOUS
370
-3
390
F
  0
LAYER
  5
22B
100
AcDbSymbolTableRecord
100
AcDbLayerTableRecord
  2
0603_R_REF_55000
 70
0
 62
7
  6
CONTINUOUS
370
-3
390
F
  0
LAYER
  5
22C
100
AcDbSymbolTableRecord
100
AcDbLayerTableRecord
  2
0603_R_REF_55000_1
 70
0
 62
7
  6
CONTINUOUS
370
-3
390
F
  0
LAYER
  5
22D
100
AcDbSymbolTableRecord
100
AcDbLayerTableRecord
  2
0603_R_REF_55000_2
 70
0
 62
7
  6
CONTINUOUS
370
-3
390
F
  0
LAYER
  5
22E
100
AcDbSymbolTableRecord
100
AcDbLayerTableRecord
  2
0603_R_REF_55000_3
 70
0
 62
7
  6
CONTINUOUS
370
-3
390
F
  0
LAYER
  5
22F
100
AcDbSymbolTableRecord
100
AcDbLayerTableRecord
  2
0603_R_REF_55000_4
 70
0
 62
7
  6
CONTINUOUS
370
-3
390
F
  0
LAYER
  5
230
100
AcDbSymbolTableRecord
100
AcDbLayerTableRecord
  2
06___PRT_ALL_SURFS_1
 70
0
 62
7
  6
CONTINUOUS
370
-3
390
F
  0
LAYER
  5
231
100
AcDbSymbolTableRecord
100
AcDbLayerTableRecord
  2
06___PRT_ALL_SURFS_10
 70
0
 62
7
  6
CONTINUOUS
370
-3
390
F
  0
LAYER
  5
232
100
AcDbSymbolTableRecord
100
AcDbLayerTableRecord
  2
06___PRT_ALL_SURFS_12
 70
0
 62
7
  6
CONTINUOUS
370
-3
390
F
  0
LAYER
  5
233
100
AcDbSymbolTableRecord
100
AcDbLayerTableRecord
  2
06___PRT_ALL_SURFS_15
 70
0
 62
7
  6
CONTINUOUS
370
-3
390
F
  0
LAYER
  5
234
100
AcDbSymbolTableRecord
100
AcDbLayerTableRecord
  2
06___PRT_ALL_SURFS_18
 70
0
 62
7
  6
CONTINUOUS
370
-3
390
F
  0
LAYER
  5
235
100
AcDbSymbolTableRecord
100
AcDbLayerTableRecord
  2
06___PRT_ALL_SURFS_2
 70
0
 62
7
  6
CONTINUOUS
370
-3
390
F
  0
LAYER
  5
236
100
AcDbSymbolTableRecord
100
AcDbLayerTableRecord
  2
06___PRT_ALL_SURFS_24
 70
0
 62
7
  6
CONTINUOUS
370
-3
390
F
  0
LAYER
  5
237
100
AcDbSymbolTableRecord
100
AcDbLayerTableRecord
  2
06___PRT_ALL_SURFS_3
 70
0
 62
7
  6
CONTINUOUS
370
-3
390
F
  0
LAYER
  5
238
100
AcDbSymbolTableRecord
100
AcDbLayerTableRecord
  2
06___PRT_ALL_SURFS_4
 70
0
 62
7
  6
CONTINUOUS
370
-3
390
F
  0
LAYER
  5
239
100
AcDbSymbolTableRecord
100
AcDbLayerTableRecord
  2
06___PRT_ALL_SURFS_7
 70
0
 62
7
  6
CONTINUOUS
370
-3
390
F
  0
LAYER
  5
23A
100
AcDbSymbolTableRecord
100
AcDbLayerTableRecord
  2
0805_C_REF_145000
 70
0
 62
7
  6
CONTINUOUS
370
-3
390
F
  0
LAYER
  5
23B
100
AcDbSymbolTableRecord
100
AcDbLayerTableRecord
  2
0805_R_REF_60000
 70
0
 62
7
  6
CONTINUOUS
370
-3
390
F
  0
LAYER
  5
23C
100
AcDbSymbolTableRecord
100
AcDbLayerTableRecord
  2
0805_R_REF_60000_1
 70
0
 62
7
  6
CONTINUOUS
370
-3
390
F
  0
LAYER
  5
23D
100
AcDbSymbolTableRecord
100
AcDbLayerTableRecord
  2
0805_R_REF_60000_2
 70
0
 62
7
  6
CONTINUOUS
370
-3
390
F
  0
LAYER
  5
23E
100
AcDbSymbolTableRecord
100
AcDbLayerTableRecord
  2
0805_R_REF_60000_3
 70
0
 62
7
  6
CONTINUOUS
370
-3
390
F
  0
LAYER
  5
23F
100
AcDbSymbolTableRecord
100
AcDbLayerTableRecord
  2
0805_R_REF_60000_4
 70
0
 62
7
  6
CONTINUOUS
370
-3
390
F
  0
LAYER
  5
240
100
AcDbSymbolTableRecord
100
AcDbLayerTableRecord
  2
0805_R_REF_60000_5
 70
0
 62
7
  6
CONTINUOUS
370
-3
390
F
  0
LAYER
  5
241
100
AcDbSymbolTableRecord
100
AcDbLayerTableRecord
  2
0805_R_REF_60000_6
 70
0
 62
7
  6
CONTINUOUS
370
-3
390
F
  0
LAYER
  5
242
100
AcDbSymbolTableRecord
100
AcDbLayerTableRecord
  2
0805_R_REF_60000_7
 70
0
 62
7
  6
CONTINUOUS
370
-3
390
F
  0
LAYER
  5
243
100
AcDbSymbolTableRecord
100
AcDbLayerTableRecord
  2
0805_R_REF_60000_8
 70
0
 62
7
  6
CONTINUOUS
370
-3
390
F
  0
LAYER
  5
244
100
AcDbSymbolTableRecord
100
AcDbLayerTableRecord
  2
0805_R_REF_60000_9
 70
0
 62
7
  6
CONTINUOUS
370
-3
390
F
  0
LAYER
  5
245
100
AcDbSymbolTableRecord
100
AcDbLayerTableRecord
  2
1206_C_REF_180000
 70
0
 62
7
  6
CONTINUOUS
370
-3
390
F
  0
LAYER
  5
246
100
AcDbSymbolTableRecord
100
AcDbLayerTableRecord
  2
1206_C_REF_180000_1
 70
0
 62
7
  6
CONTINUOUS
370
-3
390
F
  0
LAYER
  5
247
100
AcDbSymbolTableRecord
100
AcDbLayerTableRecord
  2
1206_C_REF_180000_2
 70
0
 62
7
  6
CONTINUOUS
370
-3
390
F
  0
LAYER
  5
248
100
AcDbSymbolTableRecord
100
AcDbLayerTableRecord
  2
2512_R_H1_REF_100000
 70
0
 62
7
  6
CONTINUOUS
370
-3
390
F
  0
LAYER
  5
249
100
AcDbSymbolTableRecord
100
AcDbLayerTableRecord
  2
43000895A0
 70
0
 62
7
  6
CONTINUOUS
370
-3
390
F
  0
LAYER
  5
24A
100
AcDbSymbolTableRecord
100
AcDbLayerTableRecord
  2
43000908A0
 70
0
 62
7
  6
CONTINUOUS
370
-3
390
F
  0
LAYER
  5
24B
100
AcDbSymbolTableRecord
100
AcDbLayerTableRecord
  2
ASSI
 70
0
 62
7
  6
CONTINUOUS
370
-3
390
F
  0
LAYER
  5
24C
100
AcDbSymbolTableRecord
100
AcDbLayerTableRecord
  2
CAP-E-SMD-8_3-8_3-10_5_1050000
 70
0
 62
7
  6
CONTINUOUS
370
-3
390
F
  0
LAYER
  5
24D
100
AcDbSymbolTableRecord
100
AcDbLayerTableRecord
  2
CAP-E-SMD-8_3-8_3-10_5_105000_1
 70
0
 62
7
  6
CONTINUOUS
370
-3
390
F
  0
LAYER
  5
24E
100
AcDbSymbolTableRecord
100
AcDbLayerTableRecord
  2
CN_M_THT_P5_R1_P3_SET_1750000
 70
0
 62
7
  6
CONTINUOUS
370
-3
390
F
  0
LAYER
  5
24F
100
AcDbSymbolTableRecord
100
AcDbLayerTableRecord
  2
COLOR15
 70
0
 62
7
  6
CONTINUOUS
370
-3
390
F
  0
LAYER
  5
250
100
AcDbSymbolTableRecord
100
AcDbLayerTableRecord
  2
COLOR16
 70
0
 62
7
  6
CONTINUOUS
370
-3
390
F
  0
LAYER
  5
251
100
AcDbSymbolTableRecord
100
AcDbLayerTableRecord
  2
COLORE_MATERIALE
 70
0
 62
7
  6
CONTINUOUS
370
-3
390
F
  0
LAYER
  5
252
100
AcDbSymbolTableRecord
100
AcDbLayerTableRecord
  2
COORDINATE
 70
0
 62
7
  6
CONTINUOUS
370
-3
390
F
  0
LAYER
  5
253
100
AcDbSymbolTableRecord
100
AcDbLayerTableRecord
  2
COORD_ORIGINE
 70
0
 62
7
  6
CONTINUOUS
370
-3
390
F
  0
LAYER
  5
254
100
AcDbSymbolTableRecord
100
AcDbLayerTableRecord
  2
COPY_PUBLISH
 70
0
 62
7
  6
CONTINUOUS
370
-3
390
F
  0
LAYER
  5
255
100
AcDbSymbolTableRecord
100
AcDbLayerTableRecord
  2
COSMETICI
 70
0
 62
7
  6
CONTINUOUS
370
-3
390
F
  0
LAYER
  5
256
100
AcDbSymbolTableRecord
100
AcDbLayerTableRecord
  2
CURVE
 70
0
 62
7
  6
CONTINUOUS
370
-3
390
F
  0
LAYER
  5
257
100
AcDbSymbolTableRecord
100
AcDbLayerTableRecord
  2
DL_RGB_1_6-1_6-0_5MM_50000
 70
0
 62
7
  6
CONTINUOUS
370
-3
390
F
  0
LAYER
  5
258
100
AcDbSymbolTableRecord
100
AcDbLayerTableRecord
  2
DL_RGB_1_6-1_6-0_5MM_50000_1
 70
0
 62
7
  6
CONTINUOUS
370
-3
390
F
  0
LAYER
  5
259
100
AcDbSymbolTableRecord
100
AcDbLayerTableRecord
  2
DRAFT
 70
0
 62
7
  6
CONTINUOUS
370
-3
390
F
  0
LAYER
  5
25A
100
AcDbSymbolTableRecord
100
AcDbLayerTableRecord
  2
E4_MARK_10000
 70
0
 62
7
  6
CONTINUOUS
370
-3
390
F
  0
LAYER
  5
25B
100
AcDbSymbolTableRecord
100
AcDbLayerTableRecord
  2
FIDUCIAL_1MM_0
 70
0
 62
7
  6
CONTINUOUS
370
-3
390
F
  0
LAYER
  5
25C
100
AcDbSymbolTableRecord
100
AcDbLayerTableRecord
  2
FIDUCIAL_1MM_0_1
 70
0
 62
7
  6
CONTINUOUS
370
-3
390
F
  0
LAYER
  5
25D
100
AcDbSymbolTableRecord
100
AcDbLayerTableRecord
  2
FIDUCIAL_1MM_0_2
 70
0
 62
7
  6
CONTINUOUS
370
-3
390
F
  0
LAYER
  5
25E
100
AcDbSymbolTableRecord
100
AcDbLayerTableRecord
  2
FIDUCIAL_1MM_0_3
 70
0
 62
7
  6
CONTINUOUS
370
-3
390
F
  0
LAYER
  5
25F
100
AcDbSymbolTableRecord
100
AcDbLayerTableRecord
  2
FIDUCIAL_1_2_MM_RUOTATO_45_1000
 70
0
 62
7
  6
CONTINUOUS
370
-3
390
F
  0
LAYER
  5
260
100
AcDbSymbolTableRecord
100
AcDbLayerTableRecord
  2
FIDUCIAL_1_2_MM_RUOTATO_45_10_1
 70
0
 62
7
  6
CONTINUOUS
370
-3
390
F
  0
LAYER
  5
261
100
AcDbSymbolTableRecord
100
AcDbLayerTableRecord
  2
FIDUCIAL_1_2_MM_RUOTATO_45_10_2
 70
0
 62
7
  6
CONTINUOUS
370
-3
390
F
  0
LAYER
  5
262
100
AcDbSymbolTableRecord
100
AcDbLayerTableRecord
  2
FIDUCIAL_1_2_MM_RUOTATO_45_10_3
 70
0
 62
7
  6
CONTINUOUS
370
-3
390
F
  0
LAYER
  5
263
100
AcDbSymbolTableRecord
100
AcDbLayerTableRecord
  2
GEOMETRIA_SOLIDA
 70
0
 62
7
  6
CONTINUOUS
370
-3
390
F
  0
LAYER
  5
264
100
AcDbSymbolTableRecord
100
AcDbLayerTableRecord
  2
GEOMETRIA_SOLIDA_1
 70
0
 62
7
  6
CONTINUOUS
370
-3
390
F
  0
LAYER
  5
265
100
AcDbSymbolTableRecord
100
AcDbLayerTableRecord
  2
GEOMETRIA_SOLIDA_2
 70
0
 62
7
  6
CONTINUOUS
370
-3
390
F
  0
LAYER
  5
266
100
AcDbSymbolTableRecord
100
AcDbLayerTableRecord
  2
GEOMETRIA_SOLIDA_3
 70
0
 62
7
  6
CONTINUOUS
370
-3
390
F
  0
LAYER
  5
267
100
AcDbSymbolTableRecord
100
AcDbLayerTableRecord
  2
IMPORT_IGES
 70
0
 62
7
  6
CONTINUOUS
370
-3
390
F
  0
LAYER
  5
268
100
AcDbSymbolTableRecord
100
AcDbLayerTableRecord
  2
IND-CHIP-0805_H1_2_REF_140000
 70
0
 62
7
  6
CONTINUOUS
370
-3
390
F
  0
LAYER
  5
269
100
AcDbSymbolTableRecord
100
AcDbLayerTableRecord
  2
INTF_1
 70
0
 62
7
  6
CONTINUOUS
370
-3
390
F
  0
LAYER
  5
26A
100
AcDbSymbolTableRecord
100
AcDbLayerTableRecord
  2
INTF_11
 70
0
 62
7
  6
CONTINUOUS
370
-3
390
F
  0
LAYER
  5
26B
100
AcDbSymbolTableRecord
100
AcDbLayerTableRecord
  2
INTF_2
 70
0
 62
7
  6
CONTINUOUS
370
-3
390
F
  0
LAYER
  5
26C
100
AcDbSymbolTableRecord
100
AcDbLayerTableRecord
  2
INTF_BLANK
 70
0
 62
7
  6
CONTINUOUS
370
-3
390
F
  0
LAYER
  5
26D
100
AcDbSymbolTableRecord
100
AcDbLayerTableRecord
  2
LOGO_RESIST-RESTYLING_10000
 70
0
 62
7
  6
CONTINUOUS
370
-3
390
F
  0
LAYER
  5
26E
100
AcDbSymbolTableRecord
100
AcDbLayerTableRecord
  2
MM2-SWITCH-1-VIMAR_150000
 70
0
 62
7
  6
CONTINUOUS
370
-3
390
F
  0
LAYER
  5
26F
100
AcDbSymbolTableRecord
100
AcDbLayerTableRecord
  2
NO-PB_MARK_10000
 70
0
 62
7
  6
CONTINUOUS
370
-3
390
F
  0
LAYER
  5
270
100
AcDbSymbolTableRecord
100
AcDbLayerTableRecord
  2
NOTE
 70
0
 62
7
  6
CONTINUOUS
370
-3
390
F
  0
LAYER
  5
271
100
AcDbSymbolTableRecord
100
AcDbLayerTableRecord
  2
PIANI
 70
0
 62
7
  6
CONTINUOUS
370
-3
390
F
  0
LAYER
  5
272
100
AcDbSymbolTableRecord
100
AcDbLayerTableRecord
  2
PIANI_ORIGINE
 70
0
 62
7
  6
CONTINUOUS
370
-3
390
F
  0
LAYER
  5
273
100
AcDbSymbolTableRecord
100
AcDbLayerTableRecord
  2
PIANI_RIFERIMENTO
 70
0
 62
7
  6
CONTINUOUS
370
-3
390
F
  0
LAYER
  5
274
100
AcDbSymbolTableRecord
100
AcDbLayerTableRecord
  2
PUNTI
 70
0
 62
7
  6
CONTINUOUS
370
-3
390
F
  0
LAYER
  5
275
100
AcDbSymbolTableRecord
100
AcDbLayerTableRecord
  2
RACCORDO
 70
0
 62
7
  6
CONTINUOUS
370
-3
390
F
  0
LAYER
  5
276
100
AcDbSymbolTableRecord
100
AcDbLayerTableRecord
  2
RGB__255__255__255__
 70
0
 62
7
  6
CONTINUOUS
370
-3
390
F
  0
LAYER
  5
277
100
AcDbSymbolTableRecord
100
AcDbLayerTableRecord
  2
SC88-6_REF_H1_1_110000
 70
0
 62
7
  6
CONTINUOUS
370
-3
390
F
  0
LAYER
  5
278
100
AcDbSymbolTableRecord
100
AcDbLayerTableRecord
  2
SC88-6_REF_H1_1_110000_1
 70
0
 62
7
  6
CONTINUOUS
370
-3
390
F
  0
LAYER
  5
279
100
AcDbSymbolTableRecord
100
AcDbLayerTableRecord
  2
SC88-6_REF_H1_1_110000_2
 70
0
 62
7
  6
CONTINUOUS
370
-3
390
F
  0
LAYER
  5
27A
100
AcDbSymbolTableRecord
100
AcDbLayerTableRecord
  2
SIMBOLI
 70
0
 62
7
  6
CONTINUOUS
370
-3
390
F
  0
LAYER
  5
27B
100
AcDbSymbolTableRecord
100
AcDbLayerTableRecord
  2
SMUSSO
 70
0
 62
7
  6
CONTINUOUS
370
-3
390
F
  0
LAYER
  5
27C
100
AcDbSymbolTableRecord
100
AcDbLayerTableRecord
  2
SOD123_REF_140000
 70
0
 62
7
  6
CONTINUOUS
370
-3
390
F
  0
LAYER
  5
27D
100
AcDbSymbolTableRecord
100
AcDbLayerTableRecord
  2
SOT23-5_REF_H1_5_150000
 70
0
 62
7
  6
CONTINUOUS
370
-3
390
F
  0
LAYER
  5
27E
100
AcDbSymbolTableRecord
100
AcDbLayerTableRecord
  2
SOT323_H1_1_REF_110000
 70
0
 62
7
  6
CONTINUOUS
370
-3
390
F
  0
LAYER
  5
27F
100
AcDbSymbolTableRecord
100
AcDbLayerTableRecord
  2
SOT89_REF_H1_6_160000
 70
0
 62
7
  6
CONTINUOUS
370
-3
390
F
  0
LAYER
  5
280
100
AcDbSymbolTableRecord
100
AcDbLayerTableRecord
  2
SUB_SMA_143000
 70
0
 62
7
  6
CONTINUOUS
370
-3
390
F
  0
LAYER
  5
281
100
AcDbSymbolTableRecord
100
AcDbLayerTableRecord
  2
SUB_SMA_143000_1
 70
0
 62
7
  6
CONTINUOUS
370
-3
390
F
  0
LAYER
  5
282
100
AcDbSymbolTableRecord
100
AcDbLayerTableRecord
  2
SUB_SMA_143000_2
 70
0
 62
7
  6
CONTINUOUS
370
-3
390
F
  0
LAYER
  5
283
100
AcDbSymbolTableRecord
100
AcDbLayerTableRecord
  2
SUPERFICI
 70
0
 62
7
  6
CONTINUOUS
370
-3
390
F
  0
LAYER
  5
284
100
AcDbSymbolTableRecord
100
AcDbLayerTableRecord
  2
SWITCH_SKRP_250000
 70
0
 62
7
  6
CONTINUOUS
370
-3
390
F
  0
LAYER
  5
285
100
AcDbSymbolTableRecord
100
AcDbLayerTableRecord
  2
SWITCH_SKRP_250000_1
 70
0
 62
7
  6
CONTINUOUS
370
-3
390
F
  0
LAYER
  5
286
100
AcDbSymbolTableRecord
100
AcDbLayerTableRecord
  2
SWITCH_SKRP_250000_2
 70
0
 62
7
  6
CONTINUOUS
370
-3
390
F
  0
LAYER
  5
287
100
AcDbSymbolTableRecord
100
AcDbLayerTableRecord
  2
TP-RND-0_8_3500
 70
0
 62
7
  6
CONTINUOUS
370
-3
390
F
  0
LAYER
  5
288
100
AcDbSymbolTableRecord
100
AcDbLayerTableRecord
  2
TP-RND-0_8_3500_1
 70
0
 62
7
  6
CONTINUOUS
370
-3
390
F
  0
LAYER
  5
289
100
AcDbSymbolTableRecord
100
AcDbLayerTableRecord
  2
TP-RND-0_8_3500_10
 70
0
 62
7
  6
CONTINUOUS
370
-3
390
F
  0
LAYER
  5
28A
100
AcDbSymbolTableRecord
100
AcDbLayerTableRecord
  2
TP-RND-0_8_3500_11
 70
0
 62
7
  6
CONTINUOUS
370
-3
390
F
  0
LAYER
  5
28B
100
AcDbSymbolTableRecord
100
AcDbLayerTableRecord
  2
TP-RND-0_8_3500_2
 70
0
 62
7
  6
CONTINUOUS
370
-3
390
F
  0
LAYER
  5
28C
100
AcDbSymbolTableRecord
100
AcDbLayerTableRecord
  2
TP-RND-0_8_3500_3
 70
0
 62
7
  6
CONTINUOUS
370
-3
390
F
  0
LAYER
  5
28D
100
AcDbSymbolTableRecord
100
AcDbLayerTableRecord
  2
TP-RND-0_8_3500_4
 70
0
 62
7
  6
CONTINUOUS
370
-3
390
F
  0
LAYER
  5
28E
100
AcDbSymbolTableRecord
100
AcDbLayerTableRecord
  2
TP-RND-0_8_3500_5
 70
0
 62
7
  6
CONTINUOUS
370
-3
390
F
  0
LAYER
  5
28F
100
AcDbSymbolTableRecord
100
AcDbLayerTableRecord
  2
TP-RND-0_8_3500_6
 70
0
 62
7
  6
CONTINUOUS
370
-3
390
F
  0
LAYER
  5
290
100
AcDbSymbolTableRecord
100
AcDbLayerTableRecord
  2
TP-RND-0_8_3500_7
 70
0
 62
7
  6
CONTINUOUS
370
-3
390
F
  0
LAYER
  5
291
100
AcDbSymbolTableRecord
100
AcDbLayerTableRecord
  2
TP-RND-0_8_3500_8
 70
0
 62
7
  6
CONTINUOUS
370
-3
390
F
  0
LAYER
  5
292
100
AcDbSymbolTableRecord
100
AcDbLayerTableRecord
  2
TP-RND-0_8_3500_9
 70
0
 62
7
  6
CONTINUOUS
370
-3
390
F
  0
LAYER
  5
293
100
AcDbSymbolTableRecord
100
AcDbLayerTableRecord
  2
TP-RND-1_0_3500
 70
0
 62
7
  6
CONTINUOUS
370
-3
390
F
  0
LAYER
  5
294
100
AcDbSymbolTableRecord
100
AcDbLayerTableRecord
  2
TP-RND-1_5_1000
 70
0
 62
7
  6
CONTINUOUS
370
-3
390
F
  0
LAYER
  5
295
100
AcDbSymbolTableRecord
100
AcDbLayerTableRecord
  2
TP_PROGRAMMAZIONE_SWD_D1_5_1000
 70
0
 62
7
  6
CONTINUOUS
370
-3
390
F
  0
LAYER
  5
296
100
AcDbSymbolTableRecord
100
AcDbLayerTableRecord
  2
TRASH
 70
0
 62
7
  6
CONTINUOUS
370
-3
390
F
  0
LAYER
  5
297
100
AcDbSymbolTableRecord
100
AcDbLayerTableRecord
  2
VG_CN-MEZZANINE-F-SMT-P0_8-R2-P
 70
0
 62
7
  6
CONTINUOUS
370
-3
390
F
  0
LAYER
  5
298
100
AcDbSymbolTableRecord
100
AcDbLayerTableRecord
  2
VG_CN-MEZZANINE-M-SMT-P0_8-R2-P
 70
0
 62
7
  6
CONTINUOUS
370
-3
390
F
  0
LAYER
  5
299
100
AcDbSymbolTableRecord
100
AcDbLayerTableRecord
  2
VG_IND-RAD-8_8-7_5-5_0-0_6_7500
 70
0
 62
7
  6
CONTINUOUS
370
-3
390
F
  0
LAYER
  5
29A
100
AcDbSymbolTableRecord
100
AcDbLayerTableRecord
  2
VG_IND-SMT-4_0-4_0-2_5-1_55-3_6
 70
0
 62
7
  6
CONTINUOUS
370
-3
390
F
  0
LAYER
  5
29B
100
AcDbSymbolTableRecord
100
AcDbLayerTableRecord
  2
VG_IND-SMT-7_8-7_8-5_3-2_4-8_0-
 70
0
 62
7
  6
CONTINUOUS
370
-3
390
F
  0
LAYER
  5
29C
100
AcDbSymbolTableRecord
100
AcDbLayerTableRecord
  2
VG_K_THT_HONGFA_HF115FK-H3T_160
 70
0
 62
7
  6
CONTINUOUS
370
-3
390
F
  0
LAYER
  5
29D
100
AcDbSymbolTableRecord
100
AcDbLayerTableRecord
  2
VG_PTC-6_5-10_0-5_0-5_0-0-0_6_1
 70
0
 62
7
  6
CONTINUOUS
370
-3
390
F
  0
LAYER
  5
29E
100
AcDbSymbolTableRecord
100
AcDbLayerTableRecord
  2
VG_QFN24-4_0-4_0-4_0-4_0-1_0-0_
 70
0
 62
7
  6
CONTINUOUS
370
-3
390
F
  0
LAYER
  5
29F
100
AcDbSymbolTableRecord
100
AcDbLayerTableRecord
  2
VG_QFN48-6_0-6_0-6_0-6_0-1_0-0_
 70
0
 62
7
  6
CONTINUOUS
370
-3
390
F
  0
LAYER
  5
2A0
100
AcDbSymbolTableRecord
100
AcDbLayerTableRecord
  2
VG_VAR_S05_D7_S4_3_H8_5_850000
 70
0
 62
7
  6
CONTINUOUS
370
-3
390
F
  0
LAYER
  5
2A1
100
AcDbSymbolTableRecord
100
AcDbLayerTableRecord
  2
VG_X-SMT-2-3_2-1_5-1_0_100000
 70
0
 62
7
  6
CONTINUOUS
370
-3
390
F
  0
LAYER
  5
2A2
100
AcDbSymbolTableRecord
100
AcDbLayerTableRecord
  2
VG_X-SMT-2-5_0-3_2-1_5_150000
 70
0
 62
7
  6
CONTINUOUS
370
-3
390
F
  0
LAYER
  5
2A3
100
AcDbSymbolTableRecord
100
AcDbLayerTableRecord
  2
X-SMD-3PIN-3_2-2_5_70000
 70
0
 62
7
  6
CONTINUOUS
370
-3
390
F
  0
LAYER
  5
2A4
100
AcDbSymbolTableRecord
100
AcDbLayerTableRecord
  2
XSEC_DATUMS
 70
0
 62
7
  6
CONTINUOUS
370
-3
390
F
  0
LAYER
  5
2A5
100
AcDbSymbolTableRecord
100
AcDbLayerTableRecord
  2
___SHELL
 70
0
 62
7
  6
CONTINUOUS
370
-3
390
F
  0
ENDTAB
  0
TABLE
  2
STYLE
  5
3
100
AcDbSymbolTable
 70
1
  0
STYLE
  5
11
100
AcDbSymbolTableRecord
100
AcDbTextStyleTableRecord
  2
STANDARD
 70
0
 40
0.0
 41
0.8
 50
0.0
 71
0
 42
0.2
  3
txt
  4

  0
STYLE
  5
2A6
100
AcDbSymbolTableRecord
100
AcDbTextStyleTableRecord
  2
TEXTSTYLE_1
 70
0
 40
0.0
 41
0.8
 50
0.0
 71
0
 42
0.2
  3
gdt
  4

  0
ENDTAB
  0
TABLE
  2
VIEW
  5
6
100
AcDbSymbolTable
 70
0
  0
ENDTAB
  0
TABLE
  2
UCS
  5
7
100
AcDbSymbolTable
 70
0
  0
ENDTAB
  0
TABLE
  2
APPID
  5
9
100
AcDbSymbolTable
 70
1
  0
APPID
  5
2A7
100
AcDbSymbolTableRecord
100
AcDbRegAppTableRecord
  2
ACAD
 70
0
  0
ENDTAB
  0
TABLE
  2
BLOCK_RECORD
  5
1
100
AcDbSymbolTable
 70
0
  0
BLOCK_RECORD
  5
2A8
100
AcDbSymbolTableRecord
100
AcDbBlockTableRecord
  2
*Model_Space
  0
BLOCK_RECORD
  5
2A9
100
AcDbSymbolTableRecord
100
AcDbBlockTableRecord
  2
*Paper_Space
  0
BLOCK_RECORD
  5
2AA
100
AcDbSymbolTableRecord
100
AcDbBlockTableRecord
  2
_FILLED
  0
ENDTAB
  0
TABLE
  2
DIMSTYLE
  5
A
100
AcDbSymbolTable
 70
1
100
AcDbDimStyleTable
 71
0
  0
DIMSTYLE
105
2AB
100
AcDbSymbolTableRecord
100
AcDbDimStyleTableRecord
  2
STANDARD
 70
0
  3

  4

 40
1.0
 41
3.0
 42
0.5
 43
0.38
 44
1.5
 45
0.0
 46
0.0
 47
0.01
 48
0.01
140
3.0
141
0.09
142
0.0
143
25.4
144
1.0
145
0.0
146
1.0
147
0.625
 71
1
 72
0
 73
0
 74
0
 75
0
 76
0
 77
1
 78
8
 79
2
170
0
171
1
172
0
173
0
174
0
175
0
176
0
177
0
178
0
270
2
179
2
271
2
272
2
273
2
274
2
275
0
280
0
281
0
282
0
283
1
284
8
285
0
286
0
287
3
288
0
340
11
278
44
341
2AA
342
2AA
343
2AA
344
2AA
  0
ENDTAB
  0
ENDSEC
  0
SECTION
  2
BLOCKS
  0
BLOCK
  5
20
100
AcDbEntity
  8
0
100
AcDbBlockBegin
  2
*Model_Space
 70
0
 10
0.0
 20
0.0
 30
0.0
  3
*Model_Space
  1

  0
ENDBLK
  5
21
100
AcDbEntity
  8
0
100
AcDbBlockEnd
  0
BLOCK
  5
1C
100
AcDbEntity
  8
0
100
AcDbBlockBegin
  2
*Paper_Space
 70
0
 10
0.0
 20
0.0
 30
0.0
  3
*Paper_Space
  1

  0
ENDBLK
  5
1D
100
AcDbEntity
  8
0
100
AcDbBlockEnd
  0
BLOCK
  5
2AC
100
AcDbEntity
  8
0
100
AcDbBlockBegin
  2
_FILLED
 70
64
 10
0.0
 20
0.0
  3
_FILLED
  1

  0
SOLID
  5
2AD
100
AcDbEntity
  8
0
  6
BYBLOCK
 62
0
100
AcDbTrace
 10
0.0
 20
0.0
 11
-1.0
 21
0.3166666667
 12
-1.0
 22
-0.3166666667
 13
-1.0
 23
-0.3166666667
  0
ENDBLK
  5
2AE
100
AcDbEntity
  8
0
  6
BYBLOCK
 62
0
100
AcDbBlockEnd
  0
ENDSEC
  0
SECTION
  2
ENTITIES
  0
LINE
  5
2AF
100
AcDbEntity
  8
0
100
AcDbLine
 62
7
  6
CONTINUOUS
 10
-3.968176777
 20
-23.4825449351
 11
-3.7099152947
 21
-23.4825449351
  0
LINE
  5
2B0
100
AcDbEntity
  8
ASSI
100
AcDbLine
 62
7
  6
CONTINUOUS
 10
-3.968176777
 20
-23.4825449351
 11
-3.7099152947
 21
-23.4825449351
  0
LINE
  5
2B1
100
AcDbEntity
  8
0
100
AcDbLine
 62
7
  6
CONTINUOUS
 10
3.7099152947
 20
-23.4825449351
 11
3.968176777
 21
-23.4825449351
  0
LINE
  5
2B2
100
AcDbEntity
  8
ASSI
100
AcDbLine
 62
7
  6
CONTINUOUS
 10
3.7099152947
 20
-23.4825449351
 11
3.968176777
 21
-23.4825449351
  0
LINE
  5
2B3
100
AcDbEntity
  8
0
100
AcDbLine
 62
7
  6
CONTINUOUS
 10
-3.7094401656
 20
-23.4553248057
 11
3.7094401656
 21
-23.4553248057
  0
LINE
  5
2B4
100
AcDbEntity
  8
ASSI
100
AcDbLine
 62
7
  6
CONTINUOUS
 10
-3.7094401656
 20
-23.4553248057
 11
3.7094401656
 21
-23.4553248057
  0
LINE
  5
2B5
100
AcDbEntity
  8
0
100
AcDbLine
 62
7
  6
CONTINUOUS
 10
-3.9526845545
 20
-23.4301797403
 11
3.9526845545
 21
-23.4301797403
  0
LINE
  5
2B6
100
AcDbEntity
  8
ASSI
100
AcDbLine
 62
7
  6
CONTINUOUS
 10
-3.9526845545
 20
-23.4301797403
 11
3.9526845545
 21
-23.4301797403
  0
LINE
  5
2B7
100
AcDbEntity
  8
0
100
AcDbLine
 62
7
  6
CONTINUOUS
 10
-10.6329255348
 20
-22.4
 11
-5.55
 21
-22.4
  0
LINE
  5
2B8
100
AcDbEntity
  8
ASSI
100
AcDbLine
 62
7
  6
CONTINUOUS
 10
-10.6329255348
 20
-22.4
 11
-5.55
 21
-22.4
  0
LINE
  5
2B9
100
AcDbEntity
  8
0
100
AcDbLine
 62
7
  6
CONTINUOUS
 10
5.55
 20
-22.4
 11
10.6329255348
 21
-22.4
  0
LINE
  5
2BA
100
AcDbEntity
  8
ASSI
100
AcDbLine
 62
7
  6
CONTINUOUS
 10
5.55
 20
-22.4
 11
10.6329255348
 21
-22.4
  0
LINE
  5
2BB
100
AcDbEntity
  8
0
100
AcDbLine
 62
7
  6
CONTINUOUS
 10
-3.8856913861
 20
21.1321750046
 11
-3.7500004362
 21
21.2
  0
LINE
  5
2BC
100
AcDbEntity
  8
ASSI
100
AcDbLine
 62
7
  6
CONTINUOUS
 10
-3.8856913861
 20
21.1321750046
 11
-3.7500004362
 21
21.2
  0
LINE
  5
2BD
100
AcDbEntity
  8
0
100
AcDbLine
 62
7
  6
CONTINUOUS
 10
-2.8751556537
 20
-21.1498139714
 11
-3.1
 21
-21.1720718961
  0
LINE
  5
2BE
100
AcDbEntity
  8
ASSI
100
AcDbLine
 62
7
  6
CONTINUOUS
 10
-2.8751556537
 20
-21.1498139714
 11
-3.1
 21
-21.1720718961
  0
LINE
  5
2BF
100
AcDbEntity
  8
0
100
AcDbLine
 62
7
  6
CONTINUOUS
 10
6.5087262032
 20
-21.0863897615
 11
0.0
 21
-21.2
  0
LINE
  5
2C0
100
AcDbEntity
  8
ASSI
100
AcDbLine
 62
7
  6
CONTINUOUS
 10
6.5087262032
 20
-21.0863897615
 11
0.0
 21
-21.2
  0
LINE
  5
2C1
100
AcDbEntity
  8
0
100
AcDbLine
 62
250
  6
CONTINUOUS
 10
5.0349048129
 20
-20.612191562
 11
0.0
 21
-20.7000761524
  0
LINE
  5
2C2
100
AcDbEntity
  8
ASSI
100
AcDbLine
 62
250
  6
CONTINUOUS
 10
5.0349048129
 20
-20.612191562
 11
0.0
 21
-20.7000761524
  0
LINE
  5
2C3
100
AcDbEntity
  8
0
100
AcDbLine
 62
250
  6
CONTINUOUS
 10
7.0
 20
-20.5864659139
 11
5.0349048129
 21
-20.612191562
  0
LINE
  5
2C4
100
AcDbEntity
  8
ASSI
100
AcDbLine
 62
250
  6
CONTINUOUS
 10
7.0
 20
-20.5864659139
 11
5.0349048129
 21
-20.612191562
  0
LINE
  5
2C5
100
AcDbEntity
  8
0
100
AcDbLine
 62
7
  6
CONTINUOUS
 10
3.1
 20
-22.2
 11
-3.1
 21
-22.2
  0
LINE
  5
2C6
100
AcDbEntity
  8
ASSI
100
AcDbLine
 62
7
  6
CONTINUOUS
 10
3.1
 20
-22.2
 11
-3.1
 21
-22.2
  0
LINE
  5
2C7
100
AcDbEntity
  8
0
100
AcDbLine
 62
7
  6
CONTINUOUS
 10
-2.6768152463
 20
-21.5448275862
 11
2.6768152463
 21
-21.5448275862
  0
LINE
  5
2C8
100
AcDbEntity
  8
ASSI
100
AcDbLine
 62
7
  6
CONTINUOUS
 10
-2.6768152463
 20
-21.5448275862
 11
2.6768152463
 21
-21.5448275862
  0
LINE
  5
2C9
100
AcDbEntity
  8
0
100
AcDbLine
 62
7
  6
CONTINUOUS
 10
6.9339198284
 20
-21.2
 11
3.1
 21
-21.2
  0
LINE
  5
2CA
100
AcDbEntity
  8
ASSI
100
AcDbLine
 62
7
  6
CONTINUOUS
 10
6.9339198284
 20
-21.2
 11
3.1
 21
-21.2
  0
LINE
  5
2CB
100
AcDbEntity
  8
0
100
AcDbLine
 62
7
  6
CONTINUOUS
 10
-3.1
 20
-21.2
 11
-6.9339198284
 21
-21.2
  0
LINE
  5
2CC
100
AcDbEntity
  8
ASSI
100
AcDbLine
 62
7
  6
CONTINUOUS
 10
-3.1
 20
-21.2
 11
-6.9339198284
 21
-21.2
  0
LINE
  5
2CD
100
AcDbEntity
  8
0
100
AcDbLine
 62
7
  6
CONTINUOUS
 10
-9.6325449351
 20
-20.8475922207
 11
-7.4416531799
 21
-20.8475922207
  0
LINE
  5
2CE
100
AcDbEntity
  8
ASSI
100
AcDbLine
 62
7
  6
CONTINUOUS
 10
-9.6325449351
 20
-20.8475922207
 11
-7.4416531799
 21
-20.8475922207
  0
LINE
  5
2CF
100
AcDbEntity
  8
0
100
AcDbLine
 62
7
  6
CONTINUOUS
 10
7.4416531799
 20
-20.8475922207
 11
9.6325449351
 21
-20.8475922207
  0
LINE
  5
2D0
100
AcDbEntity
  8
ASSI
100
AcDbLine
 62
7
  6
CONTINUOUS
 10
7.4416531799
 20
-20.8475922207
 11
9.6325449351
 21
-20.8475922207
  0
LINE
  5
2D1
100
AcDbEntity
  8
0
100
AcDbLine
 62
7
  6
CONTINUOUS
 10
-5.6821314735
 20
-21.1008180262
 11
0.0
 21
-21.2
  0
LINE
  5
2D2
100
AcDbEntity
  8
ASSI
100
AcDbLine
 62
7
  6
CONTINUOUS
 10
-5.6821314735
 20
-21.1008180262
 11
0.0
 21
-21.2
  0
LINE
  5
2D3
100
AcDbEntity
  8
0
100
AcDbLine
 62
250
  6
CONTINUOUS
 10
-5.6821314735
 20
-20.6008941786
 11
0.0
 21
-20.7000761524
  0
LINE
  5
2D4
100
AcDbEntity
  8
ASSI
100
AcDbLine
 62
250
  6
CONTINUOUS
 10
-5.6821314735
 20
-20.6008941786
 11
0.0
 21
-20.7000761524
  0
LINE
  5
2D5
100
AcDbEntity
  8
0
100
AcDbLine
 62
7
  6
CONTINUOUS
 10
3.1
 20
-21.1720718961
 11
2.8751556537
 21
-21.1498139714
  0
LINE
  5
2D6
100
AcDbEntity
  8
ASSI
100
AcDbLine
 62
7
  6
CONTINUOUS
 10
3.1
 20
-21.1720718961
 11
2.8751556537
 21
-21.1498139714
  0
LINE
  5
2D7
100
AcDbEntity
  8
0
100
AcDbLine
 62
7
  6
CONTINUOUS
 10
-3.8856913861
 20
-21.1321750046
 11
-3.7500004362
 21
-21.2
  0
LINE
  5
2D8
100
AcDbEntity
  8
ASSI
100
AcDbLine
 62
7
  6
CONTINUOUS
 10
-3.8856913861
 20
-21.1321750046
 11
-3.7500004362
 21
-21.2
  0
LINE
  5
2D9
100
AcDbEntity
  8
0
100
AcDbLine
 62
7
  6
CONTINUOUS
 10
-7.073727559
 20
20.5029411645
 11
-8.0
 21
19.5603594806
  0
LINE
  5
2DA
100
AcDbEntity
  8
ASSI
100
AcDbLine
 62
7
  6
CONTINUOUS
 10
-7.073727559
 20
20.5029411645
 11
-8.0
 21
19.5603594806
  0
LINE
  5
2DB
100
AcDbEntity
  8
0
100
AcDbLine
 62
250
  6
CONTINUOUS
 10
-6.7258285376
 20
20.1524865323
 11
-7.2956280473
 21
19.5726543387
  0
LINE
  5
2DC
100
AcDbEntity
  8
ASSI
100
AcDbLine
 62
250
  6
CONTINUOUS
 10
-6.7258285376
 20
20.1524865323
 11
-7.2956280473
 21
19.5726543387
  0
LINE
  5
2DD
100
AcDbEntity
  8
0
100
AcDbLine
 62
7
  6
CONTINUOUS
 10
-9.2420230647
 20
19.2579769353
 11
-10.8571067812
 21
17.6428932188
  0
LINE
  5
2DE
100
AcDbEntity
  8
ASSI
100
AcDbLine
 62
7
  6
CONTINUOUS
 10
-9.2420230647
 20
19.2579769353
 11
-10.8571067812
 21
17.6428932188
  0
LINE
  5
2DF
100
AcDbEntity
  8
0
100
AcDbLine
 62
250
  6
CONTINUOUS
 10
-8.55236869
 20
18.5508701541
 11
-10.1674524064
 21
16.9357864376
  0
LINE
  5
2E0
100
AcDbEntity
  8
ASSI
100
AcDbLine
 62
250
  6
CONTINUOUS
 10
-8.55236869
 20
18.5508701541
 11
-10.1674524064
 21
16.9357864376
  0
LINE
  5
2E1
100
AcDbEntity
  8
0
100
AcDbLine
 62
7
  6
CONTINUOUS
 10
4.394403357
 20
23.1518356242
 11
4.3820344703
 21
23.1459378433
  0
LINE
  5
2E2
100
AcDbEntity
  8
ASSI
100
AcDbLine
 62
7
  6
CONTINUOUS
 10
4.394403357
 20
23.1518356242
 11
4.3820344703
 21
23.1459378433
  0
LINE
  5
2E3
100
AcDbEntity
  8
0
100
AcDbLine
 62
7
  6
CONTINUOUS
 10
4.4067501922
 20
23.157626077
 11
4.394403357
 21
23.1518356242
  0
LINE
  5
2E4
100
AcDbEntity
  8
ASSI
100
AcDbLine
 62
7
  6
CONTINUOUS
 10
4.4067501922
 20
23.157626077
 11
4.394403357
 21
23.1518356242
  0
LINE
  5
2E5
100
AcDbEntity
  8
0
100
AcDbLine
 62
7
  6
CONTINUOUS
 10
4.4190754389
 20
23.163308785
 11
4.4067501922
 21
23.157626077
  0
LINE
  5
2E6
100
AcDbEntity
  8
ASSI
100
AcDbLine
 62
7
  6
CONTINUOUS
 10
4.4190754389
 20
23.163308785
 11
4.4067501922
 21
23.157626077
  0
LWPOLYLINE
  5
2E7
100
AcDbEntity
  8
0
100
AcDbPolyline
 62
7
  6
CONTINUOUS
 90
3
 70
0
 10
4.4375263939
 20
23.1716278385
 10
4.4313810715
 20
23.1688821023
 10
4.4190754389
 20
23.163308785
  0
LWPOLYLINE
  5
2E8
100
AcDbEntity
  8
ASSI
100
AcDbPolyline
 62
7
  6
CONTINUOUS
 90
3
 70
0
 10
4.4375263939
 20
23.1716278385
 10
4.4313810715
 20
23.1688821023
 10
4.4190754389
 20
23.163308785
  0
LINE
  5
2E9
100
AcDbEntity
  8
0
100
AcDbLine
 62
7
  6
CONTINUOUS
 10
6.0
 20
-19.7952696104
 11
5.7289961631
 21
-19.8
  0
LINE
  5
2EA
100
AcDbEntity
  8
ASSI
100
AcDbLine
 62
7
  6
CONTINUOUS
 10
6.0
 20
-19.7952696104
 11
5.7289961631
 21
-19.8
  0
LINE
  5
2EB
100
AcDbEntity
  8
0
100
AcDbLine
 62
7
  6
CONTINUOUS
 10
0.0
 20
-19.7
 11
8.55236869
 21
-19.5507178492
  0
LINE
  5
2EC
100
AcDbEntity
  8
ASSI
100
AcDbLine
 62
7
  6
CONTINUOUS
 10
0.0
 20
-19.7
 11
8.55236869
 21
-19.5507178492
  0
LINE
  5
2ED
100
AcDbEntity
  8
0
100
AcDbLine
 62
7
  6
CONTINUOUS
 10
-7.3830351795
 20
-20.5448275862
 11
-7.0297347411
 21
-20.5448275862
  0
LINE
  5
2EE
100
AcDbEntity
  8
ASSI
100
AcDbLine
 62
7
  6
CONTINUOUS
 10
-7.3830351795
 20
-20.5448275862
 11
-7.0297347411
 21
-20.5448275862
  0
LINE
  5
2EF
100
AcDbEntity
  8
0
100
AcDbLine
 62
7
  6
CONTINUOUS
 10
7.0
 20
-20.5448275862
 11
7.3830351795
 21
-20.5448275862
  0
LINE
  5
2F0
100
AcDbEntity
  8
ASSI
100
AcDbLine
 62
7
  6
CONTINUOUS
 10
7.0
 20
-20.5448275862
 11
7.3830351795
 21
-20.5448275862
  0
LINE
  5
2F1
100
AcDbEntity
  8
0
100
AcDbLine
 62
7
  6
CONTINUOUS
 10
-9.4946499221
 20
-20.4335707644
 11
-7.6780257768
 21
-20.4335707644
  0
LINE
  5
2F2
100
AcDbEntity
  8
ASSI
100
AcDbLine
 62
7
  6
CONTINUOUS
 10
-9.4946499221
 20
-20.4335707644
 11
-7.6780257768
 21
-20.4335707644
  0
LINE
  5
2F3
100
AcDbEntity
  8
0
100
AcDbLine
 62
7
  6
CONTINUOUS
 10
7.6780257768
 20
-20.4335707644
 11
9.4946499221
 21
-20.4335707644
  0
LINE
  5
2F4
100
AcDbEntity
  8
ASSI
100
AcDbLine
 62
7
  6
CONTINUOUS
 10
7.6780257768
 20
-20.4335707644
 11
9.4946499221
 21
-20.4335707644
  0
LINE
  5
2F5
100
AcDbEntity
  8
0
100
AcDbLine
 62
250
  6
CONTINUOUS
 10
7.3830351795
 20
-20.2413486316
 11
6.9941112328
 21
-20.2413486316
  0
LINE
  5
2F6
100
AcDbEntity
  8
ASSI
100
AcDbLine
 62
250
  6
CONTINUOUS
 10
7.3830351795
 20
-20.2413486316
 11
6.9941112328
 21
-20.2413486316
  0
LINE
  5
2F7
100
AcDbEntity
  8
0
100
AcDbLine
 62
250
  6
CONTINUOUS
 10
-7.3307938251
 20
-20.2413486316
 11
-7.3830351795
 21
-20.2413486316
  0
LINE
  5
2F8
100
AcDbEntity
  8
ASSI
100
AcDbLine
 62
250
  6
CONTINUOUS
 10
-7.3307938251
 20
-20.2413486316
 11
-7.3830351795
 21
-20.2413486316
  0
LINE
  5
2F9
100
AcDbEntity
  8
0
100
AcDbLine
 62
250
  6
CONTINUOUS
 10
7.3916103955
 20
-19.741424784
 11
6.5744599635
 21
-19.741424784
  0
LINE
  5
2FA
100
AcDbEntity
  8
ASSI
100
AcDbLine
 62
250
  6
CONTINUOUS
 10
7.3916103955
 20
-19.741424784
 11
6.5744599635
 21
-19.741424784
  0
LINE
  5
2FB
100
AcDbEntity
  8
0
100
AcDbLine
 62
250
  6
CONTINUOUS
 10
7.5402505421
 20
-19.5927846374
 11
6.4258198134
 21
-19.5927846374
  0
LINE
  5
2FC
100
AcDbEntity
  8
ASSI
100
AcDbLine
 62
250
  6
CONTINUOUS
 10
7.5402505421
 20
-19.5927846374
 11
6.4258198134
 21
-19.5927846374
  0
LINE
  5
2FD
100
AcDbEntity
  8
0
100
AcDbLine
 62
250
  6
CONTINUOUS
 10
7.0
 20
-20.3135340861
 11
5.0349048129
 21
-20.287808438
  0
LINE
  5
2FE
100
AcDbEntity
  8
ASSI
100
AcDbLine
 62
250
  6
CONTINUOUS
 10
7.0
 20
-20.3135340861
 11
5.0349048129
 21
-20.287808438
  0
LINE
  5
2FF
100
AcDbEntity
  8
0
100
AcDbLine
 62
250
  6
CONTINUOUS
 10
5.0349048129
 20
-20.287808438
 11
0.0
 21
-20.1999238476
  0
LINE
  5
300
100
AcDbEntity
  8
ASSI
100
AcDbLine
 62
250
  6
CONTINUOUS
 10
5.0349048129
 20
-20.287808438
 11
0.0
 21
-20.1999238476
  0
LINE
  5
301
100
AcDbEntity
  8
0
100
AcDbLine
 62
7
  6
CONTINUOUS
 10
6.5087262032
 20
-19.8136102385
 11
-8.55236869
 21
-19.5507178492
  0
LINE
  5
302
100
AcDbEntity
  8
ASSI
100
AcDbLine
 62
7
  6
CONTINUOUS
 10
6.5087262032
 20
-19.8136102385
 11
-8.55236869
 21
-19.5507178492
  0
LINE
  5
303
100
AcDbEntity
  8
0
100
AcDbLine
 62
7
  6
CONTINUOUS
 10
4.4375263939
 20
-23.1716278385
 11
4.4252307515
 21
-23.1661090841
  0
LINE
  5
304
100
AcDbEntity
  8
ASSI
100
AcDbLine
 62
7
  6
CONTINUOUS
 10
4.4375263939
 20
-23.1716278385
 11
4.4252307515
 21
-23.1661090841
  0
LINE
  5
305
100
AcDbEntity
  8
0
100
AcDbLine
 62
7
  6
CONTINUOUS
 10
4.4252307515
 20
-23.1661090841
 11
4.4129153067
 21
-23.16048107
  0
LINE
  5
306
100
AcDbEntity
  8
ASSI
100
AcDbLine
 62
7
  6
CONTINUOUS
 10
4.4252307515
 20
-23.1661090841
 11
4.4129153067
 21
-23.16048107
  0
LINE
  5
307
100
AcDbEntity
  8
0
100
AcDbLine
 62
7
  6
CONTINUOUS
 10
4.4129153067
 20
-23.16048107
 11
4.4005795965
 21
-23.154744216
  0
LINE
  5
308
100
AcDbEntity
  8
ASSI
100
AcDbLine
 62
7
  6
CONTINUOUS
 10
4.4129153067
 20
-23.16048107
 11
4.4005795965
 21
-23.154744216
  0
LWPOLYLINE
  5
309
100
AcDbEntity
  8
0
100
AcDbPolyline
 62
7
  6
CONTINUOUS
 90
3
 70
0
 10
4.4005795965
 20
-23.154744216
 10
4.3882216465
 20
-23.1489001663
 10
4.3820344703
 20
-23.1459378433
  0
LWPOLYLINE
  5
30A
100
AcDbEntity
  8
ASSI
100
AcDbPolyline
 62
7
  6
CONTINUOUS
 90
3
 70
0
 10
4.4005795965
 20
-23.154744216
 10
4.3882216465
 20
-23.1489001663
 10
4.3820344703
 20
-23.1459378433
  0
LWPOLYLINE
  5
30B
100
AcDbEntity
  8
0
100
AcDbPolyline
 62
250
  6
CONTINUOUS
 90
13
 70
0
 10
-6.7258285376
 20
-20.1524865323
 10
-6.6517347768
 20
-20.221961348
 10
-6.5758485633
 20
-20.2852525408
 10
-6.4981698969
 20
-20.3423601108
 10
-6.4190736457
 20
-20.3929289865
 10
-6.3381849417
 20
-20.4373142394
 10
-6.2543791814
 20
-20.476581084
 10
-6.1675002289
 20
-20.5113042891
 10
-6.0777042202
 20
-20.5409090859
 10
-5.9843349598
 20
-20.5647363824
 10
-5.887173716
 20
-20.5825664814
 10
-5.7864392206
 20
-20.5946190801
 10
-5.6821314735
 20
-20.6008941786
  0
LWPOLYLINE
  5
30C
100
AcDbEntity
  8
ASSI
100
AcDbPolyline
 62
250
  6
CONTINUOUS
 90
13
 70
0
 10
-6.7258285376
 20
-20.1524865323
 10
-6.6517347768
 20
-20.221961348
 10
-6.5758485633
 20
-20.2852525408
 10
-6.4981698969
 20
-20.3423601108
 10
-6.4190736457
 20
-20.3929289865
 10
-6.3381849417
 20
-20.4373142394
 10
-6.2543791814
 20
-20.476581084
 10
-6.1675002289
 20
-20.5113042891
 10
-6.0777042202
 20
-20.5409090859
 10
-5.9843349598
 20
-20.5647363824
 10
-5.887173716
 20
-20.5825664814
 10
-5.7864392206
 20
-20.5946190801
 10
-5.6821314735
 20
-20.6008941786
  0
LINE
  5
30D
100
AcDbEntity
  8
0
100
AcDbLine
 62
7
  6
CONTINUOUS
 10
-10.8571067812
 20
-17.6428932188
 11
-9.2420230647
 21
-19.2579769353
  0
LINE
  5
30E
100
AcDbEntity
  8
ASSI
100
AcDbLine
 62
7
  6
CONTINUOUS
 10
-10.8571067812
 20
-17.6428932188
 11
-9.2420230647
 21
-19.2579769353
  0
LINE
  5
30F
100
AcDbEntity
  8
0
100
AcDbLine
 62
250
  6
CONTINUOUS
 10
-10.1674524064
 20
-16.9357864376
 11
-8.55236869
 21
-18.5508701541
  0
LINE
  5
310
100
AcDbEntity
  8
ASSI
100
AcDbLine
 62
250
  6
CONTINUOUS
 10
-10.1674524064
 20
-16.9357864376
 11
-8.55236869
 21
-18.5508701541
  0
LINE
  5
311
100
AcDbEntity
  8
0
100
AcDbLine
 62
7
  6
CONTINUOUS
 10
-8.0
 20
-19.5603594806
 11
-7.073727559
 21
-20.5029411645
  0
LINE
  5
312
100
AcDbEntity
  8
ASSI
100
AcDbLine
 62
7
  6
CONTINUOUS
 10
-8.0
 20
-19.5603594806
 11
-7.073727559
 21
-20.5029411645
  0
LINE
  5
313
100
AcDbEntity
  8
0
100
AcDbLine
 62
250
  6
CONTINUOUS
 10
-7.2956280473
 20
-19.5726543387
 11
-6.7258285376
 21
-20.1524865323
  0
LINE
  5
314
100
AcDbEntity
  8
ASSI
100
AcDbLine
 62
250
  6
CONTINUOUS
 10
-7.2956280473
 20
-19.5726543387
 11
-6.7258285376
 21
-20.1524865323
  0
LINE
  5
315
100
AcDbEntity
  8
0
100
AcDbLine
 62
250
  6
CONTINUOUS
 10
0.0
 20
-18.7001523048
 11
8.55236869
 21
-18.5508701541
  0
LINE
  5
316
100
AcDbEntity
  8
ASSI
100
AcDbLine
 62
250
  6
CONTINUOUS
 10
0.0
 20
-18.7001523048
 11
8.55236869
 21
-18.5508701541
  0
LINE
  5
317
100
AcDbEntity
  8
0
100
AcDbLine
 62
250
  6
CONTINUOUS
 10
-8.55236869
 20
-18.5508701541
 11
0.0
 21
-18.7001523048
  0
LINE
  5
318
100
AcDbEntity
  8
ASSI
100
AcDbLine
 62
250
  6
CONTINUOUS
 10
-8.55236869
 20
-18.5508701541
 11
0.0
 21
-18.7001523048
  0
LINE
  5
319
100
AcDbEntity
  8
CURVE
100
AcDbLine
 62
250
  6
CONTINUOUS
 10
-5.2849092362
 20
15.5357142985
 11
-5.0706561491
 21
15.6428571045
  0
LINE
  5
31A
100
AcDbEntity
  8
CURVE
100
AcDbLine
 62
250
  6
CONTINUOUS
 10
-7.7845284741
 20
13.321428597
 11
-7.570275387
 21
13.428571403
  0
LINE
  5
31B
100
AcDbEntity
  8
0
100
AcDbLine
 62
7
  6
CONTINUOUS
 10
7.5658752601
 20
20.7702959239
 11
7.3855725326
 21
20.6901924515
  0
LINE
  5
31C
100
AcDbEntity
  8
ASSI
100
AcDbLine
 62
7
  6
CONTINUOUS
 10
7.5658752601
 20
20.7702959239
 11
7.3855725326
 21
20.6901924515
  0
LINE
  5
31D
100
AcDbEntity
  8
CURVE
100
AcDbLine
 62
250
  6
CONTINUOUS
 10
-1.2498096189
 20
16.3999303846
 11
-2.7495811617
 21
15.8546052811
  0
LINE
  5
31E
100
AcDbEntity
  8
0
100
AcDbLine
 62
250
  6
CONTINUOUS
 10
10.1674524064
 20
-16.9357864376
 11
11.15
 21
-16.9357864376
  0
LINE
  5
31F
100
AcDbEntity
  8
ASSI
100
AcDbLine
 62
250
  6
CONTINUOUS
 10
10.1674524064
 20
-16.9357864376
 11
11.15
 21
-16.9357864376
  0
LINE
  5
320
100
AcDbEntity
  8
0
100
AcDbLine
 62
250
  6
CONTINUOUS
 10
-10.1674524064
 20
-16.9357864376
 11
-11.15
 21
-16.9357864376
  0
LINE
  5
321
100
AcDbEntity
  8
ASSI
100
AcDbLine
 62
250
  6
CONTINUOUS
 10
-10.1674524064
 20
-16.9357864376
 11
-11.15
 21
-16.9357864376
  0
LINE
  5
322
100
AcDbEntity
  8
CURVE
100
AcDbLine
 62
250
  6
CONTINUOUS
 10
-2.0330235972
 20
-16.25
 11
-3.6994364721
 21
-16.25
  0
LINE
  5
323
100
AcDbEntity
  8
CURVE
100
AcDbLine
 62
250
  6
CONTINUOUS
 10
-3.2828332533
 20
-15.3125
 11
-4.3243412816
 21
-15.0
  0
LINE
  5
324
100
AcDbEntity
  8
0
100
AcDbLine
 62
7
  6
CONTINUOUS
 10
7.5658752601
 20
-20.7702959239
 11
7.3855725326
 21
-20.6901924515
  0
LINE
  5
325
100
AcDbEntity
  8
ASSI
100
AcDbLine
 62
7
  6
CONTINUOUS
 10
7.5658752601
 20
-20.7702959239
 11
7.3855725326
 21
-20.6901924515
  0
LINE
  5
326
100
AcDbEntity
  8
0
100
AcDbLine
 62
7
  6
CONTINUOUS
 10
-7.6780257768
 20
20.4335707644
 11
-7.5658752601
 21
20.7702959239
  0
LINE
  5
327
100
AcDbEntity
  8
ASSI
100
AcDbLine
 62
7
  6
CONTINUOUS
 10
-7.6780257768
 20
20.4335707644
 11
-7.5658752601
 21
20.7702959239
  0
LINE
  5
328
100
AcDbEntity
  8
CURVE
100
AcDbLine
 62
250
  6
CONTINUOUS
 10
-7.3560223223
 20
13.8571428508
 11
-7.1417692128
 21
14.0714285523
  0
LINE
  5
329
100
AcDbEntity
  8
CURVE
100
AcDbLine
 62
250
  6
CONTINUOUS
 10
-7.9987815613
 20
13.1071428955
 11
-7.7845284741
 21
13.321428597
  0
LINE
  5
32A
100
AcDbEntity
  8
CURVE
100
AcDbLine
 62
250
  6
CONTINUOUS
 10
-5.4991623234
 20
15.321428597
 11
-5.2849092362
 21
15.5357142985
  0
LINE
  5
32B
100
AcDbEntity
  8
CURVE
100
AcDbLine
 62
250
  6
CONTINUOUS
 10
-5.4991623234
 20
14.1428571939
 11
-5.2849092362
 21
14.3571428061
  0
LINE
  5
32C
100
AcDbEntity
  8
CURVE
100
AcDbLine
 62
250
  6
CONTINUOUS
 10
-6.4990100185
 20
13.0
 11
-6.7132630833
 21
12.7857142091
  0
LINE
  5
32D
100
AcDbEntity
  8
CURVE
100
AcDbLine
 62
250
  6
CONTINUOUS
 10
-4.2136438454
 20
15.0
 11
-4.4278969102
 21
14.8928571939
  0
LINE
  5
32E
100
AcDbEntity
  8
CURVE
100
AcDbLine
 62
250
  6
CONTINUOUS
 10
-5.2849092362
 20
14.3571428061
 11
-5.0706561491
 21
14.4642857909
  0
LINE
  5
32F
100
AcDbEntity
  8
CURVE
100
AcDbLine
 62
250
  6
CONTINUOUS
 10
-6.7132630833
 20
12.7857142091
 11
-6.927516148
 21
12.678571403
  0
LINE
  5
330
100
AcDbEntity
  8
CURVE
100
AcDbLine
 62
250
  6
CONTINUOUS
 10
-4.2136438454
 20
13.821428597
 11
-4.4278969102
 21
13.7142857909
  0
LINE
  5
331
100
AcDbEntity
  8
CURVE
100
AcDbLine
 62
250
  6
CONTINUOUS
 10
-1.2498096189
 20
15.1544660503
 11
-2.7495811617
 21
14.6091409468
  0
LINE
  5
332
100
AcDbEntity
  8
CURVE
100
AcDbLine
 62
250
  6
CONTINUOUS
 10
-2.0330235972
 20
-15.3125
 11
-3.2828332533
 21
-15.3125
  0
LINE
  5
333
100
AcDbEntity
  8
CURVE
100
AcDbLine
 62
250
  6
CONTINUOUS
 10
-3.6994364721
 20
-15.9375
 11
-3.2828332533
 21
-16.25
  0
LINE
  5
334
100
AcDbEntity
  8
0
100
AcDbLine
 62
7
  6
CONTINUOUS
 10
-7.5658752601
 20
-20.7702959239
 11
-7.6780257768
 21
-20.4335707644
  0
LINE
  5
335
100
AcDbEntity
  8
ASSI
100
AcDbLine
 62
7
  6
CONTINUOUS
 10
-7.5658752601
 20
-20.7702959239
 11
-7.6780257768
 21
-20.4335707644
  0
LINE
  5
336
100
AcDbEntity
  8
CURVE
100
AcDbLine
 62
250
  6
CONTINUOUS
 10
-3.9993907806
 20
15.2142857015
 11
-4.2136438454
 21
15.0
  0
LINE
  5
337
100
AcDbEntity
  8
CURVE
100
AcDbLine
 62
250
  6
CONTINUOUS
 10
-7.7845284741
 20
11.1071429253
 11
-7.9987815613
 21
10.8928573132
  0
LINE
  5
338
100
AcDbEntity
  8
CURVE
100
AcDbLine
 62
250
  6
CONTINUOUS
 10
-3.9993907806
 20
14.0357142091
 11
-4.2136438454
 21
13.821428597
  0
LINE
  5
339
100
AcDbEntity
  8
CURVE
100
AcDbLine
 62
250
  6
CONTINUOUS
 10
-7.3560223223
 20
10.3571429253
 11
-7.1417692128
 21
10.5714285374
  0
LINE
  5
33A
100
AcDbEntity
  8
CURVE
100
AcDbLine
 62
250
  6
CONTINUOUS
 10
-7.9987815613
 20
9.6071429253
 11
-7.7845284741
 21
9.8214285374
  0
LINE
  5
33B
100
AcDbEntity
  8
0
100
AcDbLine
 62
7
  6
CONTINUOUS
 10
2.5444128922
 20
19.7444128922
 11
2.4571109685
 21
19.6571109685
  0
LINE
  5
33C
100
AcDbEntity
  8
ASSI
100
AcDbLine
 62
7
  6
CONTINUOUS
 10
2.5444128922
 20
19.7444128922
 11
2.4571109685
 21
19.6571109685
  0
LINE
  5
33D
100
AcDbEntity
  8
CURVE
100
AcDbLine
 62
250
  6
CONTINUOUS
 10
-7.7845284741
 20
9.8214285374
 11
-7.570275387
 21
9.9285713434
  0
LINE
  5
33E
100
AcDbEntity
  8
CURVE
100
AcDbLine
 62
250
  6
CONTINUOUS
 10
-1.2498096189
 20
13.909001716
 11
-1.9996953903
 21
13.6363391642
  0
LINE
  5
33F
100
AcDbEntity
  8
0
100
AcDbLine
 62
7
  6
CONTINUOUS
 10
0.0
 20
-12.863457922
 11
6.5
 21
-12.75
  0
LINE
  5
340
100
AcDbEntity
  8
ASSI
100
AcDbLine
 62
7
  6
CONTINUOUS
 10
0.0
 20
-12.863457922
 11
6.5
 21
-12.75
  0
LINE
  5
341
100
AcDbEntity
  8
0
100
AcDbLine
 62
7
  6
CONTINUOUS
 10
3.6355019184
 20
-12.8
 11
-3.1355019184
 21
-12.8
  0
LINE
  5
342
100
AcDbEntity
  8
IMPORT_IGES
100
AcDbLine
 62
7
  6
CONTINUOUS
 10
-6.0
 20
-12.4
 11
6.456
 21
-12.4
  0
LINE
  5
343
100
AcDbEntity
  8
0
100
AcDbLine
 62
7
  6
CONTINUOUS
 10
0.0
 20
-12.8547303896
 11
-6.0
 21
-12.75
  0
LINE
  5
344
100
AcDbEntity
  8
ASSI
100
AcDbLine
 62
7
  6
CONTINUOUS
 10
0.0
 20
-12.8547303896
 11
-6.0
 21
-12.75
  0
LINE
  5
345
100
AcDbEntity
  8
0
100
AcDbLine
 62
7
  6
CONTINUOUS
 10
2.4571109685
 20
-19.6571109685
 11
2.5444128922
 21
-19.7444128922
  0
LINE
  5
346
100
AcDbEntity
  8
ASSI
100
AcDbLine
 62
7
  6
CONTINUOUS
 10
2.4571109685
 20
-19.6571109685
 11
2.5444128922
 21
-19.7444128922
  0
LINE
  5
347
100
AcDbEntity
  8
0
100
AcDbLine
 62
7
  6
CONTINUOUS
 10
-11.15
 20
16.9357864376
 11
-11.15
 21
-16.9357864376
  0
LINE
  5
348
100
AcDbEntity
  8
ASSI
100
AcDbLine
 62
7
  6
CONTINUOUS
 10
-11.15
 20
16.9357864376
 11
-11.15
 21
-16.9357864376
  0
LINE
  5
349
100
AcDbEntity
  8
0
100
AcDbLine
 62
7
  6
CONTINUOUS
 10
-11.1325449351
 20
-21.8997711479
 11
-11.1325449351
 21
-17.1196415273
  0
LINE
  5
34A
100
AcDbEntity
  8
ASSI
100
AcDbLine
 62
7
  6
CONTINUOUS
 10
-11.1325449351
 20
-21.8997711479
 11
-11.1325449351
 21
-17.1196415273
  0
LINE
  5
34B
100
AcDbEntity
  8
0
100
AcDbLine
 62
7
  6
CONTINUOUS
 10
-11.1325449351
 20
17.1196415273
 11
-11.1325449351
 21
21.8997711479
  0
LINE
  5
34C
100
AcDbEntity
  8
ASSI
100
AcDbLine
 62
7
  6
CONTINUOUS
 10
-11.1325449351
 20
17.1196415273
 11
-11.1325449351
 21
21.8997711479
  0
LINE
  5
34D
100
AcDbEntity
  8
0
100
AcDbLine
 62
250
  6
CONTINUOUS
 10
-10.1674524064
 20
16.9357864376
 11
-10.1674524064
 21
-16.9357864376
  0
LINE
  5
34E
100
AcDbEntity
  8
ASSI
100
AcDbLine
 62
250
  6
CONTINUOUS
 10
-10.1674524064
 20
16.9357864376
 11
-10.1674524064
 21
-16.9357864376
  0
LINE
  5
34F
100
AcDbEntity
  8
0
100
AcDbLine
 62
250
  6
CONTINUOUS
 10
2.981542814
 20
19.7520430234
 11
2.8792424271
 21
19.6497426365
  0
LINE
  5
350
100
AcDbEntity
  8
ASSI
100
AcDbLine
 62
250
  6
CONTINUOUS
 10
2.981542814
 20
19.7520430234
 11
2.8792424271
 21
19.6497426365
  0
LINE
  5
351
100
AcDbEntity
  8
CURVE
100
AcDbLine
 62
250
  6
CONTINUOUS
 10
-6.4990100185
 20
9.5000001192
 11
-6.7132630833
 21
9.2857141495
  0
LINE
  5
352
100
AcDbEntity
  8
CURVE
100
AcDbLine
 62
250
  6
CONTINUOUS
 10
-4.2136438454
 20
11.4642856121
 11
-3.9993907806
 21
11.6785715818
  0
LINE
  5
353
100
AcDbEntity
  8
CURVE
100
AcDbLine
 62
250
  6
CONTINUOUS
 10
-5.4991623234
 20
9.5357143879
 11
-5.2849092362
 21
9.75
  0
LINE
  5
354
100
AcDbEntity
  8
CURVE
100
AcDbLine
 62
250
  6
CONTINUOUS
 10
-6.7132630833
 20
9.2857141495
 11
-6.927516148
 21
9.1785713434
  0
LINE
  5
355
100
AcDbEntity
  8
CURVE
100
AcDbLine
 62
250
  6
CONTINUOUS
 10
-5.2849092362
 20
9.75
 11
-5.0706561491
 21
9.8571431637
  0
LINE
  5
356
100
AcDbEntity
  8
IMPORT_IGES
100
AcDbLine
 62
7
  6
CONTINUOUS
 10
-3.544
 20
-11.5510309552
 11
-0.744
 21
-11.35
  0
LINE
  5
357
100
AcDbEntity
  8
IMPORT_IGES
100
AcDbLine
 62
7
  6
CONTINUOUS
 10
5.5416406461
 20
-11.6983339502
 11
-3.544
 21
-11.6983339502
  0
LINE
  5
358
100
AcDbEntity
  8
IMPORT_IGES
100
AcDbLine
 62
7
  6
CONTINUOUS
 10
4.166
 20
-11.35
 11
-0.744
 21
-11.35
  0
LINE
  5
359
100
AcDbEntity
  8
IMPORT_IGES
100
AcDbLine
 62
7
  6
CONTINUOUS
 10
4.156
 20
-11.2
 11
-0.744
 21
-11.2
  0
LINE
  5
35A
100
AcDbEntity
  8
CURVE
100
AcDbLine
 62
250
  6
CONTINUOUS
 10
-8.9986292564
 20
-10.45
 11
-7.0989186356
 21
-10.45
  0
LINE
  5
35B
100
AcDbEntity
  8
IMPORT_IGES
100
AcDbLine
 62
7
  6
CONTINUOUS
 10
4.166
 20
-11.4855216016
 11
5.5416406461
 21
-11.6983339502
  0
LINE
  5
35C
100
AcDbEntity
  8
0
100
AcDbLine
 62
250
  6
CONTINUOUS
 10
2.8792424271
 20
-19.6497426365
 11
2.981542814
 21
-19.7520430234
  0
LINE
  5
35D
100
AcDbEntity
  8
ASSI
100
AcDbLine
 62
250
  6
CONTINUOUS
 10
2.8792424271
 20
-19.6497426365
 11
2.981542814
 21
-19.7520430234
  0
LWPOLYLINE
  5
35E
100
AcDbEntity
  8
0
100
AcDbPolyline
 62
250
  6
CONTINUOUS
 90
8
 70
0
 10
-8.5592186227
 20
-19.3698668006
 10
-8.5587524901
 20
-19.4167340532
 10
-8.5581049021
 20
-19.457016025
 10
-8.5572808232
 20
-19.4904012753
 10
-8.5562868195
 20
-19.5166295213
 10
-8.5551307007
 20
-19.5355057845
 10
-8.5538213011
 20
-19.5468953539
 10
-8.55236869
 20
-19.5507178492
  0
LWPOLYLINE
  5
35F
100
AcDbEntity
  8
ASSI
100
AcDbPolyline
 62
250
  6
CONTINUOUS
 90
8
 70
0
 10
-8.5592186227
 20
-19.3698668006
 10
-8.5587524901
 20
-19.4167340532
 10
-8.5581049021
 20
-19.457016025
 10
-8.5572808232
 20
-19.4904012753
 10
-8.5562868195
 20
-19.5166295213
 10
-8.5551307007
 20
-19.5355057845
 10
-8.5538213011
 20
-19.5468953539
 10
-8.55236869
 20
-19.5507178492
  0
LINE
  5
360
100
AcDbEntity
  8
0
100
AcDbLine
 62
250
  6
CONTINUOUS
 10
-8.558753805
 20
19.0507598897
 11
-8.5595002879
 21
19.1935282208
  0
LINE
  5
361
100
AcDbEntity
  8
ASSI
100
AcDbLine
 62
250
  6
CONTINUOUS
 10
-8.558753805
 20
19.0507598897
 11
-8.5595002879
 21
19.1935282208
  0
LINE
  5
362
100
AcDbEntity
  8
0
100
AcDbLine
 62
250
  6
CONTINUOUS
 10
-8.5595939553
 20
-19.2578387575
 11
-8.5592186227
 21
-19.3698668006
  0
LINE
  5
363
100
AcDbEntity
  8
ASSI
100
AcDbLine
 62
250
  6
CONTINUOUS
 10
-8.5595939553
 20
-19.2578387575
 11
-8.5592186227
 21
-19.3698668006
  0
LINE
  5
364
100
AcDbEntity
  8
0
100
AcDbLine
 62
7
  6
CONTINUOUS
 10
-9.6325449351
 20
-20.8475922207
 11
-9.6325449351
 21
-18.8674550649
  0
LINE
  5
365
100
AcDbEntity
  8
ASSI
100
AcDbLine
 62
7
  6
CONTINUOUS
 10
-9.6325449351
 20
-20.8475922207
 11
-9.6325449351
 21
-18.8674550649
  0
LINE
  5
366
100
AcDbEntity
  8
0
100
AcDbLine
 62
7
  6
CONTINUOUS
 10
-9.6325449351
 20
18.8674550649
 11
-9.6325449351
 21
20.8475922207
  0
LINE
  5
367
100
AcDbEntity
  8
ASSI
100
AcDbLine
 62
7
  6
CONTINUOUS
 10
-9.6325449351
 20
18.8674550649
 11
-9.6325449351
 21
20.8475922207
  0
LINE
  5
368
100
AcDbEntity
  8
DRAFT
100
AcDbLine
 62
7
  6
CONTINUOUS
 10
-9.4946499221
 20
-20.4335707644
 11
-9.4946499221
 21
-19.0053500779
  0
LINE
  5
369
100
AcDbEntity
  8
ASSI
100
AcDbLine
 62
7
  6
CONTINUOUS
 10
-9.4946499221
 20
-20.4335707644
 11
-9.4946499221
 21
-19.0053500779
  0
LINE
  5
36A
100
AcDbEntity
  8
DRAFT
100
AcDbLine
 62
7
  6
CONTINUOUS
 10
-9.4946499221
 20
19.0053500779
 11
-9.4946499221
 21
20.4335707644
  0
LINE
  5
36B
100
AcDbEntity
  8
ASSI
100
AcDbLine
 62
7
  6
CONTINUOUS
 10
-9.4946499221
 20
19.0053500779
 11
-9.4946499221
 21
20.4335707644
  0
LINE
  5
36C
100
AcDbEntity
  8
CURVE
100
AcDbLine
 62
250
  6
CONTINUOUS
 10
-8.9986292564
 20
-4.5
 11
-8.9986292564
 21
-5.1785714447
  0
LWPOLYLINE
  5
36D
100
AcDbEntity
  8
0
100
AcDbPolyline
 62
250
  6
CONTINUOUS
 90
10
 70
0
 10
-8.5595002879
 20
19.1935282208
 10
-8.5594998233
 20
19.3167676198
 10
-8.5592186206
 20
19.3698670767
 10
-8.5587524868
 20
19.4167343126
 10
-8.5581048979
 20
19.4570162397
 10
-8.5572808185
 20
19.4904014342
 10
-8.5562868147
 20
19.5166296227
 10
-8.5551306962
 20
19.535505835
 10
-8.5538212976
 20
19.5468953679
 10
-8.5523686883
 20
19.5507178493
  0
LWPOLYLINE
  5
36E
100
AcDbEntity
  8
ASSI
100
AcDbPolyline
 62
250
  6
CONTINUOUS
 90
10
 70
0
 10
-8.5595002879
 20
19.1935282208
 10
-8.5594998233
 20
19.3167676198
 10
-8.5592186206
 20
19.3698670767
 10
-8.5587524868
 20
19.4167343126
 10
-8.5581048979
 20
19.4570162397
 10
-8.5572808185
 20
19.4904014342
 10
-8.5562868147
 20
19.5166296227
 10
-8.5551306962
 20
19.535505835
 10
-8.5538212976
 20
19.5468953679
 10
-8.5523686883
 20
19.5507178493
  0
LWPOLYLINE
  5
36F
100
AcDbEntity
  8
0
100
AcDbPolyline
 62
250
  6
CONTINUOUS
 90
3
 70
0
 10
-8.5587538032
 20
-19.0507596498
 10
-8.5592195204
 20
-19.1243251892
 10
-8.5595939553
 20
-19.2578387575
  0
LWPOLYLINE
  5
370
100
AcDbEntity
  8
ASSI
100
AcDbPolyline
 62
250
  6
CONTINUOUS
 90
3
 70
0
 10
-8.5587538032
 20
-19.0507596498
 10
-8.5592195204
 20
-19.1243251892
 10
-8.5595939553
 20
-19.2578387575
  0
LINE
  5
371
100
AcDbEntity
  8
0
100
AcDbLine
 62
250
  6
CONTINUOUS
 10
6.0384829835
 20
19.8054021125
 11
6.0
 21
19.7669191291
  0
LINE
  5
372
100
AcDbEntity
  8
ASSI
100
AcDbLine
 62
250
  6
CONTINUOUS
 10
6.0384829835
 20
19.8054021125
 11
6.0
 21
19.7669191291
  0
LINE
  5
373
100
AcDbEntity
  8
CURVE
100
AcDbLine
 62
250
  6
CONTINUOUS
 10
-3.9993907806
 20
9.4285712242
 11
-4.2136438454
 21
9.2142856121
  0
LINE
  5
374
100
AcDbEntity
  8
CURVE
100
AcDbLine
 62
250
  6
CONTINUOUS
 10
-2.5353280746
 20
10.7484377876
 11
-2.7495811617
 21
10.5341520861
  0
LINE
  5
375
100
AcDbEntity
  8
0
100
AcDbLine
 62
7
  6
CONTINUOUS
 10
6.5744599635
 20
19.741424784
 11
6.4258198134
 21
19.5927846374
  0
LINE
  5
376
100
AcDbEntity
  8
ASSI
100
AcDbLine
 62
7
  6
CONTINUOUS
 10
6.5744599635
 20
19.741424784
 11
6.4258198134
 21
19.5927846374
  0
LINE
  5
377
100
AcDbEntity
  8
CURVE
100
AcDbLine
 62
250
  6
CONTINUOUS
 10
-2.1068219227
 20
9.998437877
 11
-1.8925688132
 21
10.2127235785
  0
LINE
  5
378
100
AcDbEntity
  8
CURVE
100
AcDbLine
 62
250
  6
CONTINUOUS
 10
-4.2136438454
 20
9.2142856121
 11
-4.4278969102
 21
9.1071431637
  0
LINE
  5
379
100
AcDbEntity
  8
CURVE
100
AcDbLine
 62
250
  6
CONTINUOUS
 10
-2.8567077052
 20
9.3555806831
 11
-2.4282015422
 21
9.569866474
  0
LINE
  5
37A
100
AcDbEntity
  8
CURVE
100
AcDbLine
 62
250
  6
CONTINUOUS
 10
-3.9993907806
 20
8.6785712242
 11
-5.4991623234
 21
8.25
  0
LINE
  5
37B
100
AcDbEntity
  8
IMPORT_IGES
100
AcDbLine
 62
7
  6
CONTINUOUS
 10
5.5416406461
 20
-8.1016660498
 11
4.166
 21
-8.3144783984
  0
LINE
  5
37C
100
AcDbEntity
  8
CURVE
100
AcDbLine
 62
250
  6
CONTINUOUS
 10
-8.9986292564
 20
-9.5
 11
-7.0989186356
 21
-9.5
  0
LINE
  5
37D
100
AcDbEntity
  8
IMPORT_IGES
100
AcDbLine
 62
7
  6
CONTINUOUS
 10
-0.744
 20
-8.6
 11
4.156
 21
-8.6
  0
LINE
  5
37E
100
AcDbEntity
  8
IMPORT_IGES
100
AcDbLine
 62
7
  6
CONTINUOUS
 10
-0.744
 20
-8.45
 11
4.166
 21
-8.45
  0
LINE
  5
37F
100
AcDbEntity
  8
IMPORT_IGES
100
AcDbLine
 62
7
  6
CONTINUOUS
 10
-0.744
 20
-8.45
 11
-3.544
 21
-8.2489690448
  0
LINE
  5
380
100
AcDbEntity
  8
0
100
AcDbLine
 62
250
  6
CONTINUOUS
 10
6.0
 20
-19.7669191291
 11
6.0384829835
 21
-19.8054021125
  0
LINE
  5
381
100
AcDbEntity
  8
ASSI
100
AcDbLine
 62
250
  6
CONTINUOUS
 10
6.0
 20
-19.7669191291
 11
6.0384829835
 21
-19.8054021125
  0
LINE
  5
382
100
AcDbEntity
  8
0
100
AcDbLine
 62
7
  6
CONTINUOUS
 10
6.4258198134
 20
-19.5927846374
 11
6.5744599635
 21
-19.741424784
  0
LINE
  5
383
100
AcDbEntity
  8
ASSI
100
AcDbLine
 62
7
  6
CONTINUOUS
 10
6.4258198134
 20
-19.5927846374
 11
6.5744599635
 21
-19.741424784
  0
LINE
  5
384
100
AcDbEntity
  8
0
100
AcDbLine
 62
7
  6
CONTINUOUS
 10
-7.3855725326
 20
20.6901924515
 11
-7.3830351795
 21
20.5448275862
  0
LINE
  5
385
100
AcDbEntity
  8
ASSI
100
AcDbLine
 62
7
  6
CONTINUOUS
 10
-7.3855725326
 20
20.6901924515
 11
-7.3830351795
 21
20.5448275862
  0
LINE
  5
386
100
AcDbEntity
  8
0
100
AcDbLine
 62
250
  6
CONTINUOUS
 10
-8.55236869
 20
18.5508701541
 11
-8.5551330184
 21
18.7244789534
  0
LINE
  5
387
100
AcDbEntity
  8
ASSI
100
AcDbLine
 62
250
  6
CONTINUOUS
 10
-8.55236869
 20
18.5508701541
 11
-8.5551330184
 21
18.7244789534
  0
LINE
  5
388
100
AcDbEntity
  8
0
100
AcDbLine
 62
250
  6
CONTINUOUS
 10
-8.5551330184
 20
18.7244789534
 11
-8.5572831575
 21
18.8928129615
  0
LINE
  5
389
100
AcDbEntity
  8
ASSI
100
AcDbLine
 62
250
  6
CONTINUOUS
 10
-8.5551330184
 20
18.7244789534
 11
-8.5572831575
 21
18.8928129615
  0
LINE
  5
38A
100
AcDbEntity
  8
0
100
AcDbLine
 62
250
  6
CONTINUOUS
 10
-8.5572831575
 20
18.8928129615
 11
-8.558753805
 21
19.0507598897
  0
LINE
  5
38B
100
AcDbEntity
  8
ASSI
100
AcDbLine
 62
250
  6
CONTINUOUS
 10
-8.5572831575
 20
18.8928129615
 11
-8.558753805
 21
19.0507598897
  0
LINE
  5
38C
100
AcDbEntity
  8
CURVE
100
AcDbLine
 62
250
  6
CONTINUOUS
 10
-7.9987815613
 20
14.5
 11
-7.9987815613
 21
14.0714285523
  0
LINE
  5
38D
100
AcDbEntity
  8
CURVE
100
AcDbLine
 62
250
  6
CONTINUOUS
 10
-7.9987815613
 20
10.8928573132
 11
-7.9987815613
 21
10.5714285374
  0
LINE
  5
38E
100
AcDbEntity
  8
CURVE
100
AcDbLine
 62
250
  6
CONTINUOUS
 10
-7.9987815613
 20
7.5714285374
 11
-7.9987815613
 21
6.928571701
  0
LINE
  5
38F
100
AcDbEntity
  8
CURVE
100
AcDbLine
 62
250
  6
CONTINUOUS
 10
-7.9987815613
 20
9.5000001192
 11
-7.9987815613
 21
9.6071429253
  0
LINE
  5
390
100
AcDbEntity
  8
CURVE
100
AcDbLine
 62
250
  6
CONTINUOUS
 10
-7.9987815613
 20
13.0
 11
-7.9987815613
 21
13.1071428955
  0
LINE
  5
391
100
AcDbEntity
  8
0
100
AcDbLine
 62
7
  6
CONTINUOUS
 10
-7.6780257768
 20
-20.4335707644
 11
-7.6780257768
 21
-19.8880028305
  0
LINE
  5
392
100
AcDbEntity
  8
ASSI
100
AcDbLine
 62
7
  6
CONTINUOUS
 10
-7.6780257768
 20
-20.4335707644
 11
-7.6780257768
 21
-19.8880028305
  0
LINE
  5
393
100
AcDbEntity
  8
0
100
AcDbLine
 62
7
  6
CONTINUOUS
 10
-7.6780257768
 20
19.8880028305
 11
-7.6780257768
 21
20.4335707644
  0
LINE
  5
394
100
AcDbEntity
  8
ASSI
100
AcDbLine
 62
7
  6
CONTINUOUS
 10
-7.6780257768
 20
19.8880028305
 11
-7.6780257768
 21
20.4335707644
  0
LINE
  5
395
100
AcDbEntity
  8
0
100
AcDbLine
 62
7
  6
CONTINUOUS
 10
-7.3830351795
 20
20.5448275862
 11
-7.3830351795
 21
20.2413486316
  0
LINE
  5
396
100
AcDbEntity
  8
ASSI
100
AcDbLine
 62
7
  6
CONTINUOUS
 10
-7.3830351795
 20
20.5448275862
 11
-7.3830351795
 21
20.2413486316
  0
LINE
  5
397
100
AcDbEntity
  8
0
100
AcDbLine
 62
7
  6
CONTINUOUS
 10
-7.3830351795
 20
-20.2413486316
 11
-7.3830351795
 21
-20.5448275862
  0
LINE
  5
398
100
AcDbEntity
  8
ASSI
100
AcDbLine
 62
7
  6
CONTINUOUS
 10
-7.3830351795
 20
-20.2413486316
 11
-7.3830351795
 21
-20.5448275862
  0
LINE
  5
399
100
AcDbEntity
  8
CURVE
100
AcDbLine
 62
250
  6
CONTINUOUS
 10
-7.1417692128
 20
8.7500001192
 11
-7.1417692128
 21
7.9999997616
  0
LINE
  5
39A
100
AcDbEntity
  8
CURVE
100
AcDbLine
 62
250
  6
CONTINUOUS
 10
-7.1417692128
 20
10.5714285374
 11
-7.1417692128
 21
11.0357142687
  0
LINE
  5
39B
100
AcDbEntity
  8
CURVE
100
AcDbLine
 62
250
  6
CONTINUOUS
 10
-7.1417692128
 20
14.0714285523
 11
-7.1417692128
 21
14.5
  0
LINE
  5
39C
100
AcDbEntity
  8
CURVE
100
AcDbLine
 62
250
  6
CONTINUOUS
 10
-6.927516148
 20
7.5714285374
 11
-6.927516148
 21
6.928571701
  0
LINE
  5
39D
100
AcDbEntity
  8
0
100
AcDbLine
 62
250
  6
CONTINUOUS
 10
-8.5562894084
 20
-18.8096306218
 11
-8.5587538032
 21
-19.0507596498
  0
LINE
  5
39E
100
AcDbEntity
  8
ASSI
100
AcDbLine
 62
250
  6
CONTINUOUS
 10
-8.5562894084
 20
-18.8096306218
 11
-8.5587538032
 21
-19.0507596498
  0
LINE
  5
39F
100
AcDbEntity
  8
0
100
AcDbLine
 62
250
  6
CONTINUOUS
 10
-8.55236869
 20
-18.5508701541
 11
-8.5562894084
 21
-18.8096306218
  0
LINE
  5
3A0
100
AcDbEntity
  8
ASSI
100
AcDbLine
 62
250
  6
CONTINUOUS
 10
-8.55236869
 20
-18.5508701541
 11
-8.5562894084
 21
-18.8096306218
  0
LINE
  5
3A1
100
AcDbEntity
  8
0
100
AcDbLine
 62
7
  6
CONTINUOUS
 10
-7.3855725326
 20
-20.6901924515
 11
-7.3830351795
 21
-20.5448275862
  0
LINE
  5
3A2
100
AcDbEntity
  8
ASSI
100
AcDbLine
 62
7
  6
CONTINUOUS
 10
-7.3855725326
 20
-20.6901924515
 11
-7.3830351795
 21
-20.5448275862
  0
LINE
  5
3A3
100
AcDbEntity
  8
0
100
AcDbLine
 62
7
  6
CONTINUOUS
 10
2.6768152463
 20
21.5448275862
 11
3.0118365096
 21
22.2
  0
LINE
  5
3A4
100
AcDbEntity
  8
ASSI
100
AcDbLine
 62
7
  6
CONTINUOUS
 10
2.6768152463
 20
21.5448275862
 11
3.0118365096
 21
22.2
  0
LINE
  5
3A5
100
AcDbEntity
  8
CURVE
100
AcDbLine
 62
250
  6
CONTINUOUS
 10
-4.9278207726
 20
7.1428570747
 11
-5.1420738597
 21
6.8571431637
  0
LINE
  5
3A6
100
AcDbEntity
  8
0
100
AcDbLine
 62
250
  6
CONTINUOUS
 10
9.0441645035
 20
19.0478541171
 11
9.1210961058
 21
19.1271091391
  0
LINE
  5
3A7
100
AcDbEntity
  8
ASSI
100
AcDbLine
 62
250
  6
CONTINUOUS
 10
9.0441645035
 20
19.0478541171
 11
9.1210961058
 21
19.1271091391
  0
LINE
  5
3A8
100
AcDbEntity
  8
0
100
AcDbLine
 62
250
  6
CONTINUOUS
 10
8.9010416496
 20
18.9019528065
 11
9.0441645035
 21
19.0478541171
  0
LINE
  5
3A9
100
AcDbEntity
  8
ASSI
100
AcDbLine
 62
250
  6
CONTINUOUS
 10
8.9010416496
 20
18.9019528065
 11
9.0441645035
 21
19.0478541171
  0
LINE
  5
3AA
100
AcDbEntity
  8
0
100
AcDbLine
 62
250
  6
CONTINUOUS
 10
8.6739219394
 20
18.6727215598
 11
8.9010416496
 21
18.9019528065
  0
LINE
  5
3AB
100
AcDbEntity
  8
ASSI
100
AcDbLine
 62
250
  6
CONTINUOUS
 10
8.6739219394
 20
18.6727215598
 11
8.9010416496
 21
18.9019528065
  0
LINE
  5
3AC
100
AcDbEntity
  8
0
100
AcDbLine
 62
250
  6
CONTINUOUS
 10
8.55236869
 20
18.5508701541
 11
8.6739219394
 21
18.6727215598
  0
LINE
  5
3AD
100
AcDbEntity
  8
ASSI
100
AcDbLine
 62
250
  6
CONTINUOUS
 10
8.55236869
 20
18.5508701541
 11
8.6739219394
 21
18.6727215598
  0
LINE
  5
3AE
100
AcDbEntity
  8
CURVE
100
AcDbLine
 62
250
  6
CONTINUOUS
 10
-2.1068219227
 20
8.2841522649
 11
-1.8925688132
 21
8.498437877
  0
LINE
  5
3AF
100
AcDbEntity
  8
CURVE
100
AcDbLine
 62
250
  6
CONTINUOUS
 10
-2.6781634678
 20
7.6055805639
 11
-2.6424546181
 21
7.641295071
  0
LINE
  5
3B0
100
AcDbEntity
  8
CURVE
100
AcDbLine
 62
250
  6
CONTINUOUS
 10
-1.4640626837
 20
8.3198664144
 11
-1.2498096189
 21
8.498437877
  0
LINE
  5
3B1
100
AcDbEntity
  8
CURVE
100
AcDbLine
 62
250
  6
CONTINUOUS
 10
-2.4996192304
 20
7.5341522649
 11
-2.5710369299
 21
7.4984377578
  0
LINE
  5
3B2
100
AcDbEntity
  8
IMPORT_IGES
100
AcDbLine
 62
7
  6
CONTINUOUS
 10
-3.544
 20
-8.1016660498
 11
5.5416406461
 21
-8.1016660498
  0
LINE
  5
3B3
100
AcDbEntity
  8
0
100
AcDbLine
 62
250
  6
CONTINUOUS
 10
8.55236869
 20
-18.5508701541
 11
8.7333627822
 21
-18.7325050804
  0
LINE
  5
3B4
100
AcDbEntity
  8
ASSI
100
AcDbLine
 62
250
  6
CONTINUOUS
 10
8.55236869
 20
-18.5508701541
 11
8.7333627822
 21
-18.7325050804
  0
LINE
  5
3B5
100
AcDbEntity
  8
0
100
AcDbLine
 62
250
  6
CONTINUOUS
 10
8.7333627822
 20
-18.7325050804
 11
8.9010415154
 21
-18.9019526703
  0
LINE
  5
3B6
100
AcDbEntity
  8
ASSI
100
AcDbLine
 62
250
  6
CONTINUOUS
 10
8.7333627822
 20
-18.7325050804
 11
8.9010415154
 21
-18.9019526703
  0
LINE
  5
3B7
100
AcDbEntity
  8
0
100
AcDbLine
 62
250
  6
CONTINUOUS
 10
8.9010415154
 20
-18.9019526703
 11
9.0441643699
 21
-19.0478539801
  0
LINE
  5
3B8
100
AcDbEntity
  8
ASSI
100
AcDbLine
 62
250
  6
CONTINUOUS
 10
8.9010415154
 20
-18.9019526703
 11
9.0441643699
 21
-19.0478539801
  0
LWPOLYLINE
  5
3B9
100
AcDbEntity
  8
0
100
AcDbPolyline
 62
250
  6
CONTINUOUS
 90
9
 70
0
 10
9.0441643699
 20
-19.0478539801
 10
9.1210959589
 20
-19.1271089869
 10
9.1531092708
 20
-19.1604002488
 10
9.1804923107
 20
-19.1891262686
 10
9.2030370074
 20
-19.2130688078
 10
9.2205708552
 20
-19.232044542
 10
9.2329652781
 20
-19.2459139499
 10
9.2401326703
 20
-19.254578475
 10
9.2420230647
 20
-19.2579769353
  0
LWPOLYLINE
  5
3BA
100
AcDbEntity
  8
ASSI
100
AcDbPolyline
 62
250
  6
CONTINUOUS
 90
9
 70
0
 10
9.0441643699
 20
-19.0478539801
 10
9.1210959589
 20
-19.1271089869
 10
9.1531092708
 20
-19.1604002488
 10
9.1804923107
 20
-19.1891262686
 10
9.2030370074
 20
-19.2130688078
 10
9.2205708552
 20
-19.232044542
 10
9.2329652781
 20
-19.2459139499
 10
9.2401326703
 20
-19.254578475
 10
9.2420230647
 20
-19.2579769353
  0
LINE
  5
3BB
100
AcDbEntity
  8
0
100
AcDbLine
 62
7
  6
CONTINUOUS
 10
3.0118365096
 20
-22.2
 11
2.6768152463
 21
-21.5448275862
  0
LINE
  5
3BC
100
AcDbEntity
  8
ASSI
100
AcDbLine
 62
7
  6
CONTINUOUS
 10
3.0118365096
 20
-22.2
 11
2.6768152463
 21
-21.5448275862
  0
LINE
  5
3BD
100
AcDbEntity
  8
0
100
AcDbLine
 62
250
  6
CONTINUOUS
 10
-5.6821314735
 20
20.6008941786
 11
-5.6843997501
 21
20.7553487652
  0
LINE
  5
3BE
100
AcDbEntity
  8
ASSI
100
AcDbLine
 62
250
  6
CONTINUOUS
 10
-5.6821314735
 20
20.6008941786
 11
-5.6843997501
 21
20.7553487652
  0
LWPOLYLINE
  5
3BF
100
AcDbEntity
  8
0
100
AcDbPolyline
 62
250
  6
CONTINUOUS
 90
7
 70
0
 10
-5.6855922527
 20
-21.0052873779
 10
-5.6853238318
 20
-21.033790185
 10
-5.6849248792
 20
-21.0575519304
 10
-5.6843997643
 20
-21.0763123762
 10
-5.6837542384
 20
-21.0898660588
 10
-5.6829953711
 20
-21.0980645386
 10
-5.6821314735
 20
-21.1008180262
  0
LWPOLYLINE
  5
3C0
100
AcDbEntity
  8
ASSI
100
AcDbPolyline
 62
250
  6
CONTINUOUS
 90
7
 70
0
 10
-5.6855922527
 20
-21.0052873779
 10
-5.6853238318
 20
-21.033790185
 10
-5.6849248792
 20
-21.0575519304
 10
-5.6843997643
 20
-21.0763123762
 10
-5.6837542384
 20
-21.0898660588
 10
-5.6829953711
 20
-21.0980645386
 10
-5.6821314735
 20
-21.1008180262
  0
LINE
  5
3C1
100
AcDbEntity
  8
0
100
AcDbLine
 62
250
  6
CONTINUOUS
 10
-5.6843997501
 20
20.7553487652
 11
-5.6853238218
 21
20.8508104355
  0
LINE
  5
3C2
100
AcDbEntity
  8
ASSI
100
AcDbLine
 62
250
  6
CONTINUOUS
 10
-5.6843997501
 20
20.7553487652
 11
-5.6853238218
 21
20.8508104355
  0
LINE
  5
3C3
100
AcDbEntity
  8
0
100
AcDbLine
 62
250
  6
CONTINUOUS
 10
-5.6853238218
 20
20.8508104355
 11
-5.6857272019
 21
20.9353541586
  0
LINE
  5
3C4
100
AcDbEntity
  8
ASSI
100
AcDbLine
 62
250
  6
CONTINUOUS
 10
-5.6853238218
 20
20.8508104355
 11
-5.6857272019
 21
20.9353541586
  0
LINE
  5
3C5
100
AcDbEntity
  8
CURVE
100
AcDbLine
 62
250
  6
CONTINUOUS
 10
-6.4990100185
 20
14.5
 11
-6.4990100185
 21
13.8571428508
  0
LINE
  5
3C6
100
AcDbEntity
  8
CURVE
100
AcDbLine
 62
250
  6
CONTINUOUS
 10
-6.4990100185
 20
13.1071428955
 11
-6.4990100185
 21
13.0
  0
LINE
  5
3C7
100
AcDbEntity
  8
CURVE
100
AcDbLine
 62
250
  6
CONTINUOUS
 10
-6.4990100185
 20
9.6071429253
 11
-6.4990100185
 21
9.5000001192
  0
LINE
  5
3C8
100
AcDbEntity
  8
0
100
AcDbLine
 62
7
  6
CONTINUOUS
 10
-6.0
 20
-12.75
 11
-6.0
 21
3.5
  0
LINE
  5
3C9
100
AcDbEntity
  8
ASSI
100
AcDbLine
 62
7
  6
CONTINUOUS
 10
-6.0
 20
-12.75
 11
-6.0
 21
3.5
  0
LINE
  5
3CA
100
AcDbEntity
  8
0
100
AcDbLine
 62
250
  6
CONTINUOUS
 10
-5.6857272024
 20
-20.9353557306
 11
-5.6855922527
 21
-21.0052873779
  0
LINE
  5
3CB
100
AcDbEntity
  8
ASSI
100
AcDbLine
 62
250
  6
CONTINUOUS
 10
-5.6857272024
 20
-20.9353557306
 11
-5.6855922527
 21
-21.0052873779
  0
LINE
  5
3CC
100
AcDbEntity
  8
IMPORT_IGES
100
AcDbLine
 62
7
  6
CONTINUOUS
 10
-5.544
 20
2.6
 11
-5.544
 21
-12.4
  0
LINE
  5
3CD
100
AcDbEntity
  8
CURVE
100
AcDbLine
 62
250
  6
CONTINUOUS
 10
-5.4991623234
 20
9.4285712242
 11
-5.4991623234
 21
9.5357143879
  0
LINE
  5
3CE
100
AcDbEntity
  8
CURVE
100
AcDbLine
 62
250
  6
CONTINUOUS
 10
-5.4991623234
 20
11.4642856121
 11
-5.4991623234
 21
12.2142856121
  0
LINE
  5
3CF
100
AcDbEntity
  8
CURVE
100
AcDbLine
 62
250
  6
CONTINUOUS
 10
-5.4991623234
 20
14.0357142091
 11
-5.4991623234
 21
14.1428571939
  0
LINE
  5
3D0
100
AcDbEntity
  8
CURVE
100
AcDbLine
 62
250
  6
CONTINUOUS
 10
-5.4991623234
 20
15.2142857015
 11
-5.4991623234
 21
15.321428597
  0
LINE
  5
3D1
100
AcDbEntity
  8
IMPORT_IGES
100
AcDbLine
 62
7
  6
CONTINUOUS
 10
-5.4
 20
-12.760473039
 11
-5.4
 21
-12.4
  0
LINE
  5
3D2
100
AcDbEntity
  8
IMPORT_IGES
100
AcDbLine
 62
7
  6
CONTINUOUS
 10
-5.25
 20
-12.7630912987
 11
-5.25
 21
-12.4
  0
LINE
  5
3D3
100
AcDbEntity
  8
CURVE
100
AcDbLine
 62
250
  6
CONTINUOUS
 10
-5.1777827039
 20
10.2857143879
 11
-5.1777827039
 21
11.0357143879
  0
LINE
  5
3D4
100
AcDbEntity
  8
IMPORT_IGES
100
AcDbLine
 62
7
  6
CONTINUOUS
 10
-5.054
 20
-12.7665124914
 11
-5.054
 21
-12.4
  0
LINE
  5
3D5
100
AcDbEntity
  8
IMPORT_IGES
100
AcDbLine
 62
250
  6
CONTINUOUS
 10
-5.044
 20
-12.4
 11
-5.044
 21
-12.7666870421
  0
LWPOLYLINE
  5
3D6
100
AcDbEntity
  8
0
100
AcDbPolyline
 62
250
  6
CONTINUOUS
 90
8
 70
0
 10
-5.6857272019
 20
20.9353541586
 10
-5.6855922623
 20
21.0052862532
 10
-5.6853238448
 20
21.0337893296
 10
-5.6849248937
 20
21.057551344
 10
-5.6843997784
 20
21.0763120259
 10
-5.6837542497
 20
21.0898658934
 10
-5.6829953771
 20
21.0980644949
 10
-5.6821314718
 20
21.1008180262
  0
LWPOLYLINE
  5
3D7
100
AcDbEntity
  8
ASSI
100
AcDbPolyline
 62
250
  6
CONTINUOUS
 90
8
 70
0
 10
-5.6857272019
 20
20.9353541586
 10
-5.6855922623
 20
21.0052862532
 10
-5.6853238448
 20
21.0337893296
 10
-5.6849248937
 20
21.057551344
 10
-5.6843997784
 20
21.0763120259
 10
-5.6837542497
 20
21.0898658934
 10
-5.6829953771
 20
21.0980644949
 10
-5.6821314718
 20
21.1008180262
  0
LINE
  5
3D8
100
AcDbEntity
  8
0
100
AcDbLine
 62
250
  6
CONTINUOUS
 10
-5.6853238324
 20
-20.8508121561
 11
-5.6857272024
 21
-20.9353557306
  0
LINE
  5
3D9
100
AcDbEntity
  8
ASSI
100
AcDbLine
 62
250
  6
CONTINUOUS
 10
-5.6853238324
 20
-20.8508121561
 11
-5.6857272024
 21
-20.9353557306
  0
LINE
  5
3DA
100
AcDbEntity
  8
0
100
AcDbLine
 62
250
  6
CONTINUOUS
 10
-5.6837542393
 20
-20.7048143367
 11
-5.6853238324
 21
-20.8508121561
  0
LINE
  5
3DB
100
AcDbEntity
  8
ASSI
100
AcDbLine
 62
250
  6
CONTINUOUS
 10
-5.6837542393
 20
-20.7048143367
 11
-5.6853238324
 21
-20.8508121561
  0
LINE
  5
3DC
100
AcDbEntity
  8
0
100
AcDbLine
 62
250
  6
CONTINUOUS
 10
-5.6821314735
 20
-20.6008941786
 11
-5.6837542393
 21
-20.7048143367
  0
LINE
  5
3DD
100
AcDbEntity
  8
ASSI
100
AcDbLine
 62
250
  6
CONTINUOUS
 10
-5.6821314735
 20
-20.6008941786
 11
-5.6837542393
 21
-20.7048143367
  0
LWPOLYLINE
  5
3DE
100
AcDbEntity
  8
0
100
AcDbPolyline
 62
250
  6
CONTINUOUS
 90
8
 70
0
 10
9.1210961058
 20
19.1271091391
 10
9.153109408
 20
19.1604003921
 10
9.1804924233
 20
19.1891263874
 10
9.2030370897
 20
19.2130688959
 10
9.2205709069
 20
19.2320445987
 10
9.2329653031
 20
19.2459139787
 10
9.2401326766
 20
19.2545784834
 10
9.2420230647
 20
19.2579769353
  0
LWPOLYLINE
  5
3DF
100
AcDbEntity
  8
ASSI
100
AcDbPolyline
 62
250
  6
CONTINUOUS
 90
8
 70
0
 10
9.1210961058
 20
19.1271091391
 10
9.153109408
 20
19.1604003921
 10
9.1804924233
 20
19.1891263874
 10
9.2030370897
 20
19.2130688959
 10
9.2205709069
 20
19.2320445987
 10
9.2329653031
 20
19.2459139787
 10
9.2401326766
 20
19.2545784834
 10
9.2420230647
 20
19.2579769353
  0
LINE
  5
3E0
100
AcDbEntity
  8
CURVE
100
AcDbLine
 62
250
  6
CONTINUOUS
 10
-2.1068219227
 20
6.3555806831
 11
-1.8925688132
 21
6.5698662952
  0
LINE
  5
3E1
100
AcDbEntity
  8
CURVE
100
AcDbLine
 62
250
  6
CONTINUOUS
 10
-1.6783157485
 20
5.7127234891
 11
-1.2498096189
 21
5.9270091012
  0
LINE
  5
3E2
100
AcDbEntity
  8
CURVE
100
AcDbLine
 62
250
  6
CONTINUOUS
 10
-1.2498096189
 20
4.8555806831
 11
-2.7495811617
 21
4.4270094589
  0
LINE
  5
3E3
100
AcDbEntity
  8
IMPORT_IGES
100
AcDbLine
 62
7
  6
CONTINUOUS
 10
-3.544
 20
-6.5510309552
 11
-0.744
 21
-6.35
  0
LINE
  5
3E4
100
AcDbEntity
  8
IMPORT_IGES
100
AcDbLine
 62
7
  6
CONTINUOUS
 10
5.5416406461
 20
-6.6983339502
 11
-3.544
 21
-6.6983339502
  0
LINE
  5
3E5
100
AcDbEntity
  8
IMPORT_IGES
100
AcDbLine
 62
7
  6
CONTINUOUS
 10
4.166
 20
-6.35
 11
-0.744
 21
-6.35
  0
LINE
  5
3E6
100
AcDbEntity
  8
IMPORT_IGES
100
AcDbLine
 62
7
  6
CONTINUOUS
 10
4.156
 20
-6.2
 11
-0.744
 21
-6.2
  0
LINE
  5
3E7
100
AcDbEntity
  8
IMPORT_IGES
100
AcDbLine
 62
7
  6
CONTINUOUS
 10
4.166
 20
-6.4855216016
 11
5.5416406461
 21
-6.6983339502
  0
LINE
  5
3E8
100
AcDbEntity
  8
CURVE
100
AcDbLine
 62
250
  6
CONTINUOUS
 10
-7.6416930663
 20
0.55
 11
-7.0989186356
 21
0.0071428329
  0
LINE
  5
3E9
100
AcDbEntity
  8
0
100
AcDbLine
 62
7
  6
CONTINUOUS
 10
-5.1909149676
 20
22.6291357377
 11
-5.1898187404
 21
22.6156397009
  0
LINE
  5
3EA
100
AcDbEntity
  8
ASSI
100
AcDbLine
 62
7
  6
CONTINUOUS
 10
-5.1909149676
 20
22.6291357377
 11
-5.1898187404
 21
22.6156397009
  0
LINE
  5
3EB
100
AcDbEntity
  8
0
100
AcDbLine
 62
7
  6
CONTINUOUS
 10
-5.1919152154
 20
22.6425759377
 11
-5.1909149676
 21
22.6291357377
  0
LINE
  5
3EC
100
AcDbEntity
  8
ASSI
100
AcDbLine
 62
7
  6
CONTINUOUS
 10
-5.1919152154
 20
22.6425759377
 11
-5.1909149676
 21
22.6291357377
  0
LINE
  5
3ED
100
AcDbEntity
  8
0
100
AcDbLine
 62
7
  6
CONTINUOUS
 10
-3.9017247226
 20
-21.2
 11
-3.9041044472
 21
-21.1318536034
  0
LINE
  5
3EE
100
AcDbEntity
  8
ASSI
100
AcDbLine
 62
7
  6
CONTINUOUS
 10
-3.9017247226
 20
-21.2
 11
-3.9041044472
 21
-21.1318536034
  0
LINE
  5
3EF
100
AcDbEntity
  8
0
100
AcDbLine
 62
7
  6
CONTINUOUS
 10
-3.7099152947
 20
23.4825449351
 11
-3.7094401656
 21
23.4553248057
  0
LINE
  5
3F0
100
AcDbEntity
  8
ASSI
100
AcDbLine
 62
7
  6
CONTINUOUS
 10
-3.7099152947
 20
23.4825449351
 11
-3.7094401656
 21
23.4553248057
  0
LINE
  5
3F1
100
AcDbEntity
  8
CURVE
100
AcDbLine
 62
250
  6
CONTINUOUS
 10
-4.9635296168
 20
13.2857143879
 11
-4.9635296168
 21
12.6428571939
  0
LINE
  5
3F2
100
AcDbEntity
  8
IMPORT_IGES
100
AcDbLine
 62
250
  6
CONTINUOUS
 10
-4.544
 20
-12.4
 11
-4.544
 21
-12.7754145745
  0
LINE
  5
3F3
100
AcDbEntity
  8
CURVE
100
AcDbLine
 62
250
  6
CONTINUOUS
 10
-3.9993907806
 20
15.321428597
 11
-3.9993907806
 21
15.2142857015
  0
LINE
  5
3F4
100
AcDbEntity
  8
CURVE
100
AcDbLine
 62
250
  6
CONTINUOUS
 10
-3.9993907806
 20
14.1428571939
 11
-3.9993907806
 21
14.0357142091
  0
LINE
  5
3F5
100
AcDbEntity
  8
CURVE
100
AcDbLine
 62
250
  6
CONTINUOUS
 10
-3.9993907806
 20
9.5357143879
 11
-3.9993907806
 21
9.4285712242
  0
LINE
  5
3F6
100
AcDbEntity
  8
CURVE
100
AcDbLine
 62
250
  6
CONTINUOUS
 10
-3.9993907806
 20
11.6785715818
 11
-3.9993907806
 21
12.0
  0
LINE
  5
3F7
100
AcDbEntity
  8
CURVE
100
AcDbLine
 62
250
  6
CONTINUOUS
 10
-3.6994364721
 20
-15.625
 11
-3.6994364721
 21
-15.9375
  0
LINE
  5
3F8
100
AcDbEntity
  8
IMPORT_IGES
100
AcDbLine
 62
7
  6
CONTINUOUS
 10
-3.544
 20
3.2
 11
-3.544
 21
2.6
  0
LINE
  5
3F9
100
AcDbEntity
  8
IMPORT_IGES
100
AcDbLine
 62
7
  6
CONTINUOUS
 10
-3.544
 20
-11.6983339502
 11
-3.544
 21
-8.1016660498
  0
LINE
  5
3FA
100
AcDbEntity
  8
IMPORT_IGES
100
AcDbLine
 62
7
  6
CONTINUOUS
 10
-3.544
 20
-6.6983339502
 11
-3.544
 21
-3.1016660498
  0
LINE
  5
3FB
100
AcDbEntity
  8
IMPORT_IGES
100
AcDbLine
 62
7
  6
CONTINUOUS
 10
-3.544
 20
-1.6983339502
 11
-3.544
 21
1.8983339502
  0
LINE
  5
3FC
100
AcDbEntity
  8
0
100
AcDbLine
 62
7
  6
CONTINUOUS
 10
-3.7099152947
 20
-23.4825449351
 11
-3.7094401656
 21
-23.4553248057
  0
LINE
  5
3FD
100
AcDbEntity
  8
ASSI
100
AcDbLine
 62
7
  6
CONTINUOUS
 10
-3.7099152947
 20
-23.4825449351
 11
-3.7094401656
 21
-23.4553248057
  0
LINE
  5
3FE
100
AcDbEntity
  8
0
100
AcDbLine
 62
7
  6
CONTINUOUS
 10
-3.9017247226
 20
21.2
 11
-3.9041044472
 21
21.1318536034
  0
LINE
  5
3FF
100
AcDbEntity
  8
ASSI
100
AcDbLine
 62
7
  6
CONTINUOUS
 10
-3.9017247226
 20
21.2
 11
-3.9041044472
 21
21.1318536034
  0
LINE
  5
400
100
AcDbEntity
  8
0
100
AcDbLine
 62
7
  6
CONTINUOUS
 10
-5.1919152154
 20
-22.6425759377
 11
-5.1909149676
 21
-22.6291357377
  0
LINE
  5
401
100
AcDbEntity
  8
ASSI
100
AcDbLine
 62
7
  6
CONTINUOUS
 10
-5.1919152154
 20
-22.6425759377
 11
-5.1909149676
 21
-22.6291357377
  0
LINE
  5
402
100
AcDbEntity
  8
0
100
AcDbLine
 62
7
  6
CONTINUOUS
 10
-5.1909149676
 20
-22.6291357377
 11
-5.1898187404
 21
-22.6156397009
  0
LINE
  5
403
100
AcDbEntity
  8
ASSI
100
AcDbLine
 62
7
  6
CONTINUOUS
 10
-5.1909149676
 20
-22.6291357377
 11
-5.1898187404
 21
-22.6156397009
  0
LWPOLYLINE
  5
404
100
AcDbEntity
  8
0
100
AcDbPolyline
 62
250
  6
CONTINUOUS
 90
7
 70
0
 10
10.7682031724
 20
17.545327167
 10
10.7955851663
 20
17.574052193
 10
10.8181285095
 20
17.5979934287
 10
10.8356600706
 20
17.6169668604
 10
10.8480518173
 20
17.6308334851
 10
10.8552171389
 20
17.6394957604
 10
10.8571067812
 20
17.6428932188
  0
LWPOLYLINE
  5
405
100
AcDbEntity
  8
ASSI
100
AcDbPolyline
 62
250
  6
CONTINUOUS
 90
7
 70
0
 10
10.7682031724
 20
17.545327167
 10
10.7955851663
 20
17.574052193
 10
10.8181285095
 20
17.5979934287
 10
10.8356600706
 20
17.6169668604
 10
10.8480518173
 20
17.6308334851
 10
10.8552171389
 20
17.6394957604
 10
10.8571067812
 20
17.6428932188
  0
LINE
  5
406
100
AcDbEntity
  8
0
100
AcDbLine
 62
250
  6
CONTINUOUS
 10
10.6997864752
 20
17.4744289915
 11
10.7682031724
 21
17.545327167
  0
LINE
  5
407
100
AcDbEntity
  8
ASSI
100
AcDbLine
 62
250
  6
CONTINUOUS
 10
10.6997864752
 20
17.4744289915
 11
10.7682031724
 21
17.545327167
  0
LINE
  5
408
100
AcDbEntity
  8
0
100
AcDbLine
 62
250
  6
CONTINUOUS
 10
10.5670902406
 20
17.338656083
 11
10.6997864752
 21
17.4744289915
  0
LINE
  5
409
100
AcDbEntity
  8
ASSI
100
AcDbLine
 62
250
  6
CONTINUOUS
 10
10.5670902406
 20
17.338656083
 11
10.6997864752
 21
17.4744289915
  0
LINE
  5
40A
100
AcDbEntity
  8
0
100
AcDbLine
 62
250
  6
CONTINUOUS
 10
10.3484533816
 20
17.1174282945
 11
10.5670902406
 21
17.338656083
  0
LINE
  5
40B
100
AcDbEntity
  8
ASSI
100
AcDbLine
 62
250
  6
CONTINUOUS
 10
10.3484533816
 20
17.1174282945
 11
10.5670902406
 21
17.338656083
  0
LINE
  5
40C
100
AcDbEntity
  8
0
100
AcDbLine
 62
250
  6
CONTINUOUS
 10
10.1674524064
 20
16.9357864376
 11
10.3484533816
 21
17.1174282945
  0
LINE
  5
40D
100
AcDbEntity
  8
ASSI
100
AcDbLine
 62
250
  6
CONTINUOUS
 10
10.1674524064
 20
16.9357864376
 11
10.3484533816
 21
17.1174282945
  0
LINE
  5
40E
100
AcDbEntity
  8
IMPORT_IGES
100
AcDbLine
 62
7
  6
CONTINUOUS
 10
5.5416406461
 20
-3.1016660498
 11
4.166
 21
-3.3144783984
  0
LINE
  5
40F
100
AcDbEntity
  8
CURVE
100
AcDbLine
 62
250
  6
CONTINUOUS
 10
-7.0989186356
 20
-4.5
 11
-8.9986292564
 21
-4.5
  0
LINE
  5
410
100
AcDbEntity
  8
IMPORT_IGES
100
AcDbLine
 62
7
  6
CONTINUOUS
 10
-0.744
 20
-3.6
 11
4.156
 21
-3.6
  0
LINE
  5
411
100
AcDbEntity
  8
IMPORT_IGES
100
AcDbLine
 62
7
  6
CONTINUOUS
 10
-0.744
 20
-3.45
 11
4.166
 21
-3.45
  0
LINE
  5
412
100
AcDbEntity
  8
IMPORT_IGES
100
AcDbLine
 62
7
  6
CONTINUOUS
 10
-0.744
 20
-3.45
 11
-3.544
 21
-3.2489690448
  0
LINE
  5
413
100
AcDbEntity
  8
0
100
AcDbLine
 62
250
  6
CONTINUOUS
 10
10.1674524064
 20
-16.9357864376
 11
10.3484534773
 21
-17.1174283909
  0
LINE
  5
414
100
AcDbEntity
  8
ASSI
100
AcDbLine
 62
250
  6
CONTINUOUS
 10
10.1674524064
 20
-16.9357864376
 11
10.3484534773
 21
-17.1174283909
  0
LINE
  5
415
100
AcDbEntity
  8
0
100
AcDbLine
 62
250
  6
CONTINUOUS
 10
10.3484534773
 20
-17.1174283909
 11
10.5161376727
 21
-17.2868815767
  0
LINE
  5
416
100
AcDbEntity
  8
ASSI
100
AcDbLine
 62
250
  6
CONTINUOUS
 10
10.3484534773
 20
-17.1174283909
 11
10.5161376727
 21
-17.2868815767
  0
LINE
  5
417
100
AcDbEntity
  8
0
100
AcDbLine
 62
250
  6
CONTINUOUS
 10
10.5161376727
 20
-17.2868815767
 11
10.6592614881
 21
-17.4327840046
  0
LINE
  5
418
100
AcDbEntity
  8
ASSI
100
AcDbLine
 62
250
  6
CONTINUOUS
 10
10.5161376727
 20
-17.2868815767
 11
10.6592614881
 21
-17.4327840046
  0
LWPOLYLINE
  5
419
100
AcDbEntity
  8
0
100
AcDbPolyline
 62
250
  6
CONTINUOUS
 90
9
 70
0
 10
10.6592614881
 20
-17.4327840046
 10
10.7361913201
 20
-17.5120373375
 10
10.7682033529
 20
-17.5453273554
 10
10.795585315
 20
-17.5740523499
 10
10.8181286189
 20
-17.5979935458
 10
10.8356601396
 20
-17.6169669361
 10
10.8480518508
 20
-17.6308335237
 10
10.8552171475
 20
-17.6394957718
 10
10.8571067812
 20
-17.6428932188
  0
LWPOLYLINE
  5
41A
100
AcDbEntity
  8
ASSI
100
AcDbPolyline
 62
250
  6
CONTINUOUS
 90
9
 70
0
 10
10.6592614881
 20
-17.4327840046
 10
10.7361913201
 20
-17.5120373375
 10
10.7682033529
 20
-17.5453273554
 10
10.795585315
 20
-17.5740523499
 10
10.8181286189
 20
-17.5979935458
 10
10.8356601396
 20
-17.6169669361
 10
10.8480518508
 20
-17.6308335237
 10
10.8552171475
 20
-17.6394957718
 10
10.8571067812
 20
-17.6428932188
  0
LINE
  5
41B
100
AcDbEntity
  8
0
100
AcDbLine
 62
7
  6
CONTINUOUS
 10
-5.1879963523
 20
22.5952898872
 11
-5.1866646971
 21
22.5816517102
  0
LINE
  5
41C
100
AcDbEntity
  8
ASSI
100
AcDbLine
 62
7
  6
CONTINUOUS
 10
-5.1879963523
 20
22.5952898872
 11
-5.1866646971
 21
22.5816517102
  0
LWPOLYLINE
  5
41D
100
AcDbEntity
  8
0
100
AcDbPolyline
 62
7
  6
CONTINUOUS
 90
3
 70
0
 10
-5.1898187404
 20
22.6156397009
 10
-5.1892346102
 20
22.6088707709
 10
-5.1879963523
 20
22.5952898872
  0
LWPOLYLINE
  5
41E
100
AcDbEntity
  8
ASSI
100
AcDbPolyline
 62
7
  6
CONTINUOUS
 90
3
 70
0
 10
-5.1898187404
 20
22.6156397009
 10
-5.1892346102
 20
22.6088707709
 10
-5.1879963523
 20
22.5952898872
  0
LINE
  5
41F
100
AcDbEntity
  8
0
100
AcDbLine
 62
7
  6
CONTINUOUS
 10
-3.1
 20
-22.2
 11
-3.1
 21
-21.1720718961
  0
LINE
  5
420
100
AcDbEntity
  8
ASSI
100
AcDbLine
 62
7
  6
CONTINUOUS
 10
-3.1
 20
-22.2
 11
-3.1
 21
-21.1720718961
  0
LINE
  5
421
100
AcDbEntity
  8
0
100
AcDbLine
 62
7
  6
CONTINUOUS
 10
-3.1
 20
21.1720718961
 11
-3.1
 21
22.2
  0
LINE
  5
422
100
AcDbEntity
  8
ASSI
100
AcDbLine
 62
7
  6
CONTINUOUS
 10
-3.1
 20
21.1720718961
 11
-3.1
 21
22.2
  0
LINE
  5
423
100
AcDbEntity
  8
CURVE
100
AcDbLine
 62
250
  6
CONTINUOUS
 10
-2.7495811617
 20
10.5341520861
 11
-2.7495811617
 21
10.2127235785
  0
LINE
  5
424
100
AcDbEntity
  8
CURVE
100
AcDbLine
 62
250
  6
CONTINUOUS
 10
-2.7495811617
 20
8.92700928
 11
-2.7495811617
 21
8.391295071
  0
LINE
  5
425
100
AcDbEntity
  8
CURVE
100
AcDbLine
 62
250
  6
CONTINUOUS
 10
-2.7495811617
 20
6.998437877
 11
-2.7495811617
 21
6.5698662952
  0
LINE
  5
426
100
AcDbEntity
  8
CURVE
100
AcDbLine
 62
250
  6
CONTINUOUS
 10
-2.6781634678
 20
7.5698664144
 11
-2.6781634678
 21
7.6055805639
  0
LINE
  5
427
100
AcDbEntity
  8
CURVE
100
AcDbLine
 62
250
  6
CONTINUOUS
 10
-2.4996192304
 20
7.5698664144
 11
-2.4996192304
 21
7.5341522649
  0
LINE
  5
428
100
AcDbEntity
  8
CURVE
100
AcDbLine
 62
250
  6
CONTINUOUS
 10
-2.3210749875
 20
5.1412953094
 11
-2.3210749875
 21
4.5698660568
  0
LINE
  5
429
100
AcDbEntity
  8
IMPORT_IGES
100
AcDbLine
 62
7
  6
CONTINUOUS
 10
-2.044
 20
-12.4
 11
-2.044
 21
-12.8
  0
LINE
  5
42A
100
AcDbEntity
  8
CURVE
100
AcDbLine
 62
250
  6
CONTINUOUS
 10
-1.9996953903
 20
17.5
 11
-1.9996953903
 21
16.75
  0
LINE
  5
42B
100
AcDbEntity
  8
CURVE
100
AcDbLine
 62
250
  6
CONTINUOUS
 10
-1.9996953903
 20
13.6363391642
 11
-1.9996953903
 21
12.8863391642
  0
LINE
  5
42C
100
AcDbEntity
  8
CURVE
100
AcDbLine
 62
250
  6
CONTINUOUS
 10
-1.8925688132
 20
6.5698662952
 11
-1.8925688132
 21
6.998437877
  0
LINE
  5
42D
100
AcDbEntity
  8
CURVE
100
AcDbLine
 62
250
  6
CONTINUOUS
 10
-1.8925688132
 20
8.498437877
 11
-1.8925688132
 21
8.7127234891
  0
LINE
  5
42E
100
AcDbEntity
  8
CURVE
100
AcDbLine
 62
250
  6
CONTINUOUS
 10
-1.8925688132
 20
10.2127235785
 11
-1.8925688132
 21
10.6770092204
  0
LINE
  5
42F
100
AcDbEntity
  8
0
100
AcDbLine
 62
7
  6
CONTINUOUS
 10
-5.1898187404
 20
-22.6156397009
 11
-5.188627086
 21
-22.602087535
  0
LINE
  5
430
100
AcDbEntity
  8
ASSI
100
AcDbLine
 62
7
  6
CONTINUOUS
 10
-5.1898187404
 20
-22.6156397009
 11
-5.188627086
 21
-22.602087535
  0
LWPOLYLINE
  5
431
100
AcDbEntity
  8
0
100
AcDbPolyline
 62
7
  6
CONTINUOUS
 90
3
 70
0
 10
-5.188627086
 20
-22.602087535
 10
-5.187342223
 20
-22.5884779439
 10
-5.1866646971
 20
-22.5816517102
  0
LWPOLYLINE
  5
432
100
AcDbEntity
  8
ASSI
100
AcDbPolyline
 62
7
  6
CONTINUOUS
 90
3
 70
0
 10
-5.188627086
 20
-22.602087535
 10
-5.187342223
 20
-22.5884779439
 10
-5.1866646971
 20
-22.5816517102
  0
LINE
  5
433
100
AcDbEntity
  8
0
100
AcDbLine
 62
7
  6
CONTINUOUS
 10
3.968176777
 20
23.4825449351
 11
3.9526845545
 21
23.4301797403
  0
LINE
  5
434
100
AcDbEntity
  8
ASSI
100
AcDbLine
 62
7
  6
CONTINUOUS
 10
3.968176777
 20
23.4825449351
 11
3.9526845545
 21
23.4301797403
  0
LINE
  5
435
100
AcDbEntity
  8
0
100
AcDbLine
 62
7
  6
CONTINUOUS
 10
-9.6325449351
 20
-20.8475922207
 11
-9.4946499221
 21
-20.4335707644
  0
LINE
  5
436
100
AcDbEntity
  8
ASSI
100
AcDbLine
 62
7
  6
CONTINUOUS
 10
-9.6325449351
 20
-20.8475922207
 11
-9.4946499221
 21
-20.4335707644
  0
LWPOLYLINE
  5
437
100
AcDbEntity
  8
0
100
AcDbPolyline
 62
7
  6
CONTINUOUS
 90
14
 70
0
 10
6.5744599635
 20
19.741424784
 10
6.5749153922
 20
19.742376755
 10
6.5753070933
 20
19.744410251
 10
6.5756350667
 20
19.7475135021
 10
6.5759466059
 20
19.7516837426
 10
6.5761944175
 20
19.7568985751
 10
6.5762366213
 20
19.7630909581
 10
6.5760812671
 20
19.7702285042
 10
6.5757203051
 20
19.7782606769
 10
6.574987706
 20
19.7870370052
 10
6.5738653214
 20
19.7964731125
 10
6.5723712998
 20
19.8065041532
 10
6.5703940576
 20
19.8169582606
 10
6.5699538307
 20
19.8188653273
  0
LWPOLYLINE
  5
438
100
AcDbEntity
  8
ASSI
100
AcDbPolyline
 62
7
  6
CONTINUOUS
 90
14
 70
0
 10
6.5744599635
 20
19.741424784
 10
6.5749153922
 20
19.742376755
 10
6.5753070933
 20
19.744410251
 10
6.5756350667
 20
19.7475135021
 10
6.5759466059
 20
19.7516837426
 10
6.5761944175
 20
19.7568985751
 10
6.5762366213
 20
19.7630909581
 10
6.5760812671
 20
19.7702285042
 10
6.5757203051
 20
19.7782606769
 10
6.574987706
 20
19.7870370052
 10
6.5738653214
 20
19.7964731125
 10
6.5723712998
 20
19.8065041532
 10
6.5703940576
 20
19.8169582606
 10
6.5699538307
 20
19.8188653273
  0
LINE
  5
439
100
AcDbEntity
  8
IMPORT_IGES
100
AcDbLine
 62
7
  6
CONTINUOUS
 10
-3.544
 20
-3.1016660498
 11
5.5416406461
 21
-3.1016660498
  0
LINE
  5
43A
100
AcDbEntity
  8
IMPORT_IGES
100
AcDbLine
 62
7
  6
CONTINUOUS
 10
5.5416406461
 20
-1.6983339502
 11
-3.544
 21
-1.6983339502
  0
LINE
  5
43B
100
AcDbEntity
  8
CURVE
100
AcDbLine
 62
250
  6
CONTINUOUS
 10
-5.034947305
 20
7.3928568363
 11
-4.9278207726
 21
7.1428570747
  0
LINE
  5
43C
100
AcDbEntity
  8
CURVE
100
AcDbLine
 62
250
  6
CONTINUOUS
 10
-5.1420738597
 20
6.8571431637
 11
-5.034947305
 21
6.5714285374
  0
LINE
  5
43D
100
AcDbEntity
  8
0
100
AcDbLine
 62
7
  6
CONTINUOUS
 10
-9.4946499221
 20
20.4335707644
 11
-9.6325449351
 21
20.8475922207
  0
LINE
  5
43E
100
AcDbEntity
  8
ASSI
100
AcDbLine
 62
7
  6
CONTINUOUS
 10
-9.4946499221
 20
20.4335707644
 11
-9.6325449351
 21
20.8475922207
  0
LINE
  5
43F
100
AcDbEntity
  8
0
100
AcDbLine
 62
7
  6
CONTINUOUS
 10
3.968176777
 20
-23.4825449351
 11
3.9526845545
 21
-23.4301797403
  0
LINE
  5
440
100
AcDbEntity
  8
ASSI
100
AcDbLine
 62
7
  6
CONTINUOUS
 10
3.968176777
 20
-23.4825449351
 11
3.9526845545
 21
-23.4301797403
  0
LINE
  5
441
100
AcDbEntity
  8
CURVE
100
AcDbLine
 62
250
  6
CONTINUOUS
 10
-1.2498096189
 20
6.998437877
 11
-1.2498096189
 21
6.3555806831
  0
LINE
  5
442
100
AcDbEntity
  8
CURVE
100
AcDbLine
 62
250
  6
CONTINUOUS
 10
-1.2498096189
 20
8.498437877
 11
-1.2498096189
 21
8.92700928
  0
LINE
  5
443
100
AcDbEntity
  8
IMPORT_IGES
100
AcDbLine
 62
7
  6
CONTINUOUS
 10
-0.744
 20
-8.45
 11
-0.744
 21
-11.35
  0
LINE
  5
444
100
AcDbEntity
  8
IMPORT_IGES
100
AcDbLine
 62
7
  6
CONTINUOUS
 10
-0.744
 20
-6.35
 11
-0.744
 21
-3.45
  0
LINE
  5
445
100
AcDbEntity
  8
IMPORT_IGES
100
AcDbLine
 62
7
  6
CONTINUOUS
 10
-0.744
 20
-1.35
 11
-0.744
 21
1.55
  0
LINE
  5
446
100
AcDbEntity
  8
0
100
AcDbLine
 62
7
  6
CONTINUOUS
 10
0.0
 20
-21.2
 11
0.0
 21
-12.8547303896
  0
LINE
  5
447
100
AcDbEntity
  8
ASSI
100
AcDbLine
 62
7
  6
CONTINUOUS
 10
0.0
 20
-21.2
 11
0.0
 21
-12.8547303896
  0
LINE
  5
448
100
AcDbEntity
  8
0
100
AcDbLine
 62
7
  6
CONTINUOUS
 10
0.0
 20
3.6047303896
 11
0.0
 21
21.2
  0
LINE
  5
449
100
AcDbEntity
  8
ASSI
100
AcDbLine
 62
7
  6
CONTINUOUS
 10
0.0
 20
3.6047303896
 11
0.0
 21
21.2
  0
LINE
  5
44A
100
AcDbEntity
  8
0
100
AcDbLine
 62
7
  6
CONTINUOUS
 10
2.6079859828
 20
21.1544774353
 11
2.6768152463
 21
21.5448275862
  0
LINE
  5
44B
100
AcDbEntity
  8
ASSI
100
AcDbLine
 62
7
  6
CONTINUOUS
 10
2.6079859828
 20
21.1544774353
 11
2.6768152463
 21
21.5448275862
  0
LWPOLYLINE
  5
44C
100
AcDbEntity
  8
0
100
AcDbPolyline
 62
250
  6
CONTINUOUS
 90
8
 70
0
 10
5.0349048129
 20
19.7878845904
 10
5.035768711
 20
19.790638078
 10
5.0365275786
 20
19.7988365578
 10
5.0371731047
 20
19.8123902404
 10
5.0376982195
 20
19.8311506862
 10
5.0380971718
 20
19.8549124315
 10
5.0383655925
 20
19.8834152386
 10
5.0385005416
 20
19.9533468859
  0
LWPOLYLINE
  5
44D
100
AcDbEntity
  8
ASSI
100
AcDbPolyline
 62
250
  6
CONTINUOUS
 90
8
 70
0
 10
5.0349048129
 20
19.7878845904
 10
5.035768711
 20
19.790638078
 10
5.0365275786
 20
19.7988365578
 10
5.0371731047
 20
19.8123902404
 10
5.0376982195
 20
19.8311506862
 10
5.0380971718
 20
19.8549124315
 10
5.0383655925
 20
19.8834152386
 10
5.0385005416
 20
19.9533468859
  0
LINE
  5
44E
100
AcDbEntity
  8
IMPORT_IGES
100
AcDbLine
 62
7
  6
CONTINUOUS
 10
-3.544
 20
-1.5510309552
 11
-0.744
 21
-1.35
  0
LINE
  5
44F
100
AcDbEntity
  8
IMPORT_IGES
100
AcDbLine
 62
7
  6
CONTINUOUS
 10
4.166
 20
-1.35
 11
-0.744
 21
-1.35
  0
LINE
  5
450
100
AcDbEntity
  8
IMPORT_IGES
100
AcDbLine
 62
7
  6
CONTINUOUS
 10
4.156
 20
-1.2
 11
-0.744
 21
-1.2
  0
LINE
  5
451
100
AcDbEntity
  8
CURVE
100
AcDbLine
 62
250
  6
CONTINUOUS
 10
-7.0989186356
 20
0.0071428329
 11
-8.9986292564
 21
0.0071428329
  0
LINE
  5
452
100
AcDbEntity
  8
IMPORT_IGES
100
AcDbLine
 62
7
  6
CONTINUOUS
 10
4.166
 20
-1.4855216016
 11
5.5416406461
 21
-1.6983339502
  0
LINE
  5
453
100
AcDbEntity
  8
0
100
AcDbLine
 62
7
  6
CONTINUOUS
 10
2.6079859828
 20
-21.1544774353
 11
2.6768152463
 21
-21.5448275862
  0
LINE
  5
454
100
AcDbEntity
  8
ASSI
100
AcDbLine
 62
7
  6
CONTINUOUS
 10
2.6079859828
 20
-21.1544774353
 11
2.6768152463
 21
-21.5448275862
  0
LINE
  5
455
100
AcDbEntity
  8
0
100
AcDbLine
 62
7
  6
CONTINUOUS
 10
-2.6079859828
 20
-21.1544774353
 11
-2.6768152463
 21
-21.5448275862
  0
LINE
  5
456
100
AcDbEntity
  8
ASSI
100
AcDbLine
 62
7
  6
CONTINUOUS
 10
-2.6079859828
 20
-21.1544774353
 11
-2.6768152463
 21
-21.5448275862
  0
LINE
  5
457
100
AcDbEntity
  8
IMPORT_IGES
100
AcDbLine
 62
7
  6
CONTINUOUS
 10
5.5416406461
 20
1.8983339502
 11
4.166
 21
1.6855216016
  0
LINE
  5
458
100
AcDbEntity
  8
IMPORT_IGES
100
AcDbLine
 62
7
  6
CONTINUOUS
 10
-0.744
 20
1.4
 11
4.156
 21
1.4
  0
LINE
  5
459
100
AcDbEntity
  8
IMPORT_IGES
100
AcDbLine
 62
7
  6
CONTINUOUS
 10
4.166
 20
1.55
 11
-0.744
 21
1.55
  0
LINE
  5
45A
100
AcDbEntity
  8
IMPORT_IGES
100
AcDbLine
 62
7
  6
CONTINUOUS
 10
-3.544
 20
1.8983339502
 11
5.5416406461
 21
1.8983339502
  0
LINE
  5
45B
100
AcDbEntity
  8
IMPORT_IGES
100
AcDbLine
 62
7
  6
CONTINUOUS
 10
-0.744
 20
1.55
 11
-3.544
 21
1.7510309552
  0
LINE
  5
45C
100
AcDbEntity
  8
CURVE
100
AcDbLine
 62
250
  6
CONTINUOUS
 10
-7.7845284741
 20
9.2857141495
 11
-7.9987815613
 21
9.5000001192
  0
LINE
  5
45D
100
AcDbEntity
  8
CURVE
100
AcDbLine
 62
250
  6
CONTINUOUS
 10
-7.9987815613
 20
10.5714285374
 11
-7.7845284741
 21
10.3571429253
  0
LINE
  5
45E
100
AcDbEntity
  8
0
100
AcDbLine
 62
7
  6
CONTINUOUS
 10
-2.6079859828
 20
21.1544774353
 11
-2.6768152463
 21
21.5448275862
  0
LINE
  5
45F
100
AcDbEntity
  8
ASSI
100
AcDbLine
 62
7
  6
CONTINUOUS
 10
-2.6079859828
 20
21.1544774353
 11
-2.6768152463
 21
21.5448275862
  0
LINE
  5
460
100
AcDbEntity
  8
0
100
AcDbLine
 62
7
  6
CONTINUOUS
 10
5.1879963523
 20
-22.5952898872
 11
5.1866646971
 21
-22.5816517102
  0
LINE
  5
461
100
AcDbEntity
  8
ASSI
100
AcDbLine
 62
7
  6
CONTINUOUS
 10
5.1879963523
 20
-22.5952898872
 11
5.1866646971
 21
-22.5816517102
  0
LINE
  5
462
100
AcDbEntity
  8
0
100
AcDbLine
 62
7
  6
CONTINUOUS
 10
5.1892346102
 20
-22.6088707709
 11
5.1879963523
 21
-22.5952898872
  0
LINE
  5
463
100
AcDbEntity
  8
ASSI
100
AcDbLine
 62
7
  6
CONTINUOUS
 10
5.1892346102
 20
-22.6088707709
 11
5.1879963523
 21
-22.5952898872
  0
LINE
  5
464
100
AcDbEntity
  8
0
100
AcDbLine
 62
7
  6
CONTINUOUS
 10
5.1903789213
 20
-22.6223946545
 11
5.1892346102
 21
-22.6088707709
  0
LINE
  5
465
100
AcDbEntity
  8
ASSI
100
AcDbLine
 62
7
  6
CONTINUOUS
 10
5.1903789213
 20
-22.6223946545
 11
5.1892346102
 21
-22.6088707709
  0
LWPOLYLINE
  5
466
100
AcDbEntity
  8
0
100
AcDbPolyline
 62
7
  6
CONTINUOUS
 90
3
 70
0
 10
5.1919152154
 20
-22.6425759377
 10
5.1914270655
 20
-22.6358628338
 10
5.1903789213
 20
-22.6223946545
  0
LWPOLYLINE
  5
467
100
AcDbEntity
  8
ASSI
100
AcDbPolyline
 62
7
  6
CONTINUOUS
 90
3
 70
0
 10
5.1919152154
 20
-22.6425759377
 10
5.1914270655
 20
-22.6358628338
 10
5.1903789213
 20
-22.6223946545
  0
LINE
  5
468
100
AcDbEntity
  8
0
100
AcDbLine
 62
7
  6
CONTINUOUS
 10
3.7099152947
 20
-23.4825449351
 11
3.7094401656
 21
-23.4553248057
  0
LINE
  5
469
100
AcDbEntity
  8
ASSI
100
AcDbLine
 62
7
  6
CONTINUOUS
 10
3.7099152947
 20
-23.4825449351
 11
3.7094401656
 21
-23.4553248057
  0
LINE
  5
46A
100
AcDbEntity
  8
0
100
AcDbLine
 62
7
  6
CONTINUOUS
 10
3.1
 20
-22.2
 11
3.1
 21
-21.1720718961
  0
LINE
  5
46B
100
AcDbEntity
  8
ASSI
100
AcDbLine
 62
7
  6
CONTINUOUS
 10
3.1
 20
-22.2
 11
3.1
 21
-21.1720718961
  0
LINE
  5
46C
100
AcDbEntity
  8
0
100
AcDbLine
 62
7
  6
CONTINUOUS
 10
3.1
 20
21.1720718961
 11
3.1
 21
22.2
  0
LINE
  5
46D
100
AcDbEntity
  8
ASSI
100
AcDbLine
 62
7
  6
CONTINUOUS
 10
3.1
 20
21.1720718961
 11
3.1
 21
22.2
  0
LINE
  5
46E
100
AcDbEntity
  8
0
100
AcDbLine
 62
7
  6
CONTINUOUS
 10
3.7099152947
 20
23.4825449351
 11
3.7094401656
 21
23.4553248057
  0
LINE
  5
46F
100
AcDbEntity
  8
ASSI
100
AcDbLine
 62
7
  6
CONTINUOUS
 10
3.7099152947
 20
23.4825449351
 11
3.7094401656
 21
23.4553248057
  0
LINE
  5
470
100
AcDbEntity
  8
0
100
AcDbLine
 62
7
  6
CONTINUOUS
 10
5.1919152154
 20
22.6425759377
 11
5.1909149676
 21
22.6291357377
  0
LINE
  5
471
100
AcDbEntity
  8
ASSI
100
AcDbLine
 62
7
  6
CONTINUOUS
 10
5.1919152154
 20
22.6425759377
 11
5.1909149676
 21
22.6291357377
  0
LINE
  5
472
100
AcDbEntity
  8
0
100
AcDbLine
 62
7
  6
CONTINUOUS
 10
5.1909149676
 20
22.6291357377
 11
5.1898187404
 21
22.6156397009
  0
LINE
  5
473
100
AcDbEntity
  8
ASSI
100
AcDbLine
 62
7
  6
CONTINUOUS
 10
5.1909149676
 20
22.6291357377
 11
5.1898187404
 21
22.6156397009
  0
LINE
  5
474
100
AcDbEntity
  8
0
100
AcDbLine
 62
7
  6
CONTINUOUS
 10
5.1898187404
 20
22.6156397009
 11
5.188627086
 21
22.602087535
  0
LINE
  5
475
100
AcDbEntity
  8
ASSI
100
AcDbLine
 62
7
  6
CONTINUOUS
 10
5.1898187404
 20
22.6156397009
 11
5.188627086
 21
22.602087535
  0
LWPOLYLINE
  5
476
100
AcDbEntity
  8
0
100
AcDbPolyline
 62
7
  6
CONTINUOUS
 90
3
 70
0
 10
5.188627086
 20
22.602087535
 10
5.187342223
 20
22.5884779439
 10
5.1866646971
 20
22.5816517102
  0
LWPOLYLINE
  5
477
100
AcDbEntity
  8
ASSI
100
AcDbPolyline
 62
7
  6
CONTINUOUS
 90
3
 70
0
 10
5.188627086
 20
22.602087535
 10
5.187342223
 20
22.5884779439
 10
5.1866646971
 20
22.5816517102
  0
LINE
  5
478
100
AcDbEntity
  8
0
100
AcDbLine
 62
7
  6
CONTINUOUS
 10
-3.968176777
 20
-23.4825449351
 11
-3.9526845545
 21
-23.4301797403
  0
LINE
  5
479
100
AcDbEntity
  8
ASSI
100
AcDbLine
 62
7
  6
CONTINUOUS
 10
-3.968176777
 20
-23.4825449351
 11
-3.9526845545
 21
-23.4301797403
  0
LINE
  5
47A
100
AcDbEntity
  8
0
100
AcDbLine
 62
7
  6
CONTINUOUS
 10
9.4946499221
 20
20.4335707644
 11
9.6325449351
 21
20.8475922207
  0
LINE
  5
47B
100
AcDbEntity
  8
ASSI
100
AcDbLine
 62
7
  6
CONTINUOUS
 10
9.4946499221
 20
20.4335707644
 11
9.6325449351
 21
20.8475922207
  0
LINE
  5
47C
100
AcDbEntity
  8
0
100
AcDbLine
 62
7
  6
CONTINUOUS
 10
0.0
 20
3.6047303896
 11
-6.0
 21
3.5
  0
LINE
  5
47D
100
AcDbEntity
  8
ASSI
100
AcDbLine
 62
7
  6
CONTINUOUS
 10
0.0
 20
3.6047303896
 11
-6.0
 21
3.5
  0
LINE
  5
47E
100
AcDbEntity
  8
IMPORT_IGES
100
AcDbLine
 62
7
  6
CONTINUOUS
 10
6.456
 20
2.6
 11
-6.0
 21
2.6
  0
LINE
  5
47F
100
AcDbEntity
  8
IMPORT_IGES
100
AcDbLine
 62
250
  6
CONTINUOUS
 10
-3.544
 20
2.75
 11
6.456
 21
2.75
  0
LINE
  5
480
100
AcDbEntity
  8
IMPORT_IGES
100
AcDbLine
 62
250
  6
CONTINUOUS
 10
-3.544
 20
3.05
 11
6.456
 21
3.05
  0
LINE
  5
481
100
AcDbEntity
  8
IMPORT_IGES
100
AcDbLine
 62
7
  6
CONTINUOUS
 10
-3.544
 20
3.15
 11
-6.0
 21
3.15
  0
LINE
  5
482
100
AcDbEntity
  8
IMPORT_IGES
100
AcDbLine
 62
7
  6
CONTINUOUS
 10
-3.544
 20
3.2
 11
6.456
 21
3.2
  0
LINE
  5
483
100
AcDbEntity
  8
0
100
AcDbLine
 62
7
  6
CONTINUOUS
 10
0.0
 20
3.613457922
 11
6.5
 21
3.5
  0
LINE
  5
484
100
AcDbEntity
  8
ASSI
100
AcDbLine
 62
7
  6
CONTINUOUS
 10
0.0
 20
3.613457922
 11
6.5
 21
3.5
  0
LINE
  5
485
100
AcDbEntity
  8
CURVE
100
AcDbLine
 62
250
  6
CONTINUOUS
 10
-6.927516148
 20
6.928571701
 11
-7.9987815613
 21
7.5714285374
  0
LINE
  5
486
100
AcDbEntity
  8
CURVE
100
AcDbLine
 62
250
  6
CONTINUOUS
 10
-6.7132630833
 20
9.8214285374
 11
-6.4990100185
 21
9.6071429253
  0
LINE
  5
487
100
AcDbEntity
  8
CURVE
100
AcDbLine
 62
250
  6
CONTINUOUS
 10
-2.7495811617
 20
6.5698662952
 11
-2.5353280746
 21
6.3555806831
  0
LINE
  5
488
100
AcDbEntity
  8
CURVE
100
AcDbLine
 62
250
  6
CONTINUOUS
 10
-5.2849092362
 20
9.2142856121
 11
-5.4991623234
 21
9.4285712242
  0
LINE
  5
489
100
AcDbEntity
  8
CURVE
100
AcDbLine
 62
250
  6
CONTINUOUS
 10
-6.4990100185
 20
10.5714285374
 11
-6.8203896604
 21
10.8928573132
  0
LINE
  5
48A
100
AcDbEntity
  8
CURVE
100
AcDbLine
 62
250
  6
CONTINUOUS
 10
-2.606745774
 20
7.4984377578
 11
-2.6781634678
 21
7.5698664144
  0
LINE
  5
48B
100
AcDbEntity
  8
CURVE
100
AcDbLine
 62
250
  6
CONTINUOUS
 10
-7.7845284741
 20
12.7857142091
 11
-7.9987815613
 21
13.0
  0
LINE
  5
48C
100
AcDbEntity
  8
CURVE
100
AcDbLine
 62
250
  6
CONTINUOUS
 10
-2.5353280746
 20
7.6055805639
 11
-2.4996192304
 21
7.5698664144
  0
LINE
  5
48D
100
AcDbEntity
  8
CURVE
100
AcDbLine
 62
250
  6
CONTINUOUS
 10
-1.8925688132
 20
8.498437877
 11
-1.7854423255
 21
8.3198664144
  0
LINE
  5
48E
100
AcDbEntity
  8
0
100
AcDbLine
 62
7
  6
CONTINUOUS
 10
9.6325449351
 20
-20.8475922207
 11
9.4946499221
 21
-20.4335707644
  0
LINE
  5
48F
100
AcDbEntity
  8
ASSI
100
AcDbLine
 62
7
  6
CONTINUOUS
 10
9.6325449351
 20
-20.8475922207
 11
9.4946499221
 21
-20.4335707644
  0
LINE
  5
490
100
AcDbEntity
  8
0
100
AcDbLine
 62
7
  6
CONTINUOUS
 10
-3.968176777
 20
23.4825449351
 11
-3.9526845545
 21
23.4301797403
  0
LINE
  5
491
100
AcDbEntity
  8
ASSI
100
AcDbLine
 62
7
  6
CONTINUOUS
 10
-3.968176777
 20
23.4825449351
 11
-3.9526845545
 21
23.4301797403
  0
LINE
  5
492
100
AcDbEntity
  8
0
100
AcDbLine
 62
7
  6
CONTINUOUS
 10
3.9017247226
 20
21.2
 11
3.9041044472
 21
21.1318536034
  0
LINE
  5
493
100
AcDbEntity
  8
ASSI
100
AcDbLine
 62
7
  6
CONTINUOUS
 10
3.9017247226
 20
21.2
 11
3.9041044472
 21
21.1318536034
  0
LINE
  5
494
100
AcDbEntity
  8
0
100
AcDbLine
 62
250
  6
CONTINUOUS
 10
5.0371731037
 20
-20.7666475703
 11
5.0349048129
 21
-20.612191562
  0
LINE
  5
495
100
AcDbEntity
  8
ASSI
100
AcDbLine
 62
250
  6
CONTINUOUS
 10
5.0371731037
 20
-20.7666475703
 11
5.0349048129
 21
-20.612191562
  0
LINE
  5
496
100
AcDbEntity
  8
0
100
AcDbLine
 62
250
  6
CONTINUOUS
 10
5.0371731037
 20
20.1333524297
 11
5.0349048129
 21
20.287808438
  0
LINE
  5
497
100
AcDbEntity
  8
ASSI
100
AcDbLine
 62
250
  6
CONTINUOUS
 10
5.0371731037
 20
20.1333524297
 11
5.0349048129
 21
20.287808438
  0
LWPOLYLINE
  5
498
100
AcDbEntity
  8
0
100
AcDbPolyline
 62
250
  6
CONTINUOUS
 90
7
 70
0
 10
5.0383655925
 20
-19.8834152386
 10
5.0380971718
 20
-19.8549124315
 10
5.0376982195
 20
-19.8311506862
 10
5.0371731047
 20
-19.8123902404
 10
5.0365275786
 20
-19.7988365578
 10
5.035768711
 20
-19.790638078
 10
5.0349048129
 20
-19.7878845904
  0
LWPOLYLINE
  5
499
100
AcDbEntity
  8
ASSI
100
AcDbPolyline
 62
250
  6
CONTINUOUS
 90
7
 70
0
 10
5.0383655925
 20
-19.8834152386
 10
5.0380971718
 20
-19.8549124315
 10
5.0376982195
 20
-19.8311506862
 10
5.0371731047
 20
-19.8123902404
 10
5.0365275786
 20
-19.7988365578
 10
5.035768711
 20
-19.790638078
 10
5.0349048129
 20
-19.7878845904
  0
LWPOLYLINE
  5
49A
100
AcDbEntity
  8
0
100
AcDbPolyline
 62
250
  6
CONTINUOUS
 90
7
 70
0
 10
5.0383655925
 20
21.0165847614
 10
5.0380971718
 20
21.0450875685
 10
5.0376982195
 20
21.0688493138
 10
5.0371731047
 20
21.0876097596
 10
5.0365275786
 20
21.1011634422
 10
5.035768711
 20
21.109361922
 10
5.0349048129
 20
21.1121154096
  0
LWPOLYLINE
  5
49B
100
AcDbEntity
  8
ASSI
100
AcDbPolyline
 62
250
  6
CONTINUOUS
 90
7
 70
0
 10
5.0383655925
 20
21.0165847614
 10
5.0380971718
 20
21.0450875685
 10
5.0376982195
 20
21.0688493138
 10
5.0371731047
 20
21.0876097596
 10
5.0365275786
 20
21.1011634422
 10
5.035768711
 20
21.109361922
 10
5.0349048129
 20
21.1121154096
  0
LINE
  5
49C
100
AcDbEntity
  8
0
100
AcDbLine
 62
250
  6
CONTINUOUS
 10
5.0380971712
 20
-20.8621095397
 11
5.0371731037
 21
-20.7666475703
  0
LINE
  5
49D
100
AcDbEntity
  8
ASSI
100
AcDbLine
 62
250
  6
CONTINUOUS
 10
5.0380971712
 20
-20.8621095397
 11
5.0371731037
 21
-20.7666475703
  0
LINE
  5
49E
100
AcDbEntity
  8
0
100
AcDbLine
 62
250
  6
CONTINUOUS
 10
5.0380971712
 20
20.0378904603
 11
5.0371731037
 21
20.1333524297
  0
LINE
  5
49F
100
AcDbEntity
  8
ASSI
100
AcDbLine
 62
250
  6
CONTINUOUS
 10
5.0380971712
 20
20.0378904603
 11
5.0371731037
 21
20.1333524297
  0
LINE
  5
4A0
100
AcDbEntity
  8
0
100
AcDbLine
 62
250
  6
CONTINUOUS
 10
5.0385005416
 20
-20.9466531141
 11
5.0380971712
 21
-20.8621095397
  0
LINE
  5
4A1
100
AcDbEntity
  8
ASSI
100
AcDbLine
 62
250
  6
CONTINUOUS
 10
5.0385005416
 20
-20.9466531141
 11
5.0380971712
 21
-20.8621095397
  0
LINE
  5
4A2
100
AcDbEntity
  8
0
100
AcDbLine
 62
250
  6
CONTINUOUS
 10
5.0385005416
 20
19.9533468859
 11
5.0380971712
 21
20.0378904603
  0
LINE
  5
4A3
100
AcDbEntity
  8
ASSI
100
AcDbLine
 62
250
  6
CONTINUOUS
 10
5.0385005416
 20
19.9533468859
 11
5.0380971712
 21
20.0378904603
  0
LINE
  5
4A4
100
AcDbEntity
  8
IMPORT_IGES
100
AcDbLine
 62
7
  6
CONTINUOUS
 10
4.156
 20
1.4
 11
4.156
 21
-1.2
  0
LINE
  5
4A5
100
AcDbEntity
  8
IMPORT_IGES
100
AcDbLine
 62
7
  6
CONTINUOUS
 10
4.156
 20
-3.6
 11
4.156
 21
-6.2
  0
LINE
  5
4A6
100
AcDbEntity
  8
IMPORT_IGES
100
AcDbLine
 62
7
  6
CONTINUOUS
 10
4.156
 20
-8.6
 11
4.156
 21
-11.2
  0
LINE
  5
4A7
100
AcDbEntity
  8
IMPORT_IGES
100
AcDbLine
 62
7
  6
CONTINUOUS
 10
4.166
 20
1.6855216016
 11
4.166
 21
-1.4855216016
  0
LINE
  5
4A8
100
AcDbEntity
  8
IMPORT_IGES
100
AcDbLine
 62
7
  6
CONTINUOUS
 10
4.166
 20
-8.3144783984
 11
4.166
 21
-11.4855216016
  0
LINE
  5
4A9
100
AcDbEntity
  8
IMPORT_IGES
100
AcDbLine
 62
7
  6
CONTINUOUS
 10
4.166
 20
-6.4855216016
 11
4.166
 21
-3.3144783984
  0
LINE
  5
4AA
100
AcDbEntity
  8
0
100
AcDbLine
 62
7
  6
CONTINUOUS
 10
4.5
 20
-19.7785477922
 11
4.5
 21
-19.6214522078
  0
LINE
  5
4AB
100
AcDbEntity
  8
ASSI
100
AcDbLine
 62
7
  6
CONTINUOUS
 10
4.5
 20
-19.7785477922
 11
4.5
 21
-19.6214522078
  0
LINE
  5
4AC
100
AcDbEntity
  8
0
100
AcDbLine
 62
7
  6
CONTINUOUS
 10
4.5
 20
19.6214522078
 11
4.5
 21
19.7785477922
  0
LINE
  5
4AD
100
AcDbEntity
  8
ASSI
100
AcDbLine
 62
7
  6
CONTINUOUS
 10
4.5
 20
19.6214522078
 11
4.5
 21
19.7785477922
  0
LINE
  5
4AE
100
AcDbEntity
  8
0
100
AcDbLine
 62
250
  6
CONTINUOUS
 10
5.0349048129
 20
20.612191562
 11
5.0349048129
 21
20.287808438
  0
LINE
  5
4AF
100
AcDbEntity
  8
ASSI
100
AcDbLine
 62
250
  6
CONTINUOUS
 10
5.0349048129
 20
20.612191562
 11
5.0349048129
 21
20.287808438
  0
LINE
  5
4B0
100
AcDbEntity
  8
0
100
AcDbLine
 62
250
  6
CONTINUOUS
 10
5.0349048129
 20
-20.287808438
 11
5.0349048129
 21
-20.612191562
  0
LINE
  5
4B1
100
AcDbEntity
  8
ASSI
100
AcDbLine
 62
250
  6
CONTINUOUS
 10
5.0349048129
 20
-20.287808438
 11
5.0349048129
 21
-20.612191562
  0
LINE
  5
4B2
100
AcDbEntity
  8
0
100
AcDbLine
 62
250
  6
CONTINUOUS
 10
5.0385005417
 20
20.9466531141
 11
5.0383655925
 21
21.0165847614
  0
LINE
  5
4B3
100
AcDbEntity
  8
ASSI
100
AcDbLine
 62
250
  6
CONTINUOUS
 10
5.0385005417
 20
20.9466531141
 11
5.0383655925
 21
21.0165847614
  0
LINE
  5
4B4
100
AcDbEntity
  8
0
100
AcDbLine
 62
250
  6
CONTINUOUS
 10
5.0385005417
 20
-19.9533468859
 11
5.0383655925
 21
-19.8834152386
  0
LINE
  5
4B5
100
AcDbEntity
  8
ASSI
100
AcDbLine
 62
250
  6
CONTINUOUS
 10
5.0385005417
 20
-19.9533468859
 11
5.0383655925
 21
-19.8834152386
  0
LINE
  5
4B6
100
AcDbEntity
  8
0
100
AcDbLine
 62
250
  6
CONTINUOUS
 10
5.0380971713
 20
20.8621095396
 11
5.0385005417
 21
20.9466531141
  0
LINE
  5
4B7
100
AcDbEntity
  8
ASSI
100
AcDbLine
 62
250
  6
CONTINUOUS
 10
5.0380971713
 20
20.8621095396
 11
5.0385005417
 21
20.9466531141
  0
LINE
  5
4B8
100
AcDbEntity
  8
0
100
AcDbLine
 62
250
  6
CONTINUOUS
 10
5.0380971713
 20
-20.0378904604
 11
5.0385005417
 21
-19.9533468859
  0
LINE
  5
4B9
100
AcDbEntity
  8
ASSI
100
AcDbLine
 62
250
  6
CONTINUOUS
 10
5.0380971713
 20
-20.0378904604
 11
5.0385005417
 21
-19.9533468859
  0
LINE
  5
4BA
100
AcDbEntity
  8
0
100
AcDbLine
 62
250
  6
CONTINUOUS
 10
5.0365275779
 20
20.7161117202
 11
5.0380971713
 21
20.8621095396
  0
LINE
  5
4BB
100
AcDbEntity
  8
ASSI
100
AcDbLine
 62
250
  6
CONTINUOUS
 10
5.0365275779
 20
20.7161117202
 11
5.0380971713
 21
20.8621095396
  0
LINE
  5
4BC
100
AcDbEntity
  8
0
100
AcDbLine
 62
250
  6
CONTINUOUS
 10
5.0365275779
 20
-20.1838882798
 11
5.0380971713
 21
-20.0378904604
  0
LINE
  5
4BD
100
AcDbEntity
  8
ASSI
100
AcDbLine
 62
250
  6
CONTINUOUS
 10
5.0365275779
 20
-20.1838882798
 11
5.0380971713
 21
-20.0378904604
  0
LINE
  5
4BE
100
AcDbEntity
  8
0
100
AcDbLine
 62
250
  6
CONTINUOUS
 10
5.0349048129
 20
20.612191562
 11
5.0365275779
 21
20.7161117202
  0
LINE
  5
4BF
100
AcDbEntity
  8
ASSI
100
AcDbLine
 62
250
  6
CONTINUOUS
 10
5.0349048129
 20
20.612191562
 11
5.0365275779
 21
20.7161117202
  0
LINE
  5
4C0
100
AcDbEntity
  8
0
100
AcDbLine
 62
250
  6
CONTINUOUS
 10
5.0349048129
 20
-20.287808438
 11
5.0365275779
 21
-20.1838882798
  0
LINE
  5
4C1
100
AcDbEntity
  8
ASSI
100
AcDbLine
 62
250
  6
CONTINUOUS
 10
5.0349048129
 20
-20.287808438
 11
5.0365275779
 21
-20.1838882798
  0
LINE
  5
4C2
100
AcDbEntity
  8
0
100
AcDbLine
 62
7
  6
CONTINUOUS
 10
3.9017247226
 20
-21.2
 11
3.9041044472
 21
-21.1318536034
  0
LINE
  5
4C3
100
AcDbEntity
  8
ASSI
100
AcDbLine
 62
7
  6
CONTINUOUS
 10
3.9017247226
 20
-21.2
 11
3.9041044472
 21
-21.1318536034
  0
LWPOLYLINE
  5
4C4
100
AcDbEntity
  8
0
100
AcDbPolyline
 62
250
  6
CONTINUOUS
 90
7
 70
0
 10
-10.7682031724
 20
-17.545327167
 10
-10.7955851663
 20
-17.574052193
 10
-10.8181285095
 20
-17.5979934287
 10
-10.8356600706
 20
-17.6169668604
 10
-10.8480518173
 20
-17.6308334851
 10
-10.8552171389
 20
-17.6394957604
 10
-10.8571067812
 20
-17.6428932188
  0
LWPOLYLINE
  5
4C5
100
AcDbEntity
  8
ASSI
100
AcDbPolyline
 62
250
  6
CONTINUOUS
 90
7
 70
0
 10
-10.7682031724
 20
-17.545327167
 10
-10.7955851663
 20
-17.574052193
 10
-10.8181285095
 20
-17.5979934287
 10
-10.8356600706
 20
-17.6169668604
 10
-10.8480518173
 20
-17.6308334851
 10
-10.8552171389
 20
-17.6394957604
 10
-10.8571067812
 20
-17.6428932188
  0
LINE
  5
4C6
100
AcDbEntity
  8
0
100
AcDbLine
 62
250
  6
CONTINUOUS
 10
-10.6997864752
 20
-17.4744289915
 11
-10.7682031724
 21
-17.545327167
  0
LINE
  5
4C7
100
AcDbEntity
  8
ASSI
100
AcDbLine
 62
250
  6
CONTINUOUS
 10
-10.6997864752
 20
-17.4744289915
 11
-10.7682031724
 21
-17.545327167
  0
LINE
  5
4C8
100
AcDbEntity
  8
0
100
AcDbLine
 62
250
  6
CONTINUOUS
 10
-10.5670902406
 20
-17.338656083
 11
-10.6997864752
 21
-17.4744289915
  0
LINE
  5
4C9
100
AcDbEntity
  8
ASSI
100
AcDbLine
 62
250
  6
CONTINUOUS
 10
-10.5670902406
 20
-17.338656083
 11
-10.6997864752
 21
-17.4744289915
  0
LINE
  5
4CA
100
AcDbEntity
  8
0
100
AcDbLine
 62
250
  6
CONTINUOUS
 10
-10.3484533816
 20
-17.1174282945
 11
-10.5670902406
 21
-17.338656083
  0
LINE
  5
4CB
100
AcDbEntity
  8
ASSI
100
AcDbLine
 62
250
  6
CONTINUOUS
 10
-10.3484533816
 20
-17.1174282945
 11
-10.5670902406
 21
-17.338656083
  0
LINE
  5
4CC
100
AcDbEntity
  8
0
100
AcDbLine
 62
250
  6
CONTINUOUS
 10
-10.1674524064
 20
-16.9357864376
 11
-10.3484533816
 21
-17.1174282945
  0
LINE
  5
4CD
100
AcDbEntity
  8
ASSI
100
AcDbLine
 62
250
  6
CONTINUOUS
 10
-10.1674524064
 20
-16.9357864376
 11
-10.3484533816
 21
-17.1174282945
  0
LINE
  5
4CE
100
AcDbEntity
  8
CURVE
100
AcDbLine
 62
250
  6
CONTINUOUS
 10
-7.0989186356
 20
-9.5
 11
-8.9986292564
 21
-10.45
  0
LINE
  5
4CF
100
AcDbEntity
  8
CURVE
100
AcDbLine
 62
250
  6
CONTINUOUS
 10
-2.7495811617
 20
5.2841519073
 11
-1.2498096189
 21
4.8555806831
  0
LINE
  5
4D0
100
AcDbEntity
  8
CURVE
100
AcDbLine
 62
250
  6
CONTINUOUS
 10
-2.8567077052
 20
5.9270091012
 11
-2.4282015422
 21
5.7127234891
  0
LINE
  5
4D1
100
AcDbEntity
  8
CURVE
100
AcDbLine
 62
250
  6
CONTINUOUS
 10
-7.570275387
 20
9.1785713434
 11
-7.7845284741
 21
9.2857141495
  0
LINE
  5
4D2
100
AcDbEntity
  8
CURVE
100
AcDbLine
 62
250
  6
CONTINUOUS
 10
-4.2136438454
 20
9.75
 11
-3.9993907806
 21
9.5357143879
  0
LINE
  5
4D3
100
AcDbEntity
  8
CURVE
100
AcDbLine
 62
250
  6
CONTINUOUS
 10
-2.7495811617
 20
8.391295071
 11
-2.6424546181
 21
8.2841522649
  0
LINE
  5
4D4
100
AcDbEntity
  8
CURVE
100
AcDbLine
 62
250
  6
CONTINUOUS
 10
-7.9987815613
 20
14.0714285523
 11
-7.7845284741
 21
13.8571428508
  0
LINE
  5
4D5
100
AcDbEntity
  8
CURVE
100
AcDbLine
 62
250
  6
CONTINUOUS
 10
-6.7132630833
 20
13.321428597
 11
-6.4990100185
 21
13.1071428955
  0
LINE
  5
4D6
100
AcDbEntity
  8
CURVE
100
AcDbLine
 62
250
  6
CONTINUOUS
 10
-2.7495811617
 20
10.2127235785
 11
-2.5353280746
 21
9.998437877
  0
LINE
  5
4D7
100
AcDbEntity
  8
0
100
AcDbLine
 62
250
  6
CONTINUOUS
 10
-10.1674524064
 20
16.9357864376
 11
-10.3484534773
 21
17.1174283909
  0
LINE
  5
4D8
100
AcDbEntity
  8
ASSI
100
AcDbLine
 62
250
  6
CONTINUOUS
 10
-10.1674524064
 20
16.9357864376
 11
-10.3484534773
 21
17.1174283909
  0
LINE
  5
4D9
100
AcDbEntity
  8
0
100
AcDbLine
 62
250
  6
CONTINUOUS
 10
-10.3484534773
 20
17.1174283909
 11
-10.5161376727
 21
17.2868815767
  0
LINE
  5
4DA
100
AcDbEntity
  8
ASSI
100
AcDbLine
 62
250
  6
CONTINUOUS
 10
-10.3484534773
 20
17.1174283909
 11
-10.5161376727
 21
17.2868815767
  0
LINE
  5
4DB
100
AcDbEntity
  8
0
100
AcDbLine
 62
250
  6
CONTINUOUS
 10
-10.5161376727
 20
17.2868815767
 11
-10.6592614881
 21
17.4327840046
  0
LINE
  5
4DC
100
AcDbEntity
  8
ASSI
100
AcDbLine
 62
250
  6
CONTINUOUS
 10
-10.5161376727
 20
17.2868815767
 11
-10.6592614881
 21
17.4327840046
  0
LWPOLYLINE
  5
4DD
100
AcDbEntity
  8
0
100
AcDbPolyline
 62
250
  6
CONTINUOUS
 90
9
 70
0
 10
-10.6592614881
 20
17.4327840046
 10
-10.7361913201
 20
17.5120373375
 10
-10.7682033529
 20
17.5453273554
 10
-10.795585315
 20
17.5740523499
 10
-10.8181286189
 20
17.5979935458
 10
-10.8356601396
 20
17.6169669361
 10
-10.8480518508
 20
17.6308335237
 10
-10.8552171475
 20
17.6394957718
 10
-10.8571067812
 20
17.6428932188
  0
LWPOLYLINE
  5
4DE
100
AcDbEntity
  8
ASSI
100
AcDbPolyline
 62
250
  6
CONTINUOUS
 90
9
 70
0
 10
-10.6592614881
 20
17.4327840046
 10
-10.7361913201
 20
17.5120373375
 10
-10.7682033529
 20
17.5453273554
 10
-10.795585315
 20
17.5740523499
 10
-10.8181286189
 20
17.5979935458
 10
-10.8356601396
 20
17.6169669361
 10
-10.8480518508
 20
17.6308335237
 10
-10.8552171475
 20
17.6394957718
 10
-10.8571067812
 20
17.6428932188
  0
LINE
  5
4DF
100
AcDbEntity
  8
0
100
AcDbLine
 62
7
  6
CONTINUOUS
 10
7.3855725326
 20
-20.6901924515
 11
7.3830351795
 21
-20.5448275862
  0
LINE
  5
4E0
100
AcDbEntity
  8
ASSI
100
AcDbLine
 62
7
  6
CONTINUOUS
 10
7.3855725326
 20
-20.6901924515
 11
7.3830351795
 21
-20.5448275862
  0
LINE
  5
4E1
100
AcDbEntity
  8
IMPORT_IGES
100
AcDbLine
 62
7
  6
CONTINUOUS
 10
5.5416406461
 20
1.8983339502
 11
5.5416406461
 21
-1.6983339502
  0
LINE
  5
4E2
100
AcDbEntity
  8
IMPORT_IGES
100
AcDbLine
 62
7
  6
CONTINUOUS
 10
5.5416406461
 20
-3.1016660498
 11
5.5416406461
 21
-6.6983339502
  0
LINE
  5
4E3
100
AcDbEntity
  8
IMPORT_IGES
100
AcDbLine
 62
7
  6
CONTINUOUS
 10
5.5416406461
 20
-8.1016660498
 11
5.5416406461
 21
-11.6983339502
  0
LINE
  5
4E4
100
AcDbEntity
  8
0
100
AcDbLine
 62
7
  6
CONTINUOUS
 10
6.0
 20
-19.7952696104
 11
6.0
 21
-19.5952696104
  0
LINE
  5
4E5
100
AcDbEntity
  8
ASSI
100
AcDbLine
 62
7
  6
CONTINUOUS
 10
6.0
 20
-19.7952696104
 11
6.0
 21
-19.5952696104
  0
LINE
  5
4E6
100
AcDbEntity
  8
0
100
AcDbLine
 62
7
  6
CONTINUOUS
 10
6.0
 20
19.5952696104
 11
6.0
 21
19.7952696104
  0
LINE
  5
4E7
100
AcDbEntity
  8
ASSI
100
AcDbLine
 62
7
  6
CONTINUOUS
 10
6.0
 20
19.5952696104
 11
6.0
 21
19.7952696104
  0
LINE
  5
4E8
100
AcDbEntity
  8
0
100
AcDbLine
 62
7
  6
CONTINUOUS
 10
6.456
 20
-12.75
 11
6.456
 21
-12.4
  0
LINE
  5
4E9
100
AcDbEntity
  8
IMPORT_IGES
100
AcDbLine
 62
7
  6
CONTINUOUS
 10
6.456
 20
-12.4
 11
6.456
 21
3.2
  0
LINE
  5
4EA
100
AcDbEntity
  8
0
100
AcDbLine
 62
7
  6
CONTINUOUS
 10
6.456
 20
3.2
 11
6.456
 21
3.5
  0
LINE
  5
4EB
100
AcDbEntity
  8
0
100
AcDbLine
 62
7
  6
CONTINUOUS
 10
6.5
 20
3.5
 11
6.5
 21
-12.75
  0
LINE
  5
4EC
100
AcDbEntity
  8
ASSI
100
AcDbLine
 62
7
  6
CONTINUOUS
 10
6.5
 20
3.5
 11
6.5
 21
-12.75
  0
LINE
  5
4ED
100
AcDbEntity
  8
0
100
AcDbLine
 62
7
  6
CONTINUOUS
 10
7.0
 20
20.5864659139
 11
7.0
 21
20.3135340861
  0
LINE
  5
4EE
100
AcDbEntity
  8
ASSI
100
AcDbLine
 62
7
  6
CONTINUOUS
 10
7.0
 20
20.5864659139
 11
7.0
 21
20.3135340861
  0
LINE
  5
4EF
100
AcDbEntity
  8
0
100
AcDbLine
 62
7
  6
CONTINUOUS
 10
7.0
 20
-20.3135340861
 11
7.0
 21
-20.5864659139
  0
LINE
  5
4F0
100
AcDbEntity
  8
ASSI
100
AcDbLine
 62
7
  6
CONTINUOUS
 10
7.0
 20
-20.3135340861
 11
7.0
 21
-20.5864659139
  0
LINE
  5
4F1
100
AcDbEntity
  8
0
100
AcDbLine
 62
7
  6
CONTINUOUS
 10
7.3855725326
 20
20.6901924515
 11
7.3830351795
 21
20.5448275862
  0
LINE
  5
4F2
100
AcDbEntity
  8
ASSI
100
AcDbLine
 62
7
  6
CONTINUOUS
 10
7.3855725326
 20
20.6901924515
 11
7.3830351795
 21
20.5448275862
  0
LWPOLYLINE
  5
4F3
100
AcDbEntity
  8
0
100
AcDbPolyline
 62
250
  6
CONTINUOUS
 90
7
 70
0
 10
-9.153109408
 20
-19.1604003921
 10
-9.1804924233
 20
-19.1891263874
 10
-9.2030370897
 20
-19.2130688959
 10
-9.2205709069
 20
-19.2320445987
 10
-9.2329653031
 20
-19.2459139787
 10
-9.2401326766
 20
-19.2545784834
 10
-9.2420230647
 20
-19.2579769353
  0
LWPOLYLINE
  5
4F4
100
AcDbEntity
  8
ASSI
100
AcDbPolyline
 62
250
  6
CONTINUOUS
 90
7
 70
0
 10
-9.153109408
 20
-19.1604003921
 10
-9.1804924233
 20
-19.1891263874
 10
-9.2030370897
 20
-19.2130688959
 10
-9.2205709069
 20
-19.2320445987
 10
-9.2329653031
 20
-19.2459139787
 10
-9.2401326766
 20
-19.2545784834
 10
-9.2420230647
 20
-19.2579769353
  0
LINE
  5
4F5
100
AcDbEntity
  8
0
100
AcDbLine
 62
250
  6
CONTINUOUS
 10
-9.084690369
 20
-19.0894999439
 11
-9.153109408
 21
-19.1604003921
  0
LINE
  5
4F6
100
AcDbEntity
  8
ASSI
100
AcDbLine
 62
250
  6
CONTINUOUS
 10
-9.084690369
 20
-19.0894999439
 11
-9.153109408
 21
-19.1604003921
  0
LINE
  5
4F7
100
AcDbEntity
  8
0
100
AcDbLine
 62
250
  6
CONTINUOUS
 10
-8.9519935782
 20
-18.953726624
 11
-9.084690369
 21
-19.0894999439
  0
LINE
  5
4F8
100
AcDbEntity
  8
ASSI
100
AcDbLine
 62
250
  6
CONTINUOUS
 10
-8.9519935782
 20
-18.953726624
 11
-9.084690369
 21
-19.0894999439
  0
LINE
  5
4F9
100
AcDbEntity
  8
0
100
AcDbLine
 62
250
  6
CONTINUOUS
 10
-8.7333628577
 20
-18.7325051565
 11
-8.9519935782
 21
-18.953726624
  0
LINE
  5
4FA
100
AcDbEntity
  8
ASSI
100
AcDbLine
 62
250
  6
CONTINUOUS
 10
-8.7333628577
 20
-18.7325051565
 11
-8.9519935782
 21
-18.953726624
  0
LINE
  5
4FB
100
AcDbEntity
  8
0
100
AcDbLine
 62
250
  6
CONTINUOUS
 10
-8.55236869
 20
-18.5508701541
 11
-8.7333628577
 21
-18.7325051565
  0
LINE
  5
4FC
100
AcDbEntity
  8
ASSI
100
AcDbLine
 62
250
  6
CONTINUOUS
 10
-8.55236869
 20
-18.5508701541
 11
-8.7333628577
 21
-18.7325051565
  0
LINE
  5
4FD
100
AcDbEntity
  8
CURVE
100
AcDbLine
 62
250
  6
CONTINUOUS
 10
-2.4282015422
 20
5.7127234891
 11
-1.6783157485
 21
5.7127234891
  0
LINE
  5
4FE
100
AcDbEntity
  8
CURVE
100
AcDbLine
 62
250
  6
CONTINUOUS
 10
-2.5353280746
 20
6.3555806831
 11
-2.1068219227
 21
6.3555806831
  0
LINE
  5
4FF
100
AcDbEntity
  8
CURVE
100
AcDbLine
 62
250
  6
CONTINUOUS
 10
-1.8925688132
 20
6.998437877
 11
-1.2498096189
 21
6.998437877
  0
LINE
  5
500
100
AcDbEntity
  8
CURVE
100
AcDbLine
 62
250
  6
CONTINUOUS
 10
-5.4991623234
 20
8.25
 11
-3.9993907806
 21
7.8214287758
  0
LINE
  5
501
100
AcDbEntity
  8
CURVE
100
AcDbLine
 62
250
  6
CONTINUOUS
 10
-2.606745774
 20
7.4984377578
 11
-2.7138723148
 21
7.5341522649
  0
LINE
  5
502
100
AcDbEntity
  8
CURVE
100
AcDbLine
 62
250
  6
CONTINUOUS
 10
-2.7138723148
 20
7.5341522649
 11
-2.8567077052
 21
7.6055805639
  0
LINE
  5
503
100
AcDbEntity
  8
CURVE
100
AcDbLine
 62
250
  6
CONTINUOUS
 10
-2.606745774
 20
7.641295071
 11
-2.5353280746
 21
7.6055805639
  0
LINE
  5
504
100
AcDbEntity
  8
CURVE
100
AcDbLine
 62
250
  6
CONTINUOUS
 10
-6.927516148
 20
9.9285713434
 11
-6.7132630833
 21
9.8214285374
  0
LINE
  5
505
100
AcDbEntity
  8
CURVE
100
AcDbLine
 62
250
  6
CONTINUOUS
 10
-5.0706561491
 20
9.1071431637
 11
-5.2849092362
 21
9.2142856121
  0
LINE
  5
506
100
AcDbEntity
  8
CURVE
100
AcDbLine
 62
250
  6
CONTINUOUS
 10
-6.8203896604
 20
10.8928573132
 11
-7.2488957899
 21
11.1071429253
  0
LINE
  5
507
100
AcDbEntity
  8
CURVE
100
AcDbLine
 62
250
  6
CONTINUOUS
 10
-4.4278969102
 20
9.8571431637
 11
-4.2136438454
 21
9.75
  0
LINE
  5
508
100
AcDbEntity
  8
CURVE
100
AcDbLine
 62
250
  6
CONTINUOUS
 10
-6.641845395
 20
11.3928571939
 11
-7.9630727143
 21
12.25
  0
LINE
  5
509
100
AcDbEntity
  8
CURVE
100
AcDbLine
 62
250
  6
CONTINUOUS
 10
-5.4991623234
 20
12.2142856121
 11
-4.4278969102
 21
11.4642856121
  0
LINE
  5
50A
100
AcDbEntity
  8
CURVE
100
AcDbLine
 62
250
  6
CONTINUOUS
 10
-5.2849092362
 20
13.821428597
 11
-5.4991623234
 21
14.0357142091
  0
LINE
  5
50B
100
AcDbEntity
  8
CURVE
100
AcDbLine
 62
250
  6
CONTINUOUS
 10
-1.2498096189
 20
10.2127235785
 11
-1.5711892608
 21
10.5341520861
  0
LINE
  5
50C
100
AcDbEntity
  8
CURVE
100
AcDbLine
 62
250
  6
CONTINUOUS
 10
-5.2849092362
 20
15.0
 11
-5.4991623234
 21
15.2142857015
  0
LINE
  5
50D
100
AcDbEntity
  8
CURVE
100
AcDbLine
 62
250
  6
CONTINUOUS
 10
-1.6783157485
 20
11.6055806831
 11
-1.2498096189
 21
11.1770092353
  0
LINE
  5
50E
100
AcDbEntity
  8
0
100
AcDbLine
 62
250
  6
CONTINUOUS
 10
-8.55236869
 20
18.5508701541
 11
-8.7333627822
 21
18.7325050804
  0
LINE
  5
50F
100
AcDbEntity
  8
ASSI
100
AcDbLine
 62
250
  6
CONTINUOUS
 10
-8.55236869
 20
18.5508701541
 11
-8.7333627822
 21
18.7325050804
  0
LINE
  5
510
100
AcDbEntity
  8
0
100
AcDbLine
 62
250
  6
CONTINUOUS
 10
-8.7333627822
 20
18.7325050804
 11
-8.9010415154
 21
18.9019526703
  0
LINE
  5
511
100
AcDbEntity
  8
ASSI
100
AcDbLine
 62
250
  6
CONTINUOUS
 10
-8.7333627822
 20
18.7325050804
 11
-8.9010415154
 21
18.9019526703
  0
LINE
  5
512
100
AcDbEntity
  8
0
100
AcDbLine
 62
250
  6
CONTINUOUS
 10
-8.9010415154
 20
18.9019526703
 11
-9.0441643699
 21
19.0478539801
  0
LINE
  5
513
100
AcDbEntity
  8
ASSI
100
AcDbLine
 62
250
  6
CONTINUOUS
 10
-8.9010415154
 20
18.9019526703
 11
-9.0441643699
 21
19.0478539801
  0
LWPOLYLINE
  5
514
100
AcDbEntity
  8
0
100
AcDbPolyline
 62
250
  6
CONTINUOUS
 90
9
 70
0
 10
-9.0441643699
 20
19.0478539801
 10
-9.1210959589
 20
19.1271089869
 10
-9.1531092708
 20
19.1604002488
 10
-9.1804923107
 20
19.1891262686
 10
-9.2030370074
 20
19.2130688078
 10
-9.2205708552
 20
19.232044542
 10
-9.2329652781
 20
19.2459139499
 10
-9.2401326703
 20
19.254578475
 10
-9.2420230647
 20
19.2579769353
  0
LWPOLYLINE
  5
515
100
AcDbEntity
  8
ASSI
100
AcDbPolyline
 62
250
  6
CONTINUOUS
 90
9
 70
0
 10
-9.0441643699
 20
19.0478539801
 10
-9.1210959589
 20
19.1271089869
 10
-9.1531092708
 20
19.1604002488
 10
-9.1804923107
 20
19.1891262686
 10
-9.2030370074
 20
19.2130688078
 10
-9.2205708552
 20
19.232044542
 10
-9.2329652781
 20
19.2459139499
 10
-9.2401326703
 20
19.254578475
 10
-9.2420230647
 20
19.2579769353
  0
LINE
  5
516
100
AcDbEntity
  8
0
100
AcDbLine
 62
250
  6
CONTINUOUS
 10
8.55236869
 20
-18.5508701541
 11
8.5551330184
 21
-18.7244789534
  0
LINE
  5
517
100
AcDbEntity
  8
ASSI
100
AcDbLine
 62
250
  6
CONTINUOUS
 10
8.55236869
 20
-18.5508701541
 11
8.5551330184
 21
-18.7244789534
  0
LINE
  5
518
100
AcDbEntity
  8
0
100
AcDbLine
 62
250
  6
CONTINUOUS
 10
8.5551330184
 20
-18.7244789534
 11
8.5572831575
 21
-18.8928129615
  0
LINE
  5
519
100
AcDbEntity
  8
ASSI
100
AcDbLine
 62
250
  6
CONTINUOUS
 10
8.5551330184
 20
-18.7244789534
 11
8.5572831575
 21
-18.8928129615
  0
LWPOLYLINE
  5
51A
100
AcDbEntity
  8
0
100
AcDbPolyline
 62
250
  6
CONTINUOUS
 90
8
 70
0
 10
8.5592186227
 20
19.3698668006
 10
8.5587524901
 20
19.4167340532
 10
8.5581049021
 20
19.457016025
 10
8.5572808232
 20
19.4904012753
 10
8.5562868195
 20
19.5166295213
 10
8.5551307007
 20
19.5355057845
 10
8.5538213011
 20
19.5468953539
 10
8.55236869
 20
19.5507178492
  0
LWPOLYLINE
  5
51B
100
AcDbEntity
  8
ASSI
100
AcDbPolyline
 62
250
  6
CONTINUOUS
 90
8
 70
0
 10
8.5592186227
 20
19.3698668006
 10
8.5587524901
 20
19.4167340532
 10
8.5581049021
 20
19.457016025
 10
8.5572808232
 20
19.4904012753
 10
8.5562868195
 20
19.5166295213
 10
8.5551307007
 20
19.5355057845
 10
8.5538213011
 20
19.5468953539
 10
8.55236869
 20
19.5507178492
  0
LINE
  5
51C
100
AcDbEntity
  8
0
100
AcDbLine
 62
250
  6
CONTINUOUS
 10
8.5572831575
 20
-18.8928129615
 11
8.558753805
 21
-19.0507598897
  0
LINE
  5
51D
100
AcDbEntity
  8
ASSI
100
AcDbLine
 62
250
  6
CONTINUOUS
 10
8.5572831575
 20
-18.8928129615
 11
8.558753805
 21
-19.0507598897
  0
LINE
  5
51E
100
AcDbEntity
  8
0
100
AcDbLine
 62
250
  6
CONTINUOUS
 10
8.558753805
 20
-19.0507598897
 11
8.5595002879
 21
-19.1935282208
  0
LINE
  5
51F
100
AcDbEntity
  8
ASSI
100
AcDbLine
 62
250
  6
CONTINUOUS
 10
8.558753805
 20
-19.0507598897
 11
8.5595002879
 21
-19.1935282208
  0
LINE
  5
520
100
AcDbEntity
  8
0
100
AcDbLine
 62
250
  6
CONTINUOUS
 10
8.5595939553
 20
19.2578387575
 11
8.5592186227
 21
19.3698668006
  0
LINE
  5
521
100
AcDbEntity
  8
ASSI
100
AcDbLine
 62
250
  6
CONTINUOUS
 10
8.5595939553
 20
19.2578387575
 11
8.5592186227
 21
19.3698668006
  0
LINE
  5
522
100
AcDbEntity
  8
0
100
AcDbLine
 62
7
  6
CONTINUOUS
 10
7.3830351795
 20
-20.5448275862
 11
7.3830351795
 21
-20.2413486316
  0
LINE
  5
523
100
AcDbEntity
  8
ASSI
100
AcDbLine
 62
7
  6
CONTINUOUS
 10
7.3830351795
 20
-20.5448275862
 11
7.3830351795
 21
-20.2413486316
  0
LINE
  5
524
100
AcDbEntity
  8
0
100
AcDbLine
 62
7
  6
CONTINUOUS
 10
7.3830351795
 20
20.2413486316
 11
7.3830351795
 21
20.5448275862
  0
LINE
  5
525
100
AcDbEntity
  8
ASSI
100
AcDbLine
 62
7
  6
CONTINUOUS
 10
7.3830351795
 20
20.2413486316
 11
7.3830351795
 21
20.5448275862
  0
LINE
  5
526
100
AcDbEntity
  8
0
100
AcDbLine
 62
7
  6
CONTINUOUS
 10
7.6780257768
 20
20.4335707644
 11
7.6780257768
 21
19.5659795615
  0
LINE
  5
527
100
AcDbEntity
  8
ASSI
100
AcDbLine
 62
7
  6
CONTINUOUS
 10
7.6780257768
 20
20.4335707644
 11
7.6780257768
 21
19.5659795615
  0
LINE
  5
528
100
AcDbEntity
  8
0
100
AcDbLine
 62
7
  6
CONTINUOUS
 10
7.6780257768
 20
-19.5659795615
 11
7.6780257768
 21
-20.4335707644
  0
LINE
  5
529
100
AcDbEntity
  8
ASSI
100
AcDbLine
 62
7
  6
CONTINUOUS
 10
7.6780257768
 20
-19.5659795615
 11
7.6780257768
 21
-20.4335707644
  0
LWPOLYLINE
  5
52A
100
AcDbEntity
  8
0
100
AcDbPolyline
 62
250
  6
CONTINUOUS
 90
10
 70
0
 10
8.5595002879
 20
-19.1935282208
 10
8.5594998233
 20
-19.3167676198
 10
8.5592186206
 20
-19.3698670767
 10
8.5587524868
 20
-19.4167343126
 10
8.5581048979
 20
-19.4570162397
 10
8.5572808185
 20
-19.4904014342
 10
8.5562868147
 20
-19.5166296227
 10
8.5551306962
 20
-19.535505835
 10
8.5538212976
 20
-19.5468953679
 10
8.5523686883
 20
-19.5507178493
  0
LWPOLYLINE
  5
52B
100
AcDbEntity
  8
ASSI
100
AcDbPolyline
 62
250
  6
CONTINUOUS
 90
10
 70
0
 10
8.5595002879
 20
-19.1935282208
 10
8.5594998233
 20
-19.3167676198
 10
8.5592186206
 20
-19.3698670767
 10
8.5587524868
 20
-19.4167343126
 10
8.5581048979
 20
-19.4570162397
 10
8.5572808185
 20
-19.4904014342
 10
8.5562868147
 20
-19.5166296227
 10
8.5551306962
 20
-19.535505835
 10
8.5538212976
 20
-19.5468953679
 10
8.5523686883
 20
-19.5507178493
  0
LINE
  5
52C
100
AcDbEntity
  8
0
100
AcDbLine
 62
250
  6
CONTINUOUS
 10
8.5592195204
 20
19.1243251892
 11
8.5595939553
 21
19.2578387575
  0
LINE
  5
52D
100
AcDbEntity
  8
ASSI
100
AcDbLine
 62
250
  6
CONTINUOUS
 10
8.5592195204
 20
19.1243251892
 11
8.5595939553
 21
19.2578387575
  0
LINE
  5
52E
100
AcDbEntity
  8
0
100
AcDbLine
 62
250
  6
CONTINUOUS
 10
8.5572831556
 20
18.8928127858
 11
8.5592195204
 21
19.1243251892
  0
LINE
  5
52F
100
AcDbEntity
  8
ASSI
100
AcDbLine
 62
250
  6
CONTINUOUS
 10
8.5572831556
 20
18.8928127858
 11
8.5592195204
 21
19.1243251892
  0
LWPOLYLINE
  5
530
100
AcDbEntity
  8
0
100
AcDbPolyline
 62
250
  6
CONTINUOUS
 90
3
 70
0
 10
8.55236869
 20
18.5508701541
 10
8.5538227876
 20
18.6380060364
 10
8.5572831556
 20
18.8928127858
  0
LWPOLYLINE
  5
531
100
AcDbEntity
  8
ASSI
100
AcDbPolyline
 62
250
  6
CONTINUOUS
 90
3
 70
0
 10
8.55236869
 20
18.5508701541
 10
8.5538227876
 20
18.6380060364
 10
8.5572831556
 20
18.8928127858
  0
LINE
  5
532
100
AcDbEntity
  8
0
100
AcDbLine
 62
7
  6
CONTINUOUS
 10
-3.0118365096
 20
-22.2
 11
-2.6768152463
 21
-21.5448275862
  0
LINE
  5
533
100
AcDbEntity
  8
ASSI
100
AcDbLine
 62
7
  6
CONTINUOUS
 10
-3.0118365096
 20
-22.2
 11
-2.6768152463
 21
-21.5448275862
  0
LINE
  5
534
100
AcDbEntity
  8
CURVE
100
AcDbLine
 62
250
  6
CONTINUOUS
 10
-2.5710369299
 20
7.4984377578
 11
-2.606745774
 21
7.4984377578
  0
LINE
  5
535
100
AcDbEntity
  8
CURVE
100
AcDbLine
 62
250
  6
CONTINUOUS
 10
-2.6424546181
 20
7.641295071
 11
-2.606745774
 21
7.641295071
  0
LINE
  5
536
100
AcDbEntity
  8
CURVE
100
AcDbLine
 62
250
  6
CONTINUOUS
 10
-6.4990100185
 20
7.9999997616
 11
-7.9987815613
 21
7.9999997616
  0
LINE
  5
537
100
AcDbEntity
  8
CURVE
100
AcDbLine
 62
250
  6
CONTINUOUS
 10
-2.6424546181
 20
8.2841522649
 11
-2.1068219227
 21
8.2841522649
  0
LINE
  5
538
100
AcDbEntity
  8
CURVE
100
AcDbLine
 62
250
  6
CONTINUOUS
 10
-1.7854423255
 20
8.3198664144
 11
-1.4640626837
 21
8.3198664144
  0
LINE
  5
539
100
AcDbEntity
  8
CURVE
100
AcDbLine
 62
250
  6
CONTINUOUS
 10
-7.9987815613
 20
8.7500001192
 11
-6.4990100185
 21
8.7500001192
  0
LINE
  5
53A
100
AcDbEntity
  8
CURVE
100
AcDbLine
 62
250
  6
CONTINUOUS
 10
-1.6783157485
 20
9.569866474
 11
-1.2498096189
 21
9.3555806831
  0
LINE
  5
53B
100
AcDbEntity
  8
CURVE
100
AcDbLine
 62
250
  6
CONTINUOUS
 10
-7.570275387
 20
12.678571403
 11
-7.7845284741
 21
12.7857142091
  0
LINE
  5
53C
100
AcDbEntity
  8
CURVE
100
AcDbLine
 62
250
  6
CONTINUOUS
 10
-1.5711892608
 20
10.5341520861
 11
-1.9996953903
 21
10.7484377876
  0
LINE
  5
53D
100
AcDbEntity
  8
CURVE
100
AcDbLine
 62
250
  6
CONTINUOUS
 10
-3.9993907806
 20
12.0
 11
-4.3207704225
 21
12.2142856121
  0
LINE
  5
53E
100
AcDbEntity
  8
CURVE
100
AcDbLine
 62
250
  6
CONTINUOUS
 10
-4.2136438454
 20
14.3571428061
 11
-3.9993907806
 21
14.1428571939
  0
LINE
  5
53F
100
AcDbEntity
  8
CURVE
100
AcDbLine
 62
250
  6
CONTINUOUS
 10
-4.2136438454
 20
15.5357142985
 11
-3.9993907806
 21
15.321428597
  0
LINE
  5
540
100
AcDbEntity
  8
CURVE
100
AcDbLine
 62
250
  6
CONTINUOUS
 10
-4.4278969102
 20
16.5
 11
-3.9993907806
 21
16.0714285523
  0
LINE
  5
541
100
AcDbEntity
  8
0
100
AcDbLine
 62
7
  6
CONTINUOUS
 10
-2.6768152463
 20
21.5448275862
 11
-3.0118365096
 21
22.2
  0
LINE
  5
542
100
AcDbEntity
  8
ASSI
100
AcDbLine
 62
7
  6
CONTINUOUS
 10
-2.6768152463
 20
21.5448275862
 11
-3.0118365096
 21
22.2
  0
LINE
  5
543
100
AcDbEntity
  8
DRAFT
100
AcDbLine
 62
7
  6
CONTINUOUS
 10
9.4946499221
 20
-20.4335707644
 11
9.4946499221
 21
-19.0053500779
  0
LINE
  5
544
100
AcDbEntity
  8
ASSI
100
AcDbLine
 62
7
  6
CONTINUOUS
 10
9.4946499221
 20
-20.4335707644
 11
9.4946499221
 21
-19.0053500779
  0
LINE
  5
545
100
AcDbEntity
  8
DRAFT
100
AcDbLine
 62
7
  6
CONTINUOUS
 10
9.4946499221
 20
19.0053500779
 11
9.4946499221
 21
20.4335707644
  0
LINE
  5
546
100
AcDbEntity
  8
ASSI
100
AcDbLine
 62
7
  6
CONTINUOUS
 10
9.4946499221
 20
19.0053500779
 11
9.4946499221
 21
20.4335707644
  0
LINE
  5
547
100
AcDbEntity
  8
0
100
AcDbLine
 62
7
  6
CONTINUOUS
 10
9.6325449351
 20
-20.8475922207
 11
9.6325449351
 21
-18.8674550649
  0
LINE
  5
548
100
AcDbEntity
  8
ASSI
100
AcDbLine
 62
7
  6
CONTINUOUS
 10
9.6325449351
 20
-20.8475922207
 11
9.6325449351
 21
-18.8674550649
  0
LINE
  5
549
100
AcDbEntity
  8
0
100
AcDbLine
 62
7
  6
CONTINUOUS
 10
9.6325449351
 20
18.8674550649
 11
9.6325449351
 21
20.8475922207
  0
LINE
  5
54A
100
AcDbEntity
  8
ASSI
100
AcDbLine
 62
7
  6
CONTINUOUS
 10
9.6325449351
 20
18.8674550649
 11
9.6325449351
 21
20.8475922207
  0
LINE
  5
54B
100
AcDbEntity
  8
0
100
AcDbLine
 62
250
  6
CONTINUOUS
 10
10.1674524064
 20
-16.9357864376
 11
10.1674524064
 21
16.9357864376
  0
LINE
  5
54C
100
AcDbEntity
  8
ASSI
100
AcDbLine
 62
250
  6
CONTINUOUS
 10
10.1674524064
 20
-16.9357864376
 11
10.1674524064
 21
16.9357864376
  0
LWPOLYLINE
  5
54D
100
AcDbEntity
  8
0
100
AcDbPolyline
 62
250
  6
CONTINUOUS
 90
6
 70
0
 10
-7.0288133907
 20
-20.4545470003
 10
-7.0451055728
 20
-20.4713522749
 10
-7.057860722
 20
-20.4847190525
 10
-7.0669412774
 20
-20.4945031767
 10
-7.0722493081
 20
-20.5005991301
 10
-7.0737275607
 20
-20.5029411627
  0
LWPOLYLINE
  5
54E
100
AcDbEntity
  8
ASSI
100
AcDbPolyline
 62
250
  6
CONTINUOUS
 90
6
 70
0
 10
-7.0288133907
 20
-20.4545470003
 10
-7.0451055728
 20
-20.4713522749
 10
-7.057860722
 20
-20.4847190525
 10
-7.0669412774
 20
-20.4945031767
 10
-7.0722493081
 20
-20.5005991301
 10
-7.0737275607
 20
-20.5029411627
  0
LINE
  5
54F
100
AcDbEntity
  8
0
100
AcDbLine
 62
250
  6
CONTINUOUS
 10
-6.9863570321
 20
-20.4113810726
 11
-7.0288133907
 21
-20.4545470003
  0
LINE
  5
550
100
AcDbEntity
  8
ASSI
100
AcDbLine
 62
250
  6
CONTINUOUS
 10
-6.9863570321
 20
-20.4113810726
 11
-7.0288133907
 21
-20.4545470003
  0
LINE
  5
551
100
AcDbEntity
  8
0
100
AcDbLine
 62
250
  6
CONTINUOUS
 10
-6.9016649953
 20
-20.32646463
 11
-6.9863570321
 21
-20.4113810726
  0
LINE
  5
552
100
AcDbEntity
  8
ASSI
100
AcDbLine
 62
250
  6
CONTINUOUS
 10
-6.9016649953
 20
-20.32646463
 11
-6.9863570321
 21
-20.4113810726
  0
LWPOLYLINE
  5
553
100
AcDbEntity
  8
0
100
AcDbPolyline
 62
250
  6
CONTINUOUS
 90
3
 70
0
 10
-6.7258285376
 20
-20.1524865323
 10
-6.7627555901
 20
-20.1888319474
 10
-6.9016649953
 20
-20.32646463
  0
LWPOLYLINE
  5
554
100
AcDbEntity
  8
ASSI
100
AcDbPolyline
 62
250
  6
CONTINUOUS
 90
3
 70
0
 10
-6.7258285376
 20
-20.1524865323
 10
-6.7627555901
 20
-20.1888319474
 10
-6.9016649953
 20
-20.32646463
  0
LINE
  5
555
100
AcDbEntity
  8
CURVE
100
AcDbLine
 62
250
  6
CONTINUOUS
 10
-3.2828332533
 20
-15.3125
 11
-3.6994364721
 21
-15.625
  0
LINE
  5
556
100
AcDbEntity
  8
CURVE
100
AcDbLine
 62
250
  6
CONTINUOUS
 10
-4.4278969102
 20
9.1071431637
 11
-5.0706561491
 21
9.1071431637
  0
LINE
  5
557
100
AcDbEntity
  8
CURVE
100
AcDbLine
 62
250
  6
CONTINUOUS
 10
-6.927516148
 20
9.1785713434
 11
-7.570275387
 21
9.1785713434
  0
LINE
  5
558
100
AcDbEntity
  8
CURVE
100
AcDbLine
 62
250
  6
CONTINUOUS
 10
-2.4282015422
 20
9.569866474
 11
-1.6783157485
 21
9.569866474
  0
LINE
  5
559
100
AcDbEntity
  8
CURVE
100
AcDbLine
 62
250
  6
CONTINUOUS
 10
-5.0706561491
 20
9.8571431637
 11
-4.4278969102
 21
9.8571431637
  0
LINE
  5
55A
100
AcDbEntity
  8
CURVE
100
AcDbLine
 62
250
  6
CONTINUOUS
 10
-7.570275387
 20
9.9285713434
 11
-6.927516148
 21
9.9285713434
  0
LINE
  5
55B
100
AcDbEntity
  8
CURVE
100
AcDbLine
 62
250
  6
CONTINUOUS
 10
-2.5353280746
 20
9.998437877
 11
-2.1068219227
 21
9.998437877
  0
LINE
  5
55C
100
AcDbEntity
  8
CURVE
100
AcDbLine
 62
250
  6
CONTINUOUS
 10
-7.7845284741
 20
10.3571429253
 11
-7.3560223223
 21
10.3571429253
  0
LINE
  5
55D
100
AcDbEntity
  8
CURVE
100
AcDbLine
 62
250
  6
CONTINUOUS
 10
-5.4991623234
 20
10.5357141495
 11
-4.749276552
 21
10.5357141495
  0
LINE
  5
55E
100
AcDbEntity
  8
CURVE
100
AcDbLine
 62
250
  6
CONTINUOUS
 10
-5.1777827039
 20
11.0357143879
 11
-3.9993907806
 21
10.7142856121
  0
LINE
  5
55F
100
AcDbEntity
  8
CURVE
100
AcDbLine
 62
250
  6
CONTINUOUS
 10
-6.927516148
 20
13.428571403
 11
-6.7132630833
 21
13.321428597
  0
LINE
  5
560
100
AcDbEntity
  8
CURVE
100
AcDbLine
 62
250
  6
CONTINUOUS
 10
-5.0706561491
 20
13.7142857909
 11
-5.2849092362
 21
13.821428597
  0
LINE
  5
561
100
AcDbEntity
  8
0
100
AcDbLine
 62
250
  6
CONTINUOUS
 10
-6.7258285376
 20
20.1524865323
 11
-6.8347417939
 21
20.2599611551
  0
LINE
  5
562
100
AcDbEntity
  8
ASSI
100
AcDbLine
 62
250
  6
CONTINUOUS
 10
-6.7258285376
 20
20.1524865323
 11
-6.8347417939
 21
20.2599611551
  0
LINE
  5
563
100
AcDbEntity
  8
0
100
AcDbLine
 62
250
  6
CONTINUOUS
 10
-6.8347417939
 20
20.2599611551
 11
-6.9323199974
 21
20.3570801491
  0
LINE
  5
564
100
AcDbEntity
  8
ASSI
100
AcDbLine
 62
250
  6
CONTINUOUS
 10
-6.8347417939
 20
20.2599611551
 11
-6.9323199974
 21
20.3570801491
  0
LINE
  5
565
100
AcDbEntity
  8
0
100
AcDbLine
 62
250
  6
CONTINUOUS
 10
-6.9323199974
 20
20.3570801491
 11
-6.9863584838
 21
20.4113825467
  0
LINE
  5
566
100
AcDbEntity
  8
ASSI
100
AcDbLine
 62
250
  6
CONTINUOUS
 10
-6.9323199974
 20
20.3570801491
 11
-6.9863584838
 21
20.4113825467
  0
LWPOLYLINE
  5
567
100
AcDbEntity
  8
0
100
AcDbPolyline
 62
250
  6
CONTINUOUS
 90
7
 70
0
 10
-6.9863584838
 20
20.4113825467
 10
-7.0288142914
 20
20.4545479308
 10
-7.0451061869
 20
20.4713529185
 10
-7.0578610849
 20
20.4847194422
 10
-7.0669414444
 20
20.4945033654
 10
-7.0722493482
 20
20.500599184
 10
-7.073727559
 20
20.5029411645
  0
LWPOLYLINE
  5
568
100
AcDbEntity
  8
ASSI
100
AcDbPolyline
 62
250
  6
CONTINUOUS
 90
7
 70
0
 10
-6.9863584838
 20
20.4113825467
 10
-7.0288142914
 20
20.4545479308
 10
-7.0451061869
 20
20.4713529185
 10
-7.0578610849
 20
20.4847194422
 10
-7.0669414444
 20
20.4945033654
 10
-7.0722493482
 20
20.500599184
 10
-7.073727559
 20
20.5029411645
  0
LINE
  5
569
100
AcDbEntity
  8
0
100
AcDbLine
 62
7
  6
CONTINUOUS
 10
11.1325449351
 20
-21.8997711479
 11
11.1325449351
 21
-17.1196415273
  0
LINE
  5
56A
100
AcDbEntity
  8
ASSI
100
AcDbLine
 62
7
  6
CONTINUOUS
 10
11.1325449351
 20
-21.8997711479
 11
11.1325449351
 21
-17.1196415273
  0
LINE
  5
56B
100
AcDbEntity
  8
0
100
AcDbLine
 62
7
  6
CONTINUOUS
 10
11.1325449351
 20
17.1196415273
 11
11.1325449351
 21
21.8997711479
  0
LINE
  5
56C
100
AcDbEntity
  8
ASSI
100
AcDbLine
 62
7
  6
CONTINUOUS
 10
11.1325449351
 20
17.1196415273
 11
11.1325449351
 21
21.8997711479
  0
LINE
  5
56D
100
AcDbEntity
  8
0
100
AcDbLine
 62
7
  6
CONTINUOUS
 10
11.15
 20
-16.9357864376
 11
11.15
 21
16.9357864376
  0
LINE
  5
56E
100
AcDbEntity
  8
ASSI
100
AcDbLine
 62
7
  6
CONTINUOUS
 10
11.15
 20
-16.9357864376
 11
11.15
 21
16.9357864376
  0
LWPOLYLINE
  5
56F
100
AcDbEntity
  8
0
100
AcDbPolyline
 62
7
  6
CONTINUOUS
 90
14
 70
0
 10
6.5699538307
 20
-19.8188653273
 10
6.5703940576
 20
-19.8169582606
 10
6.5723712998
 20
-19.8065041532
 10
6.5738653214
 20
-19.7964731125
 10
6.574987706
 20
-19.7870370052
 10
6.5757203051
 20
-19.7782606769
 10
6.5760812671
 20
-19.7702285042
 10
6.5762366213
 20
-19.7630909581
 10
6.5761944175
 20
-19.7568985751
 10
6.5759466059
 20
-19.7516837426
 10
6.5756350667
 20
-19.7475135021
 10
6.5753070933
 20
-19.744410251
 10
6.5749153922
 20
-19.742376755
 10
6.5744599635
 20
-19.741424784
  0
LWPOLYLINE
  5
570
100
AcDbEntity
  8
ASSI
100
AcDbPolyline
 62
7
  6
CONTINUOUS
 90
14
 70
0
 10
6.5699538307
 20
-19.8188653273
 10
6.5703940576
 20
-19.8169582606
 10
6.5723712998
 20
-19.8065041532
 10
6.5738653214
 20
-19.7964731125
 10
6.574987706
 20
-19.7870370052
 10
6.5757203051
 20
-19.7782606769
 10
6.5760812671
 20
-19.7702285042
 10
6.5762366213
 20
-19.7630909581
 10
6.5761944175
 20
-19.7568985751
 10
6.5759466059
 20
-19.7516837426
 10
6.5756350667
 20
-19.7475135021
 10
6.5753070933
 20
-19.744410251
 10
6.5749153922
 20
-19.742376755
 10
6.5744599635
 20
-19.741424784
  0
LWPOLYLINE
  5
571
100
AcDbEntity
  8
0
100
AcDbPolyline
 62
250
  6
CONTINUOUS
 90
8
 70
0
 10
5.0349048129
 20
-21.1121154096
 10
5.035768711
 20
-21.109361922
 10
5.0365275786
 20
-21.1011634422
 10
5.0371731047
 20
-21.0876097596
 10
5.0376982195
 20
-21.0688493138
 10
5.0380971718
 20
-21.0450875685
 10
5.0383655925
 20
-21.0165847614
 10
5.0385005416
 20
-20.9466531141
  0
LWPOLYLINE
  5
572
100
AcDbEntity
  8
ASSI
100
AcDbPolyline
 62
250
  6
CONTINUOUS
 90
8
 70
0
 10
5.0349048129
 20
-21.1121154096
 10
5.035768711
 20
-21.109361922
 10
5.0365275786
 20
-21.1011634422
 10
5.0371731047
 20
-21.0876097596
 10
5.0376982195
 20
-21.0688493138
 10
5.0380971718
 20
-21.0450875685
 10
5.0383655925
 20
-21.0165847614
 10
5.0385005416
 20
-20.9466531141
  0
LINE
  5
573
100
AcDbEntity
  8
CURVE
100
AcDbLine
 62
250
  6
CONTINUOUS
 10
-1.9996953903
 20
10.7484377876
 11
-2.5353280746
 21
10.7484377876
  0
LINE
  5
574
100
AcDbEntity
  8
CURVE
100
AcDbLine
 62
250
  6
CONTINUOUS
 10
-7.2488957899
 20
11.1071429253
 11
-7.7845284741
 21
11.1071429253
  0
LINE
  5
575
100
AcDbEntity
  8
CURVE
100
AcDbLine
 62
250
  6
CONTINUOUS
 10
-1.2498096189
 20
11.1770092353
 11
-2.7495811617
 21
11.1770092353
  0
LINE
  5
576
100
AcDbEntity
  8
CURVE
100
AcDbLine
 62
250
  6
CONTINUOUS
 10
-4.4278969102
 20
11.4642856121
 11
-4.2136438454
 21
11.4642856121
  0
LINE
  5
577
100
AcDbEntity
  8
CURVE
100
AcDbLine
 62
250
  6
CONTINUOUS
 10
-2.7495811617
 20
14.6091409468
 11
-1.2498096189
 21
13.909001716
  0
LINE
  5
578
100
AcDbEntity
  8
CURVE
100
AcDbLine
 62
250
  6
CONTINUOUS
 10
-4.4278969102
 20
14.4642857909
 11
-4.2136438454
 21
14.3571428061
  0
LINE
  5
579
100
AcDbEntity
  8
CURVE
100
AcDbLine
 62
250
  6
CONTINUOUS
 10
-5.0706561491
 20
14.8928571939
 11
-5.2849092362
 21
15.0
  0
LINE
  5
57A
100
AcDbEntity
  8
CURVE
100
AcDbLine
 62
250
  6
CONTINUOUS
 10
-4.4278969102
 20
15.6428571045
 11
-4.2136438454
 21
15.5357142985
  0
LINE
  5
57B
100
AcDbEntity
  8
0
100
AcDbLine
 62
7
  6
CONTINUOUS
 10
7.5658752601
 20
-20.7702959239
 11
7.6780257768
 21
-20.4335707644
  0
LINE
  5
57C
100
AcDbEntity
  8
ASSI
100
AcDbLine
 62
7
  6
CONTINUOUS
 10
7.5658752601
 20
-20.7702959239
 11
7.6780257768
 21
-20.4335707644
  0
LINE
  5
57D
100
AcDbEntity
  8
CURVE
100
AcDbLine
 62
250
  6
CONTINUOUS
 10
-6.927516148
 20
12.678571403
 11
-7.570275387
 21
12.678571403
  0
LINE
  5
57E
100
AcDbEntity
  8
CURVE
100
AcDbLine
 62
250
  6
CONTINUOUS
 10
-7.570275387
 20
13.428571403
 11
-6.927516148
 21
13.428571403
  0
LINE
  5
57F
100
AcDbEntity
  8
CURVE
100
AcDbLine
 62
250
  6
CONTINUOUS
 10
-4.4278969102
 20
13.7142857909
 11
-5.0706561491
 21
13.7142857909
  0
LINE
  5
580
100
AcDbEntity
  8
CURVE
100
AcDbLine
 62
250
  6
CONTINUOUS
 10
-7.7845284741
 20
13.8571428508
 11
-7.3560223223
 21
13.8571428508
  0
LINE
  5
581
100
AcDbEntity
  8
CURVE
100
AcDbLine
 62
250
  6
CONTINUOUS
 10
-2.7495811617
 20
15.8546052811
 11
-1.2498096189
 21
15.1544660503
  0
LINE
  5
582
100
AcDbEntity
  8
0
100
AcDbLine
 62
7
  6
CONTINUOUS
 10
7.6780257768
 20
20.4335707644
 11
7.5658752601
 21
20.7702959239
  0
LINE
  5
583
100
AcDbEntity
  8
ASSI
100
AcDbLine
 62
7
  6
CONTINUOUS
 10
7.6780257768
 20
20.4335707644
 11
7.5658752601
 21
20.7702959239
  0
LINE
  5
584
100
AcDbEntity
  8
CURVE
100
AcDbLine
 62
250
  6
CONTINUOUS
 10
-5.0706561491
 20
14.4642857909
 11
-4.4278969102
 21
14.4642857909
  0
LINE
  5
585
100
AcDbEntity
  8
CURVE
100
AcDbLine
 62
250
  6
CONTINUOUS
 10
-7.1417692128
 20
14.5
 11
-6.4990100185
 21
14.5
  0
LINE
  5
586
100
AcDbEntity
  8
CURVE
100
AcDbLine
 62
250
  6
CONTINUOUS
 10
-4.4278969102
 20
14.8928571939
 11
-5.0706561491
 21
14.8928571939
  0
LINE
  5
587
100
AcDbEntity
  8
CURVE
100
AcDbLine
 62
250
  6
CONTINUOUS
 10
-5.0706561491
 20
15.6428571045
 11
-4.4278969102
 21
15.6428571045
  0
LINE
  5
588
100
AcDbEntity
  8
CURVE
100
AcDbLine
 62
250
  6
CONTINUOUS
 10
-1.9996953903
 20
16.75
 11
-1.2498096189
 21
16.3999303846
  0
LINE
  5
589
100
AcDbEntity
  8
0
100
AcDbLine
 62
7
  6
CONTINUOUS
 10
-7.5658752601
 20
-20.7702959239
 11
-7.3855725326
 21
-20.6901924515
  0
LINE
  5
58A
100
AcDbEntity
  8
ASSI
100
AcDbLine
 62
7
  6
CONTINUOUS
 10
-7.5658752601
 20
-20.7702959239
 11
-7.3855725326
 21
-20.6901924515
  0
LINE
  5
58B
100
AcDbEntity
  8
CURVE
100
AcDbLine
 62
250
  6
CONTINUOUS
 10
-3.9993907806
 20
16.0714285523
 11
-5.4991623234
 21
16.0714285523
  0
LINE
  5
58C
100
AcDbEntity
  8
0
100
AcDbLine
 62
250
  6
CONTINUOUS
 10
10.1674524064
 20
16.9357864376
 11
11.15
 21
16.9357864376
  0
LINE
  5
58D
100
AcDbEntity
  8
ASSI
100
AcDbLine
 62
250
  6
CONTINUOUS
 10
10.1674524064
 20
16.9357864376
 11
11.15
 21
16.9357864376
  0
LINE
  5
58E
100
AcDbEntity
  8
0
100
AcDbLine
 62
250
  6
CONTINUOUS
 10
-10.1674524064
 20
16.9357864376
 11
-11.15
 21
16.9357864376
  0
LINE
  5
58F
100
AcDbEntity
  8
ASSI
100
AcDbLine
 62
250
  6
CONTINUOUS
 10
-10.1674524064
 20
16.9357864376
 11
-11.15
 21
16.9357864376
  0
LINE
  5
590
100
AcDbEntity
  8
0
100
AcDbLine
 62
7
  6
CONTINUOUS
 10
-7.5658752601
 20
20.7702959239
 11
-7.3855725326
 21
20.6901924515
  0
LINE
  5
591
100
AcDbEntity
  8
ASSI
100
AcDbLine
 62
7
  6
CONTINUOUS
 10
-7.5658752601
 20
20.7702959239
 11
-7.3855725326
 21
20.6901924515
  0
LINE
  5
592
100
AcDbEntity
  8
0
100
AcDbLine
 62
250
  6
CONTINUOUS
 10
8.55236869
 20
-18.5508701541
 11
10.1674524064
 21
-16.9357864376
  0
LINE
  5
593
100
AcDbEntity
  8
ASSI
100
AcDbLine
 62
250
  6
CONTINUOUS
 10
8.55236869
 20
-18.5508701541
 11
10.1674524064
 21
-16.9357864376
  0
LINE
  5
594
100
AcDbEntity
  8
0
100
AcDbLine
 62
7
  6
CONTINUOUS
 10
7.3916103955
 20
-19.741424784
 11
7.5402505421
 21
-19.5927846374
  0
LINE
  5
595
100
AcDbEntity
  8
ASSI
100
AcDbLine
 62
7
  6
CONTINUOUS
 10
7.3916103955
 20
-19.741424784
 11
7.5402505421
 21
-19.5927846374
  0
LINE
  5
596
100
AcDbEntity
  8
0
100
AcDbLine
 62
7
  6
CONTINUOUS
 10
-4.394403357
 20
-23.1518356242
 11
-4.3820344703
 21
-23.1459378433
  0
LINE
  5
597
100
AcDbEntity
  8
ASSI
100
AcDbLine
 62
7
  6
CONTINUOUS
 10
-4.394403357
 20
-23.1518356242
 11
-4.3820344703
 21
-23.1459378433
  0
LINE
  5
598
100
AcDbEntity
  8
0
100
AcDbLine
 62
7
  6
CONTINUOUS
 10
-4.4067501922
 20
-23.157626077
 11
-4.394403357
 21
-23.1518356242
  0
LINE
  5
599
100
AcDbEntity
  8
ASSI
100
AcDbLine
 62
7
  6
CONTINUOUS
 10
-4.4067501922
 20
-23.157626077
 11
-4.394403357
 21
-23.1518356242
  0
LWPOLYLINE
  5
59A
100
AcDbEntity
  8
0
100
AcDbPolyline
 62
7
  6
CONTINUOUS
 90
3
 70
0
 10
-4.4252307515
 20
-23.1661090841
 10
-4.4190754389
 20
-23.163308785
 10
-4.4067501922
 20
-23.157626077
  0
LWPOLYLINE
  5
59B
100
AcDbEntity
  8
ASSI
100
AcDbPolyline
 62
7
  6
CONTINUOUS
 90
3
 70
0
 10
-4.4252307515
 20
-23.1661090841
 10
-4.4190754389
 20
-23.163308785
 10
-4.4067501922
 20
-23.157626077
  0
LINE
  5
59C
100
AcDbEntity
  8
0
100
AcDbLine
 62
250
  6
CONTINUOUS
 10
0.0
 20
18.7001523048
 11
-8.55236869
 21
18.5508701541
  0
LINE
  5
59D
100
AcDbEntity
  8
ASSI
100
AcDbLine
 62
250
  6
CONTINUOUS
 10
0.0
 20
18.7001523048
 11
-8.55236869
 21
18.5508701541
  0
LINE
  5
59E
100
AcDbEntity
  8
0
100
AcDbLine
 62
250
  6
CONTINUOUS
 10
8.55236869
 20
18.5508701541
 11
0.0
 21
18.7001523048
  0
LINE
  5
59F
100
AcDbEntity
  8
ASSI
100
AcDbLine
 62
250
  6
CONTINUOUS
 10
8.55236869
 20
18.5508701541
 11
0.0
 21
18.7001523048
  0
LINE
  5
5A0
100
AcDbEntity
  8
0
100
AcDbLine
 62
7
  6
CONTINUOUS
 10
-4.4252307515
 20
23.1661090841
 11
-4.4129153067
 21
23.16048107
  0
LINE
  5
5A1
100
AcDbEntity
  8
ASSI
100
AcDbLine
 62
7
  6
CONTINUOUS
 10
-4.4252307515
 20
23.1661090841
 11
-4.4129153067
 21
23.16048107
  0
LINE
  5
5A2
100
AcDbEntity
  8
0
100
AcDbLine
 62
7
  6
CONTINUOUS
 10
-4.4129153067
 20
23.16048107
 11
-4.4005795965
 21
23.154744216
  0
LINE
  5
5A3
100
AcDbEntity
  8
ASSI
100
AcDbLine
 62
7
  6
CONTINUOUS
 10
-4.4129153067
 20
23.16048107
 11
-4.4005795965
 21
23.154744216
  0
LWPOLYLINE
  5
5A4
100
AcDbEntity
  8
0
100
AcDbPolyline
 62
7
  6
CONTINUOUS
 90
3
 70
0
 10
-4.4005795965
 20
23.154744216
 10
-4.3882216465
 20
23.1489001663
 10
-4.3820344703
 20
23.1459378433
  0
LWPOLYLINE
  5
5A5
100
AcDbEntity
  8
ASSI
100
AcDbPolyline
 62
7
  6
CONTINUOUS
 90
3
 70
0
 10
-4.4005795965
 20
23.154744216
 10
-4.3882216465
 20
23.1489001663
 10
-4.3820344703
 20
23.1459378433
  0
LINE
  5
5A6
100
AcDbEntity
  8
0
100
AcDbLine
 62
250
  6
CONTINUOUS
 10
10.1674524064
 20
16.9357864376
 11
8.55236869
 21
18.5508701541
  0
LINE
  5
5A7
100
AcDbEntity
  8
ASSI
100
AcDbLine
 62
250
  6
CONTINUOUS
 10
10.1674524064
 20
16.9357864376
 11
8.55236869
 21
18.5508701541
  0
LINE
  5
5A8
100
AcDbEntity
  8
0
100
AcDbLine
 62
7
  6
CONTINUOUS
 10
7.3916103955
 20
19.741424784
 11
7.5402505421
 21
19.5927846374
  0
LINE
  5
5A9
100
AcDbEntity
  8
ASSI
100
AcDbLine
 62
7
  6
CONTINUOUS
 10
7.3916103955
 20
19.741424784
 11
7.5402505421
 21
19.5927846374
  0
LINE
  5
5AA
100
AcDbEntity
  8
0
100
AcDbLine
 62
7
  6
CONTINUOUS
 10
9.2420230647
 20
-19.2579769353
 11
10.8571067812
 21
-17.6428932188
  0
LINE
  5
5AB
100
AcDbEntity
  8
ASSI
100
AcDbLine
 62
7
  6
CONTINUOUS
 10
9.2420230647
 20
-19.2579769353
 11
10.8571067812
 21
-17.6428932188
  0
LINE
  5
5AC
100
AcDbEntity
  8
0
100
AcDbLine
 62
7
  6
CONTINUOUS
 10
3.8856913861
 20
-21.1321750046
 11
3.7500004362
 21
-21.2
  0
LINE
  5
5AD
100
AcDbEntity
  8
ASSI
100
AcDbLine
 62
7
  6
CONTINUOUS
 10
3.8856913861
 20
-21.1321750046
 11
3.7500004362
 21
-21.2
  0
LINE
  5
5AE
100
AcDbEntity
  8
0
100
AcDbLine
 62
7
  6
CONTINUOUS
 10
-4.4375263939
 20
-23.1716278385
 11
-4.4252307515
 21
-23.1661090841
  0
LINE
  5
5AF
100
AcDbEntity
  8
ASSI
100
AcDbLine
 62
7
  6
CONTINUOUS
 10
-4.4375263939
 20
-23.1716278385
 11
-4.4252307515
 21
-23.1661090841
  0
LINE
  5
5B0
100
AcDbEntity
  8
0
100
AcDbLine
 62
7
  6
CONTINUOUS
 10
2.8751556537
 20
21.1498139714
 11
3.1
 21
21.1720718961
  0
LINE
  5
5B1
100
AcDbEntity
  8
ASSI
100
AcDbLine
 62
7
  6
CONTINUOUS
 10
2.8751556537
 20
21.1498139714
 11
3.1
 21
21.1720718961
  0
LWPOLYLINE
  5
5B2
100
AcDbEntity
  8
0
100
AcDbPolyline
 62
250
  6
CONTINUOUS
 90
13
 70
0
 10
-5.6821314735
 20
20.6008941786
 10
-5.7787474887
 20
20.5960248512
 10
-5.8740854963
 20
20.5851517577
 10
-5.9681454964
 20
20.568274898
 10
-6.0612138156
 20
20.5453356136
 10
-6.1530041272
 20
20.5163925631
 10
-6.2426574516
 20
20.481621722
 10
-6.3301894682
 20
20.4410253969
 10
-6.4155844976
 20
20.3946012813
 10
-6.497936521
 20
20.3425184314
 10
-6.5769435324
 20
20.2848331993
 10
-6.652907538
 20
20.2214892329
 10
-6.7258285376
 20
20.1524865323
  0
LWPOLYLINE
  5
5B3
100
AcDbEntity
  8
ASSI
100
AcDbPolyline
 62
250
  6
CONTINUOUS
 90
13
 70
0
 10
-5.6821314735
 20
20.6008941786
 10
-5.7787474887
 20
20.5960248512
 10
-5.8740854963
 20
20.5851517577
 10
-5.9681454964
 20
20.568274898
 10
-6.0612138156
 20
20.5453356136
 10
-6.1530041272
 20
20.5163925631
 10
-6.2426574516
 20
20.481621722
 10
-6.3301894682
 20
20.4410253969
 10
-6.4155844976
 20
20.3946012813
 10
-6.497936521
 20
20.3425184314
 10
-6.5769435324
 20
20.2848331993
 10
-6.652907538
 20
20.2214892329
 10
-6.7258285376
 20
20.1524865323
  0
LINE
  5
5B4
100
AcDbEntity
  8
0
100
AcDbLine
 62
7
  6
CONTINUOUS
 10
6.5087262032
 20
19.8136102385
 11
-8.55236869
 21
19.5507178492
  0
LINE
  5
5B5
100
AcDbEntity
  8
ASSI
100
AcDbLine
 62
7
  6
CONTINUOUS
 10
6.5087262032
 20
19.8136102385
 11
-8.55236869
 21
19.5507178492
  0
LINE
  5
5B6
100
AcDbEntity
  8
0
100
AcDbLine
 62
250
  6
CONTINUOUS
 10
5.0349048129
 20
20.287808438
 11
0.0
 21
20.1999238476
  0
LINE
  5
5B7
100
AcDbEntity
  8
ASSI
100
AcDbLine
 62
250
  6
CONTINUOUS
 10
5.0349048129
 20
20.287808438
 11
0.0
 21
20.1999238476
  0
LINE
  5
5B8
100
AcDbEntity
  8
0
100
AcDbLine
 62
250
  6
CONTINUOUS
 10
0.0
 20
20.7000761524
 11
-5.6821314735
 21
20.6008941786
  0
LINE
  5
5B9
100
AcDbEntity
  8
ASSI
100
AcDbLine
 62
250
  6
CONTINUOUS
 10
0.0
 20
20.7000761524
 11
-5.6821314735
 21
20.6008941786
  0
LINE
  5
5BA
100
AcDbEntity
  8
0
100
AcDbLine
 62
250
  6
CONTINUOUS
 10
7.0
 20
20.3135340861
 11
5.0349048129
 21
20.287808438
  0
LINE
  5
5BB
100
AcDbEntity
  8
ASSI
100
AcDbLine
 62
250
  6
CONTINUOUS
 10
7.0
 20
20.3135340861
 11
5.0349048129
 21
20.287808438
  0
LINE
  5
5BC
100
AcDbEntity
  8
0
100
AcDbLine
 62
250
  6
CONTINUOUS
 10
7.5402505421
 20
19.5927846374
 11
6.4258198134
 21
19.5927846374
  0
LINE
  5
5BD
100
AcDbEntity
  8
ASSI
100
AcDbLine
 62
250
  6
CONTINUOUS
 10
7.5402505421
 20
19.5927846374
 11
6.4258198134
 21
19.5927846374
  0
LINE
  5
5BE
100
AcDbEntity
  8
0
100
AcDbLine
 62
250
  6
CONTINUOUS
 10
6.5744599635
 20
19.741424784
 11
7.3916103955
 21
19.741424784
  0
LINE
  5
5BF
100
AcDbEntity
  8
ASSI
100
AcDbLine
 62
250
  6
CONTINUOUS
 10
6.5744599635
 20
19.741424784
 11
7.3916103955
 21
19.741424784
  0
LINE
  5
5C0
100
AcDbEntity
  8
0
100
AcDbLine
 62
250
  6
CONTINUOUS
 10
-7.3830351795
 20
20.2413486316
 11
-7.3307938251
 21
20.2413486316
  0
LINE
  5
5C1
100
AcDbEntity
  8
ASSI
100
AcDbLine
 62
250
  6
CONTINUOUS
 10
-7.3830351795
 20
20.2413486316
 11
-7.3307938251
 21
20.2413486316
  0
LINE
  5
5C2
100
AcDbEntity
  8
0
100
AcDbLine
 62
250
  6
CONTINUOUS
 10
6.9941112328
 20
20.2413486316
 11
7.3830351795
 21
20.2413486316
  0
LINE
  5
5C3
100
AcDbEntity
  8
ASSI
100
AcDbLine
 62
250
  6
CONTINUOUS
 10
6.9941112328
 20
20.2413486316
 11
7.3830351795
 21
20.2413486316
  0
LINE
  5
5C4
100
AcDbEntity
  8
0
100
AcDbLine
 62
7
  6
CONTINUOUS
 10
9.4946499221
 20
20.4335707644
 11
7.6780257768
 21
20.4335707644
  0
LINE
  5
5C5
100
AcDbEntity
  8
ASSI
100
AcDbLine
 62
7
  6
CONTINUOUS
 10
9.4946499221
 20
20.4335707644
 11
7.6780257768
 21
20.4335707644
  0
LINE
  5
5C6
100
AcDbEntity
  8
0
100
AcDbLine
 62
7
  6
CONTINUOUS
 10
-7.6780257768
 20
20.4335707644
 11
-9.4946499221
 21
20.4335707644
  0
LINE
  5
5C7
100
AcDbEntity
  8
ASSI
100
AcDbLine
 62
7
  6
CONTINUOUS
 10
-7.6780257768
 20
20.4335707644
 11
-9.4946499221
 21
20.4335707644
  0
LINE
  5
5C8
100
AcDbEntity
  8
0
100
AcDbLine
 62
7
  6
CONTINUOUS
 10
-7.3830351795
 20
20.5448275862
 11
-7.0297347411
 21
20.5448275862
  0
LINE
  5
5C9
100
AcDbEntity
  8
ASSI
100
AcDbLine
 62
7
  6
CONTINUOUS
 10
-7.3830351795
 20
20.5448275862
 11
-7.0297347411
 21
20.5448275862
  0
LINE
  5
5CA
100
AcDbEntity
  8
0
100
AcDbLine
 62
7
  6
CONTINUOUS
 10
7.0
 20
20.5448275862
 11
7.3830351795
 21
20.5448275862
  0
LINE
  5
5CB
100
AcDbEntity
  8
ASSI
100
AcDbLine
 62
7
  6
CONTINUOUS
 10
7.0
 20
20.5448275862
 11
7.3830351795
 21
20.5448275862
  0
LINE
  5
5CC
100
AcDbEntity
  8
0
100
AcDbLine
 62
7
  6
CONTINUOUS
 10
-9.6325449351
 20
20.8475922207
 11
-7.4416531799
 21
20.8475922207
  0
LINE
  5
5CD
100
AcDbEntity
  8
ASSI
100
AcDbLine
 62
7
  6
CONTINUOUS
 10
-9.6325449351
 20
20.8475922207
 11
-7.4416531799
 21
20.8475922207
  0
LINE
  5
5CE
100
AcDbEntity
  8
0
100
AcDbLine
 62
7
  6
CONTINUOUS
 10
7.4416531799
 20
20.8475922207
 11
9.6325449351
 21
20.8475922207
  0
LINE
  5
5CF
100
AcDbEntity
  8
ASSI
100
AcDbLine
 62
7
  6
CONTINUOUS
 10
7.4416531799
 20
20.8475922207
 11
9.6325449351
 21
20.8475922207
  0
LINE
  5
5D0
100
AcDbEntity
  8
0
100
AcDbLine
 62
250
  6
CONTINUOUS
 10
7.0
 20
20.5864659139
 11
5.0349048129
 21
20.612191562
  0
LINE
  5
5D1
100
AcDbEntity
  8
ASSI
100
AcDbLine
 62
250
  6
CONTINUOUS
 10
7.0
 20
20.5864659139
 11
5.0349048129
 21
20.612191562
  0
LINE
  5
5D2
100
AcDbEntity
  8
0
100
AcDbLine
 62
7
  6
CONTINUOUS
 10
8.55236869
 20
19.5507178492
 11
0.0
 21
19.7
  0
LINE
  5
5D3
100
AcDbEntity
  8
ASSI
100
AcDbLine
 62
7
  6
CONTINUOUS
 10
8.55236869
 20
19.5507178492
 11
0.0
 21
19.7
  0
LINE
  5
5D4
100
AcDbEntity
  8
0
100
AcDbLine
 62
7
  6
CONTINUOUS
 10
6.0
 20
19.7952696104
 11
5.7289961631
 21
19.8
  0
LINE
  5
5D5
100
AcDbEntity
  8
ASSI
100
AcDbLine
 62
7
  6
CONTINUOUS
 10
6.0
 20
19.7952696104
 11
5.7289961631
 21
19.8
  0
LINE
  5
5D6
100
AcDbEntity
  8
0
100
AcDbLine
 62
250
  6
CONTINUOUS
 10
5.0349048129
 20
20.612191562
 11
0.0
 21
20.7000761524
  0
LINE
  5
5D7
100
AcDbEntity
  8
ASSI
100
AcDbLine
 62
250
  6
CONTINUOUS
 10
5.0349048129
 20
20.612191562
 11
0.0
 21
20.7000761524
  0
LINE
  5
5D8
100
AcDbEntity
  8
0
100
AcDbLine
 62
7
  6
CONTINUOUS
 10
-3.1
 20
21.1720718961
 11
-2.8751556537
 21
21.1498139714
  0
LINE
  5
5D9
100
AcDbEntity
  8
ASSI
100
AcDbLine
 62
7
  6
CONTINUOUS
 10
-3.1
 20
21.1720718961
 11
-2.8751556537
 21
21.1498139714
  0
LINE
  5
5DA
100
AcDbEntity
  8
0
100
AcDbLine
 62
7
  6
CONTINUOUS
 10
-4.4375263939
 20
23.1716278385
 11
-4.4252307515
 21
23.1661090841
  0
LINE
  5
5DB
100
AcDbEntity
  8
ASSI
100
AcDbLine
 62
7
  6
CONTINUOUS
 10
-4.4375263939
 20
23.1716278385
 11
-4.4252307515
 21
23.1661090841
  0
LINE
  5
5DC
100
AcDbEntity
  8
0
100
AcDbLine
 62
7
  6
CONTINUOUS
 10
3.8856913861
 20
21.1321750046
 11
3.7500004362
 21
21.2
  0
LINE
  5
5DD
100
AcDbEntity
  8
ASSI
100
AcDbLine
 62
7
  6
CONTINUOUS
 10
3.8856913861
 20
21.1321750046
 11
3.7500004362
 21
21.2
  0
LINE
  5
5DE
100
AcDbEntity
  8
0
100
AcDbLine
 62
7
  6
CONTINUOUS
 10
10.8571067812
 20
17.6428932188
 11
9.2420230647
 21
19.2579769353
  0
LINE
  5
5DF
100
AcDbEntity
  8
ASSI
100
AcDbLine
 62
7
  6
CONTINUOUS
 10
10.8571067812
 20
17.6428932188
 11
9.2420230647
 21
19.2579769353
  0
LINE
  5
5E0
100
AcDbEntity
  8
0
100
AcDbLine
 62
7
  6
CONTINUOUS
 10
0.0
 20
21.2
 11
-5.6821314735
 21
21.1008180262
  0
LINE
  5
5E1
100
AcDbEntity
  8
ASSI
100
AcDbLine
 62
7
  6
CONTINUOUS
 10
0.0
 20
21.2
 11
-5.6821314735
 21
21.1008180262
  0
LINE
  5
5E2
100
AcDbEntity
  8
0
100
AcDbLine
 62
7
  6
CONTINUOUS
 10
6.9339198284
 20
21.2
 11
3.1
 21
21.2
  0
LINE
  5
5E3
100
AcDbEntity
  8
ASSI
100
AcDbLine
 62
7
  6
CONTINUOUS
 10
6.9339198284
 20
21.2
 11
3.1
 21
21.2
  0
LINE
  5
5E4
100
AcDbEntity
  8
0
100
AcDbLine
 62
7
  6
CONTINUOUS
 10
-3.1
 20
21.2
 11
-6.9339198284
 21
21.2
  0
LINE
  5
5E5
100
AcDbEntity
  8
ASSI
100
AcDbLine
 62
7
  6
CONTINUOUS
 10
-3.1
 20
21.2
 11
-6.9339198284
 21
21.2
  0
LINE
  5
5E6
100
AcDbEntity
  8
0
100
AcDbLine
 62
7
  6
CONTINUOUS
 10
-2.6768152463
 20
21.5448275862
 11
2.6768152463
 21
21.5448275862
  0
LINE
  5
5E7
100
AcDbEntity
  8
ASSI
100
AcDbLine
 62
7
  6
CONTINUOUS
 10
-2.6768152463
 20
21.5448275862
 11
2.6768152463
 21
21.5448275862
  0
LINE
  5
5E8
100
AcDbEntity
  8
0
100
AcDbLine
 62
7
  6
CONTINUOUS
 10
-3.1
 20
22.2
 11
3.1
 21
22.2
  0
LINE
  5
5E9
100
AcDbEntity
  8
ASSI
100
AcDbLine
 62
7
  6
CONTINUOUS
 10
-3.1
 20
22.2
 11
3.1
 21
22.2
  0
LINE
  5
5EA
100
AcDbEntity
  8
0
100
AcDbLine
 62
7
  6
CONTINUOUS
 10
-10.6329255348
 20
22.4
 11
-5.55
 21
22.4
  0
LINE
  5
5EB
100
AcDbEntity
  8
ASSI
100
AcDbLine
 62
7
  6
CONTINUOUS
 10
-10.6329255348
 20
22.4
 11
-5.55
 21
22.4
  0
LINE
  5
5EC
100
AcDbEntity
  8
0
100
AcDbLine
 62
7
  6
CONTINUOUS
 10
5.55
 20
22.4
 11
10.6329255348
 21
22.4
  0
LINE
  5
5ED
100
AcDbEntity
  8
ASSI
100
AcDbLine
 62
7
  6
CONTINUOUS
 10
5.55
 20
22.4
 11
10.6329255348
 21
22.4
  0
LINE
  5
5EE
100
AcDbEntity
  8
0
100
AcDbLine
 62
7
  6
CONTINUOUS
 10
6.5087262032
 20
21.0863897615
 11
0.0
 21
21.2
  0
LINE
  5
5EF
100
AcDbEntity
  8
ASSI
100
AcDbLine
 62
7
  6
CONTINUOUS
 10
6.5087262032
 20
21.0863897615
 11
0.0
 21
21.2
  0
LINE
  5
5F0
100
AcDbEntity
  8
0
100
AcDbLine
 62
7
  6
CONTINUOUS
 10
3.9526845545
 20
23.4301797403
 11
-3.9526845545
 21
23.4301797403
  0
LINE
  5
5F1
100
AcDbEntity
  8
ASSI
100
AcDbLine
 62
7
  6
CONTINUOUS
 10
3.9526845545
 20
23.4301797403
 11
-3.9526845545
 21
23.4301797403
  0
LINE
  5
5F2
100
AcDbEntity
  8
0
100
AcDbLine
 62
7
  6
CONTINUOUS
 10
3.7094401656
 20
23.4553248057
 11
-3.7094401656
 21
23.4553248057
  0
LINE
  5
5F3
100
AcDbEntity
  8
ASSI
100
AcDbLine
 62
7
  6
CONTINUOUS
 10
3.7094401656
 20
23.4553248057
 11
-3.7094401656
 21
23.4553248057
  0
LINE
  5
5F4
100
AcDbEntity
  8
0
100
AcDbLine
 62
7
  6
CONTINUOUS
 10
3.968176777
 20
23.4825449351
 11
3.7099152947
 21
23.4825449351
  0
LINE
  5
5F5
100
AcDbEntity
  8
ASSI
100
AcDbLine
 62
7
  6
CONTINUOUS
 10
3.968176777
 20
23.4825449351
 11
3.7099152947
 21
23.4825449351
  0
LINE
  5
5F6
100
AcDbEntity
  8
0
100
AcDbLine
 62
7
  6
CONTINUOUS
 10
-3.7099152947
 20
23.4825449351
 11
-3.968176777
 21
23.4825449351
  0
LINE
  5
5F7
100
AcDbEntity
  8
ASSI
100
AcDbLine
 62
7
  6
CONTINUOUS
 10
-3.7099152947
 20
23.4825449351
 11
-3.968176777
 21
23.4825449351
  0
ARC
  5
5F8
100
AcDbEntity
  8
0
100
AcDbCircle
 62
7
  6
CONTINUOUS
 10
-5.6472266606
 20
-19.1011226359
 40
2.0
100
AcDbArc
 50
224.5
 51
269.0
  0
ARC
  5
5F9
100
AcDbEntity
  8
ASSI
100
AcDbCircle
 62
7
  6
CONTINUOUS
 10
-5.6472266606
 20
-19.1011226359
 40
2.0
100
AcDbArc
 50
224.5
 51
269.0
  0
ARC
  5
5FA
100
AcDbEntity
  8
0
100
AcDbCircle
 62
7
  6
CONTINUOUS
 10
-8.5349162836
 20
-18.5508701541
 40
1.0
100
AcDbArc
 50
225.0
 51
269.0
  0
ARC
  5
5FB
100
AcDbEntity
  8
0
100
AcDbCircle
 62
7
  6
CONTINUOUS
 10
-10.15
 20
-16.9357864376
 40
1.0
100
AcDbArc
 50
180.0
 51
225.0
  0
ARC
  5
5FC
100
AcDbEntity
  8
ASSI
100
AcDbCircle
 62
7
  6
CONTINUOUS
 10
-10.15
 20
-16.9357864376
 40
1.0
100
AcDbArc
 50
180.0
 51
225.0
  0
ARC
  5
5FD
100
AcDbEntity
  8
ASSI
100
AcDbCircle
 62
7
  6
CONTINUOUS
 10
-8.5349162836
 20
-18.5508701541
 40
1.0
100
AcDbArc
 50
225.0
 51
269.0
  0
ARC
  5
5FE
100
AcDbEntity
  8
0
100
AcDbCircle
 62
7
  6
CONTINUOUS
 10
-4.95
 20
-23.1
 40
0.5698202597
100
AcDbArc
 50
355.37590331
 51
114.5402378869
  0
ARC
  5
5FF
100
AcDbEntity
  8
ASSI
100
AcDbCircle
 62
7
  6
CONTINUOUS
 10
-4.95
 20
-23.1
 40
0.5698202597
100
AcDbArc
 50
355.37590331
 51
114.5402378869
  0
ARC
  5
600
100
AcDbEntity
  8
0
100
AcDbCircle
 62
7
  6
CONTINUOUS
 10
-4.95
 20
-23.1
 40
0.5174550649
100
AcDbArc
 50
352.0433802355
 51
117.8727609614
  0
ARC
  5
601
100
AcDbEntity
  8
ASSI
100
AcDbCircle
 62
7
  6
CONTINUOUS
 10
-4.95
 20
-23.1
 40
0.5174550649
100
AcDbArc
 50
352.0433802355
 51
117.8727609614
  0
ARC
  5
602
100
AcDbEntity
  8
0
100
AcDbCircle
 62
7
  6
CONTINUOUS
 10
-11.25
 20
0.0
 40
28.0
100
AcDbArc
 50
48.1210511006
 51
53.1301023542
  0
ARC
  5
603
100
AcDbEntity
  8
0
100
AcDbCircle
 62
7
  6
CONTINUOUS
 10
-11.25
 20
0.0
 40
28.0
100
AcDbArc
 50
306.8698976458
 51
311.8789488994
  0
ARC
  5
604
100
AcDbEntity
  8
ASSI
100
AcDbCircle
 62
7
  6
CONTINUOUS
 10
-11.25
 20
0.0
 40
28.0
100
AcDbArc
 50
48.1210511006
 51
53.1301023542
  0
ARC
  5
605
100
AcDbEntity
  8
ASSI
100
AcDbCircle
 62
7
  6
CONTINUOUS
 10
-11.25
 20
0.0
 40
28.0
100
AcDbArc
 50
306.8698976458
 51
311.8789488994
  0
ARC
  5
606
100
AcDbEntity
  8
0
100
AcDbCircle
 62
7
  6
CONTINUOUS
 10
-11.25
 20
0.0
 40
27.9825449351
100
AcDbArc
 50
305.9852916378
 51
306.6427970755
  0
ARC
  5
607
100
AcDbEntity
  8
0
100
AcDbCircle
 62
7
  6
CONTINUOUS
 10
-11.25
 20
0.0
 40
27.9825449351
100
AcDbArc
 50
302.9457937516
 51
304.0985671652
  0
ARC
  5
608
100
AcDbEntity
  8
0
100
AcDbCircle
 62
7
  6
CONTINUOUS
 10
-11.25
 20
0.0
 40
27.9825449351
100
AcDbArc
 50
55.9014328348
 51
57.0542062484
  0
ARC
  5
609
100
AcDbEntity
  8
0
100
AcDbCircle
 62
7
  6
CONTINUOUS
 10
-11.25
 20
0.0
 40
27.9825449351
100
AcDbArc
 50
53.3572029245
 51
54.0147083622
  0
ARC
  5
60A
100
AcDbEntity
  8
ASSI
100
AcDbCircle
 62
7
  6
CONTINUOUS
 10
-11.25
 20
0.0
 40
27.9825449351
100
AcDbArc
 50
305.9852916378
 51
306.6427970755
  0
ARC
  5
60B
100
AcDbEntity
  8
ASSI
100
AcDbCircle
 62
7
  6
CONTINUOUS
 10
-11.25
 20
0.0
 40
27.9825449351
100
AcDbArc
 50
302.9457937516
 51
304.0985671652
  0
ARC
  5
60C
100
AcDbEntity
  8
ASSI
100
AcDbCircle
 62
7
  6
CONTINUOUS
 10
-11.25
 20
0.0
 40
27.9825449351
100
AcDbArc
 50
55.9014328348
 51
57.0542062484
  0
ARC
  5
60D
100
AcDbEntity
  8
ASSI
100
AcDbCircle
 62
7
  6
CONTINUOUS
 10
-11.25
 20
0.0
 40
27.9825449351
100
AcDbArc
 50
53.3572029245
 51
54.0147083622
  0
ARC
  5
60E
100
AcDbEntity
  8
0
100
AcDbCircle
 62
7
  6
CONTINUOUS
 10
-11.25
 20
0.0
 40
27.9301797403
100
AcDbArc
 50
49.3792497998
 51
53.9499886223
  0
ARC
  5
60F
100
AcDbEntity
  8
0
100
AcDbCircle
 62
7
  6
CONTINUOUS
 10
-11.25
 20
0.0
 40
27.9301797403
100
AcDbArc
 50
55.9661525747
 51
57.0224553591
  0
ARC
  5
610
100
AcDbEntity
  8
0
100
AcDbCircle
 62
7
  6
CONTINUOUS
 10
-11.25
 20
0.0
 40
27.9301797403
100
AcDbArc
 50
306.0500113777
 51
310.6207502002
  0
ARC
  5
611
100
AcDbEntity
  8
0
100
AcDbCircle
 62
7
  6
CONTINUOUS
 10
-11.25
 20
0.0
 40
27.9301797403
100
AcDbArc
 50
302.9775446409
 51
304.0338474253
  0
ARC
  5
612
100
AcDbEntity
  8
ASSI
100
AcDbCircle
 62
7
  6
CONTINUOUS
 10
-11.25
 20
0.0
 40
27.9301797403
100
AcDbArc
 50
49.3792497998
 51
53.9499886223
  0
ARC
  5
613
100
AcDbEntity
  8
ASSI
100
AcDbCircle
 62
7
  6
CONTINUOUS
 10
-11.25
 20
0.0
 40
27.9301797403
100
AcDbArc
 50
55.9661525747
 51
57.0224553591
  0
ARC
  5
614
100
AcDbEntity
  8
ASSI
100
AcDbCircle
 62
7
  6
CONTINUOUS
 10
-11.25
 20
0.0
 40
27.9301797403
100
AcDbArc
 50
306.0500113777
 51
310.6207502002
  0
ARC
  5
615
100
AcDbEntity
  8
ASSI
100
AcDbCircle
 62
7
  6
CONTINUOUS
 10
-11.25
 20
0.0
 40
27.9301797403
100
AcDbArc
 50
302.9775446409
 51
304.0338474253
  0
ARC
  5
616
100
AcDbEntity
  8
0
100
AcDbCircle
 62
7
  6
CONTINUOUS
 10
-5.6472266606
 20
19.1011226359
 40
2.0
100
AcDbArc
 50
91.0
 51
135.5
  0
ARC
  5
617
100
AcDbEntity
  8
ASSI
100
AcDbCircle
 62
7
  6
CONTINUOUS
 10
-5.6472266606
 20
19.1011226359
 40
2.0
100
AcDbArc
 50
91.0
 51
135.5
  0
ARC
  5
618
100
AcDbEntity
  8
0
100
AcDbCircle
 62
7
  6
CONTINUOUS
 10
-10.15
 20
16.9357864376
 40
1.0
100
AcDbArc
 50
135.0
 51
180.0
  0
ARC
  5
619
100
AcDbEntity
  8
0
100
AcDbCircle
 62
7
  6
CONTINUOUS
 10
-8.5349162836
 20
18.5508701541
 40
1.0
100
AcDbArc
 50
91.0
 51
135.0
  0
ARC
  5
61A
100
AcDbEntity
  8
ASSI
100
AcDbCircle
 62
7
  6
CONTINUOUS
 10
-8.5349162836
 20
18.5508701541
 40
1.0
100
AcDbArc
 50
91.0
 51
135.0
  0
ARC
  5
61B
100
AcDbEntity
  8
ASSI
100
AcDbCircle
 62
7
  6
CONTINUOUS
 10
-10.15
 20
16.9357864376
 40
1.0
100
AcDbArc
 50
135.0
 51
180.0
  0
ARC
  5
61C
100
AcDbEntity
  8
0
100
AcDbCircle
 62
7
  6
CONTINUOUS
 10
-4.95
 20
23.1
 40
0.5698202597
100
AcDbArc
 50
245.4597621131
 51
4.62409669
  0
ARC
  5
61D
100
AcDbEntity
  8
ASSI
100
AcDbCircle
 62
7
  6
CONTINUOUS
 10
-4.95
 20
23.1
 40
0.5698202597
100
AcDbArc
 50
245.4597621131
 51
4.62409669
  0
ARC
  5
61E
100
AcDbEntity
  8
0
100
AcDbCircle
 62
7
  6
CONTINUOUS
 10
-4.95
 20
23.1
 40
0.5174550649
100
AcDbArc
 50
242.1272390386
 51
7.9566197645
  0
ARC
  5
61F
100
AcDbEntity
  8
ASSI
100
AcDbCircle
 62
7
  6
CONTINUOUS
 10
-4.95
 20
23.1
 40
0.5174550649
100
AcDbArc
 50
242.1272390386
 51
7.9566197645
  0
ARC
  5
620
100
AcDbEntity
  8
0
100
AcDbCircle
 62
7
  6
CONTINUOUS
 10
10.15
 20
-16.9357864376
 40
1.0
100
AcDbArc
 50
315.0
 51
360.0
  0
ARC
  5
621
100
AcDbEntity
  8
0
100
AcDbCircle
 62
7
  6
CONTINUOUS
 10
8.5349162836
 20
-18.5508701541
 40
1.0
100
AcDbArc
 50
271.0
 51
315.0
  0
ARC
  5
622
100
AcDbEntity
  8
ASSI
100
AcDbCircle
 62
7
  6
CONTINUOUS
 10
10.15
 20
-16.9357864376
 40
1.0
100
AcDbArc
 50
315.0
 51
360.0
  0
ARC
  5
623
100
AcDbEntity
  8
ASSI
100
AcDbCircle
 62
7
  6
CONTINUOUS
 10
8.5349162836
 20
-18.5508701541
 40
1.0
100
AcDbArc
 50
271.0
 51
315.0
  0
ARC
  5
624
100
AcDbEntity
  8
0
100
AcDbCircle
 62
7
  6
CONTINUOUS
 10
4.95
 20
-23.1
 40
0.5698202597
100
AcDbArc
 50
65.4597621131
 51
184.62409669
  0
ARC
  5
625
100
AcDbEntity
  8
ASSI
100
AcDbCircle
 62
7
  6
CONTINUOUS
 10
4.95
 20
-23.1
 40
0.5698202597
100
AcDbArc
 50
65.4597621131
 51
184.62409669
  0
ARC
  5
626
100
AcDbEntity
  8
0
100
AcDbCircle
 62
7
  6
CONTINUOUS
 10
4.95
 20
-23.1
 40
0.5174550649
100
AcDbArc
 50
62.1272390386
 51
187.9566197645
  0
ARC
  5
627
100
AcDbEntity
  8
ASSI
100
AcDbCircle
 62
7
  6
CONTINUOUS
 10
4.95
 20
-23.1
 40
0.5174550649
100
AcDbArc
 50
62.1272390386
 51
187.9566197645
  0
ARC
  5
628
100
AcDbEntity
  8
0
100
AcDbCircle
 62
7
  6
CONTINUOUS
 10
6.5
 20
-20.3135340861
 40
0.5
100
AcDbArc
 50
0.0
 51
89.0
  0
ARC
  5
629
100
AcDbEntity
  8
0
100
AcDbCircle
 62
7
  6
CONTINUOUS
 10
6.5
 20
-20.5864659139
 40
0.5
100
AcDbArc
 50
271.0
 51
360.0
  0
ARC
  5
62A
100
AcDbEntity
  8
ASSI
100
AcDbCircle
 62
7
  6
CONTINUOUS
 10
6.5
 20
-20.3135340861
 40
0.5
100
AcDbArc
 50
0.0
 51
89.0
  0
ARC
  5
62B
100
AcDbEntity
  8
ASSI
100
AcDbCircle
 62
7
  6
CONTINUOUS
 10
6.5
 20
-20.5864659139
 40
0.5
100
AcDbArc
 50
271.0
 51
360.0
  0
ARC
  5
62C
100
AcDbEntity
  8
0
100
AcDbCircle
 62
7
  6
CONTINUOUS
 10
4.95
 20
23.1
 40
0.5698202597
100
AcDbArc
 50
175.37590331
 51
294.5402378869
  0
ARC
  5
62D
100
AcDbEntity
  8
ASSI
100
AcDbCircle
 62
7
  6
CONTINUOUS
 10
4.95
 20
23.1
 40
0.5698202597
100
AcDbArc
 50
175.37590331
 51
294.5402378869
  0
ARC
  5
62E
100
AcDbEntity
  8
0
100
AcDbCircle
 62
7
  6
CONTINUOUS
 10
4.95
 20
23.1
 40
0.5174550649
100
AcDbArc
 50
172.0433802355
 51
297.8727609614
  0
ARC
  5
62F
100
AcDbEntity
  8
ASSI
100
AcDbCircle
 62
7
  6
CONTINUOUS
 10
4.95
 20
23.1
 40
0.5174550649
100
AcDbArc
 50
172.0433802355
 51
297.8727609614
  0
ARC
  5
630
100
AcDbEntity
  8
0
100
AcDbCircle
 62
7
  6
CONTINUOUS
 10
6.5
 20
20.3135340861
 40
0.5
100
AcDbArc
 50
271.0
 51
360.0
  0
ARC
  5
631
100
AcDbEntity
  8
0
100
AcDbCircle
 62
7
  6
CONTINUOUS
 10
6.5
 20
20.5864659139
 40
0.5
100
AcDbArc
 50
0.0
 51
89.0
  0
ARC
  5
632
100
AcDbEntity
  8
ASSI
100
AcDbCircle
 62
7
  6
CONTINUOUS
 10
6.5
 20
20.3135340861
 40
0.5
100
AcDbArc
 50
271.0
 51
360.0
  0
ARC
  5
633
100
AcDbEntity
  8
ASSI
100
AcDbCircle
 62
7
  6
CONTINUOUS
 10
6.5
 20
20.5864659139
 40
0.5
100
AcDbArc
 50
0.0
 51
89.0
  0
ARC
  5
634
100
AcDbEntity
  8
0
100
AcDbCircle
 62
7
  6
CONTINUOUS
 10
11.25
 20
0.0
 40
28.0
100
AcDbArc
 50
228.1210511006
 51
233.1301023542
  0
ARC
  5
635
100
AcDbEntity
  8
0
100
AcDbCircle
 62
7
  6
CONTINUOUS
 10
11.25
 20
0.0
 40
28.0
100
AcDbArc
 50
126.8698976458
 51
131.8789488994
  0
ARC
  5
636
100
AcDbEntity
  8
ASSI
100
AcDbCircle
 62
7
  6
CONTINUOUS
 10
11.25
 20
0.0
 40
28.0
100
AcDbArc
 50
228.1210511006
 51
233.1301023542
  0
ARC
  5
637
100
AcDbEntity
  8
ASSI
100
AcDbCircle
 62
7
  6
CONTINUOUS
 10
11.25
 20
0.0
 40
28.0
100
AcDbArc
 50
126.8698976458
 51
131.8789488994
  0
ARC
  5
638
100
AcDbEntity
  8
0
100
AcDbCircle
 62
7
  6
CONTINUOUS
 10
11.25
 20
0.0
 40
27.9825449351
100
AcDbArc
 50
235.9014328348
 51
237.0542062484
  0
ARC
  5
639
100
AcDbEntity
  8
0
100
AcDbCircle
 62
7
  6
CONTINUOUS
 10
11.25
 20
0.0
 40
27.9825449351
100
AcDbArc
 50
233.3572029245
 51
234.0147083622
  0
ARC
  5
63A
100
AcDbEntity
  8
0
100
AcDbCircle
 62
7
  6
CONTINUOUS
 10
11.25
 20
0.0
 40
27.9825449351
100
AcDbArc
 50
125.9852916378
 51
126.6427970755
  0
ARC
  5
63B
100
AcDbEntity
  8
0
100
AcDbCircle
 62
7
  6
CONTINUOUS
 10
11.25
 20
0.0
 40
27.9825449351
100
AcDbArc
 50
122.9457937516
 51
124.0985671652
  0
ARC
  5
63C
100
AcDbEntity
  8
ASSI
100
AcDbCircle
 62
7
  6
CONTINUOUS
 10
11.25
 20
0.0
 40
27.9825449351
100
AcDbArc
 50
235.9014328348
 51
237.0542062484
  0
ARC
  5
63D
100
AcDbEntity
  8
ASSI
100
AcDbCircle
 62
7
  6
CONTINUOUS
 10
11.25
 20
0.0
 40
27.9825449351
100
AcDbArc
 50
233.3572029245
 51
234.0147083622
  0
ARC
  5
63E
100
AcDbEntity
  8
ASSI
100
AcDbCircle
 62
7
  6
CONTINUOUS
 10
11.25
 20
0.0
 40
27.9825449351
100
AcDbArc
 50
125.9852916378
 51
126.6427970755
  0
ARC
  5
63F
100
AcDbEntity
  8
ASSI
100
AcDbCircle
 62
7
  6
CONTINUOUS
 10
11.25
 20
0.0
 40
27.9825449351
100
AcDbArc
 50
122.9457937516
 51
124.0985671652
  0
ARC
  5
640
100
AcDbEntity
  8
0
100
AcDbCircle
 62
7
  6
CONTINUOUS
 10
11.25
 20
0.0
 40
27.9301797403
100
AcDbArc
 50
122.9775446409
 51
124.0338474253
  0
ARC
  5
641
100
AcDbEntity
  8
0
100
AcDbCircle
 62
7
  6
CONTINUOUS
 10
11.25
 20
0.0
 40
27.9301797403
100
AcDbArc
 50
126.0500113777
 51
130.6207502002
  0
ARC
  5
642
100
AcDbEntity
  8
0
100
AcDbCircle
 62
7
  6
CONTINUOUS
 10
11.25
 20
0.0
 40
27.9301797403
100
AcDbArc
 50
235.9661525747
 51
237.0224553591
  0
ARC
  5
643
100
AcDbEntity
  8
0
100
AcDbCircle
 62
7
  6
CONTINUOUS
 10
11.25
 20
0.0
 40
27.9301797403
100
AcDbArc
 50
229.3792497998
 51
233.9499886223
  0
ARC
  5
644
100
AcDbEntity
  8
ASSI
100
AcDbCircle
 62
7
  6
CONTINUOUS
 10
11.25
 20
0.0
 40
27.9301797403
100
AcDbArc
 50
122.9775446409
 51
124.0338474253
  0
ARC
  5
645
100
AcDbEntity
  8
ASSI
100
AcDbCircle
 62
7
  6
CONTINUOUS
 10
11.25
 20
0.0
 40
27.9301797403
100
AcDbArc
 50
126.0500113777
 51
130.6207502002
  0
ARC
  5
646
100
AcDbEntity
  8
ASSI
100
AcDbCircle
 62
7
  6
CONTINUOUS
 10
11.25
 20
0.0
 40
27.9301797403
100
AcDbArc
 50
235.9661525747
 51
237.0224553591
  0
ARC
  5
647
100
AcDbEntity
  8
ASSI
100
AcDbCircle
 62
7
  6
CONTINUOUS
 10
11.25
 20
0.0
 40
27.9301797403
100
AcDbArc
 50
229.3792497998
 51
233.9499886223
  0
ARC
  5
648
100
AcDbEntity
  8
0
100
AcDbCircle
 62
7
  6
CONTINUOUS
 10
8.5349162836
 20
18.5508701541
 40
1.0
100
AcDbArc
 50
45.0
 51
89.0
  0
ARC
  5
649
100
AcDbEntity
  8
0
100
AcDbCircle
 62
7
  6
CONTINUOUS
 10
10.15
 20
16.9357864376
 40
1.0
100
AcDbArc
 50
0.0
 51
45.0
  0
ARC
  5
64A
100
AcDbEntity
  8
ASSI
100
AcDbCircle
 62
7
  6
CONTINUOUS
 10
8.5349162836
 20
18.5508701541
 40
1.0
100
AcDbArc
 50
45.0
 51
89.0
  0
ARC
  5
64B
100
AcDbEntity
  8
ASSI
100
AcDbCircle
 62
7
  6
CONTINUOUS
 10
10.15
 20
16.9357864376
 40
1.0
100
AcDbArc
 50
0.0
 51
45.0
  0
ELLIPSE
  5
64C
100
AcDbEntity
  8
0
100
AcDbEllipse
 62
7
  6
CONTINUOUS
 10
-11.25
 20
13.2842221599
 30
0.0
 11
-0.0
 21
39.8850755219
 31
0.0
 40
0.942904759
 41
-2.6814519603
 42
-2.6785018392
  0
ELLIPSE
  5
64D
100
AcDbEntity
  8
0
100
AcDbEllipse
 62
7
  6
CONTINUOUS
 10
11.25
 20
13.2842221599
 30
0.0
 11
-0.0
 21
39.8850755219
 31
0.0
 40
0.942904759
 41
-3.604683468
 42
-3.6017333469
  0
ELLIPSE
  5
64E
100
AcDbEntity
  8
0
100
AcDbEllipse
 62
7
  6
CONTINUOUS
 10
11.25
 20
-13.2842221599
 30
0.0
 11
-0.0
 21
39.8850755219
 31
0.0
 40
0.942904759
 41
0.4601406933
 42
0.4630908144
  0
ELLIPSE
  5
64F
100
AcDbEntity
  8
0
100
AcDbEllipse
 62
7
  6
CONTINUOUS
 10
-11.25
 20
-13.2842221599
 30
0.0
 11
-0.0
 21
39.8850755219
 31
0.0
 40
0.942904759
 41
-0.4630908144
 42
-0.4601406933
  0
ELLIPSE
  5
650
100
AcDbEntity
  8
0
100
AcDbEllipse
 62
7
  6
CONTINUOUS
 10
10.632468771
 20
-21.899313827
 30
0.0
 11
0.1582391023
 21
-0.4751033573
 31
0.0
 40
0.9984778551
 41
-0.3210503505
 42
1.2488325878
  0
ELLIPSE
  5
651
100
AcDbEntity
  8
0
100
AcDbEllipse
 62
7
  6
CONTINUOUS
 10
10.632468771
 20
21.899313827
 30
0.0
 11
0.1582391023
 21
0.4751033573
 31
0.0
 40
0.9984778551
 41
-1.2488325878
 42
0.3210503505
  0
ELLIPSE
  5
652
100
AcDbEntity
  8
0
100
AcDbEllipse
 62
7
  6
CONTINUOUS
 10
-10.632468771
 20
21.899313827
 30
0.0
 11
-0.1582391023
 21
0.4751033573
 31
0.0
 40
0.9984778551
 41
-0.3210503505
 42
1.2488325878
  0
ELLIPSE
  5
653
100
AcDbEntity
  8
0
100
AcDbEllipse
 62
7
  6
CONTINUOUS
 10
-10.632468771
 20
-21.899313827
 30
0.0
 11
0.1582391023
 21
0.4751033573
 31
0.0
 40
0.9984778551
 41
-4.3904252414
 42
-2.8205423031
  0
ELLIPSE
  5
654
100
AcDbEntity
  8
0
100
AcDbEllipse
 62
7
  6
CONTINUOUS
 10
7.5399459092
 20
18.5929369422
 30
0.0
 11
0.0
 21
1.0
 31
0.0
 40
0.0174550649
 41
-0.2217692512
 42
-0.0174532925
  0
ELLIPSE
  5
655
100
AcDbEntity
  8
0
100
AcDbEllipse
 62
7
  6
CONTINUOUS
 10
7.5399459092
 20
-18.5929369422
 30
0.0
 11
-0.0
 21
1.0
 31
0.0
 40
0.0174550649
 41
-3.1241393611
 42
-2.9198234022
  0
ELLIPSE
  5
656
100
AcDbEntity
  8
0
100
AcDbEllipse
 62
7
  6
CONTINUOUS
 10
-11.25
 20
13.0905257472
 30
0.0
 11
-0.0
 21
39.3035137298
 31
0.0
 40
0.942904759
 41
-2.6129414362
 42
-2.6090551255
  0
ELLIPSE
  5
657
100
AcDbEntity
  8
0
100
AcDbEllipse
 62
7
  6
CONTINUOUS
 10
11.25
 20
0.4798863323
 30
0.0
 11
-0.0
 21
27.4926695633
 31
0.0
 40
0.9998476487
 41
7.0003693037
 42
7.0281436029
  0
ELLIPSE
  5
658
100
AcDbEntity
  8
0
100
AcDbEllipse
 62
7
  6
CONTINUOUS
 10
-11.25
 20
0.4798863323
 30
0.0
 11
0.0
 21
27.4926695633
 31
0.0
 40
0.9998476487
 41
5.5382270115
 42
5.5660013106
  0
ELLIPSE
  5
659
100
AcDbEntity
  8
0
100
AcDbEllipse
 62
7
  6
CONTINUOUS
 10
11.25
 20
13.0905257472
 30
0.0
 11
-0.0
 21
39.3035137298
 31
0.0
 40
0.942904759
 41
-3.6741301817
 42
-3.670243871
  0
ELLIPSE
  5
65A
100
AcDbEntity
  8
0
100
AcDbEllipse
 62
7
  6
CONTINUOUS
 10
-11.25
 20
-0.4798863323
 30
0.0
 11
-0.0
 21
27.4926695633
 31
0.0
 40
0.9998476487
 41
3.8587766502
 42
3.8865509493
  0
ELLIPSE
  5
65B
100
AcDbEntity
  8
0
100
AcDbEllipse
 62
7
  6
CONTINUOUS
 10
11.25
 20
-0.4798863323
 30
0.0
 11
-0.0
 21
27.4926695633
 31
0.0
 40
0.9998476487
 41
2.3966343579
 42
2.424408657
  0
ELLIPSE
  5
65C
100
AcDbEntity
  8
0
100
AcDbEllipse
 62
7
  6
CONTINUOUS
 10
7.391762712
 20
20.2413486316
 30
0.0
 11
-0.0
 21
0.5
 31
0.0
 40
0.0174550649
 41
-4.7123889804
 42
-3.1590459461
  0
ELLIPSE
  5
65D
100
AcDbEntity
  8
0
100
AcDbEllipse
 62
7
  6
CONTINUOUS
 10
-7.391762712
 20
20.2413486316
 30
0.0
 11
0.0
 21
0.5
 31
0.0
 40
0.0174550649
 41
-1.6774486984
 42
-1.5707963268
  0
ELLIPSE
  5
65E
100
AcDbEntity
  8
0
100
AcDbEllipse
 62
7
  6
CONTINUOUS
 10
-7.391762712
 20
-20.2413486316
 30
0.0
 11
0.0
 21
0.5
 31
0.0
 40
0.0174550649
 41
-1.5707963268
 42
-1.4641439552
  0
ELLIPSE
  5
65F
100
AcDbEntity
  8
0
100
AcDbEllipse
 62
7
  6
CONTINUOUS
 10
7.391762712
 20
-20.2413486316
 30
0.0
 11
0.0
 21
0.5
 31
0.0
 40
0.0174550649
 41
0.0174532925
 42
1.5707963268
  0
ELLIPSE
  5
660
100
AcDbEntity
  8
0
100
AcDbEllipse
 62
7
  6
CONTINUOUS
 10
5.9879988838
 20
-19.4549637043
 30
0.0
 11
-0.2121966568
 21
0.2121966568
 31
0.0
 40
0.9996954599
 41
2.3960612285
 42
3.4572773098
  0
ELLIPSE
  5
661
100
AcDbEntity
  8
0
100
AcDbEllipse
 62
7
  6
CONTINUOUS
 10
5.9879988838
 20
19.4549637043
 30
0.0
 11
0.2121966568
 21
0.2121966568
 31
0.0
 40
0.9996954599
 41
-0.3156846562
 42
0.7455314251
  0
ELLIPSE
  5
662
100
AcDbEntity
  8
0
100
AcDbEllipse
 62
7
  6
CONTINUOUS
 10
-11.25
 20
-13.0905257472
 30
0.0
 11
-0.0
 21
39.3035137298
 31
0.0
 40
0.942904759
 41
-0.5325375281
 42
-0.5286512174
  0
ELLIPSE
  5
663
100
AcDbEntity
  8
0
100
AcDbEllipse
 62
7
  6
CONTINUOUS
 10
11.25
 20
-13.0905257472
 30
0.0
 11
0.0
 21
39.3035137298
 31
0.0
 40
0.942904759
 41
0.5286512174
 42
0.5325375281
  0
ELLIPSE
  5
664
100
AcDbEntity
  8
ASSI
100
AcDbEllipse
 62
7
  6
CONTINUOUS
 10
-11.25
 20
13.2842221599
 30
0.0
 11
-0.0
 21
39.8850755219
 31
0.0
 40
0.942904759
 41
-2.6814519603
 42
-2.6785018392
  0
ELLIPSE
  5
665
100
AcDbEntity
  8
ASSI
100
AcDbEllipse
 62
7
  6
CONTINUOUS
 10
11.25
 20
13.2842221599
 30
0.0
 11
-0.0
 21
39.8850755219
 31
0.0
 40
0.942904759
 41
-3.604683468
 42
-3.6017333469
  0
ELLIPSE
  5
666
100
AcDbEntity
  8
ASSI
100
AcDbEllipse
 62
7
  6
CONTINUOUS
 10
11.25
 20
-13.2842221599
 30
0.0
 11
0.0
 21
39.8850755219
 31
0.0
 40
0.942904759
 41
0.4601406933
 42
0.4630908144
  0
ELLIPSE
  5
667
100
AcDbEntity
  8
ASSI
100
AcDbEllipse
 62
7
  6
CONTINUOUS
 10
-11.25
 20
-13.2842221599
 30
0.0
 11
0.0
 21
39.8850755219
 31
0.0
 40
0.942904759
 41
-0.4630908144
 42
-0.4601406933
  0
ELLIPSE
  5
668
100
AcDbEntity
  8
ASSI
100
AcDbEllipse
 62
7
  6
CONTINUOUS
 10
10.632468771
 20
-21.899313827
 30
0.0
 11
0.1582391023
 21
-0.4751033573
 31
0.0
 40
0.9984778551
 41
-0.3210503505
 42
1.2488325878
  0
ELLIPSE
  5
669
100
AcDbEntity
  8
ASSI
100
AcDbEllipse
 62
7
  6
CONTINUOUS
 10
10.632468771
 20
21.899313827
 30
0.0
 11
0.1582391023
 21
0.4751033573
 31
0.0
 40
0.9984778551
 41
-1.2488325878
 42
0.3210503505
  0
ELLIPSE
  5
66A
100
AcDbEntity
  8
ASSI
100
AcDbEllipse
 62
7
  6
CONTINUOUS
 10
-10.632468771
 20
21.899313827
 30
0.0
 11
-0.1582391023
 21
0.4751033573
 31
0.0
 40
0.9984778551
 41
-0.3210503505
 42
1.2488325878
  0
ELLIPSE
  5
66B
100
AcDbEntity
  8
ASSI
100
AcDbEllipse
 62
7
  6
CONTINUOUS
 10
-10.632468771
 20
-21.899313827
 30
0.0
 11
0.1582391023
 21
0.4751033573
 31
0.0
 40
0.9984778551
 41
-4.3904252414
 42
-2.8205423031
  0
ELLIPSE
  5
66C
100
AcDbEntity
  8
ASSI
100
AcDbEllipse
 62
7
  6
CONTINUOUS
 10
7.5399459092
 20
18.5929369422
 30
0.0
 11
0.0
 21
1.0
 31
0.0
 40
0.0174550649
 41
-0.2217692512
 42
-0.0174532925
  0
ELLIPSE
  5
66D
100
AcDbEntity
  8
ASSI
100
AcDbEllipse
 62
7
  6
CONTINUOUS
 10
7.5399459092
 20
-18.5929369422
 30
0.0
 11
0.0
 21
1.0
 31
0.0
 40
0.0174550649
 41
-3.1241393611
 42
-2.9198234022
  0
ELLIPSE
  5
66E
100
AcDbEntity
  8
ASSI
100
AcDbEllipse
 62
7
  6
CONTINUOUS
 10
-11.25
 20
13.0905257472
 30
0.0
 11
0.0
 21
39.3035137298
 31
0.0
 40
0.942904759
 41
-2.6129414362
 42
-2.6090551255
  0
ELLIPSE
  5
66F
100
AcDbEntity
  8
ASSI
100
AcDbEllipse
 62
7
  6
CONTINUOUS
 10
11.25
 20
13.0905257472
 30
0.0
 11
-0.0
 21
39.3035137298
 31
0.0
 40
0.942904759
 41
-3.6741301817
 42
-3.670243871
  0
ELLIPSE
  5
670
100
AcDbEntity
  8
ASSI
100
AcDbEllipse
 62
7
  6
CONTINUOUS
 10
5.9879988838
 20
-19.4549637043
 30
0.0
 11
-0.2121966568
 21
0.2121966568
 31
0.0
 40
0.9996954599
 41
8.6792465356
 42
9.740462617
  0
ELLIPSE
  5
671
100
AcDbEntity
  8
ASSI
100
AcDbEllipse
 62
7
  6
CONTINUOUS
 10
11.25
 20
0.4798863323
 30
0.0
 11
-0.0
 21
27.4926695633
 31
0.0
 40
0.9998476487
 41
7.0003693037
 42
7.0281436029
  0
ELLIPSE
  5
672
100
AcDbEntity
  8
ASSI
100
AcDbEllipse
 62
7
  6
CONTINUOUS
 10
-11.25
 20
0.4798863323
 30
0.0
 11
0.0
 21
27.4926695633
 31
0.0
 40
0.9998476487
 41
5.5382270115
 42
5.5660013106
  0
ELLIPSE
  5
673
100
AcDbEntity
  8
ASSI
100
AcDbEllipse
 62
7
  6
CONTINUOUS
 10
5.9879988838
 20
19.4549637043
 30
0.0
 11
0.2121966568
 21
0.2121966568
 31
0.0
 40
0.9996954599
 41
-0.3156846562
 42
0.7491369571
  0
ELLIPSE
  5
674
100
AcDbEntity
  8
ASSI
100
AcDbEllipse
 62
7
  6
CONTINUOUS
 10
-11.25
 20
-0.4798863323
 30
0.0
 11
-0.0
 21
27.4926695633
 31
0.0
 40
0.9998476487
 41
3.8587766502
 42
3.8865509493
  0
ELLIPSE
  5
675
100
AcDbEntity
  8
ASSI
100
AcDbEllipse
 62
7
  6
CONTINUOUS
 10
11.25
 20
-0.4798863323
 30
0.0
 11
0.0
 21
27.4926695633
 31
0.0
 40
0.9998476487
 41
2.3966343579
 42
2.424408657
  0
ELLIPSE
  5
676
100
AcDbEntity
  8
ASSI
100
AcDbEllipse
 62
7
  6
CONTINUOUS
 10
7.391762712
 20
20.2413486316
 30
0.0
 11
-0.0
 21
0.5
 31
0.0
 40
0.0174550649
 41
-4.7123889804
 42
-3.1590459461
  0
ELLIPSE
  5
677
100
AcDbEntity
  8
ASSI
100
AcDbEllipse
 62
7
  6
CONTINUOUS
 10
-7.391762712
 20
20.2413486316
 30
0.0
 11
0.0
 21
0.5
 31
0.0
 40
0.0174550649
 41
-1.6774486984
 42
-1.5707963268
  0
ELLIPSE
  5
678
100
AcDbEntity
  8
ASSI
100
AcDbEllipse
 62
7
  6
CONTINUOUS
 10
-7.391762712
 20
-20.2413486316
 30
0.0
 11
0.0
 21
0.5
 31
0.0
 40
0.0174550649
 41
-1.5707963268
 42
-1.4641439552
  0
ELLIPSE
  5
679
100
AcDbEntity
  8
ASSI
100
AcDbEllipse
 62
7
  6
CONTINUOUS
 10
7.391762712
 20
-20.2413486316
 30
0.0
 11
0.0
 21
0.5
 31
0.0
 40
0.0174550649
 41
0.0174532925
 42
1.5707963268
  0
ELLIPSE
  5
67A
100
AcDbEntity
  8
ASSI
100
AcDbEllipse
 62
7
  6
CONTINUOUS
 10
-11.25
 20
-13.0905257472
 30
0.0
 11
-0.0
 21
39.3035137298
 31
0.0
 40
0.942904759
 41
-0.5325375281
 42
-0.5286512174
  0
ELLIPSE
  5
67B
100
AcDbEntity
  8
ASSI
100
AcDbEllipse
 62
7
  6
CONTINUOUS
 10
11.25
 20
-13.0905257472
 30
0.0
 11
-0.0
 21
39.3035137298
 31
0.0
 40
0.942904759
 41
0.5286512174
 42
0.5325375281
  0
ENDSEC
  0
SECTION
  2
OBJECTS
  0
DICTIONARY
  5
C
100
AcDbDictionary
280
0
281
1
  3
ACAD_GROUP
350
D
  3
ACAD_MLINESTYLE
350
17
  3
ACAD_LAYOUT
350
1A
  3
ACAD_PLOTSETTINGS
350
19
  3
ACAD_PLOTSTYLENAME
350
E
  0
DICTIONARY
  5
D
102
{ACAD_REACTORS
330
C
102
}
100
AcDbDictionary
280
0
281
1
  0
ACDBDICTIONARYWDFLT
  5
E
102
{ACAD_REACTORS
330
C
102
}
100
AcDbDictionary
281
1
  3
Normal
350
F
100
AcDbDictionaryWithDefault
340
F
  0
DICTIONARY
  5
17
102
{ACAD_REACTORS
330
C
102
}
100
AcDbDictionary
280
0
281
1
  3
Standard
350
18
  0
DICTIONARY
  5
19
102
{ACAD_REACTORS
330
C
102
}
100
AcDbDictionary
281
1
  0
DICTIONARY
  5
1A
102
{ACAD_REACTORS
330
C
102
}
100
AcDbDictionary
281
1
  3
Model
350
67C
  3
Layout1
350
67D
  0
ACDBPLACEHOLDER
  5
F
102
{ACAD_REACTORS
330
E
102
}
  0
MLINESTYLE
  5
18
102
{ACAD_REACTORS
330
17
102
}
100
AcDbMlineStyle
  2
STANDARD
 70
0
  3

 62
256
 51
90.0
 52
90.0
 71
2
 49
0.5
 62
256
  6
BYLAYER
 49
-0.5
 62
256
  6
BYLAYER
  0
LAYOUT
  5
67C
102
{ACAD_REACTORS
330
1A
102
}
100
AcDbPlotSettings
  1

  2
none_device
  4
ISO_A3_(420.00_x_297.00_MM)
  6

 40
0.0
 41
0.0
 42
0.0
 43
0.0
 44
420.0
 45
297.0
 46
0.0
 47
0.0
 48
0.0
 49
0.0
140
0.0
141
0.0
142
1.0
143
1.0
 70
1024
 72
1
 73
0
 74
0
  7

 75
0
147
1.0
148
0.0
149
0.0
100
AcDbLayout
  1
Model
 70
0
 71
0
 10
0.0
 20
0.0
 11
420.0
 21
297.0
 12
0.0
 22
0.0
 32
0.0
 14
0.0
 24
0.0
 34
0.0
 15
0.0
 25
0.0
 35
0.0
146
0.0
 13
0.0
 23
0.0
 33
0.0
 16
1.0
 26
0.0
 36
0.0
 17
0.0
 27
1.0
 37
0.0
 76
0
330
2A8
345
0
346
0
  0
LAYOUT
  5
67D
102
{ACAD_REACTORS
330
1A
102
}
100
AcDbPlotSettings
  1

  2
none_device
  4
ISO_A3_(420.00_x_297.00_MM)
  6

 40
0.0
 41
0.0
 42
0.0
 43
0.0
 44
420.0
 45
297.0
 46
0.0
 47
0.0
 48
0.0
 49
0.0
140
0.0
141
0.0
142
1.0
143
1.0
 70
0
 72
1
 73
0
 74
0
  7

 75
0
147
1.0
148
0.0
149
0.0
100
AcDbLayout
  1
Layout1
 70
0
 71
1
 10
0.0
 20
0.0
 11
420.0
 21
297.0
 12
0.0
 22
0.0
 32
0.0
 14
0.0
 24
0.0
 34
0.0
 15
0.0
 25
0.0
 35
0.0
146
0.0
 13
0.0
 23
0.0
 33
0.0
 16
1.0
 26
0.0
 36
0.0
 17
0.0
 27
1.0
 37
0.0
 76
0
330
2A9
345
0
346
0
  0
ENDSEC
  0
EOF
