  0
SECTION
  2
HEADER
  9
$ACADVER
  1
AC1024
  9
$DWGCODEPAGE
  3
ANSI_1252
  9
$EXTMAX
 10
297.0
 20
210.0
 30
0.0
  9
$EXTMIN
 10
0.0
 20
0.0
 30
0.0
  9
$LIMMIN
 10
0.0
 20
0.0
  9
$LIMMAX
 10
297.0
 20
210.0
  9
$VIEWCTR
 10
148.5
 20
105.0
  9
$VIEWSIZE
 40
210.0
  9
$CLAYER
  8
0
  9
$LTSCALE
 40
16.335
  9
$CELTYPE
  6
BYLAYER
  9
$DIMSCALE
 40
1.0
  9
$DIMASZ
 40
3.0
  9
$DIMEXO
 40
0.5
  9
$DIMDLI
 40
11.286
  9
$DIMEXE
 40
1.5
  9
$DIMCEN
 40
2.673
  9
$DIMLFAC
 40
1.0
  9
$DIMBLK
  1
_FILLED
  9
$DIMALT
 70
0
  9
$DIMALTF
 40
0.0393700787
  9
$DIMTXT
 40
3.0
  9
$DIMTOL
 70
1
  9
$DIMLIM
 70
0
  9
$DIMTFAC
 40
1.0
  9
$DIMTP
 40
0.01
  9
$DIMTM
 40
0.01
  9
$DIMGAP
 40
0.625
  9
$DIMDSEP
 70
44
  9
$AUNITS
 70
0
  9
$PDMODE
 70
3
  9
$PDSIZE
 40
3.0
  9
$HANDSEED
  5
74F
  9
$TILEMODE
 70
1
  9
$MEASUREMENT
 70
1
  9
$INSUNITS
 70
4
  0
ENDSEC
  0
SECTION
  2
CLASSES
  0
CLASS
  1
ACDBDICTIONARYWDFLT
  2
AcDbDictionaryWithDefault
  3
AutoCAD 2000
 90
0
 91
1
280
0
281
0
  0
CLASS
  1
ACDBPLACEHOLDER
  2
AcDbPlaceHolder
  3
AutoCAD 2000
 90
0
 91
1
280
0
281
0
  0
CLASS
  1
LAYOUT
  2
AcDbLayout
  3
AutoCAD 2000
 90
0
 91
0
280
0
281
0
  0
ENDSEC
  0
SECTION
  2
TABLES
  0
TABLE
  2
VPORT
  5
8
100
AcDbSymbolTable
 70
2
  0
VPORT
  5
1F4
100
AcDbSymbolTableRecord
100
AcDbViewportTableRecord
  2
*ACTIVE
 70
0
 10
0.0
 20
0.0
 11
1.0
 21
1.0
 12
148.5
 22
105.0
 13
0.0
 23
0.0
 14
1.0
 24
1.0
 15
0.0
 25
0.0
 16
0.0
 26
0.0
 36
1.0
 17
0.0
 27
0.0
 37
0.0
 40
210.0
 41
1.4142857143
 42
50.0
 43
0.0
 44
0.0
 50
0.0
 51
0.0
 71
0
 72
100
 73
1
 74
1
 75
0
 76
0
 77
0
 78
0
  0
ENDTAB
  0
TABLE
  2
LTYPE
  5
5
100
AcDbSymbolTable
 70
6
  0
LTYPE
  5
14
100
AcDbSymbolTableRecord
100
AcDbLinetypeTableRecord
  2
BYBLOCK
 70
0
  3

 72
65
 73
0
 40
0.0
  0
LTYPE
  5
15
100
AcDbSymbolTableRecord
100
AcDbLinetypeTableRecord
  2
BYLAYER
 70
0
  3

 72
65
 73
0
 40
0.0
  0
LTYPE
  5
16
100
AcDbSymbolTableRecord
100
AcDbLinetypeTableRecord
  2
CONTINUOUS
 70
64
  3
Solid line
 72
65
 73
0
 40
0.0
  0
LTYPE
  5
1F5
100
AcDbSymbolTableRecord
100
AcDbLinetypeTableRecord
  2
CENTER
 70
64
  3
____ _ ____ _ ____ _ ____ _ ____ _ ____ _ ____
 72
65
 73
4
 40
0.6
 49
0.375
 74
0
 49
-0.075
 74
0
 49
0.075
 74
0
 49
-0.075
 74
0
  0
LTYPE
  5
1F6
100
AcDbSymbolTableRecord
100
AcDbLinetypeTableRecord
  2
HIDDEN
 70
64
  3
- - - - - - - - - - - - - - - - - - - -
 72
65
 73
2
 40
0.2
 49
0.1
 74
0
 49
-0.1
 74
0
  0
LTYPE
  5
1F7
100
AcDbSymbolTableRecord
100
AcDbLinetypeTableRecord
  2
PHANTOM
 70
64
  3
_____ _ _ _____ _ _ _____ _ _ _____
 72
65
 73
6
 40
0.8
 49
0.45
 74
0
 49
-0.05
 74
0
 49
0.1
 74
0
 49
-0.05
 74
0
 49
0.1
 74
0
 49
-0.05
 74
0
  0
LTYPE
  5
1F8
100
AcDbSymbolTableRecord
100
AcDbLinetypeTableRecord
  2
DOT
 70
64
  3
. . . . . . . . . . . . . . . . . . . .
 72
65
 73
2
 40
0.2
 49
0.1
 74
0
 49
-0.1
 74
0
  0
LTYPE
  5
1F9
100
AcDbSymbolTableRecord
100
AcDbLinetypeTableRecord
  2
DASHED
 70
64
  3
- - - - - - - - - - - - - - - - - - - -
 72
65
 73
2
 40
0.2
 49
0.1
 74
0
 49
-0.1
 74
0
  0
ENDTAB
  0
TABLE
  2
LAYER
  5
2
100
AcDbSymbolTable
 70
36
  0
LAYER
  5
10
100
AcDbSymbolTableRecord
100
AcDbLayerTableRecord
  2
0
 70
0
 62
7
  6
CONTINUOUS
370
-3
390
F
  0
LAYER
  5
1FA
100
AcDbSymbolTableRecord
100
AcDbLayerTableRecord
  2
DEFAULT_1
 70
0
 62
7
  6
CENTER
370
-3
390
F
  0
LAYER
  5
1FB
100
AcDbSymbolTableRecord
100
AcDbLayerTableRecord
  2
DEFAULT_2
 70
0
 62
7
  6
HIDDEN
370
-3
390
F
  0
LAYER
  5
1FC
100
AcDbSymbolTableRecord
100
AcDbLayerTableRecord
  2
DEFAULT_3
 70
0
 62
7
  6
PHANTOM
370
-3
390
F
  0
LAYER
  5
1FD
100
AcDbSymbolTableRecord
100
AcDbLayerTableRecord
  2
ASSI
 70
0
 62
7
  6
CONTINUOUS
370
-3
390
F
  0
LAYER
  5
1FE
100
AcDbSymbolTableRecord
100
AcDbLayerTableRecord
  2
COLOR5
 70
0
 62
7
  6
CONTINUOUS
370
-3
390
F
  0
LAYER
  5
1FF
100
AcDbSymbolTableRecord
100
AcDbLayerTableRecord
  2
COORDINATE
 70
0
 62
7
  6
CONTINUOUS
370
-3
390
F
  0
LAYER
  5
200
100
AcDbSymbolTableRecord
100
AcDbLayerTableRecord
  2
COORD_ORIGINE
 70
0
 62
7
  6
CONTINUOUS
370
-3
390
F
  0
LAYER
  5
201
100
AcDbSymbolTableRecord
100
AcDbLayerTableRecord
  2
CURVE
 70
0
 62
7
  6
CONTINUOUS
370
-3
390
F
  0
LAYER
  5
202
100
AcDbSymbolTableRecord
100
AcDbLayerTableRecord
  2
DRAFT
 70
0
 62
7
  6
CONTINUOUS
370
-3
390
F
  0
LAYER
  5
203
100
AcDbSymbolTableRecord
100
AcDbLayerTableRecord
  2
IMPORT_FEATURES
 70
0
 62
7
  6
CONTINUOUS
370
-3
390
F
  0
LAYER
  5
204
100
AcDbSymbolTableRecord
100
AcDbLayerTableRecord
  2
INTF_1
 70
0
 62
7
  6
CONTINUOUS
370
-3
390
F
  0
LAYER
  5
205
100
AcDbSymbolTableRecord
100
AcDbLayerTableRecord
  2
INTF_12
 70
0
 62
7
  6
CONTINUOUS
370
-3
390
F
  0
LAYER
  5
206
100
AcDbSymbolTableRecord
100
AcDbLayerTableRecord
  2
NOTE
 70
0
 62
7
  6
CONTINUOUS
370
-3
390
F
  0
LAYER
  5
207
100
AcDbSymbolTableRecord
100
AcDbLayerTableRecord
  2
PIANI
 70
0
 62
7
  6
CONTINUOUS
370
-3
390
F
  0
LAYER
  5
208
100
AcDbSymbolTableRecord
100
AcDbLayerTableRecord
  2
PIANI_ORIGINE
 70
0
 62
7
  6
CONTINUOUS
370
-3
390
F
  0
LAYER
  5
209
100
AcDbSymbolTableRecord
100
AcDbLayerTableRecord
  2
PUNTI
 70
0
 62
7
  6
CONTINUOUS
370
-3
390
F
  0
LAYER
  5
20A
100
AcDbSymbolTableRecord
100
AcDbLayerTableRecord
  2
RACCORDO
 70
0
 62
7
  6
CONTINUOUS
370
-3
390
F
  0
LAYER
  5
20B
100
AcDbSymbolTableRecord
100
AcDbLayerTableRecord
  2
RGB____0____0____0__
 70
0
 62
7
  6
CONTINUOUS
370
-3
390
F
  0
LAYER
  5
20C
100
AcDbSymbolTableRecord
100
AcDbLayerTableRecord
  2
SMUSSO
 70
0
 62
7
  6
CONTINUOUS
370
-3
390
F
  0
LAYER
  5
20D
100
AcDbSymbolTableRecord
100
AcDbLayerTableRecord
  2
SNAPLINE
 70
0
 62
7
  6
CONTINUOUS
370
-3
390
F
  0
LAYER
  5
20E
100
AcDbSymbolTableRecord
100
AcDbLayerTableRecord
  2
SUPERFICI
 70
0
 62
7
  6
CONTINUOUS
370
-3
390
F
  0
LAYER
  5
20F
100
AcDbSymbolTableRecord
100
AcDbLayerTableRecord
  2
TRASH
 70
0
 62
7
  6
CONTINUOUS
370
-3
390
F
  0
LAYER
  5
210
100
AcDbSymbolTableRecord
100
AcDbLayerTableRecord
  2
XSEC_DATUMS
 70
0
 62
7
  6
CONTINUOUS
370
-3
390
F
  0
ENDTAB
  0
TABLE
  2
STYLE
  5
3
100
AcDbSymbolTable
 70
1
  0
STYLE
  5
11
100
AcDbSymbolTableRecord
100
AcDbTextStyleTableRecord
  2
STANDARD
 70
0
 40
0.0
 41
0.8
 50
0.0
 71
0
 42
0.2
  3
txt
  4

  0
STYLE
  5
211
100
AcDbSymbolTableRecord
100
AcDbTextStyleTableRecord
  2
TEXTSTYLE_1
 70
0
 40
0.0
 41
0.8
 50
0.0
 71
0
 42
0.2
  3
gdt
  4

  0
ENDTAB
  0
TABLE
  2
VIEW
  5
6
100
AcDbSymbolTable
 70
0
  0
ENDTAB
  0
TABLE
  2
UCS
  5
7
100
AcDbSymbolTable
 70
0
  0
ENDTAB
  0
TABLE
  2
APPID
  5
9
100
AcDbSymbolTable
 70
1
  0
APPID
  5
212
100
AcDbSymbolTableRecord
100
AcDbRegAppTableRecord
  2
ACAD
 70
0
  0
ENDTAB
  0
TABLE
  2
BLOCK_RECORD
  5
1
100
AcDbSymbolTable
 70
0
  0
BLOCK_RECORD
  5
213
100
AcDbSymbolTableRecord
100
AcDbBlockTableRecord
  2
*Model_Space
  0
BLOCK_RECORD
  5
214
100
AcDbSymbolTableRecord
100
AcDbBlockTableRecord
  2
*Paper_Space
  0
BLOCK_RECORD
  5
215
100
AcDbSymbolTableRecord
100
AcDbBlockTableRecord
  2
_FILLED
  0
ENDTAB
  0
TABLE
  2
DIMSTYLE
  5
A
100
AcDbSymbolTable
 70
1
100
AcDbDimStyleTable
 71
0
  0
DIMSTYLE
105
216
100
AcDbSymbolTableRecord
100
AcDbDimStyleTableRecord
  2
STANDARD
 70
0
  3

  4

 40
1.0
 41
3.0
 42
0.5
 43
0.38
 44
1.5
 45
0.0
 46
0.0
 47
0.01
 48
0.01
140
3.0
141
0.09
142
0.0
143
25.4
144
1.0
145
0.0
146
1.0
147
0.625
 71
1
 72
0
 73
0
 74
0
 75
0
 76
0
 77
1
 78
8
 79
2
170
0
171
1
172
0
173
0
174
0
175
0
176
0
177
0
178
0
270
2
179
2
271
2
272
2
273
2
274
2
275
0
280
0
281
0
282
0
283
1
284
8
285
0
286
0
287
3
288
0
340
11
278
44
341
215
342
215
343
215
344
215
  0
ENDTAB
  0
ENDSEC
  0
SECTION
  2
BLOCKS
  0
BLOCK
  5
20
100
AcDbEntity
  8
0
100
AcDbBlockBegin
  2
*Model_Space
 70
0
 10
0.0
 20
0.0
 30
0.0
  3
*Model_Space
  1

  0
ENDBLK
  5
21
100
AcDbEntity
  8
0
100
AcDbBlockEnd
  0
BLOCK
  5
1C
100
AcDbEntity
  8
0
100
AcDbBlockBegin
  2
*Paper_Space
 70
0
 10
0.0
 20
0.0
 30
0.0
  3
*Paper_Space
  1

  0
ENDBLK
  5
1D
100
AcDbEntity
  8
0
100
AcDbBlockEnd
  0
BLOCK
  5
217
100
AcDbEntity
  8
0
100
AcDbBlockBegin
  2
_FILLED
 70
64
 10
0.0
 20
0.0
  3
_FILLED
  1

  0
SOLID
  5
218
100
AcDbEntity
  8
0
  6
BYBLOCK
 62
0
100
AcDbTrace
 10
0.0
 20
0.0
 11
-1.0
 21
0.3166666667
 12
-1.0
 22
-0.3166666667
 13
-1.0
 23
-0.3166666667
  0
ENDBLK
  5
219
100
AcDbEntity
  8
0
  6
BYBLOCK
 62
0
100
AcDbBlockEnd
  0
ENDSEC
  0
SECTION
  2
ENTITIES
  0
LINE
  5
21A
100
AcDbEntity
  8
DRAFT
100
AcDbLine
 62
7
  6
CONTINUOUS
 10
-3.0
 20
-23.5
 11
-2.7812783412
 21
-23.4563623377
  0
LINE
  5
21B
100
AcDbEntity
  8
DRAFT
100
AcDbLine
 62
7
  6
CONTINUOUS
 10
-3.9733373476
 20
-23.5
 11
-3.0
 21
-23.5
  0
LINE
  5
21C
100
AcDbEntity
  8
DRAFT
100
AcDbLine
 62
7
  6
CONTINUOUS
 10
3.0
 20
-23.5
 11
3.9733373476
 21
-23.5
  0
LINE
  5
21D
100
AcDbEntity
  8
DRAFT
100
AcDbLine
 62
7
  6
CONTINUOUS
 10
-2.7812783412
 20
-23.4563623377
 11
2.7812783412
 21
-23.4563623377
  0
LINE
  5
21E
100
AcDbEntity
  8
DRAFT
100
AcDbLine
 62
7
  6
CONTINUOUS
 10
-3.9526845545
 20
-23.4301797403
 11
3.9526845545
 21
-23.4301797403
  0
LINE
  5
21F
100
AcDbEntity
  8
DRAFT
100
AcDbLine
 62
7
  6
CONTINUOUS
 10
-10.6503805997
 20
-22.4
 11
-5.55
 21
-22.4
  0
LINE
  5
220
100
AcDbEntity
  8
0
100
AcDbLine
 62
7
  6
CONTINUOUS
 10
3.1
 20
-22.4
 11
-3.1
 21
-22.4
  0
LINE
  5
221
100
AcDbEntity
  8
DRAFT
100
AcDbLine
 62
7
  6
CONTINUOUS
 10
5.55
 20
-22.4
 11
10.6503805997
 21
-22.4
  0
LINE
  5
222
100
AcDbEntity
  8
DRAFT
100
AcDbLine
 62
7
  6
CONTINUOUS
 10
3.0
 20
-23.5
 11
2.7812783412
 21
-23.4563623377
  0
LINE
  5
223
100
AcDbEntity
  8
RACCORDO
100
AcDbLine
 62
7
  6
CONTINUOUS
 10
-7.2269247241
 20
20.8478512965
 11
-7.2205806983
 21
20.8531402181
  0
LWPOLYLINE
  5
224
100
AcDbEntity
  8
RACCORDO
100
AcDbPolyline
 62
250
  6
CONTINUOUS
 90
12
 70
0
 10
-9.5862974704
 20
20.0354120872
 10
-9.5834198433
 20
20.0369782113
 10
-9.5755147697
 20
20.038517835
 10
-9.5627160121
 20
20.040004906
 10
-9.5452401397
 20
20.0414142615
 10
-9.5233828638
 20
20.0427220537
 10
-9.4975140335
 20
20.0439061531
 10
-9.4680713781
 20
20.0449465237
 10
-9.4355531001
 20
20.0458255611
 10
-9.4005094447
 20
20.0465283905
 10
-9.3635333893
 20
20.0470431191
 10
-9.3252506099
 20
20.0473610372
  0
LWPOLYLINE
  5
225
100
AcDbEntity
  8
RACCORDO
100
AcDbPolyline
 62
7
  6
CONTINUOUS
 90
5
 70
0
 10
7.2419286989
 20
-20.8366629075
 10
7.2410711055
 20
-20.8368010859
 10
7.2391819589
 20
-20.8380636212
 10
7.2362200437
 20
-20.8403931378
 10
7.2269247241
 20
-20.8478512965
  0
LWPOLYLINE
  5
226
100
AcDbEntity
  8
RACCORDO
100
AcDbPolyline
 62
250
  6
CONTINUOUS
 90
13
 70
0
 10
7.0294001425
 20
-20.2585786438
 10
7.0553235464
 20
-20.257159202
 10
7.0808217567
 20
-20.2533749129
 10
7.1054631376
 20
-20.2472862956
 10
7.128834401
 20
-20.2389909837
 10
7.1505322297
 20
-20.2286273937
 10
7.170174151
 20
-20.2163768226
 10
7.1874402364
 20
-20.2024368699
 10
7.2020236077
 20
-20.1870530906
 10
7.2136494171
 20
-20.1705357589
 10
7.2221423768
 20
-20.1531896548
 10
7.2274017151
 20
-20.1352963416
 10
7.2293696815
 20
-20.1171572875
  0
LINE
  5
227
100
AcDbEntity
  8
DRAFT
100
AcDbLine
 62
7
  6
CONTINUOUS
 10
-6.9339198284
 20
-21.2
 11
6.9339198284
 21
-21.2
  0
LINE
  5
228
100
AcDbEntity
  8
DRAFT
100
AcDbLine
 62
7
  6
CONTINUOUS
 10
6.8667670239
 20
-21.1647852141
 11
3.75
 21
-21.1647852141
  0
LINE
  5
229
100
AcDbEntity
  8
DRAFT
100
AcDbLine
 62
7
  6
CONTINUOUS
 10
-3.75
 20
-21.1647852141
 11
-6.8667670239
 21
-21.1647852141
  0
LINE
  5
22A
100
AcDbEntity
  8
RACCORDO
100
AcDbLine
 62
7
  6
CONTINUOUS
 10
-9.3501255952
 20
-20.9
 11
-7.3830351795
 21
-20.9
  0
LINE
  5
22B
100
AcDbEntity
  8
RACCORDO
100
AcDbLine
 62
7
  6
CONTINUOUS
 10
7.3830351795
 20
-20.9
 11
9.3501255952
 21
-20.9
  0
LWPOLYLINE
  5
22C
100
AcDbEntity
  8
RACCORDO
100
AcDbPolyline
 62
250
  6
CONTINUOUS
 90
13
 70
0
 10
-9.2879615093
 20
-20.5266837345
 10
-9.3271077807
 20
-20.5241041843
 10
-9.3655844083
 20
-20.5164454049
 10
-9.4027334084
 20
-20.5038384451
 10
-9.4379195362
 20
-20.4864989584
 10
-9.4705410889
 20
-20.4647235392
 10
-9.5000402096
 20
-20.4388846722
 10
-9.525912506
 20
-20.4094243018
 10
-9.5477156404
 20
-20.3768462676
 10
-9.5650768517
 20
-20.3417077355
 10
-9.5776993635
 20
-20.3046096252
 10
-9.5853674451
 20
-20.2661863267
 10
-9.5879500862
 20
-20.2270948741
  0
LWPOLYLINE
  5
22D
100
AcDbEntity
  8
RACCORDO
100
AcDbPolyline
 62
7
  6
CONTINUOUS
 90
4
 70
0
 10
-7.2359625226
 20
-20.8405916279
 10
-7.2390584773
 20
-20.8381523097
 10
-7.2410348192
 20
-20.8368223095
 10
-7.2419286989
 20
-20.8366629075
  0
LWPOLYLINE
  5
22E
100
AcDbEntity
  8
RACCORDO
100
AcDbPolyline
 62
7
  6
CONTINUOUS
 90
3
 70
0
 10
-7.2196903264
 20
-20.8538879832
 10
-7.2262675206
 20
-20.8484063534
 10
-7.2359625226
 20
-20.8405916279
  0
LINE
  5
22F
100
AcDbEntity
  8
RACCORDO
100
AcDbLine
 62
7
  6
CONTINUOUS
 10
-7.055874803
 20
20.9974535593
 11
-7.0425072881
 21
21.0094865114
  0
LINE
  5
230
100
AcDbEntity
  8
RACCORDO
100
AcDbLine
 62
7
  6
CONTINUOUS
 10
-7.1094912525
 20
20.9499376582
 11
-7.055874803
 21
20.9974535593
  0
LWPOLYLINE
  5
231
100
AcDbEntity
  8
RACCORDO
100
AcDbPolyline
 62
7
  6
CONTINUOUS
 90
3
 70
0
 10
-7.1948944831
 20
20.8750755778
 10
-7.1610166114
 20
20.904584292
 10
-7.1094912525
 20
20.9499376582
  0
LINE
  5
232
100
AcDbEntity
  8
RACCORDO
100
AcDbLine
 62
7
  6
CONTINUOUS
 10
-7.2205806983
 20
20.8531402181
 11
-7.1948944831
 21
20.8750755778
  0
LWPOLYLINE
  5
233
100
AcDbEntity
  8
RACCORDO
100
AcDbPolyline
 62
250
  6
CONTINUOUS
 90
3
 70
0
 10
-6.7354735215
 20
18.5413293319
 10
-6.7572249791
 20
18.5267949192
 10
-6.7810436205
 20
18.5150769382
  0
LWPOLYLINE
  5
234
100
AcDbEntity
  8
RACCORDO
100
AcDbPolyline
 62
7
  6
CONTINUOUS
 90
4
 70
0
 10
-6.7432991968
 20
18.5154061091
 10
-6.7681744471
 20
18.5069073744
 10
-6.7939855153
 20
18.5017370046
 10
-6.8202886235
 20
18.5
  0
LWPOLYLINE
  5
235
100
AcDbEntity
  8
RACCORDO
100
AcDbPolyline
 62
7
  6
CONTINUOUS
 90
4
 70
0
 10
-6.7810436205
 20
18.5150769382
 10
-6.8054593334
 20
18.5068148347
 10
-6.8311169269
 20
18.5017110277
 10
-6.8572211714
 20
18.5
  0
LWPOLYLINE
  5
236
100
AcDbEntity
  8
RACCORDO
100
AcDbPolyline
 62
250
  6
CONTINUOUS
 90
4
 70
0
 10
-6.8598392317
 20
-20.2585786438
 10
-6.8338112531
 20
-20.2572623286
 10
-6.8082132153
 20
-20.2535604456
 10
-6.7834819673
 20
-20.2475324589
  0
LWPOLYLINE
  5
237
100
AcDbEntity
  8
0
100
AcDbPolyline
 62
7
  6
CONTINUOUS
 90
37
 70
0
 10
-4.2900488907
 20
-19.02
 10
-4.2142292936
 20
-19.018924608
 10
-4.1415197933
 20
-19.0150081454
 10
-4.0719203898
 20
-19.0082506097
 10
-4.0053501979
 20
-18.9988748186
 10
-3.9418901028
 20
-18.9866579442
 10
-3.8817827606
 20
-18.9709315104
 10
-3.824714169
 20
-18.9518308233
 10
-3.7709983303
 20
-18.9292205493
 10
-3.7218199079
 20
-18.9020262416
 10
-3.6769712075
 20
-18.8691368682
 10
-3.6366599235
 20
-18.8316633933
 10
-3.6026938021
 20
-18.7918643712
 10
-3.5760772999
 20
-18.7499918287
 10
-3.5558059602
 20
-18.705793698
 10
-3.5406741596
 20
-18.6607724239
 10
-3.5306426646
 20
-18.6150917482
 10
-3.5257507086
 20
-18.5685879142
 10
-3.5249103683
 20
-18.5222721446
 10
-3.5273861677
 20
-18.4761348814
 10
-3.5339135828
 20
-18.4301856873
 10
-3.545611118
 20
-18.3854644862
 10
-3.5626091294
 20
-18.341878884
 10
-3.5847772609
 20
-18.2995212992
 10
-3.6128429487
 20
-18.2597088976
 10
-3.6476572066
 20
-18.2224117115
 10
-3.6883690207
 20
-18.1876597523
 10
-3.7331527855
 20
-18.1568601752
 10
-3.781677619
 20
-18.1306125429
 10
-3.8342744033
 20
-18.108317345
 10
-3.8901101788
 20
-18.0895831305
 10
-3.9489913364
 20
-18.0745546565
 10
-4.0111114854
 20
-18.0630871926
 10
-4.0762184935
 20
-18.0543550492
 10
-4.1442283168
 20
-18.0480829985
 10
-4.2152249992
 20
-18.0445462768
 10
-4.2892085409
 20
-18.0437448865
  0
LINE
  5
238
100
AcDbEntity
  8
RACCORDO
100
AcDbLine
 62
250
  6
CONTINUOUS
 10
-9.2879615093
 20
-20.5266837345
 11
-7.5073728206
 21
-20.5266837345
  0
LINE
  5
239
100
AcDbEntity
  8
RACCORDO
100
AcDbLine
 62
250
  6
CONTINUOUS
 10
7.5073728206
 20
-20.5266837345
 11
9.2879615093
 21
-20.5266837345
  0
LINE
  5
23A
100
AcDbEntity
  8
RACCORDO
100
AcDbLine
 62
250
  6
CONTINUOUS
 10
-6.8580061777
 20
-20.4686258279
 11
6.8580061777
 21
-20.4686258279
  0
LINE
  5
23B
100
AcDbEntity
  8
RACCORDO
100
AcDbLine
 62
7
  6
CONTINUOUS
 10
-6.6606915742
 20
-20.2979189575
 11
6.6606915742
 21
-20.2979189575
  0
LINE
  5
23C
100
AcDbEntity
  8
RACCORDO
100
AcDbLine
 62
250
  6
CONTINUOUS
 10
-7.0294001425
 20
-20.2585786438
 11
-6.8598392317
 21
-20.2585786438
  0
LINE
  5
23D
100
AcDbEntity
  8
RACCORDO
100
AcDbLine
 62
250
  6
CONTINUOUS
 10
6.8598392317
 20
-20.2585786438
 11
7.0294001425
 21
-20.2585786438
  0
LINE
  5
23E
100
AcDbEntity
  8
ASSI
100
AcDbLine
 62
7
  6
CONTINUOUS
 10
-6.5167778011
 20
-20.1560734983
 11
-0.3973151228
 21
-20.1560734983
  0
LINE
  5
23F
100
AcDbEntity
  8
ASSI
100
AcDbLine
 62
7
  6
CONTINUOUS
 10
0.3973151228
 20
-20.1560734983
 11
6.5167778011
 21
-20.1560734983
  0
LINE
  5
240
100
AcDbEntity
  8
RACCORDO
100
AcDbLine
 62
250
  6
CONTINUOUS
 10
-7.2293696815
 20
-20.1171572875
 11
-6.6598468471
 21
-20.1171572875
  0
LINE
  5
241
100
AcDbEntity
  8
RACCORDO
100
AcDbLine
 62
250
  6
CONTINUOUS
 10
6.6598468471
 20
-20.1171572875
 11
7.2293696815
 21
-20.1171572875
  0
LINE
  5
242
100
AcDbEntity
  8
RACCORDO
100
AcDbLine
 62
250
  6
CONTINUOUS
 10
7.515636529
 20
-20.0474767673
 11
9.3252506128
 21
-20.0473610386
  0
LINE
  5
243
100
AcDbEntity
  8
RACCORDO
100
AcDbLine
 62
250
  6
CONTINUOUS
 10
-0.2629729446
 20
-19.883663494
 11
0.2629729446
 21
-19.883663494
  0
LINE
  5
244
100
AcDbEntity
  8
0
100
AcDbLine
 62
7
  6
CONTINUOUS
 10
1.850359
 20
-19.706303
 11
3.350368
 21
-19.706303
  0
LINE
  5
245
100
AcDbEntity
  8
0
100
AcDbLine
 62
7
  6
CONTINUOUS
 10
3.350368
 20
-19.517235
 11
2.14659
 21
-19.517235
  0
LINE
  5
246
100
AcDbEntity
  8
RACCORDO
100
AcDbLine
 62
250
  6
CONTINUOUS
 10
-0.0649210165
 20
-19.4007005808
 11
0.0649210165
 21
-19.4007005808
  0
LINE
  5
247
100
AcDbEntity
  8
0
100
AcDbLine
 62
7
  6
CONTINUOUS
 10
-5.3
 20
-19.2
 11
-1.3
 21
-19.2
  0
LINE
  5
248
100
AcDbEntity
  8
RACCORDO
100
AcDbLine
 62
250
  6
CONTINUOUS
 10
-6.6598468471
 20
-19.0
 11
-7.2293696815
 21
-19.0
  0
LINE
  5
249
100
AcDbEntity
  8
RACCORDO
100
AcDbLine
 62
250
  6
CONTINUOUS
 10
6.6598468471
 20
-19.0
 11
7.2293696815
 21
-19.0
  0
LWPOLYLINE
  5
24A
100
AcDbEntity
  8
RACCORDO
100
AcDbPolyline
 62
250
  6
CONTINUOUS
 90
13
 70
0
 10
-7.515636529
 20
-20.0474767673
 10
-9.3252506129
 20
-20.0473610373
 10
-9.3635333951
 20
-20.0470431182
 10
-9.4005094529
 20
-20.0465283891
 10
-9.4355531104
 20
-20.0458255597
 10
-9.4680713898
 20
-20.0449465228
 10
-9.497514046
 20
-20.0439061526
 10
-9.5233828763
 20
-20.0427220535
 10
-9.5452401514
 20
-20.0414142615
 10
-9.5627160221
 20
-20.0400049061
 10
-9.5755147772
 20
-20.0385178351
 10
-9.5834198475
 20
-20.0369782115
 10
-9.5862974704
 20
-20.0354120872
  0
LWPOLYLINE
  5
24B
100
AcDbEntity
  8
0
100
AcDbPolyline
 62
7
  6
CONTINUOUS
 90
40
 70
0
 10
-4.2895251397
 20
-18.831452514
 10
-4.3373753953
 20
-18.831224804
 10
-4.3838544454
 20
-18.8300038867
 10
-4.4289622902
 20
-18.8277897619
 10
-4.472624586
 20
-18.8246045585
 10
-4.5149156763
 20
-18.8204261463
 10
-4.556058592
 20
-18.8151881361
 10
-4.596352423
 20
-18.8092015217
 10
-4.6354980795
 20
-18.8021553068
 10
-4.6728213223
 20
-18.7930501141
 10
-4.7084786296
 20
-18.7818215326
 10
-4.7423135233
 20
-18.7685339637
 10
-4.7731823302
 20
-18.752381243
 10
-4.8007812404
 20
-18.7328171767
 10
-4.8254140639
 20
-18.7103879339
 10
-4.8468485573
 20
-18.6859258939
 10
-4.8652049854
 20
-18.6592803739
 10
-4.8803630834
 20
-18.6306020326
 10
-4.891729814
 20
-18.6011752727
 10
-4.8993253247
 20
-18.5712619633
 10
-4.9031294678
 20
-18.5406002266
 10
-4.902488763
 20
-18.509688857
 10
-4.8971321019
 20
-18.4781045209
 10
-4.8873305929
 20
-18.4462705467
 10
-4.87324408
 20
-18.4159557366
 10
-4.8547854884
 20
-18.3873584128
 10
-4.8320418931
 20
-18.3602802742
 10
-4.8054343627
 20
-18.335895208
 10
-4.7746794494
 20
-18.3145232704
 10
-4.7400606011
 20
-18.2958444337
 10
-4.7028492301
 20
-18.2800724636
 10
-4.6630756401
 20
-18.2676704571
 10
-4.6207095274
 20
-18.2581753363
 10
-4.5769313939
 20
-18.2504116008
 10
-4.5321432288
 20
-18.2441928024
 10
-4.4859430429
 20
-18.2397053944
 10
-4.4383053707
 20
-18.2363332238
 10
-4.3892217237
 20
-18.2338709067
 10
-4.3387005905
 20
-18.2325238284
 10
-4.2867419709
 20
-18.2322919892
  0
LWPOLYLINE
  5
24C
100
AcDbEntity
  8
RACCORDO
100
AcDbPolyline
 62
7
  6
CONTINUOUS
 90
5
 70
0
 10
-6.8572211714
 20
-18.5
 10
-6.8311169269
 20
-18.5017110277
 10
-6.8054593333
 20
-18.5068148348
 10
-6.7806873991
 20
-18.5152240935
 10
-6.776710767
 20
-18.5169219261
  0
LWPOLYLINE
  5
24D
100
AcDbEntity
  8
RACCORDO
100
AcDbPolyline
 62
7
  6
CONTINUOUS
 90
4
 70
0
 10
-6.7432134297
 20
-18.5154418811
 10
-6.7679982835
 20
-18.5069623748
 10
-6.7936861374
 20
-18.5017851593
 10
-6.8198368876
 20
-18.5
  0
LWPOLYLINE
  5
24E
100
AcDbEntity
  8
RACCORDO
100
AcDbPolyline
 62
250
  6
CONTINUOUS
 90
3
 70
0
 10
-6.776710767
 20
-18.5169219261
 10
-6.757224979
 20
-18.5267949193
 10
-6.7354735214
 20
-18.541329332
  0
LINE
  5
24F
100
AcDbEntity
  8
RACCORDO
100
AcDbLine
 62
7
  6
CONTINUOUS
 10
-7.1933978089
 20
-20.8763693993
 11
-7.2196903264
 21
-20.8538879832
  0
LWPOLYLINE
  5
250
100
AcDbEntity
  8
RACCORDO
100
AcDbPolyline
 62
7
  6
CONTINUOUS
 90
3
 70
0
 10
-7.0684513859
 20
-20.9862689466
 10
-7.0949472853
 20
-20.9628966864
 10
-7.1082227362
 20
-20.9510743423
  0
LWPOLYLINE
  5
251
100
AcDbEntity
  8
RACCORDO
100
AcDbPolyline
 62
7
  6
CONTINUOUS
 90
3
 70
0
 10
-7.1082227362
 20
-20.9510743423
 10
-7.1472234187
 20
-20.9166738744
 10
-7.1933978089
 20
-20.8763693993
  0
LWPOLYLINE
  5
252
100
AcDbEntity
  8
RACCORDO
100
AcDbPolyline
 62
7
  6
CONTINUOUS
 90
3
 70
0
 10
-7.0425072881
 20
-21.0094865114
 10
-7.0553773717
 20
-20.9978705966
 10
-7.0684513859
 20
-20.9862689466
  0
LWPOLYLINE
  5
253
100
AcDbEntity
  8
RACCORDO
100
AcDbPolyline
 62
7
  6
CONTINUOUS
 90
5
 70
0
 10
-6.6611858003
 20
18.5787024009
 10
-6.678390465
 20
18.5589942732
 10
-6.6980324725
 20
18.5416836961
 10
-6.7197873722
 20
18.5270694334
 10
-6.7432991968
 20
18.5154061091
  0
LWPOLYLINE
  5
254
100
AcDbEntity
  8
RACCORDO
100
AcDbPolyline
 62
250
  6
CONTINUOUS
 90
3
 70
0
 10
-6.698556545
 20
18.5782477142
 10
-6.7158052
 20
18.5585786438
 10
-6.7354735215
 20
18.5413293319
  0
LINE
  5
255
100
AcDbEntity
  8
0
100
AcDbLine
 62
7
  6
CONTINUOUS
 10
-2.2348011665
 20
19.0493123953
 11
-1.474963
 21
19.443173
  0
LINE
  5
256
100
AcDbEntity
  8
0
100
AcDbLine
 62
7
  6
CONTINUOUS
 10
-2.190302
 20
18.65561
 11
-1.474958
 21
19.02641
  0
LINE
  5
257
100
AcDbEntity
  8
0
100
AcDbLine
 62
7
  6
CONTINUOUS
 10
-3.325042
 20
17.121932
 11
-1.474954
 21
17.715935
  0
LWPOLYLINE
  5
258
100
AcDbEntity
  8
0
100
AcDbPolyline
 62
7
  6
CONTINUOUS
 90
37
 70
0
 10
-4.2892085409
 20
-18.0437448865
 10
-4.3635353803
 20
-18.0439891337
 10
-4.4349191171
 20
-18.0472437744
 10
-4.5033597513
 20
-18.0535088065
 10
-4.5689551059
 20
-18.062626187
 10
-4.6316073579
 20
-18.074753949
 10
-4.6910230377
 20
-18.0903661999
 10
-4.7473776299
 20
-18.1093756637
 10
-4.8004956498
 20
-18.1318695902
 10
-4.849557175
 20
-18.1585838667
 10
-4.8950161543
 20
-18.190317524
 10
-4.9364186388
 20
-18.2262714735
 10
-4.9715828588
 20
-18.2647844263
 10
-4.9994449472
 20
-18.3057933245
 10
-5.0210687711
 20
-18.349361181
 10
-5.0374641619
 20
-18.3940158384
 10
-5.0486153246
 20
-18.4396556725
 10
-5.0545380542
 20
-18.4863822855
 10
-5.0562895674
 20
-18.5330283854
 10
-5.054568638
 20
-18.5795704051
 10
-5.0486764922
 20
-18.6260319127
 10
-5.0375740248
 20
-18.6713163419
 10
-5.0211866161
 20
-18.7155060508
 10
-4.9995888859
 20
-18.758518704
 10
-4.9719655881
 20
-18.7990107193
 10
-4.937458159
 20
-18.8370210649
 10
-4.8969251622
 20
-18.872510817
 10
-4.8521270429
 20
-18.9040195783
 10
-4.8033227824
 20
-18.9309676379
 10
-4.7502533992
 20
-18.9539347623
 10
-4.6939023944
 20
-18.9731997759
 10
-4.6345531727
 20
-18.9885446592
 10
-4.5719223294
 20
-19.0001874615
 10
-4.5061431508
 20
-19.0090611012
 10
-4.4372600659
 20
-19.0154765533
 10
-4.3652286459
 20
-19.0191228521
 10
-4.2900488907
 20
-19.02
  0
LINE
  5
259
100
AcDbEntity
  8
RACCORDO
100
AcDbLine
 62
250
  6
CONTINUOUS
 10
6.6572287868
 20
-18.7
 11
6.6200664561
 21
-18.7
  0
LINE
  5
25A
100
AcDbEntity
  8
RACCORDO
100
AcDbLine
 62
250
  6
CONTINUOUS
 10
-6.6572287868
 20
-18.7
 11
-6.6200664561
 21
-18.7
  0
LINE
  5
25B
100
AcDbEntity
  8
RACCORDO
100
AcDbLine
 62
250
  6
CONTINUOUS
 10
7.234606201
 20
-18.7
 11
7.3089365232
 21
-18.7
  0
LINE
  5
25C
100
AcDbEntity
  8
RACCORDO
100
AcDbLine
 62
250
  6
CONTINUOUS
 10
-7.234606201
 20
-18.7
 11
-7.3089365232
 21
-18.7
  0
LINE
  5
25D
100
AcDbEntity
  8
0
100
AcDbLine
 62
7
  6
CONTINUOUS
 10
1.850359
 20
-18.699984
 11
3.066765
 21
-18.699984
  0
LINE
  5
25E
100
AcDbEntity
  8
0
100
AcDbLine
 62
7
  6
CONTINUOUS
 10
3.350368
 20
-18.510901
 11
1.850359
 21
-18.510901
  0
LINE
  5
25F
100
AcDbEntity
  8
RACCORDO
100
AcDbLine
 62
7
  6
CONTINUOUS
 10
6.8202886235
 20
-18.5
 11
7.1085073836
 21
-18.5
  0
LINE
  5
260
100
AcDbEntity
  8
RACCORDO
100
AcDbLine
 62
7
  6
CONTINUOUS
 10
-6.8202886235
 20
-18.5
 11
-7.1085073836
 21
-18.5
  0
LINE
  5
261
100
AcDbEntity
  8
0
100
AcDbLine
 62
7
  6
CONTINUOUS
 10
1.850359
 20
-18.092878
 11
3.350368
 21
-18.092878
  0
LINE
  5
262
100
AcDbEntity
  8
0
100
AcDbLine
 62
7
  6
CONTINUOUS
 10
3.182302
 20
-17.893286
 11
2.663401
 21
-17.893286
  0
LINE
  5
263
100
AcDbEntity
  8
0
100
AcDbLine
 62
7
  6
CONTINUOUS
 10
2.49532
 20
-17.893286
 11
2.018425
 21
-17.893286
  0
LINE
  5
264
100
AcDbEntity
  8
0
100
AcDbLine
 62
7
  6
CONTINUOUS
 10
2.663401
 20
-17.113875
 11
2.49532
 21
-17.113875
  0
LWPOLYLINE
  5
265
100
AcDbEntity
  8
0
100
AcDbPolyline
 62
7
  6
CONTINUOUS
 90
40
 70
0
 10
-4.2867419709
 20
-18.2322919892
 10
-4.2363268435
 20
-18.2326618791
 10
-4.1875999071
 20
-18.2340252507
 10
-4.1405611617
 20
-18.2363821037
 10
-4.0952487282
 20
-18.2395985564
 10
-4.0516244858
 20
-18.2438084893
 10
-4.0095740715
 20
-18.2494135449
 10
-3.9690330309
 20
-18.2561636
 10
-3.9300658185
 20
-18.2643087742
 10
-3.8927514351
 20
-18.2750010708
 10
-3.8565927477
 20
-18.2885719365
 10
-3.8220868894
 20
-18.3046899103
 10
-3.7908042601
 20
-18.3235126291
 10
-3.7630231599
 20
-18.3454260471
 10
-3.7384652888
 20
-18.3700441845
 10
-3.7178661465
 20
-18.3963667791
 10
-3.7013928949
 20
-18.4243084983
 10
-3.6888783723
 20
-18.4539546544
 10
-3.6805565932
 20
-18.4845609624
 10
-3.6765095294
 20
-18.5165288011
 10
-3.6766552093
 20
-18.549456776
 10
-3.6809817323
 20
-18.5813964616
 10
-3.689564114
 20
-18.6119424493
 10
-3.7023273389
 20
-18.6415001631
 10
-3.7190344597
 20
-18.6693374444
 10
-3.7398506958
 20
-18.6955483804
 10
-3.7646108279
 20
-18.7200389045
 10
-3.7925822507
 20
-18.7417946366
 10
-3.8240502188
 20
-18.7604049682
 10
-3.8587294776
 20
-18.7762805341
 10
-3.8950316574
 20
-18.7896388215
 10
-3.932446898
 20
-18.8001710234
 10
-3.9714850596
 20
-18.808185961
 10
-4.0120873536
 20
-18.81482756
 10
-4.0541936346
 20
-18.8203538865
 10
-4.097864048
 20
-18.8245068779
 10
-4.1432202405
 20
-18.827656263
 10
-4.1903027611
 20
-18.829925285
 10
-4.2390710608
 20
-18.8311907019
 10
-4.2895251397
 20
-18.831452514
  0
LWPOLYLINE
  5
266
100
AcDbEntity
  8
0
100
AcDbPolyline
 62
7
  6
CONTINUOUS
 90
6
 70
0
 10
-4.5593510206
 20
-17.0758659218
 10
-4.5189371652
 20
-17.0768525764
 10
-4.4801287521
 20
-17.0813747647
 10
-4.4429257814
 20
-17.0894324833
 10
-4.4068058638
 20
-17.1010402022
 10
-4.3722913886
 20
-17.1161834371
  0
LINE
  5
267
100
AcDbEntity
  8
0
100
AcDbLine
 62
7
  6
CONTINUOUS
 10
-4.2197036702
 20
-17.0538686991
 11
-4.158723993
 21
-17.0568218211
  0
LWPOLYLINE
  5
268
100
AcDbEntity
  8
RACCORDO
100
AcDbPolyline
 62
7
  6
CONTINUOUS
 90
7
 70
0
 10
7.034636662
 20
-18.5
 10
7.0607379245
 20
-18.5017110277
 10
7.0863925872
 20
-18.5068148348
 10
7.1111616916
 20
-18.5152240935
 10
7.1346214316
 20
-18.5267949193
 10
7.1563704044
 20
-18.541329332
 10
7.1645043191
 20
-18.5479169535
  0
LWPOLYLINE
  5
269
100
AcDbEntity
  8
0
100
AcDbPolyline
 62
7
  6
CONTINUOUS
 90
28
 70
0
 10
-4.5600903487
 20
-17.6666690755
 10
-4.6093101686
 20
-17.6622852067
 10
-4.6549634983
 20
-17.6537196326
 10
-4.697050338
 20
-17.6409723456
 10
-4.7357505356
 20
-17.6235187473
 10
-4.7708842432
 20
-17.6018834081
 10
-4.8019119169
 20
-17.5776400751
 10
-4.8286272846
 20
-17.5508551926
 10
-4.8512366185
 20
-17.5214622885
 10
-4.8698191913
 20
-17.4908357491
 10
-4.8844934405
 20
-17.4589529009
 10
-4.8951409286
 20
-17.4258364014
 10
-4.9014856159
 20
-17.3929286513
 10
-4.9032893821
 20
-17.3605383646
 10
-4.9007903475
 20
-17.328356832
 10
-4.8944268339
 20
-17.2969003333
 10
-4.8841520236
 20
-17.2658891977
 10
-4.8700127343
 20
-17.2356031045
 10
-4.8525877404
 20
-17.2073973703
 10
-4.8320351444
 20
-17.1814674565
 10
-4.8081968438
 20
-17.1576179261
 10
-4.7811773062
 20
-17.1366177584
 10
-4.7507562436
 20
-17.1185798075
 10
-4.7171539438
 20
-17.1033912429
 10
-4.6811357385
 20
-17.0914825203
 10
-4.6429567381
 20
-17.0829971302
 10
-4.6023618321
 20
-17.0777915962
 10
-4.5593510206
 20
-17.0758659218
  0
LWPOLYLINE
  5
26A
100
AcDbEntity
  8
0
100
AcDbPolyline
 62
7
  6
CONTINUOUS
 90
27
 70
0
 10
-4.158723993
 20
-17.0568218211
 10
-4.1002886967
 20
-17.0625031715
 10
-4.0443977812
 20
-17.0709127473
 10
-3.9907639205
 20
-17.0817564989
 10
-3.9396744407
 20
-17.0953284653
 10
-3.8919913197
 20
-17.1125107713
 10
-3.8473365569
 20
-17.1337328037
 10
-3.8060881529
 20
-17.1585651458
 10
-3.7702420874
 20
-17.1866017128
 10
-3.7403481217
 20
-17.218677151
 10
-3.7158564947
 20
-17.2539567704
 10
-3.6971139021
 20
-17.2895305023
 10
-3.6848187135
 20
-17.3248232555
 10
-3.6782725595
 20
-17.3604101193
 10
-3.6757270274
 20
-17.3951063248
 10
-3.6767868034
 20
-17.428948823
 10
-3.6818472013
 20
-17.4619006752
 10
-3.6903457493
 20
-17.4926662955
 10
-3.702066782
 20
-17.5210357014
 10
-3.7172259648
 20
-17.5472189033
 10
-3.7359078214
 20
-17.5705503156
 10
-3.758500304
 20
-17.5907094729
 10
-3.7846154605
 20
-17.6080168678
 10
-3.8131739583
 20
-17.6227683508
 10
-3.84381602
 20
-17.635062543
 10
-3.8769014231
 20
-17.6448008377
 10
-3.9124301676
 20
-17.6519832402
  0
LWPOLYLINE
  5
26B
100
AcDbEntity
  8
RACCORDO
100
AcDbPolyline
 62
250
  6
CONTINUOUS
 90
4
 70
0
 10
6.7834819673
 20
-20.2475324589
 10
6.8082132153
 20
-20.2535604456
 10
6.8338112531
 20
-20.2572623286
 10
6.8598392317
 20
-20.2585786438
  0
LWPOLYLINE
  5
26C
100
AcDbEntity
  8
RACCORDO
100
AcDbPolyline
 62
250
  6
CONTINUOUS
 90
3
 70
0
 10
-6.7354735214
 20
-18.541329332
 10
-6.7158052
 20
-18.5585786439
 10
-6.698556545
 20
-18.5782477143
  0
LINE
  5
26D
100
AcDbEntity
  8
DRAFT
100
AcDbLine
 62
7
  6
CONTINUOUS
 10
6.9339198284
 20
21.2
 11
6.8667670239
 21
21.1647852141
  0
LINE
  5
26E
100
AcDbEntity
  8
RACCORDO
100
AcDbLine
 62
7
  6
CONTINUOUS
 10
7.3830351795
 20
20.9
 11
7.2419286989
 21
20.8366629075
  0
LINE
  5
26F
100
AcDbEntity
  8
0
100
AcDbLine
 62
7
  6
CONTINUOUS
 10
-1.838789
 20
17.229107
 11
-1.474958
 21
17.345916
  0
LINE
  5
270
100
AcDbEntity
  8
0
100
AcDbLine
 62
7
  6
CONTINUOUS
 10
-2.748836
 20
16.936914
 11
-2.190302
 21
17.116239
  0
LWPOLYLINE
  5
271
100
AcDbEntity
  8
RACCORDO
100
AcDbPolyline
 62
7
  6
CONTINUOUS
 90
3
 70
0
 10
-7.1607168843
 20
-18.5069324742
 10
-7.1348648826
 20
-18.5017443099
 10
-7.1085073836
 20
-18.5
  0
LWPOLYLINE
  5
272
100
AcDbEntity
  8
0
100
AcDbPolyline
 62
7
  6
CONTINUOUS
 90
36
 70
0
 10
-3.8977653631
 20
-17.8279608939
 10
-3.844023663
 20
-17.8174893651
 10
-3.7944900615
 20
-17.8033873637
 10
-3.7491645586
 20
-17.7856548786
 10
-3.7080191709
 20
-17.7641846078
 10
-3.6710818818
 20
-17.7390838225
 10
-3.6384366418
 20
-17.7106743688
 10
-3.6102524498
 20
-17.6791096978
 10
-3.5863603069
 20
-17.6442363167
 10
-3.5663371671
 20
-17.605915653
 10
-3.5498185631
 20
-17.5637964097
 10
-3.5371689623
 20
-17.5182298231
 10
-3.5290587203
 20
-17.4701311254
 10
-3.5253035809
 20
-17.418766663
 10
-3.5260878002
 20
-17.3648700321
 10
-3.5326345024
 20
-17.311557381
 10
-3.5454035725
 20
-17.2590201144
 10
-3.5639351255
 20
-17.207066843
 10
-3.5880726302
 20
-17.1582395862
 10
-3.6178309612
 20
-17.113151561
 10
-3.6531952439
 20
-17.071189616
 10
-3.6939643238
 20
-17.0330562476
 10
-3.7403544932
 20
-16.9988254678
 10
-3.7921494597
 20
-16.9684233225
 10
-3.8484991922
 20
-16.9423303626
 10
-3.909686279
 20
-16.9209240834
 10
-3.9754281318
 20
-16.903827033
 10
-4.0440269544
 20
-16.8903873368
 10
-4.115798879
 20
-16.880716965
 10
-4.1904277733
 20
-16.8747039649
 10
-4.2652674453
 20
-16.8713605698
 10
-4.3403613326
 20
-16.8701624383
 10
-4.4156659975
 20
-16.8716339142
 10
-4.4884049347
 20
-16.8763602554
 10
-4.5582175183
 20
-16.8840780875
 10
-4.6254643741
 20
-16.895050777
  0
LINE
  5
273
100
AcDbEntity
  8
0
100
AcDbLine
 62
7
  6
CONTINUOUS
 10
-4.2565293376
 20
-17.0549162011
 11
-4.2482733571
 21
-17.0545641023
  0
LWPOLYLINE
  5
274
100
AcDbEntity
  8
0
100
AcDbPolyline
 62
7
  6
CONTINUOUS
 90
7
 70
0
 10
-4.2482733571
 20
-17.0545641023
 10
-4.2400550499
 20
-17.0542616712
 10
-4.2359599178
 20
-17.0541285583
 10
-4.2318769595
 20
-17.0540214504
 10
-4.2278070227
 20
-17.0539445284
 10
-4.2237492596
 20
-17.0538936113
 10
-4.2197036702
 20
-17.0538686991
  0
LWPOLYLINE
  5
275
100
AcDbEntity
  8
0
100
AcDbPolyline
 62
7
  6
CONTINUOUS
 90
34
 70
0
 10
-4.2900488907
 20
-16.6903910615
 10
-4.2142208085
 20
-16.6893156859
 10
-4.1415027011
 20
-16.6853982111
 10
-4.0718945684
 20
-16.6786386347
 10
-4.0053151361
 20
-16.6692600401
 10
-3.9418456785
 20
-16.657039335
 10
-3.8817300191
 20
-16.6413072495
 10
-3.8246542428
 20
-16.6221991002
 10
-3.7709322647
 20
-16.5995795464
 10
-3.7217496529
 20
-16.5723733216
 10
-3.6768984808
 20
-16.5394681451
 10
-3.6365866749
 20
-16.5019762383
 10
-3.6026235834
 20
-16.4621590934
 10
-3.5760150637
 20
-16.4202690802
 10
-3.5557552583
 20
-16.376053793
 10
-3.540635943
 20
-16.33101759
 10
-3.5306168409
 20
-16.2853245553
 10
-3.5257382289
 20
-16.2388105918
 10
-3.5249127133
 20
-16.1924878073
 10
-3.5274054546
 20
-16.1463464919
 10
-3.5339512923
 20
-16.1003963597
 10
-3.545667352
 20
-16.0556786732
 10
-3.5626850206
 20
-16.0121020986
 10
-3.5848729112
 20
-15.969757991
 10
-3.6129539888
 20
-15.9299616659
 10
-3.6477777251
 20
-15.89268399
 10
-3.6884946485
 20
-15.8579541348
 10
-3.7332793086
 20
-15.8271748912
 10
-3.781800377
 20
-15.8009445804
 10
-3.8343891822
 20
-15.7786649266
 10
-3.8902142594
 20
-15.7599438287
 10
-3.949081971
 20
-15.7449256768
 10
-4.0111859547
 20
-15.733466104
 10
-4.0762756587
 20
-15.7247398661
  0
LWPOLYLINE
  5
276
100
AcDbEntity
  8
0
100
AcDbPolyline
 62
7
  6
CONTINUOUS
 90
37
 70
0
 10
-4.2892085409
 20
-15.7141359479
 10
-4.3635414887
 20
-15.714379874
 10
-4.4349317646
 20
-15.7176352097
 10
-4.5033793687
 20
-15.7239019531
 10
-4.5689824669
 20
-15.7330219587
 10
-4.6316428932
 20
-15.7451533633
 10
-4.6910661498
 20
-15.7607705849
 10
-4.7474276694
 20
-15.7797859914
 10
-4.8005520194
 20
-15.8022871919
 10
-4.8496184036
 20
-15.8290114592
 10
-4.8950811823
 20
-15.8607591186
 10
-4.9364859953
 20
-15.8967297942
 10
-4.9716489659
 20
-15.93525971
 10
-4.9995047389
 20
-15.9762857325
 10
-5.0211186695
 20
-16.0198709559
 10
-5.0375029468
 20
-16.064540967
 10
-5.0486426554
 20
-16.1101937015
 10
-5.0545527107
 20
-16.1569312047
 10
-5.0562900482
 20
-16.2035852502
 10
-5.0545529339
 20
-16.2501324701
 10
-5.0486431019
 20
-16.2965962332
 10
-5.0375226893
 20
-16.3418784391
 10
-5.0211160268
 20
-16.3860603855
 10
-4.9994987837
 20
-16.4290607945
 10
-4.9718601049
 20
-16.4695377228
 10
-4.937342856
 20
-16.5075291536
 10
-4.8968041714
 20
-16.5429971426
 10
-4.852004599
 20
-16.5744858751
 10
-4.8032036512
 20
-16.6014169553
 10
-4.7501418156
 20
-16.6243688276
 10
-4.6938011031
 20
-16.6436209424
 10
-4.6344649818
 20
-16.6589556101
 10
-4.5718499837
 20
-16.6705905465
 10
-4.5060877149
 20
-16.6794583016
 10
-4.4372220442
 20
-16.6858697273
 10
-4.3652091028
 20
-16.6895139799
 10
-4.2900488907
 20
-16.6903910615
  0
LINE
  5
277
100
AcDbEntity
  8
0
100
AcDbLine
 62
7
  6
CONTINUOUS
 10
2.018425
 20
-17.057151
 11
1.850359
 21
-17.057151
  0
LINE
  5
278
100
AcDbEntity
  8
0
100
AcDbLine
 62
7
  6
CONTINUOUS
 10
3.350368
 20
-17.050852
 11
3.182302
 21
-17.050852
  0
LINE
  5
279
100
AcDbEntity
  8
0
100
AcDbLine
 62
7
  6
CONTINUOUS
 10
-4.0779329609
 20
-15.5884357542
 11
-3.9082402235
 21
-15.5884357542
  0
LWPOLYLINE
  5
27A
100
AcDbEntity
  8
0
100
AcDbPolyline
 62
7
  6
CONTINUOUS
 90
40
 70
0
 10
-4.2895251397
 20
-16.5018435754
 10
-4.3373678984
 20
-16.5016158203
 10
-4.3838390759
 20
-16.5003953554
 10
-4.4289386722
 20
-16.4981821805
 10
-4.4725922092
 20
-16.4949983199
 10
-4.5148741649
 20
-16.4908217482
 10
-4.5560079738
 20
-16.4855863902
 10
-4.5962922723
 20
-16.4796028715
 10
-4.635428424
 20
-16.4725605645
 10
-4.6727439532
 20
-16.4634615119
 10
-4.708395284
 20
-16.4522426029
 10
-4.7422259923
 20
-16.43896694
 10
-4.7730943303
 20
-16.4228258809
 10
-4.8006978843
 20
-16.403273248
 10
-4.825339068
 20
-16.3808551975
 10
-4.8467833741
 20
-16.3564015873
 10
-4.8651507943
 20
-16.3297608613
 10
-4.8803213371
 20
-16.3010845547
 10
-4.8917005199
 20
-16.2716571726
 10
-4.8993087912
 20
-16.2417403411
 10
-4.9031257025
 20
-16.2110724266
 10
-4.9024954273
 20
-16.1801530547
 10
-4.89714587
 20
-16.1485581105
 10
-4.887349126
 20
-16.1167117043
 10
-4.8732656556
 20
-16.0863858137
 10
-4.8548082556
 20
-16.0577799011
 10
-4.8320641292
 20
-16.0306945224
 10
-4.805455345
 20
-16.0063033111
 10
-4.7746982828
 20
-15.9849262529
 10
-4.7400765629
 20
-15.9662433871
 10
-4.7028631153
 20
-15.9504684315
 10
-4.6630891384
 20
-15.9380647675
 10
-4.6207234338
 20
-15.9285690306
 10
-4.5769453357
 20
-15.9208048155
 10
-4.5321565918
 20
-15.914585385
 10
-4.4859554544
 20
-15.9100974809
 10
-4.4383160145
 20
-15.9067249139
 10
-4.3892296358
 20
-15.9042622878
 10
-4.3387049546
 20
-15.902915
 10
-4.2867419709
 20
-15.9026830507
  0
LWPOLYLINE
  5
27B
100
AcDbEntity
  8
0
100
AcDbPolyline
 62
7
  6
CONTINUOUS
 90
40
 70
0
 10
-4.2867419709
 20
-15.9026830507
 10
-4.236336446
 20
-15.9030529037
 10
-4.1876188458
 20
-15.90441572
 10
-4.1405891704
 20
-15.9067714993
 10
-4.0952856963
 20
-15.9099865072
 10
-4.051670147
 20
-15.9141944771
 10
-4.0096276927
 20
-15.9197966098
 10
-3.9690939311
 20
-15.9265429577
 10
-3.9301332645
 20
-15.9346834654
 10
-3.8928240697
 20
-15.9453691694
 10
-3.8566694698
 20
-15.9589306609
 10
-3.8221663417
 20
-15.9750373362
 10
-3.7908836927
 20
-15.9938484365
 10
-3.7630992711
 20
-16.0157495083
 10
-3.7385353288
 20
-16.0403549825
 10
-3.7179276284
 20
-16.0666674284
 10
-3.7014425901
 20
-16.0946023406
 10
-3.6889137938
 20
-16.1242442066
 10
-3.6805777421
 20
-16.1548490923
 10
-3.6765166719
 20
-16.1868189975
 10
-3.6766483462
 20
-16.2197519087
 10
-3.680962557
 20
-16.2516978896
 10
-3.689534719
 20
-16.2822513087
 10
-3.7022894174
 20
-16.3118178108
 10
-3.7189902
 20
-16.339664391
 10
-3.7398027296
 20
-16.3658853678
 10
-3.7645613432
 20
-16.3903864404
 10
-3.7925325997
 20
-16.4121516829
 10
-3.8240017649
 20
-16.4307700724
 10
-3.858683573
 20
-16.4466526548
 10
-3.8949887848
 20
-16.4600166092
 10
-3.9324072661
 20
-16.4705527542
 10
-3.9714491513
 20
-16.4785702837
 10
-4.0120556046
 20
-16.4852139358
 10
-4.0541665491
 20
-16.4907419709
 10
-4.0978420618
 20
-16.4948961316
 10
-4.1432035377
 20
-16.4980463762
 10
-4.1902914418
 20
-16.5003160243
 10
-4.2390653091
 20
-16.5015817573
 10
-4.2895251397
 20
-16.5018435754
  0
LWPOLYLINE
  5
27C
100
AcDbEntity
  8
0
100
AcDbPolyline
 62
7
  6
CONTINUOUS
 90
3
 70
0
 10
-4.1442675657
 20
-15.7184718836
 10
-4.2152451932
 20
-15.7149372436
 10
-4.2892085409
 20
-15.7141359479
  0
LWPOLYLINE
  5
27D
100
AcDbEntity
  8
RACCORDO
100
AcDbPolyline
 62
7
  6
CONTINUOUS
 90
13
 70
0
 10
-6.7148190698
 20
-15.2755396155
 10
-6.689215249
 20
-15.2772689045
 10
-6.663934752
 20
-15.2824239732
 10
-6.6394055689
 20
-15.2909646938
 10
-6.6160314746
 20
-15.3028251149
 10
-6.5942500331
 20
-15.3178327493
 10
-6.5745074607
 20
-15.3356839056
 10
-6.5571737496
 20
-15.3560877534
 10
-6.54252822
 20
-15.3787409917
 10
-6.5308192401
 20
-15.4032420839
 10
-6.5222705553
 20
-15.4291951871
 10
-6.5170642143
 20
-15.4562082553
 10
-6.5153193024
 20
-15.4838500694
  0
LINE
  5
27E
100
AcDbEntity
  8
0
100
AcDbLine
 62
7
  6
CONTINUOUS
 10
-4.0762756587
 20
-15.7247398661
 11
-4.1442675657
 21
-15.7184718836
  0
LWPOLYLINE
  5
27F
100
AcDbEntity
  8
RACCORDO
100
AcDbPolyline
 62
7
  6
CONTINUOUS
 90
3
 70
0
 10
7.1610692283
 20
-18.5070349419
 10
7.1354636732
 20
-18.5018319132
 10
7.1094109243
 20
-18.5
  0
LINE
  5
280
100
AcDbEntity
  8
RACCORDO
100
AcDbLine
 62
7
  6
CONTINUOUS
 10
7.2419286989
 20
-20.8366629075
 11
7.3830351795
 21
-20.9
  0
LINE
  5
281
100
AcDbEntity
  8
DRAFT
100
AcDbLine
 62
7
  6
CONTINUOUS
 10
6.9339198284
 20
-21.2
 11
6.8667670239
 21
-21.1647852141
  0
LINE
  5
282
100
AcDbEntity
  8
0
100
AcDbLine
 62
7
  6
CONTINUOUS
 10
-4.3722913886
 20
-17.1161834371
 11
-4.3409495229
 21
-17.1348187491
  0
LWPOLYLINE
  5
283
100
AcDbEntity
  8
0
100
AcDbPolyline
 62
7
  6
CONTINUOUS
 90
3
 70
0
 10
-4.3409495229
 20
-17.1348187491
 10
-4.3130996652
 20
-17.1572476174
 10
-4.288422417
 20
-17.1831685321
  0
LWPOLYLINE
  5
284
100
AcDbEntity
  8
RACCORDO
100
AcDbPolyline
 62
250
  6
CONTINUOUS
 90
6
 70
0
 10
-6.698556545
 20
-18.5782477143
 10
-6.6840226857
 20
-18.6000000001
 10
-6.6724523006
 20
-18.6234633136
 10
-6.664043362
 20
-18.648236191
 10
-6.6589397493
 20
-18.6738947616
 10
-6.6572287868
 20
-18.7
  0
LWPOLYLINE
  5
285
100
AcDbEntity
  8
RACCORDO
100
AcDbPolyline
 62
7
  6
CONTINUOUS
 90
6
 70
0
 10
-6.6467477188
 20
-18.6004004561
 10
-6.6612085203
 20
-18.5786699409
 10
-6.6783904723
 20
-18.5589942658
 10
-6.6980161506
 20
-18.5417022105
 10
-6.7197508472
 20
-18.5270906564
 10
-6.7432134297
 20
-18.5154418811
  0
LINE
  5
286
100
AcDbEntity
  8
RACCORDO
100
AcDbLine
 62
7
  6
CONTINUOUS
 10
-0.3930628585
 20
20.437994886
 11
-0.2629729446
 21
20.5680847998
  0
LWPOLYLINE
  5
287
100
AcDbEntity
  8
RACCORDO
100
AcDbPolyline
 62
7
  6
CONTINUOUS
 90
22
 70
0
 10
6.8556039598
 20
20.7438927334
 10
6.8439789161
 20
20.7378805693
 10
6.8321363454
 20
20.7312003699
 10
6.8200762477
 20
20.7238550254
 10
6.8076750791
 20
20.715833352
 10
6.7950563834
 20
20.707188436
 10
6.7825907924
 20
20.6980495277
 10
6.7702734169
 20
20.6884737471
 10
6.758109146
 20
20.6785497693
 10
6.7464832792
 20
20.6684860309
 10
6.7355401445
 20
20.6585352325
 10
6.7251354139
 20
20.6486470512
 10
6.7152214031
 20
20.6386064448
 10
6.7056971984
 20
20.6285495836
 10
6.6966637136
 20
20.6186690987
 10
6.6883760053
 20
20.6089416221
 10
6.6807906414
 20
20.59955129
 10
6.6739510539
 20
20.5909907663
 10
6.6682425964
 20
20.5837458779
 10
6.6637937198
 20
20.5781702503
 10
6.6604759731
 20
20.5745483306
 10
6.6582893563
 20
20.5731858629
  0
LINE
  5
288
100
AcDbEntity
  8
0
100
AcDbLine
 62
7
  6
CONTINUOUS
 10
-3.325037
 20
14.660905
 11
-2.120197
 21
15.006388
  0
LINE
  5
289
100
AcDbEntity
  8
0
100
AcDbLine
 62
7
  6
CONTINUOUS
 10
-2.694959
 20
14.471557
 11
-1.474954
 21
14.821383
  0
LWPOLYLINE
  5
28A
100
AcDbEntity
  8
0
100
AcDbPolyline
 62
7
  6
CONTINUOUS
 90
30
 70
0
 10
-4.6254643741
 20
-16.895050777
 10
-4.6884508743
 20
-16.9106536864
 10
-4.7468337123
 20
-16.9314063468
 10
-4.8009561948
 20
-16.9567891913
 10
-4.8501536134
 20
-16.9866189276
 10
-4.8943177673
 20
-17.021213253
 10
-4.9335568573
 20
-17.0602544096
 10
-4.9675307772
 20
-17.1026059257
 10
-4.9963066365
 20
-17.1483260179
 10
-5.0198173257
 20
-17.1973564082
 10
-5.0375214104
 20
-17.2483859022
 10
-5.049378331
 20
-17.3017717062
 10
-5.0554286472
 20
-17.3571565666
 10
-5.0552526031
 20
-17.4121576381
 10
-5.0483811063
 20
-17.4668400702
 10
-5.0352832491
 20
-17.5211387205
 10
-5.0169465532
 20
-17.5724753625
 10
-4.9934817709
 20
-17.6204586355
 10
-4.9647781498
 20
-17.6654799647
 10
-4.9314909543
 20
-17.7061353428
 10
-4.8936982095
 20
-17.7421828425
 10
-4.8513218902
 20
-17.7738644638
 10
-4.8047831847
 20
-17.8005021025
 10
-4.753452042
 20
-17.8220076985
 10
-4.6979585131
 20
-17.8384693643
 10
-4.6406139394
 20
-17.8494732529
 10
-4.5808037892
 20
-17.8548418105
 10
-4.5191425942
 20
-17.8547526104
 10
-4.4597852907
 20
-17.8493244874
 10
-4.4035403876
 20
-17.8384864559
  0
LWPOLYLINE
  5
28B
100
AcDbEntity
  8
0
100
AcDbPolyline
 62
7
  6
CONTINUOUS
 90
21
 70
0
 10
2.8571303748
 20
-13.7768645005
 10
2.8928185086
 20
-13.7733770501
 10
2.9284273062
 20
-13.7687252125
 10
2.9637553666
 20
-13.7624655043
 10
2.9989133542
 20
-13.7545729272
 10
3.0337906046
 20
-13.7450724756
 10
3.0678537236
 20
-13.7335956529
 10
3.1010676405
 20
-13.7201706994
 10
3.133467426
 20
-13.7047693667
 10
3.164624897
 20
-13.6869384225
 10
3.1945983691
 20
-13.6666538454
 10
3.2233295268
 20
-13.6439396416
 10
3.2502152412
 20
-13.6184146164
 10
3.2753131817
 20
-13.589814663
 10
3.2985656789
 20
-13.5584038627
 10
3.3191965955
 20
-13.5245933016
 10
3.3369768611
 20
-13.4883671066
 10
3.3521355461
 20
-13.4497411237
 10
3.3645837247
 20
-13.4091740217
 10
3.3742142908
 20
-13.3664439598
 10
3.3811343505
 20
-13.3217727522
  0
LWPOLYLINE
  5
28C
100
AcDbEntity
  8
0
100
AcDbPolyline
 62
7
  6
CONTINUOUS
 90
4
 70
0
 10
2.864467135
 20
-13.6822274931
 10
2.8265413922
 20
-13.6857864526
 10
2.788316133
 20
-13.6877716786
 10
2.7497913572
 20
-13.6881831718
  0
LWPOLYLINE
  5
28D
100
AcDbEntity
  8
0
100
AcDbPolyline
 62
7
  6
CONTINUOUS
 90
3
 70
0
 10
2.7856503659
 20
-13.7806418976
 10
2.8214300385
 20
-13.779335392
 10
2.8571303748
 20
-13.7768645005
  0
LINE
  5
28E
100
AcDbEntity
  8
0
100
AcDbLine
 62
7
  6
CONTINUOUS
 10
1.850359
 20
-15.336591
 11
3.350368
 21
-15.336591
  0
LINE
  5
28F
100
AcDbEntity
  8
RACCORDO
100
AcDbLine
 62
7
  6
CONTINUOUS
 10
-7.319462557
 20
-15.2755396155
 11
-6.7148190698
 21
-15.2755396155
  0
LINE
  5
290
100
AcDbEntity
  8
RACCORDO
100
AcDbLine
 62
7
  6
CONTINUOUS
 10
-0.1992738542
 20
-15.2755396155
 11
0.1992738542
 21
-15.2755396155
  0
LINE
  5
291
100
AcDbEntity
  8
RACCORDO
100
AcDbLine
 62
7
  6
CONTINUOUS
 10
6.7148190698
 20
-15.2755396155
 11
7.319462557
 21
-15.2755396155
  0
LINE
  5
292
100
AcDbEntity
  8
0
100
AcDbLine
 62
7
  6
CONTINUOUS
 10
3.182302
 20
-15.137013
 11
2.663401
 21
-15.137013
  0
LINE
  5
293
100
AcDbEntity
  8
0
100
AcDbLine
 62
7
  6
CONTINUOUS
 10
2.49532
 20
-15.137013
 11
2.018425
 21
-15.137013
  0
LINE
  5
294
100
AcDbEntity
  8
0
100
AcDbLine
 62
7
  6
CONTINUOUS
 10
-4.7527431075
 20
-14.9368994413
 11
-4.0779329609
 21
-14.9368994413
  0
LINE
  5
295
100
AcDbEntity
  8
0
100
AcDbLine
 62
7
  6
CONTINUOUS
 10
-3.9082402235
 20
-14.9368994413
 11
-3.55
 21
-14.9368994413
  0
LINE
  5
296
100
AcDbEntity
  8
0
100
AcDbLine
 62
7
  6
CONTINUOUS
 10
-3.55
 20
-14.7525418994
 11
-3.9082402235
 21
-14.7525418994
  0
LINE
  5
297
100
AcDbEntity
  8
0
100
AcDbLine
 62
7
  6
CONTINUOUS
 10
-4.0779329609
 20
-14.7525418994
 11
-5.05
 21
-14.7525418994
  0
LINE
  5
298
100
AcDbEntity
  8
0
100
AcDbLine
 62
7
  6
CONTINUOUS
 10
-3.9082402235
 20
-14.5493296089
 11
-4.0779329609
 21
-14.5493296089
  0
LINE
  5
299
100
AcDbEntity
  8
0
100
AcDbLine
 62
7
  6
CONTINUOUS
 10
-4.0779329609
 20
-14.4236312849
 11
-3.9082402235
 21
-14.4236312849
  0
LINE
  5
29A
100
AcDbEntity
  8
0
100
AcDbLine
 62
7
  6
CONTINUOUS
 10
2.663401
 20
-14.357559
 11
2.49532
 21
-14.357559
  0
LINE
  5
29B
100
AcDbEntity
  8
0
100
AcDbLine
 62
7
  6
CONTINUOUS
 10
2.018425
 20
-14.300878
 11
1.850359
 21
-14.300878
  0
LINE
  5
29C
100
AcDbEntity
  8
0
100
AcDbLine
 62
7
  6
CONTINUOUS
 10
3.350368
 20
-14.29455
 11
3.182302
 21
-14.29455
  0
LINE
  5
29D
100
AcDbEntity
  8
0
100
AcDbLine
 62
7
  6
CONTINUOUS
 10
1.8489555797
 20
-13.7807840174
 11
2.7856503659
 21
-13.7806418976
  0
LINE
  5
29E
100
AcDbEntity
  8
0
100
AcDbLine
 62
7
  6
CONTINUOUS
 10
-4.7527431075
 20
-13.7720949721
 11
-4.0779329609
 21
-13.7720949721
  0
LINE
  5
29F
100
AcDbEntity
  8
0
100
AcDbLine
 62
7
  6
CONTINUOUS
 10
-3.9082402235
 20
-13.7720949721
 11
-3.55
 21
-13.7720949721
  0
LINE
  5
2A0
100
AcDbEntity
  8
0
100
AcDbLine
 62
7
  6
CONTINUOUS
 10
2.7497913572
 20
-13.6881831718
 11
1.8489555797
 21
-13.6881831718
  0
LWPOLYLINE
  5
2A1
100
AcDbEntity
  8
RACCORDO
100
AcDbPolyline
 62
7
  6
CONTINUOUS
 90
13
 70
0
 10
7.319462557
 20
-15.2755396155
 10
7.3450382139
 20
-15.2772639035
 10
7.3702803715
 20
-15.2824077141
 10
7.3947628176
 20
-15.2909290282
 10
7.4180826208
 20
-15.3027590431
 10
7.4398058361
 20
-15.3177252699
 10
7.4594919121
 20
-15.3355278816
 10
7.4767719554
 20
-15.3558765062
 10
7.4913687432
 20
-15.3784690173
 10
7.5030389781
 20
-15.4029109815
 10
7.5115595482
 20
-15.4288106788
 10
7.5167459172
 20
-15.4557762904
 10
7.5184775044
 20
-15.483378525
  0
LWPOLYLINE
  5
2A2
100
AcDbEntity
  8
RACCORDO
100
AcDbPolyline
 62
7
  6
CONTINUOUS
 90
13
 70
0
 10
0.1992738542
 20
-15.2755396155
 10
0.224877675
 20
-15.2772689045
 10
0.2501581719
 20
-15.2824239732
 10
0.274687355
 20
-15.2909646938
 10
0.2980614494
 20
-15.3028251149
 10
0.3198428908
 20
-15.3178327493
 10
0.3395854632
 20
-15.3356839056
 10
0.3569191744
 20
-15.3560877534
 10
0.371564704
 20
-15.3787409917
 10
0.3832736838
 20
-15.4032420839
 10
0.3918223686
 20
-15.4291951871
 10
0.3970287097
 20
-15.4562082553
 10
0.3987736215
 20
-15.4838500694
  0
LINE
  5
2A3
100
AcDbEntity
  8
0
100
AcDbLine
 62
7
  6
CONTINUOUS
 10
1.850364
 20
-15.79878
 11
3.150795
 21
-16.2336415
  0
LINE
  5
2A4
100
AcDbEntity
  8
0
100
AcDbLine
 62
7
  6
CONTINUOUS
 10
3.350372
 20
-16.124417
 11
1.850364
 21
-15.590784
  0
LWPOLYLINE
  5
2A5
100
AcDbEntity
  8
RACCORDO
100
AcDbPolyline
 62
7
  6
CONTINUOUS
 90
22
 70
0
 10
6.6606915742
 20
-20.2979189575
 10
6.6628862666
 20
-20.2992892113
 10
6.6662196823
 20
-20.3029321636
 10
6.6706918214
 20
-20.3085395443
 10
6.6764340304
 20
-20.3158254269
 10
6.6833149627
 20
-20.3244326196
 10
6.6909405791
 20
-20.3338675304
 10
6.699266706
 20
-20.3436314744
 10
6.7083375169
 20
-20.3535396439
 10
6.7178914927
 20
-20.363615079
 10
6.7278293987
 20
-20.3736663644
 10
6.7382504697
 20
-20.3835548809
 10
6.7491908907
 20
-20.3934900802
 10
6.7607854605
 20
-20.4035156115
 10
6.7728993803
 20
-20.4133867721
 10
6.7851644387
 20
-20.4229116363
 10
6.7975759019
 20
-20.4320045545
 10
6.8101385037
 20
-20.4406075985
 10
6.8224982332
 20
-20.4486004689
 10
6.8345370869
 20
-20.4559317792
 10
6.8463730684
 20
-20.462608445
 10
6.8580061777
 20
-20.4686258279
  0
LINE
  5
2A6
100
AcDbEntity
  8
0
100
AcDbLine
 62
7
  6
CONTINUOUS
 10
-4.0779329609
 20
-15.4073188577
 11
-4.7527431075
 21
-14.9368994413
  0
LINE
  5
2A7
100
AcDbEntity
  8
0
100
AcDbLine
 62
7
  6
CONTINUOUS
 10
-4.0779329609
 20
-14.2425143884
 11
-4.7527431075
 21
-13.7720949721
  0
LINE
  5
2A8
100
AcDbEntity
  8
0
100
AcDbLine
 62
7
  6
CONTINUOUS
 10
-5.05
 20
-14.9033798883
 11
-4.0779329609
 21
-15.5884357542
  0
LINE
  5
2A9
100
AcDbEntity
  8
0
100
AcDbLine
 62
7
  6
CONTINUOUS
 10
-5.05
 20
-13.738575419
 11
-4.0779329609
 21
-14.4236312849
  0
LINE
  5
2AA
100
AcDbEntity
  8
RACCORDO
100
AcDbLine
 62
7
  6
CONTINUOUS
 10
-0.2629729446
 20
-20.2904156765
 11
-0.3973151228
 21
-20.1560734983
  0
LWPOLYLINE
  5
2AB
100
AcDbEntity
  8
0
100
AcDbPolyline
 62
7
  6
CONTINUOUS
 90
4
 70
0
 10
-4.149482621
 20
-17.1520925892
 10
-4.181033312
 20
-17.1159615246
 10
-4.2167155508
 20
-17.0835693868
 10
-4.2565293376
 20
-17.0549162011
  0
LINE
  5
2AC
100
AcDbEntity
  8
RACCORDO
100
AcDbLine
 62
7
  6
CONTINUOUS
 10
-7.5073728206
 20
20.5266837345
 11
-7.3830351795
 21
20.9
  0
LINE
  5
2AD
100
AcDbEntity
  8
0
100
AcDbLine
 62
7
  6
CONTINUOUS
 10
-3.325037
 20
11.926845
 11
-2.051155
 21
12.335843
  0
LINE
  5
2AE
100
AcDbEntity
  8
0
100
AcDbLine
 62
7
  6
CONTINUOUS
 10
-3.325037
 20
11.556827
 11
-1.474949
 21
12.150825
  0
LINE
  5
2AF
100
AcDbEntity
  8
RACCORDO
100
AcDbLine
 62
7
  6
CONTINUOUS
 10
-2.3927260619
 20
-12.976209278
 11
-2.4760409428
 21
-12.984519817
  0
LINE
  5
2B0
100
AcDbEntity
  8
0
100
AcDbLine
 62
7
  6
CONTINUOUS
 10
-3.55
 20
-13.5877374302
 11
-3.9082402235
 21
-13.5877374302
  0
LINE
  5
2B1
100
AcDbEntity
  8
0
100
AcDbLine
 62
7
  6
CONTINUOUS
 10
-4.0779329609
 20
-13.5877374302
 11
-5.05
 21
-13.5877374302
  0
LINE
  5
2B2
100
AcDbEntity
  8
0
100
AcDbLine
 62
7
  6
CONTINUOUS
 10
-3.9082402235
 20
-13.3845251397
 11
-4.0779329609
 21
-13.3845251397
  0
LINE
  5
2B3
100
AcDbEntity
  8
0
100
AcDbLine
 62
7
  6
CONTINUOUS
 10
-5.3
 20
-13.2
 11
-1.3
 21
-13.2
  0
LINE
  5
2B4
100
AcDbEntity
  8
DRAFT
100
AcDbLine
 62
7
  6
CONTINUOUS
 10
-4.8499508763
 20
-13.0
 11
-2.6457513111
 21
-13.0
  0
LINE
  5
2B5
100
AcDbEntity
  8
DRAFT
100
AcDbLine
 62
7
  6
CONTINUOUS
 10
2.6457513111
 20
-13.0
 11
4.8499508764
 21
-13.0
  0
LINE
  5
2B6
100
AcDbEntity
  8
RACCORDO
100
AcDbLine
 62
7
  6
CONTINUOUS
 10
-4.8177218441
 20
-12.9869096983
 11
-2.7748993522
 21
-12.9869096983
  0
LINE
  5
2B7
100
AcDbEntity
  8
RACCORDO
100
AcDbLine
 62
7
  6
CONTINUOUS
 10
4.8177218442
 20
-12.9869096983
 11
2.7748993522
 21
-12.9869096983
  0
LINE
  5
2B8
100
AcDbEntity
  8
RACCORDO
100
AcDbLine
 62
7
  6
CONTINUOUS
 10
-2.0938676525
 20
-12.9738193966
 11
2.0938676525
 21
-12.9738193966
  0
LINE
  5
2B9
100
AcDbEntity
  8
RACCORDO
100
AcDbLine
 62
7
  6
CONTINUOUS
 10
2.4760409428
 20
-12.984519817
 11
2.3927260619
 21
-12.976209278
  0
LWPOLYLINE
  5
2BA
100
AcDbEntity
  8
RACCORDO
100
AcDbPolyline
 62
7
  6
CONTINUOUS
 90
8
 70
0
 10
-9.5837337608
 20
-10.4333017676
 10
-9.581710388
 20
-10.4338543528
 10
-9.5766078967
 20
-10.4343896844
 10
-9.5684262867
 20
-10.4349077622
 10
-9.5569960673
 20
-10.4354141991
 10
-9.5424867292
 20
-10.4359033824
 10
-9.5254067451
 20
-10.4363584734
 10
-9.4834296129
 20
-10.4371626393
  0
LINE
  5
2BB
100
AcDbEntity
  8
0
100
AcDbLine
 62
7
  6
CONTINUOUS
 10
-5.739695958
 20
-11.1585358465
 11
-5.7718517719
 21
-11.1449972769
  0
LINE
  5
2BC
100
AcDbEntity
  8
0
100
AcDbLine
 62
7
  6
CONTINUOUS
 10
-5.7076639741
 20
-11.1722790924
 11
-5.739695958
 21
-11.1585358465
  0
LINE
  5
2BD
100
AcDbEntity
  8
0
100
AcDbLine
 62
7
  6
CONTINUOUS
 10
-5.6757558203
 20
-11.1862270146
 11
-5.7076639741
 21
-11.1722790924
  0
LINE
  5
2BE
100
AcDbEntity
  8
0
100
AcDbLine
 62
7
  6
CONTINUOUS
 10
-5.6632471071
 20
-11.1677254263
 11
-5.7611776175
 21
-11.1221062937
  0
LINE
  5
2BF
100
AcDbEntity
  8
TRASH
100
AcDbLine
 62
7
  6
CONTINUOUS
 10
-6.5197234839
 20
-10.5197234839
 11
-7.1449972769
 21
-10.2281482281
  0
LINE
  5
2C0
100
AcDbEntity
  8
0
100
AcDbLine
 62
7
  6
CONTINUOUS
 10
-6.6856683555
 20
-10.685668357
 11
-6.7468689243
 21
-10.6549022944
  0
LINE
  5
2C1
100
AcDbEntity
  8
0
100
AcDbLine
 62
7
  6
CONTINUOUS
 10
-6.7468689243
 20
-10.6549022944
 11
-6.8280369558
 21
-10.6135866118
  0
LINE
  5
2C2
100
AcDbEntity
  8
0
100
AcDbLine
 62
7
  6
CONTINUOUS
 10
-6.8280369558
 20
-10.6135866118
 11
-6.9087087716
 21
-10.5720143407
  0
LINE
  5
2C3
100
AcDbEntity
  8
0
100
AcDbLine
 62
7
  6
CONTINUOUS
 10
-6.9087087716
 20
-10.5720143407
 11
-6.991283382
 21
-10.5290152387
  0
LWPOLYLINE
  5
2C4
100
AcDbEntity
  8
0
100
AcDbPolyline
 62
7
  6
CONTINUOUS
 90
3
 70
0
 10
-6.991283382
 20
-10.5290152387
 10
-7.1782125885
 20
-10.4302912806
 10
-7.2047094577
 20
-10.4160654041
  0
LINE
  5
2C5
100
AcDbEntity
  8
0
100
AcDbLine
 62
7
  6
CONTINUOUS
 10
-7.2047094577
 20
-10.4160654041
 11
-7.2212101145
 21
-10.4046463507
  0
LWPOLYLINE
  5
2C6
100
AcDbEntity
  8
0
100
AcDbPolyline
 62
7
  6
CONTINUOUS
 90
20
 70
0
 10
-4.288422417
 20
-17.1831685321
 10
-4.2675267499
 20
-17.2116335719
 10
-4.2504823594
 20
-17.2429935303
 10
-4.2372195499
 20
-17.2768975803
 10
-4.228138207
 20
-17.3113453875
 10
-4.2233509743
 20
-17.3459356988
 10
-4.2227452081
 20
-17.3810697611
 10
-4.2263828631
 20
-17.4159510093
 10
-4.2343817161
 20
-17.4509761585
 10
-4.2466239903
 20
-17.485748495
 10
-4.2628183094
 20
-17.5182813307
 10
-4.2830109699
 20
-17.5483338524
 10
-4.3071556753
 20
-17.5761469039
 10
-4.3348221601
 20
-17.6004563018
 10
-4.3663791345
 20
-17.6209717535
 10
-4.4014578883
 20
-17.6379835859
 10
-4.4385220261
 20
-17.6510985511
 10
-4.4770594163
 20
-17.6601855731
 10
-4.5175821905
 20
-17.6653757464
 10
-4.5600903487
 20
-17.6666690755
  0
LINE
  5
2C7
100
AcDbEntity
  8
RACCORDO
100
AcDbLine
 62
7
  6
CONTINUOUS
 10
-9.5837337608
 20
-10.4333017676
 11
-9.65
 21
-10.3007591949
  0
LINE
  5
2C8
100
AcDbEntity
  8
RACCORDO
100
AcDbLine
 62
7
  6
CONTINUOUS
 10
-7.5073728206
 20
-20.5266837345
 11
-7.3830351795
 21
-20.9
  0
LINE
  5
2C9
100
AcDbEntity
  8
0
100
AcDbLine
 62
7
  6
CONTINUOUS
 10
-11.15
 20
21.8997711479
 11
-11.15
 21
-21.8997711479
  0
LWPOLYLINE
  5
2CA
100
AcDbEntity
  8
RACCORDO
100
AcDbPolyline
 62
250
  6
CONTINUOUS
 90
13
 70
0
 10
-9.5879500862
 20
20.2270948741
 10
-9.5853674824
 20
20.2661860451
 10
-9.5776994966
 20
20.3046091301
 10
-9.5650771148
 20
20.3417071021
 10
-9.5477160418
 20
20.3768455738
 10
-9.5259130313
 20
20.4094236186
 10
-9.5000408266
 20
20.4388840564
 10
-9.4705417469
 20
20.4647230353
 10
-9.4379201734
 20
20.4864985912
 10
-9.4027339671
 20
20.5038382142
 10
-9.3655848338
 20
20.5164452911
 10
-9.3271080177
 20
20.5241041531
 10
-9.2879615093
 20
20.5266837345
  0
LINE
  5
2CB
100
AcDbEntity
  8
0
100
AcDbLine
 62
7
  6
CONTINUOUS
 10
1.2845086039
 20
13.0399406522
 11
1.3103208469
 21
13.0534751492
  0
LINE
  5
2CC
100
AcDbEntity
  8
0
100
AcDbLine
 62
7
  6
CONTINUOUS
 10
8.0252605717
 20
-10.2281948247
 11
7.7352066315
 21
-10.293163861
  0
LINE
  5
2CD
100
AcDbEntity
  8
0
100
AcDbLine
 62
7
  6
CONTINUOUS
 10
3.974739428
 20
-9.7718051776
 11
4.2647934032
 21
-9.7068361337
  0
LINE
  5
2CE
100
AcDbEntity
  8
0
100
AcDbLine
 62
7
  6
CONTINUOUS
 10
7.7352066315
 20
-10.293163861
 11
7.4426043897
 21
-10.3571532618
  0
LINE
  5
2CF
100
AcDbEntity
  8
0
100
AcDbLine
 62
7
  6
CONTINUOUS
 10
4.2647934032
 20
-9.7068361337
 11
4.5573956214
 21
-9.6428467383
  0
LINE
  5
2D0
100
AcDbEntity
  8
0
100
AcDbLine
 62
7
  6
CONTINUOUS
 10
7.4426043897
 20
-10.3571532618
 11
7.2213807973
 21
-10.4045281811
  0
LINE
  5
2D1
100
AcDbEntity
  8
0
100
AcDbLine
 62
7
  6
CONTINUOUS
 10
4.5573956214
 20
-9.6428467383
 11
4.7786191972
 21
-9.5954718227
  0
LWPOLYLINE
  5
2D2
100
AcDbEntity
  8
RACCORDO
100
AcDbPolyline
 62
7
  6
CONTINUOUS
 90
7
 70
0
 10
9.5255086069
 20
-10.4363560551
 10
9.5425488
 20
-10.4359019897
 10
9.5570089287
 20
-10.4354142939
 10
9.5684058076
 20
-10.4349088368
 10
9.5765783751
 20
-10.4343909083
 10
9.5816876928
 20
-10.4338552185
 10
9.5837337608
 20
-10.4333017676
  0
LINE
  5
2D3
100
AcDbEntity
  8
RACCORDO
100
AcDbLine
 62
7
  6
CONTINUOUS
 10
9.4835773503
 20
-10.4371604013
 11
9.5255086069
 21
-10.4363560551
  0
LINE
  5
2D4
100
AcDbEntity
  8
RACCORDO
100
AcDbLine
 62
7
  6
CONTINUOUS
 10
9.4331667646
 20
-10.4377947002
 11
9.4835773503
 21
-10.4371604013
  0
LINE
  5
2D5
100
AcDbEntity
  8
RACCORDO
100
AcDbLine
 62
7
  6
CONTINUOUS
 10
9.3461401504
 20
-10.4383769632
 11
9.4331667646
 21
-10.4377947002
  0
LINE
  5
2D6
100
AcDbEntity
  8
RACCORDO
100
AcDbLine
 62
7
  6
CONTINUOUS
 10
9.2837449843
 20
-10.4384918414
 11
9.3461401504
 21
-10.4383769632
  0
LINE
  5
2D7
100
AcDbEntity
  8
DRAFT
100
AcDbLine
 62
7
  6
CONTINUOUS
 10
9.2837449843
 20
-10.4384918414
 11
9.1821885645
 21
-10.4384918414
  0
LINE
  5
2D8
100
AcDbEntity
  8
DRAFT
100
AcDbLine
 62
7
  6
CONTINUOUS
 10
-9.1821885645
 20
-10.4384918414
 11
-9.2837449843
 21
-10.4384918414
  0
LINE
  5
2D9
100
AcDbEntity
  8
DRAFT
100
AcDbLine
 62
7
  6
CONTINUOUS
 10
-9.65
 20
-10.3007591949
 11
-9.1983439337
 21
-10.3007591949
  0
LINE
  5
2DA
100
AcDbEntity
  8
DRAFT
100
AcDbLine
 62
7
  6
CONTINUOUS
 10
9.1983439337
 20
-10.3007591949
 11
9.65
 21
-10.3007591949
  0
LINE
  5
2DB
100
AcDbEntity
  8
0
100
AcDbLine
 62
7
  6
CONTINUOUS
 10
-3.9747394283
 20
-10.2281948247
 11
-4.8549920768
 21
-10.22819274
  0
LINE
  5
2DC
100
AcDbEntity
  8
0
100
AcDbLine
 62
7
  6
CONTINUOUS
 10
8.0252605717
 20
-10.2281948247
 11
7.1450079232
 21
-10.22819274
  0
LINE
  5
2DD
100
AcDbEntity
  8
0
100
AcDbLine
 62
7
  6
CONTINUOUS
 10
-7.1450395831
 20
-10.2283532711
 11
-8.0252741745
 21
-10.2280740656
  0
LINE
  5
2DE
100
AcDbEntity
  8
0
100
AcDbLine
 62
7
  6
CONTINUOUS
 10
4.8549604169
 20
-10.2283532711
 11
3.9747258255
 21
-10.2280740656
  0
LINE
  5
2DF
100
AcDbEntity
  8
RACCORDO
100
AcDbLine
 62
7
  6
CONTINUOUS
 10
-9.3759570174
 20
-10.4382383504
 11
-9.2837449843
 21
-10.4384918414
  0
LINE
  5
2E0
100
AcDbEntity
  8
RACCORDO
100
AcDbLine
 62
7
  6
CONTINUOUS
 10
-9.4330864388
 20
-10.4377957714
 11
-9.3759570174
 21
-10.4382383504
  0
LINE
  5
2E1
100
AcDbEntity
  8
RACCORDO
100
AcDbLine
 62
7
  6
CONTINUOUS
 10
-9.4834296129
 20
-10.4371626393
 11
-9.4330864388
 21
-10.4377957714
  0
LINE
  5
2E2
100
AcDbEntity
  8
0
100
AcDbLine
 62
7
  6
CONTINUOUS
 10
-7.2212101145
 20
-10.4046463507
 11
-7.5014314261
 21
-10.344277448
  0
LINE
  5
2E3
100
AcDbEntity
  8
0
100
AcDbLine
 62
7
  6
CONTINUOUS
 10
-4.4476236861
 20
-9.6668304958
 11
-4.7787898855
 21
-9.5953536493
  0
LINE
  5
2E4
100
AcDbEntity
  8
0
100
AcDbLine
 62
7
  6
CONTINUOUS
 10
-7.5014314261
 20
-10.344277448
 11
-7.775193754
 21
-10.284106723
  0
LINE
  5
2E5
100
AcDbEntity
  8
0
100
AcDbLine
 62
7
  6
CONTINUOUS
 10
-4.1650072119
 20
-9.7291995578
 11
-4.4476236861
 21
-9.6668304958
  0
LINE
  5
2E6
100
AcDbEntity
  8
0
100
AcDbLine
 62
7
  6
CONTINUOUS
 10
-7.775193754
 20
-10.284106723
 11
-8.0252741745
 21
-10.2280740656
  0
LINE
  5
2E7
100
AcDbEntity
  8
0
100
AcDbLine
 62
7
  6
CONTINUOUS
 10
-3.9747258255
 20
-9.7719259344
 11
-4.1650072119
 21
-9.7291995578
  0
LINE
  5
2E8
100
AcDbEntity
  8
0
100
AcDbLine
 62
7
  6
CONTINUOUS
 10
-6.260304042
 20
-8.8414641535
 11
-6.2281482281
 21
-8.8550027231
  0
LINE
  5
2E9
100
AcDbEntity
  8
0
100
AcDbLine
 62
7
  6
CONTINUOUS
 10
-6.2923360259
 20
-8.8277209076
 11
-6.260304042
 21
-8.8414641535
  0
LINE
  5
2EA
100
AcDbEntity
  8
0
100
AcDbLine
 62
7
  6
CONTINUOUS
 10
-6.3242441797
 20
-8.8137729854
 11
-6.2923360259
 21
-8.8277209076
  0
LINE
  5
2EB
100
AcDbEntity
  8
0
100
AcDbLine
 62
7
  6
CONTINUOUS
 10
-6.3367528929
 20
-8.8322745737
 11
-6.2388223825
 21
-8.8778937063
  0
LINE
  5
2EC
100
AcDbEntity
  8
TRASH
100
AcDbLine
 62
7
  6
CONTINUOUS
 10
-5.4802765161
 20
-9.4802765161
 11
-4.8550027231
 21
-9.7718517719
  0
LINE
  5
2ED
100
AcDbEntity
  8
0
100
AcDbLine
 62
7
  6
CONTINUOUS
 10
-5.3143316445
 20
-9.314331643
 11
-5.2531310757
 21
-9.3450977056
  0
LINE
  5
2EE
100
AcDbEntity
  8
0
100
AcDbLine
 62
7
  6
CONTINUOUS
 10
-5.2531310757
 20
-9.3450977056
 11
-5.1719630442
 21
-9.3864133882
  0
LINE
  5
2EF
100
AcDbEntity
  8
0
100
AcDbLine
 62
7
  6
CONTINUOUS
 10
-5.1719630442
 20
-9.3864133882
 11
-5.0912912284
 21
-9.4279856593
  0
LINE
  5
2F0
100
AcDbEntity
  8
0
100
AcDbLine
 62
7
  6
CONTINUOUS
 10
-5.0912912284
 20
-9.4279856593
 11
-5.008716618
 21
-9.4709847613
  0
LWPOLYLINE
  5
2F1
100
AcDbEntity
  8
0
100
AcDbPolyline
 62
7
  6
CONTINUOUS
 90
3
 70
0
 10
-5.008716618
 20
-9.4709847613
 10
-4.8217874115
 20
-9.5697087194
 10
-4.7952905423
 20
-9.5839345959
  0
LINE
  5
2F2
100
AcDbEntity
  8
0
100
AcDbLine
 62
7
  6
CONTINUOUS
 10
-4.7787898855
 20
-9.5953536493
 11
-4.7952905423
 21
-9.5839345959
  0
LINE
  5
2F3
100
AcDbEntity
  8
0
100
AcDbLine
 62
7
  6
CONTINUOUS
 10
-5.4802765158
 20
-10.5197234842
 11
-5.3143318992
 21
-10.6856679962
  0
LINE
  5
2F4
100
AcDbEntity
  8
0
100
AcDbLine
 62
7
  6
CONTINUOUS
 10
-6.5197234842
 20
-9.4802765158
 11
-6.6856681008
 21
-9.3143320038
  0
LINE
  5
2F5
100
AcDbEntity
  8
0
100
AcDbLine
 62
7
  6
CONTINUOUS
 10
-6.3367529409
 20
-11.1677253337
 11
-6.3240746636
 21
-11.1864777236
  0
LINE
  5
2F6
100
AcDbEntity
  8
0
100
AcDbLine
 62
7
  6
CONTINUOUS
 10
-6.438754429
 20
-10.9699726458
 11
-6.3367529409
 21
-11.1677253337
  0
LINE
  5
2F7
100
AcDbEntity
  8
0
100
AcDbLine
 62
7
  6
CONTINUOUS
 10
-6.5014287494
 20
-10.8470795985
 11
-6.438754429
 21
-10.9699726458
  0
LINE
  5
2F8
100
AcDbEntity
  8
0
100
AcDbLine
 62
7
  6
CONTINUOUS
 10
-6.6
 20
-10.8545158464
 11
-6.6477538356
 21
-10.760992504
  0
LWPOLYLINE
  5
2F9
100
AcDbEntity
  8
0
100
AcDbPolyline
 62
7
  6
CONTINUOUS
 90
3
 70
0
 10
-6.6477538356
 20
-10.760992504
 10
-6.6762261726
 20
-10.7045433011
 10
-6.6856683555
 20
-10.685668357
  0
LINE
  5
2FA
100
AcDbEntity
  8
0
100
AcDbLine
 62
7
  6
CONTINUOUS
 10
-6.5509952578
 20
-10.7488272441
 11
-6.5014287494
 21
-10.8470795985
  0
LINE
  5
2FB
100
AcDbEntity
  8
0
100
AcDbLine
 62
7
  6
CONTINUOUS
 10
-6.6
 20
-10.6504680325
 11
-6.5509952578
 21
-10.7488272441
  0
LINE
  5
2FC
100
AcDbEntity
  8
0
100
AcDbLine
 62
7
  6
CONTINUOUS
 10
-7.122106287
 20
-9.7611776274
 11
-7.2047093656
 21
-9.5839345468
  0
LINE
  5
2FD
100
AcDbEntity
  8
TRASH
100
AcDbLine
 62
7
  6
CONTINUOUS
 10
-6.4731307638
 20
-10.6196800794
 11
-6.5197234839
 21
-10.5197234839
  0
LINE
  5
2FE
100
AcDbEntity
  8
TRASH
100
AcDbLine
 62
7
  6
CONTINUOUS
 10
-6.2281482181
 20
-11.1449972701
 11
-6.4731307638
 21
-10.6196800794
  0
LINE
  5
2FF
100
AcDbEntity
  8
0
100
AcDbLine
 62
7
  6
CONTINUOUS
 10
-7.1449972701
 20
-9.7718517819
 11
-7.2213808028
 21
-9.5954718227
  0
LWPOLYLINE
  5
300
100
AcDbEntity
  8
RACCORDO
100
AcDbPolyline
 62
250
  6
CONTINUOUS
 90
13
 70
0
 10
-7.2293696815
 20
-20.1171572875
 10
-7.2274017151
 20
-20.1352963416
 10
-7.2221423768
 20
-20.1531896548
 10
-7.2136494171
 20
-20.1705357589
 10
-7.2020236077
 20
-20.1870530906
 10
-7.1874402364
 20
-20.2024368699
 10
-7.170174151
 20
-20.2163768226
 10
-7.1505322297
 20
-20.2286273937
 10
-7.128834401
 20
-20.2389909837
 10
-7.1054631376
 20
-20.2472862956
 10
-7.0808217567
 20
-20.2533749129
 10
-7.0553235464
 20
-20.257159202
 10
-7.0294001425
 20
-20.2585786438
  0
LINE
  5
301
100
AcDbEntity
  8
RACCORDO
100
AcDbLine
 62
250
  6
CONTINUOUS
 10
-7.3089365232
 20
-18.7
 11
-7.5184775044
 21
-15.483378525
  0
LWPOLYLINE
  5
302
100
AcDbEntity
  8
RACCORDO
100
AcDbPolyline
 62
250
  6
CONTINUOUS
 90
3
 70
0
 10
-9.2879615093
 20
20.5266837345
 10
-9.2877878755
 20
20.5216877301
 10
-9.2876199879
 20
20.5118970808
  0
LINE
  5
303
100
AcDbEntity
  8
RACCORDO
100
AcDbLine
 62
250
  6
CONTINUOUS
 10
-9.5872886078
 20
20.2077750951
 11
-9.5869945607
 21
20.1873915688
  0
LINE
  5
304
100
AcDbEntity
  8
RACCORDO
100
AcDbLine
 62
250
  6
CONTINUOUS
 10
-9.2876199879
 20
20.5118970808
 11
-9.2873000053
 21
20.4783599802
  0
LINE
  5
305
100
AcDbEntity
  8
RACCORDO
100
AcDbLine
 62
250
  6
CONTINUOUS
 10
-9.5869945607
 20
20.1873915688
 11
-9.5866333375
 21
20.1455366434
  0
LINE
  5
306
100
AcDbEntity
  8
RACCORDO
100
AcDbLine
 62
250
  6
CONTINUOUS
 10
-9.2873000053
 20
20.4783599802
 11
-9.2865505933
 21
20.2815454635
  0
LINE
  5
307
100
AcDbEntity
  8
RACCORDO
100
AcDbLine
 62
250
  6
CONTINUOUS
 10
-9.5866333375
 20
20.1455366434
 11
-9.586313809
 21
20.0554130014
  0
LINE
  5
308
100
AcDbEntity
  8
RACCORDO
100
AcDbLine
 62
250
  6
CONTINUOUS
 10
-9.586313809
 20
20.0554130014
 11
-9.5843671525
 21
13.4590698893
  0
LINE
  5
309
100
AcDbEntity
  8
RACCORDO
100
AcDbLine
 62
250
  6
CONTINUOUS
 10
-9.2865505933
 20
20.2815454635
 11
-9.284379225
 21
13.4702064456
  0
LINE
  5
30A
100
AcDbEntity
  8
RACCORDO
100
AcDbLine
 62
7
  6
CONTINUOUS
 10
-9.65
 20
-20.5997254977
 11
-9.65
 21
-10.3007591949
  0
LINE
  5
30B
100
AcDbEntity
  8
RACCORDO
100
AcDbLine
 62
7
  6
CONTINUOUS
 10
-9.65
 20
-9.6992408051
 11
-9.65
 21
20.5997254977
  0
LINE
  5
30C
100
AcDbEntity
  8
RACCORDO
100
AcDbLine
 62
250
  6
CONTINUOUS
 10
-9.5843671525
 20
13.4590698893
 11
-9.582893259
 21
3.5916718207
  0
LINE
  5
30D
100
AcDbEntity
  8
RACCORDO
100
AcDbLine
 62
250
  6
CONTINUOUS
 10
-9.284379225
 20
13.4702064456
 11
-9.2829050942
 21
3.6002576925
  0
LINE
  5
30E
100
AcDbEntity
  8
0
100
AcDbLine
 62
7
  6
CONTINUOUS
 10
-8.8
 20
-6.81
 11
-8.8
 21
-6.6225
  0
LINE
  5
30F
100
AcDbEntity
  8
0
100
AcDbLine
 62
7
  6
CONTINUOUS
 10
-8.8
 20
-5.9975
 11
-8.8
 21
-5.81
  0
LINE
  5
310
100
AcDbEntity
  8
0
100
AcDbLine
 62
7
  6
CONTINUOUS
 10
-8.8
 20
-5.31
 11
-8.8
 21
-5.1433333731
  0
LINE
  5
311
100
AcDbEntity
  8
0
100
AcDbLine
 62
7
  6
CONTINUOUS
 10
-8.8
 20
-4.6433332539
 11
-8.8
 21
-4.1433332539
  0
LINE
  5
312
100
AcDbEntity
  8
0
100
AcDbLine
 62
7
  6
CONTINUOUS
 10
-8.8
 20
-3.6433332539
 11
-8.8
 21
-2.8933332539
  0
LINE
  5
313
100
AcDbEntity
  8
0
100
AcDbLine
 62
7
  6
CONTINUOUS
 10
-8.8
 20
-1.7266665077
 11
-8.8
 21
-1.6016665077
  0
LINE
  5
314
100
AcDbEntity
  8
0
100
AcDbLine
 62
7
  6
CONTINUOUS
 10
-8.8
 20
-1.435
 11
-8.8
 21
-1.2475
  0
LINE
  5
315
100
AcDbEntity
  8
0
100
AcDbLine
 62
7
  6
CONTINUOUS
 10
-8.8
 20
-0.7266665077
 11
-8.8
 21
-0.6016665077
  0
LINE
  5
316
100
AcDbEntity
  8
0
100
AcDbLine
 62
7
  6
CONTINUOUS
 10
-8.8
 20
0.565
 11
-8.8
 21
1.3566669846
  0
LINE
  5
317
100
AcDbEntity
  8
0
100
AcDbLine
 62
7
  6
CONTINUOUS
 10
-8.8
 20
1.5233330154
 11
-8.8
 21
1.6483330154
  0
LINE
  5
318
100
AcDbEntity
  8
0
100
AcDbLine
 62
7
  6
CONTINUOUS
 10
-8.8
 20
2.1483330154
 11
-8.8
 21
2.2733330154
  0
LINE
  5
319
100
AcDbEntity
  8
0
100
AcDbLine
 62
7
  6
CONTINUOUS
 10
-8.8
 20
2.44
 11
-8.8
 21
2.6275
  0
LINE
  5
31A
100
AcDbEntity
  8
0
100
AcDbLine
 62
7
  6
CONTINUOUS
 10
-8.8
 20
3.1483330154
 11
-8.8
 21
3.2733330154
  0
LINE
  5
31B
100
AcDbEntity
  8
0
100
AcDbLine
 62
7
  6
CONTINUOUS
 10
-8.8
 20
3.44
 11
-8.8
 21
3.565
  0
LINE
  5
31C
100
AcDbEntity
  8
0
100
AcDbLine
 62
7
  6
CONTINUOUS
 10
-8.8
 20
4.065
 11
-8.8
 21
4.1691669846
  0
LINE
  5
31D
100
AcDbEntity
  8
0
100
AcDbLine
 62
7
  6
CONTINUOUS
 10
-8.8
 20
4.6691669846
 11
-8.8
 21
4.7941669846
  0
LINE
  5
31E
100
AcDbEntity
  8
0
100
AcDbLine
 62
7
  6
CONTINUOUS
 10
-8.8
 20
5.2941669846
 11
-8.8
 21
5.4608330154
  0
LINE
  5
31F
100
AcDbEntity
  8
0
100
AcDbLine
 62
7
  6
CONTINUOUS
 10
-8.693617034
 20
0.565
 11
-8.693617034
 21
0.8983334923
  0
LINE
  5
320
100
AcDbEntity
  8
0
100
AcDbLine
 62
7
  6
CONTINUOUS
 10
-8.693617034
 20
1.0233334923
 11
-8.693617034
 21
1.3566669846
  0
LINE
  5
321
100
AcDbEntity
  8
0
100
AcDbLine
 62
7
  6
CONTINUOUS
 10
-8.6723404408
 20
-4.5183332539
 11
-8.6723404408
 21
-4.1433332539
  0
LINE
  5
322
100
AcDbEntity
  8
0
100
AcDbLine
 62
7
  6
CONTINUOUS
 10
-8.6723404408
 20
-3.5183332539
 11
-8.6723404408
 21
-2.8933332539
  0
LINE
  5
323
100
AcDbEntity
  8
0
100
AcDbLine
 62
7
  6
CONTINUOUS
 10
-8.6723404408
 20
4.065
 11
-8.6723404408
 21
4.19
  0
LINE
  5
324
100
AcDbEntity
  8
0
100
AcDbLine
 62
7
  6
CONTINUOUS
 10
-8.5659574747
 20
4.315
 11
-8.5659574747
 21
4.44
  0
LINE
  5
325
100
AcDbEntity
  8
RACCORDO
100
AcDbLine
 62
250
  6
CONTINUOUS
 10
-9.582893259
 20
3.5916718207
 11
-9.583581878
 21
-9.5663944438
  0
LINE
  5
326
100
AcDbEntity
  8
RACCORDO
100
AcDbLine
 62
250
  6
CONTINUOUS
 10
-9.2829050942
 20
3.6002576925
 11
-9.2835914673
 21
-9.5612009259
  0
LINE
  5
327
100
AcDbEntity
  8
RACCORDO
100
AcDbLine
 62
250
  6
CONTINUOUS
 10
-9.5864581677
 20
-20.1114734554
 11
-9.5837337608
 21
-10.4333017676
  0
LINE
  5
328
100
AcDbEntity
  8
RACCORDO
100
AcDbLine
 62
250
  6
CONTINUOUS
 10
-9.2870053681
 20
-20.427308795
 11
-9.2837449843
 21
-10.4384918425
  0
LINE
  5
329
100
AcDbEntity
  8
RACCORDO
100
AcDbLine
 62
250
  6
CONTINUOUS
 10
-9.5868621716
 20
-20.1747673026
 11
-9.5864581677
 21
-20.1114734554
  0
LWPOLYLINE
  5
32A
100
AcDbEntity
  8
RACCORDO
100
AcDbPolyline
 62
250
  6
CONTINUOUS
 90
5
 70
0
 10
-9.2879615093
 20
-20.5266837345
 10
-9.2877877837
 20
-20.5216851553
 10
-9.2876198055
 20
-20.5118885272
 10
-9.2874575749
 20
-20.4973894322
 10
-9.2870053681
 20
-20.427308795
  0
LINE
  5
32B
100
AcDbEntity
  8
RACCORDO
100
AcDbLine
 62
250
  6
CONTINUOUS
 10
-7.5184775044
 20
15.483378525
 11
-7.3089365232
 21
18.7
  0
LINE
  5
32C
100
AcDbEntity
  8
0
100
AcDbLine
 62
7
  6
CONTINUOUS
 10
-8.8
 20
4.1691669846
 11
-8.7787234068
 21
4.2733330154
  0
LINE
  5
32D
100
AcDbEntity
  8
0
100
AcDbLine
 62
7
  6
CONTINUOUS
 10
-8.3744680762
 20
4.19
 11
-8.353191483
 21
4.2941669846
  0
LINE
  5
32E
100
AcDbEntity
  8
0
100
AcDbLine
 62
7
  6
CONTINUOUS
 10
-7.8212765951
 20
3.9191669846
 11
-7.8
 21
4.0233330154
  0
LINE
  5
32F
100
AcDbEntity
  8
0
100
AcDbLine
 62
7
  6
CONTINUOUS
 10
-8.246808517
 20
4.19
 11
-8.2255319238
 21
4.2733330154
  0
LINE
  5
330
100
AcDbEntity
  8
0
100
AcDbLine
 62
7
  6
CONTINUOUS
 10
-8.2680851102
 20
3.9816669846
 11
-8.246808517
 21
4.065
  0
LINE
  5
331
100
AcDbEntity
  8
0
100
AcDbLine
 62
7
  6
CONTINUOUS
 10
-7.9489361674
 20
3.94
 11
-7.9276595742
 21
4.0233330154
  0
LINE
  5
332
100
AcDbEntity
  8
0
100
AcDbLine
 62
7
  6
CONTINUOUS
 10
-8.6723404408
 20
4.19
 11
-8.6510638475
 21
4.2525
  0
LINE
  5
333
100
AcDbEntity
  8
0
100
AcDbLine
 62
7
  6
CONTINUOUS
 10
-8.3957446694
 20
4.0025
 11
-8.3744680762
 21
4.065
  0
LINE
  5
334
100
AcDbEntity
  8
0
100
AcDbLine
 62
7
  6
CONTINUOUS
 10
-8.353191483
 20
4.2941669846
 11
-8.3106382966
 21
4.3775
  0
LINE
  5
335
100
AcDbEntity
  8
0
100
AcDbLine
 62
7
  6
CONTINUOUS
 10
-8.3106382966
 20
3.8983330154
 11
-8.2680851102
 21
3.9816669846
  0
LINE
  5
336
100
AcDbEntity
  8
0
100
AcDbLine
 62
7
  6
CONTINUOUS
 10
-7.8851063803
 20
3.815
 11
-7.8212765951
 21
3.9191669846
  0
LINE
  5
337
100
AcDbEntity
  8
0
100
AcDbLine
 62
7
  6
CONTINUOUS
 10
-8.2255319238
 20
4.2733330154
 11
-8.1829787374
 21
4.3358330154
  0
LINE
  5
338
100
AcDbEntity
  8
0
100
AcDbLine
 62
7
  6
CONTINUOUS
 10
-8.4382978559
 20
3.94
 11
-8.3957446694
 21
4.0025
  0
LINE
  5
339
100
AcDbEntity
  8
0
100
AcDbLine
 62
7
  6
CONTINUOUS
 10
-8.7787234068
 20
4.2733330154
 11
-8.7148936272
 21
4.3566669846
  0
LINE
  5
33A
100
AcDbEntity
  8
RACCORDO
100
AcDbLine
 62
7
  6
CONTINUOUS
 10
6.6558702077
 20
20.5728350282
 11
6.5210300654
 21
20.437994886
  0
LINE
  5
33B
100
AcDbEntity
  8
0
100
AcDbLine
 62
7
  6
CONTINUOUS
 10
-8.6510638475
 20
4.2525
 11
-8.6085106611
 21
4.2941669846
  0
LINE
  5
33C
100
AcDbEntity
  8
0
100
AcDbLine
 62
7
  6
CONTINUOUS
 10
-8.3106382966
 20
4.3775
 11
-8.2255319238
 21
4.4608330154
  0
LINE
  5
33D
100
AcDbEntity
  8
0
100
AcDbLine
 62
7
  6
CONTINUOUS
 10
-8.3957446694
 20
3.815
 11
-8.3106382966
 21
3.8983330154
  0
LWPOLYLINE
  5
33E
100
AcDbEntity
  8
0
100
AcDbPolyline
 62
7
  6
CONTINUOUS
 90
3
 70
0
 10
1.2379297158
 20
13.0046029441
 10
1.2603782269
 20
13.0236499196
 10
1.2845086039
 20
13.0399406522
  0
LWPOLYLINE
  5
33F
100
AcDbEntity
  8
RACCORDO
100
AcDbPolyline
 62
7
  6
CONTINUOUS
 90
7
 70
0
 10
7.1634252964
 20
18.5470018494
 10
7.1563704043
 20
18.5413293319
 10
7.1346214315
 20
18.5267949192
 10
7.1111616916
 20
18.5152240935
 10
7.0863925871
 20
18.5068148347
 10
7.0607379245
 20
18.5017110277
 10
7.034636662
 20
18.5
  0
LINE
  5
340
100
AcDbEntity
  8
0
100
AcDbLine
 62
7
  6
CONTINUOUS
 10
-8.7148936272
 20
4.3566669846
 11
-8.6297872543
 21
4.4191669846
  0
LWPOLYLINE
  5
341
100
AcDbEntity
  8
0
100
AcDbPolyline
 62
7
  6
CONTINUOUS
 90
37
 70
0
 10
5.2301263923
 20
15.7855004023
 10
5.0760451858
 20
15.681553266
 10
4.9170459468
 20
15.5877220552
 10
4.7531286755
 20
15.5040069526
 10
4.5836294081
 20
15.4301450481
 10
4.4092121083
 20
15.3663995523
 10
4.2318686667
 20
15.3135598082
 10
4.0516029283
 20
15.2718129265
 10
3.868411048
 20
15.2409719897
 10
3.6842733819
 20
15.2212652735
 10
3.4991815428
 20
15.2127488509
 10
3.3131439178
 20
15.2153667071
 10
3.128166024
 20
15.2291789539
 10
2.9442170219
 20
15.254285995
 10
2.761327751
 20
15.290587346
 10
2.5815962465
 20
15.3378417531
 10
2.4050417877
 20
15.3962473583
 10
2.2316450954
 20
15.4656058022
 10
2.0634463662
 20
15.5450810557
 10
1.9005559344
 20
15.6347830646
 10
1.7428634658
 20
15.734601555
 10
1.5920781542
 20
15.8433701705
 10
1.4482861136
 20
15.9611658666
 10
1.31140123
 20
16.087911286
 10
1.1828743549
 20
16.2222086328
 10
1.0627551146
 20
16.3641287782
 10
0.9509938827
 20
16.5136004187
 10
0.8488926318
 20
16.6690125556
 10
0.7565406328
 20
16.8304240909
 10
0.6738486147
 20
16.9977757096
 10
0.6018507369
 20
17.1692791798
 10
0.5408027527
 20
17.3450606722
 10
0.4904489089
 20
17.5249936712
 10
0.4510561049
 20
17.7069110493
 10
0.4227133074
 20
17.8900903993
 10
0.4053315499
 20
18.0752539427
 10
0.3989108323
 20
18.262401574
  0
LINE
  5
342
100
AcDbEntity
  8
0
100
AcDbLine
 62
7
  6
CONTINUOUS
 10
-3.9747394283
 20
-10.2281948247
 11
-4.2647933685
 21
-10.293163861
  0
LINE
  5
343
100
AcDbEntity
  8
0
100
AcDbLine
 62
7
  6
CONTINUOUS
 10
-4.2647933685
 20
-10.293163861
 11
-4.5573956103
 21
-10.3571532618
  0
LINE
  5
344
100
AcDbEntity
  8
0
100
AcDbLine
 62
7
  6
CONTINUOUS
 10
-4.5573956103
 20
-10.3571532618
 11
-4.7786192027
 21
-10.4045281811
  0
LWPOLYLINE
  5
345
100
AcDbEntity
  8
RACCORDO
100
AcDbPolyline
 62
7
  6
CONTINUOUS
 90
7
 70
0
 10
-9.5253383008
 20
-9.5633377042
 10
-9.5423821027
 20
-9.5637920704
 10
-9.5568462898
 20
-9.5642801088
 10
-9.56824677
 20
-9.5647859522
 10
-9.5764221795
 20
-9.5653043112
 10
-9.5815338822
 20
-9.5658404751
 10
-9.583581878
 20
-9.5663944438
  0
LINE
  5
346
100
AcDbEntity
  8
RACCORDO
100
AcDbLine
 62
7
  6
CONTINUOUS
 10
-9.483401257
 20
-9.5625328821
 11
-9.5253383008
 21
-9.5633377042
  0
LINE
  5
347
100
AcDbEntity
  8
RACCORDO
100
AcDbLine
 62
7
  6
CONTINUOUS
 10
-9.4329891053
 20
-9.5618982706
 11
-9.483401257
 21
-9.5625328821
  0
LINE
  5
348
100
AcDbEntity
  8
RACCORDO
100
AcDbLine
 62
7
  6
CONTINUOUS
 10
-9.3459714076
 20
-9.5613158
 11
-9.4329891053
 21
-9.5618982706
  0
LINE
  5
349
100
AcDbEntity
  8
RACCORDO
100
AcDbLine
 62
7
  6
CONTINUOUS
 10
-9.2835914695
 20
-9.5612009164
 11
-9.3459714076
 21
-9.5613158
  0
LINE
  5
34A
100
AcDbEntity
  8
DRAFT
100
AcDbLine
 62
7
  6
CONTINUOUS
 10
9.65
 20
-9.6992408051
 11
9.1983439337
 21
-9.6992408051
  0
LINE
  5
34B
100
AcDbEntity
  8
DRAFT
100
AcDbLine
 62
7
  6
CONTINUOUS
 10
-9.1983439337
 20
-9.6992408051
 11
-9.65
 21
-9.6992408051
  0
LINE
  5
34C
100
AcDbEntity
  8
DRAFT
100
AcDbLine
 62
7
  6
CONTINUOUS
 10
-9.2835914695
 20
-9.5612009164
 11
-9.1821459599
 21
-9.5612009164
  0
LINE
  5
34D
100
AcDbEntity
  8
DRAFT
100
AcDbLine
 62
7
  6
CONTINUOUS
 10
9.1821459599
 20
-9.5612009164
 11
9.2835914695
 21
-9.5612009164
  0
LINE
  5
34E
100
AcDbEntity
  8
0
100
AcDbLine
 62
7
  6
CONTINUOUS
 10
-7.1450079241
 20
-9.7718072551
 11
-8.025260572
 21
-9.7718051776
  0
LINE
  5
34F
100
AcDbEntity
  8
0
100
AcDbLine
 62
7
  6
CONTINUOUS
 10
4.8549920759
 20
-9.7718072551
 11
3.974739428
 21
-9.7718051776
  0
LINE
  5
350
100
AcDbEntity
  8
0
100
AcDbLine
 62
7
  6
CONTINUOUS
 10
-4.8549604169
 20
-9.7716467289
 11
-3.9747258255
 21
-9.7719259344
  0
LINE
  5
351
100
AcDbEntity
  8
0
100
AcDbLine
 62
7
  6
CONTINUOUS
 10
7.1450395831
 20
-9.7716467289
 11
8.0252741745
 21
-9.7719259344
  0
LINE
  5
352
100
AcDbEntity
  8
RACCORDO
100
AcDbLine
 62
7
  6
CONTINUOUS
 10
9.3757834728
 20
-9.5614544578
 11
9.2835914695
 21
-9.5612009164
  0
LINE
  5
353
100
AcDbEntity
  8
RACCORDO
100
AcDbLine
 62
7
  6
CONTINUOUS
 10
9.4329091439
 20
-9.5618972036
 11
9.3757834728
 21
-9.5614544578
  0
LINE
  5
354
100
AcDbEntity
  8
RACCORDO
100
AcDbLine
 62
7
  6
CONTINUOUS
 10
9.4832537126
 20
-9.5625306444
 11
9.4329091439
 21
-9.5618972036
  0
LINE
  5
355
100
AcDbEntity
  8
0
100
AcDbLine
 62
7
  6
CONTINUOUS
 10
4.7787898855
 20
-10.4046463507
 11
4.4985685739
 21
-10.344277448
  0
LINE
  5
356
100
AcDbEntity
  8
0
100
AcDbLine
 62
7
  6
CONTINUOUS
 10
4.4985685739
 20
-10.344277448
 11
4.224806246
 21
-10.284106723
  0
LINE
  5
357
100
AcDbEntity
  8
0
100
AcDbLine
 62
7
  6
CONTINUOUS
 10
4.224806246
 20
-10.284106723
 11
3.9747258255
 21
-10.2280740656
  0
LINE
  5
358
100
AcDbEntity
  8
0
100
AcDbLine
 62
7
  6
CONTINUOUS
 10
-7.9063829809
 20
-6.31
 11
-8.8
 21
-5.9975
  0
LINE
  5
359
100
AcDbEntity
  8
0
100
AcDbLine
 62
7
  6
CONTINUOUS
 10
-7.8
 20
-6.2266666865
 11
-8.5872340679
 21
-5.935
  0
LWPOLYLINE
  5
35A
100
AcDbEntity
  8
RACCORDO
100
AcDbPolyline
 62
250
  6
CONTINUOUS
 90
5
 70
0
 10
7.1645043191
 20
-18.5479169535
 10
7.1760364792
 20
-18.5585786439
 10
7.1932831638
 20
-18.5782477143
 10
7.2078153628
 20
-18.6000000001
 10
7.2193844262
 20
-18.6234633136
  0
LINE
  5
35B
100
AcDbEntity
  8
RACCORDO
100
AcDbLine
 62
7
  6
CONTINUOUS
 10
6.5167778011
 20
-20.1560734983
 11
6.6582724256
 21
-20.2975681228
  0
LINE
  5
35C
100
AcDbEntity
  8
0
100
AcDbLine
 62
7
  6
CONTINUOUS
 10
-7.9489361674
 20
-4.06
 11
-7.9914893687
 21
-3.9975
  0
LINE
  5
35D
100
AcDbEntity
  8
0
100
AcDbLine
 62
7
  6
CONTINUOUS
 10
-5.6632470591
 20
-8.8322746663
 11
-5.6759253381
 21
-8.8135222739
  0
LINE
  5
35E
100
AcDbEntity
  8
0
100
AcDbLine
 62
7
  6
CONTINUOUS
 10
-5.573959712
 20
-9.0052464061
 11
-5.6632470591
 21
-8.8322746663
  0
LINE
  5
35F
100
AcDbEntity
  8
0
100
AcDbLine
 62
7
  6
CONTINUOUS
 10
-7.8212765951
 20
-4.0391667461
 11
-7.8638297871
 21
-3.9558332539
  0
LINE
  5
360
100
AcDbEntity
  8
0
100
AcDbLine
 62
7
  6
CONTINUOUS
 10
-5.4
 20
-9.1454841536
 11
-5.3522461644
 21
-9.239007496
  0
LINE
  5
361
100
AcDbEntity
  8
0
100
AcDbLine
 62
7
  6
CONTINUOUS
 10
-5.4860323539
 20
-9.1776746771
 11
-5.573959712
 21
-9.0052464061
  0
LWPOLYLINE
  5
362
100
AcDbEntity
  8
0
100
AcDbPolyline
 62
7
  6
CONTINUOUS
 90
3
 70
0
 10
-5.3522461644
 20
-9.239007496
 10
-5.3237738274
 20
-9.2954566989
 10
-5.3143316445
 20
-9.314331643
  0
LWPOLYLINE
  5
363
100
AcDbEntity
  8
0
100
AcDbPolyline
 62
7
  6
CONTINUOUS
 90
3
 70
0
 10
-5.4
 20
-9.3495319675
 10
-5.4284668953
 20
-9.2923096463
 10
-5.4860323539
 20
-9.1776746771
  0
LINE
  5
364
100
AcDbEntity
  8
0
100
AcDbLine
 62
7
  6
CONTINUOUS
 10
-4.877893713
 20
-10.2388223726
 11
-4.7952906344
 21
-10.4160654532
  0
LINE
  5
365
100
AcDbEntity
  8
TRASH
100
AcDbLine
 62
7
  6
CONTINUOUS
 10
-5.5268692362
 20
-9.3803199206
 11
-5.4802765161
 21
-9.4802765161
  0
LINE
  5
366
100
AcDbEntity
  8
TRASH
100
AcDbLine
 62
7
  6
CONTINUOUS
 10
-5.7718517819
 20
-8.8550027299
 11
-5.5268692362
 21
-9.3803199206
  0
LINE
  5
367
100
AcDbEntity
  8
0
100
AcDbLine
 62
7
  6
CONTINUOUS
 10
-4.8550027299
 20
-10.2281482181
 11
-4.7786192027
 21
-10.4045281811
  0
LINE
  5
368
100
AcDbEntity
  8
0
100
AcDbLine
 62
7
  6
CONTINUOUS
 10
-7.9276595742
 20
-4.1433332539
 11
-7.9489361674
 21
-4.06
  0
LINE
  5
369
100
AcDbEntity
  8
0
100
AcDbLine
 62
7
  6
CONTINUOUS
 10
-7.8
 20
-4.1433332539
 11
-7.8212765951
 21
-4.0391667461
  0
LWPOLYLINE
  5
36A
100
AcDbEntity
  8
RACCORDO
100
AcDbPolyline
 62
250
  6
CONTINUOUS
 90
5
 70
0
 10
-9.5879500862
 20
20.2270948741
 10
-9.5877764426
 20
20.2250020531
 10
-9.5876085547
 20
20.2210994734
 10
-9.5874464226
 20
20.2153871352
 10
-9.5872886078
 20
20.2077750951
  0
LWPOLYLINE
  5
36B
100
AcDbEntity
  8
RACCORDO
100
AcDbPolyline
 62
7
  6
CONTINUOUS
 90
5
 70
0
 10
-6.6200664561
 20
-18.7
 10
-6.621788861
 20
-18.6740052246
 10
-6.6268735856
 20
-18.6484644063
 10
-6.6352396652
 20
-18.6237969742
 10
-6.6467477188
 20
-18.6004004561
  0
LINE
  5
36C
100
AcDbEntity
  8
RACCORDO
100
AcDbLine
 62
250
  6
CONTINUOUS
 10
-7.1094109243
 20
-18.5
 11
-7.319462557
 21
-15.2755396155
  0
LWPOLYLINE
  5
36D
100
AcDbEntity
  8
RACCORDO
100
AcDbPolyline
 62
250
  6
CONTINUOUS
 90
8
 70
0
 10
-7.2316159776
 20
-18.7539032017
 10
-7.2320259031
 20
-18.7389509382
 10
-7.2324517745
 20
-18.7266130291
 10
-7.2328932409
 20
-18.7166600608
 10
-7.2333313154
 20
-18.7090286155
 10
-7.2337596691
 20
-18.703697554
 10
-7.234184631
 20
-18.7006880155
 10
-7.234606201
 20
-18.7
  0
LWPOLYLINE
  5
36E
100
AcDbEntity
  8
RACCORDO
100
AcDbPolyline
 62
250
  6
CONTINUOUS
 90
6
 70
0
 10
-7.032481887
 20
-18.5442382846
 10
-7.0329234369
 20
-18.5275687847
 10
-7.0333615908
 20
-18.5150549444
 10
-7.0337900106
 20
-18.5064996115
 10
-7.0342150343
 20
-18.501575651
 10
-7.034636662
 20
-18.5
  0
LINE
  5
36F
100
AcDbEntity
  8
RACCORDO
100
AcDbLine
 62
250
  6
CONTINUOUS
 10
-7.2308608451
 20
-18.7903377281
 11
-7.2316159776
 21
-18.7539032017
  0
LINE
  5
370
100
AcDbEntity
  8
RACCORDO
100
AcDbLine
 62
250
  6
CONTINUOUS
 10
-7.2419286989
 20
20.8366629075
 11
-7.2293696815
 21
20.1171572875
  0
LINE
  5
371
100
AcDbEntity
  8
RACCORDO
100
AcDbLine
 62
250
  6
CONTINUOUS
 10
-7.0316459995
 20
-18.5897453031
 11
-7.032481887
 21
-18.5442382846
  0
LINE
  5
372
100
AcDbEntity
  8
RACCORDO
100
AcDbLine
 62
250
  6
CONTINUOUS
 10
-7.2302463083
 20
-18.8341069331
 11
-7.2308608451
 21
-18.7903377281
  0
LINE
  5
373
100
AcDbEntity
  8
RACCORDO
100
AcDbLine
 62
250
  6
CONTINUOUS
 10
-7.0308908793
 20
-18.6506224102
 11
-7.0316459995
 21
-18.5897453031
  0
LINE
  5
374
100
AcDbEntity
  8
RACCORDO
100
AcDbLine
 62
250
  6
CONTINUOUS
 10
-6.8580061777
 20
-20.4686258279
 11
-6.8598392317
 21
-20.2585786438
  0
LINE
  5
375
100
AcDbEntity
  8
RACCORDO
100
AcDbLine
 62
250
  6
CONTINUOUS
 10
-6.6582724256
 20
-20.2975681228
 11
-6.6598468471
 21
-20.1171572875
  0
LINE
  5
376
100
AcDbEntity
  8
RACCORDO
100
AcDbLine
 62
250
  6
CONTINUOUS
 10
-7.2296328074
 20
-18.9066510222
 11
-7.2302463083
 21
-18.8341069331
  0
LINE
  5
377
100
AcDbEntity
  8
RACCORDO
100
AcDbLine
 62
250
  6
CONTINUOUS
 10
-7.0298246198
 20
-18.8031472331
 11
-7.0308908793
 21
-18.6506224102
  0
LINE
  5
378
100
AcDbEntity
  8
RACCORDO
100
AcDbLine
 62
250
  6
CONTINUOUS
 10
-6.8592547017
 20
18.6853912434
 11
-6.8585099766
 21
18.5647948201
  0
LINE
  5
379
100
AcDbEntity
  8
RACCORDO
100
AcDbLine
 62
250
  6
CONTINUOUS
 10
-7.2293778235
 20
-18.9775145419
 11
-7.2296328074
 21
-18.9066510222
  0
LINE
  5
37A
100
AcDbEntity
  8
0
100
AcDbLine
 62
7
  6
CONTINUOUS
 10
-8.3957446694
 20
-3.5183332539
 11
-8.3957446694
 21
-2.9766667461
  0
LINE
  5
37B
100
AcDbEntity
  8
0
100
AcDbLine
 62
7
  6
CONTINUOUS
 10
-8.3744680762
 20
4.065
 11
-8.3744680762
 21
4.19
  0
LINE
  5
37C
100
AcDbEntity
  8
0
100
AcDbLine
 62
7
  6
CONTINUOUS
 10
-8.2680851102
 20
-3.5183332539
 11
-8.2680851102
 21
-2.9766667461
  0
LINE
  5
37D
100
AcDbEntity
  8
0
100
AcDbLine
 62
7
  6
CONTINUOUS
 10
-8.246808517
 20
4.065
 11
-8.246808517
 21
4.19
  0
LINE
  5
37E
100
AcDbEntity
  8
0
100
AcDbLine
 62
7
  6
CONTINUOUS
 10
-8.1404255211
 20
-5.4141666269
 11
-8.1404255211
 21
-5.0391666269
  0
LINE
  5
37F
100
AcDbEntity
  8
0
100
AcDbLine
 62
7
  6
CONTINUOUS
 10
-8.1404255211
 20
5.19
 11
-8.1404255211
 21
5.565
  0
LINE
  5
380
100
AcDbEntity
  8
0
100
AcDbLine
 62
7
  6
CONTINUOUS
 10
-8.0765957415
 20
3.7316669846
 11
-8.0765957415
 21
3.8566669846
  0
LINE
  5
381
100
AcDbEntity
  8
0
100
AcDbLine
 62
7
  6
CONTINUOUS
 10
-8.0553191483
 20
-5.435
 11
-8.0553191483
 21
-5.0183333731
  0
LINE
  5
382
100
AcDbEntity
  8
0
100
AcDbLine
 62
7
  6
CONTINUOUS
 10
-8.0553191483
 20
5.1691669846
 11
-8.0553191483
 21
5.5858330154
  0
LINE
  5
383
100
AcDbEntity
  8
0
100
AcDbLine
 62
7
  6
CONTINUOUS
 10
-7.9276595742
 20
-4.5183332539
 11
-7.9276595742
 21
-4.1433332539
  0
LINE
  5
384
100
AcDbEntity
  8
0
100
AcDbLine
 62
7
  6
CONTINUOUS
 10
-7.9276595742
 20
-3.5183332539
 11
-7.9276595742
 21
-2.8933332539
  0
LINE
  5
385
100
AcDbEntity
  8
0
100
AcDbLine
 62
7
  6
CONTINUOUS
 10
-7.9276595742
 20
1.8566669846
 11
-7.9276595742
 21
1.94
  0
LINE
  5
386
100
AcDbEntity
  8
0
100
AcDbLine
 62
7
  6
CONTINUOUS
 10
-7.9276595742
 20
4.0233330154
 11
-7.9276595742
 21
4.19
  0
LINE
  5
387
100
AcDbEntity
  8
0
100
AcDbLine
 62
7
  6
CONTINUOUS
 10
-7.8
 20
-6.81
 11
-7.8
 21
-6.685
  0
LINE
  5
388
100
AcDbEntity
  8
0
100
AcDbLine
 62
7
  6
CONTINUOUS
 10
-7.8
 20
-6.3933333433
 11
-7.8
 21
-6.2266666865
  0
LINE
  5
389
100
AcDbEntity
  8
0
100
AcDbLine
 62
7
  6
CONTINUOUS
 10
-7.8
 20
-5.935
 11
-7.8
 21
-5.81
  0
LINE
  5
38A
100
AcDbEntity
  8
0
100
AcDbLine
 62
7
  6
CONTINUOUS
 10
-7.8
 20
-5.6433333731
 11
-7.8
 21
-5.5183333731
  0
LINE
  5
38B
100
AcDbEntity
  8
0
100
AcDbLine
 62
7
  6
CONTINUOUS
 10
-7.8
 20
-4.935
 11
-7.8
 21
-4.81
  0
LINE
  5
38C
100
AcDbEntity
  8
0
100
AcDbLine
 62
7
  6
CONTINUOUS
 10
-7.8
 20
-4.6433332539
 11
-7.8
 21
-4.1433332539
  0
LINE
  5
38D
100
AcDbEntity
  8
0
100
AcDbLine
 62
7
  6
CONTINUOUS
 10
-7.8
 20
-3.6433332539
 11
-7.8
 21
-2.8933332539
  0
LINE
  5
38E
100
AcDbEntity
  8
0
100
AcDbLine
 62
7
  6
CONTINUOUS
 10
-7.8
 20
-1.7266665077
 11
-7.8
 21
-1.6016665077
  0
LINE
  5
38F
100
AcDbEntity
  8
0
100
AcDbLine
 62
7
  6
CONTINUOUS
 10
-7.8
 20
-1.435
 11
-7.8
 21
-1.31
  0
LINE
  5
390
100
AcDbEntity
  8
0
100
AcDbLine
 62
7
  6
CONTINUOUS
 10
-7.8
 20
-0.7891665077
 11
-7.8
 21
-0.6016665077
  0
LINE
  5
391
100
AcDbEntity
  8
0
100
AcDbLine
 62
7
  6
CONTINUOUS
 10
-7.8
 20
0.8983334923
 11
-7.8
 21
1.0233334923
  0
LINE
  5
392
100
AcDbEntity
  8
0
100
AcDbLine
 62
7
  6
CONTINUOUS
 10
-7.8
 20
1.8566669846
 11
-7.8
 21
1.94
  0
LINE
  5
393
100
AcDbEntity
  8
0
100
AcDbLine
 62
7
  6
CONTINUOUS
 10
-7.8
 20
2.44
 11
-7.8
 21
2.565
  0
LINE
  5
394
100
AcDbEntity
  8
0
100
AcDbLine
 62
7
  6
CONTINUOUS
 10
-7.8
 20
3.0858330154
 11
-7.8
 21
3.2733330154
  0
LINE
  5
395
100
AcDbEntity
  8
0
100
AcDbLine
 62
7
  6
CONTINUOUS
 10
-7.8
 20
3.44
 11
-7.8
 21
3.565
  0
LINE
  5
396
100
AcDbEntity
  8
0
100
AcDbLine
 62
7
  6
CONTINUOUS
 10
-7.8
 20
4.0233330154
 11
-7.8
 21
4.19
  0
LINE
  5
397
100
AcDbEntity
  8
0
100
AcDbLine
 62
7
  6
CONTINUOUS
 10
-7.8
 20
4.6691669846
 11
-7.8
 21
4.7941669846
  0
LINE
  5
398
100
AcDbEntity
  8
0
100
AcDbLine
 62
7
  6
CONTINUOUS
 10
-7.8
 20
4.9608330154
 11
-7.8
 21
5.0858330154
  0
LINE
  5
399
100
AcDbEntity
  8
0
100
AcDbLine
 62
7
  6
CONTINUOUS
 10
-7.8
 20
5.6691669846
 11
-7.8
 21
5.7941669846
  0
LINE
  5
39A
100
AcDbEntity
  8
RACCORDO
100
AcDbLine
 62
250
  6
CONTINUOUS
 10
-7.2293696815
 20
-20.1171572875
 11
-7.2293778235
 21
-18.9775145419
  0
LINE
  5
39B
100
AcDbEntity
  8
RACCORDO
100
AcDbLine
 62
250
  6
CONTINUOUS
 10
-7.0294001425
 20
-20.2585786438
 11
-7.0298246198
 21
-18.8031472331
  0
LINE
  5
39C
100
AcDbEntity
  8
RACCORDO
100
AcDbLine
 62
250
  6
CONTINUOUS
 10
-6.8598392317
 20
19.0
 11
-6.8598392317
 21
20.2585786438
  0
LINE
  5
39D
100
AcDbEntity
  8
RACCORDO
100
AcDbLine
 62
250
  6
CONTINUOUS
 10
-6.8598392317
 20
19.0
 11
-6.8592547017
 21
18.6853912434
  0
LINE
  5
39E
100
AcDbEntity
  8
RACCORDO
100
AcDbLine
 62
250
  6
CONTINUOUS
 10
-7.2293696815
 20
20.1171572875
 11
-7.2295241191
 21
18.9276857274
  0
LINE
  5
39F
100
AcDbEntity
  8
RACCORDO
100
AcDbLine
 62
250
  6
CONTINUOUS
 10
-6.8598392317
 20
-20.2585786438
 11
-6.8592321097
 21
-18.6801191672
  0
LINE
  5
3A0
100
AcDbEntity
  8
RACCORDO
100
AcDbLine
 62
250
  6
CONTINUOUS
 10
-7.0294001425
 20
20.2585786438
 11
-7.0298548336
 21
18.7965852034
  0
LINE
  5
3A1
100
AcDbEntity
  8
RACCORDO
100
AcDbLine
 62
250
  6
CONTINUOUS
 10
-6.8592321097
 20
-18.6801191672
 11
-6.858694955
 21
-18.5868922589
  0
LINE
  5
3A2
100
AcDbEntity
  8
RACCORDO
100
AcDbLine
 62
250
  6
CONTINUOUS
 10
-7.2295241191
 20
18.9276857274
 11
-7.2300346566
 21
18.8537040678
  0
LINE
  5
3A3
100
AcDbEntity
  8
RACCORDO
100
AcDbLine
 62
250
  6
CONTINUOUS
 10
-6.8598392317
 20
20.2585786438
 11
-6.8556039598
 21
20.7438927334
  0
LINE
  5
3A4
100
AcDbEntity
  8
RACCORDO
100
AcDbLine
 62
250
  6
CONTINUOUS
 10
-6.6558702077
 20
20.5728350282
 11
-6.6598468471
 21
20.1171572875
  0
LINE
  5
3A5
100
AcDbEntity
  8
RACCORDO
100
AcDbLine
 62
250
  6
CONTINUOUS
 10
-7.0298548336
 20
18.7965852034
 11
-7.0309370361
 21
18.6461659184
  0
LINE
  5
3A6
100
AcDbEntity
  8
RACCORDO
100
AcDbLine
 62
250
  6
CONTINUOUS
 10
-7.2300346566
 20
18.8537040678
 11
-7.2305820071
 21
18.8081854909
  0
LINE
  5
3A7
100
AcDbEntity
  8
RACCORDO
100
AcDbLine
 62
250
  6
CONTINUOUS
 10
-7.0309370361
 20
18.6461659184
 11
-7.0316859465
 21
18.5870834706
  0
LINE
  5
3A8
100
AcDbEntity
  8
RACCORDO
100
AcDbLine
 62
250
  6
CONTINUOUS
 10
-7.2419286989
 20
-20.8366629075
 11
-7.2293696815
 21
-20.1171572875
  0
LWPOLYLINE
  5
3A9
100
AcDbEntity
  8
RACCORDO
100
AcDbPolyline
 62
250
  6
CONTINUOUS
 90
10
 70
0
 10
-7.2305820071
 20
18.8081854909
 10
-7.2312659314
 20
18.7690824571
 10
-7.2316560751
 20
18.752297366
 10
-7.2320612451
 20
18.737820952
 10
-7.2324822778
 20
18.7258402601
 10
-7.2329183368
 20
18.7161682454
 10
-7.2333506371
 20
18.7087533662
 10
-7.2337729171
 20
18.7035784419
 10
-7.2341914384
 20
18.7006606532
 10
-7.234606201
 20
18.7
  0
LWPOLYLINE
  5
3AA
100
AcDbEntity
  8
RACCORDO
100
AcDbPolyline
 62
250
  6
CONTINUOUS
 90
7
 70
0
 10
-7.0316859465
 20
18.5870834706
 10
-7.0325118958
 20
18.54294942
 10
-7.0329477295
 20
18.5267597118
 10
-7.0333799802
 20
18.5146097851
 10
-7.033802457
 20
18.5063070286
 10
-7.034221351
 20
18.5015289258
 10
-7.034636662
 20
18.5
  0
LWPOLYLINE
  5
3AB
100
AcDbEntity
  8
RACCORDO
100
AcDbPolyline
 62
7
  6
CONTINUOUS
 90
13
 70
0
 10
-6.5153193024
 20
15.4838500694
 10
-6.5170644077
 20
15.4562067423
 10
-6.5222712162
 20
15.4291926456
 10
-6.5308204698
 20
15.4032390193
 10
-6.5425299039
 20
15.3787379782
 10
-6.5571756465
 20
15.3560852012
 10
-6.5745094037
 20
15.3356819
 10
-6.5942518661
 20
15.3178312955
 10
-6.6160329961
 20
15.3028242084
 10
-6.6394067095
 20
15.2909642084
 10
-6.6639355173
 20
15.2824237631
 10
-6.6892156266
 20
15.277268854
 10
-6.7148190698
 20
15.2755396155
  0
LINE
  5
3AC
100
AcDbEntity
  8
RACCORDO
100
AcDbLine
 62
250
  6
CONTINUOUS
 10
-7.319462557
 20
15.2755396155
 11
-7.1094109243
 21
18.5
  0
LWPOLYLINE
  5
3AD
100
AcDbEntity
  8
RACCORDO
100
AcDbPolyline
 62
250
  6
CONTINUOUS
 90
6
 70
0
 10
-6.6572287868
 20
18.7
 10
-6.6589397493
 20
18.6738947616
 10
-6.664043362
 20
18.648236191
 10
-6.6724523006
 20
18.6234633135
 10
-6.6840226857
 20
18.6
 10
-6.698556545
 20
18.5782477142
  0
LWPOLYLINE
  5
3AE
100
AcDbEntity
  8
RACCORDO
100
AcDbPolyline
 62
7
  6
CONTINUOUS
 90
6
 70
0
 10
-6.6200664561
 20
18.7
 10
-6.6217837243
 20
18.6740798342
 10
-6.6268536167
 20
18.6485625367
 10
-6.6352044001
 20
18.6238823695
 10
-6.6467097823
 20
18.60045995
 10
-6.6611858003
 20
18.5787024009
  0
LWPOLYLINE
  5
3AF
100
AcDbEntity
  8
RACCORDO
100
AcDbPolyline
 62
250
  6
CONTINUOUS
 90
7
 70
0
 10
-9.5879500862
 20
-20.2270948741
 10
-9.5877762434
 20
-20.2249972825
 10
-9.5876081876
 20
-20.2210877512
 10
-9.587445919
 20
-20.2153662803
 10
-9.587288001
 20
-20.2077426378
 10
-9.5871358702
 20
-20.1983070557
 10
-9.5868621716
 20
-20.1747673026
  0
LINE
  5
3B0
100
AcDbEntity
  8
0
100
AcDbLine
 62
7
  6
CONTINUOUS
 10
-7.8212765951
 20
1.7525
 11
-7.8
 21
1.8566669846
  0
LINE
  5
3B1
100
AcDbEntity
  8
0
100
AcDbLine
 62
7
  6
CONTINUOUS
 10
-8.8
 20
-4.1433332539
 11
-8.7787234068
 21
-4.0391667461
  0
LINE
  5
3B2
100
AcDbEntity
  8
0
100
AcDbLine
 62
7
  6
CONTINUOUS
 10
-7.9489361674
 20
1.7733330154
 11
-7.9276595742
 21
1.8566669846
  0
LINE
  5
3B3
100
AcDbEntity
  8
0
100
AcDbLine
 62
7
  6
CONTINUOUS
 10
-8.6723404408
 20
-4.1433332539
 11
-8.6510638475
 21
-4.06
  0
LINE
  5
3B4
100
AcDbEntity
  8
0
100
AcDbLine
 62
7
  6
CONTINUOUS
 10
-7.8638297871
 20
1.6691669846
 11
-7.8212765951
 21
1.7525
  0
LWPOLYLINE
  5
3B5
100
AcDbEntity
  8
RACCORDO
100
AcDbPolyline
 62
7
  6
CONTINUOUS
 90
7
 70
0
 10
-6.2821219647
 20
4.3654832059
 10
-6.2875415277
 20
4.3566858783
 10
-6.2919851346
 20
4.3476037186
 10
-6.2954527852
 20
4.3382367266
 10
-6.2979444797
 20
4.3285849024
 10
-6.2994602179
 20
4.3186482459
 10
-6.3
 20
4.3084267572
  0
LINE
  5
3B6
100
AcDbEntity
  8
0
100
AcDbLine
 62
7
  6
CONTINUOUS
 10
-7.9914893687
 20
1.7108330154
 11
-7.9489361674
 21
1.7733330154
  0
LWPOLYLINE
  5
3B7
100
AcDbEntity
  8
0
100
AcDbPolyline
 62
7
  6
CONTINUOUS
 90
11
 70
0
 10
1.1619081928
 20
13.1268752152
 10
1.1233133433
 20
13.0875409174
 10
1.0885137117
 20
13.0452645948
 10
1.057509298
 20
13.0000462281
 10
1.0307685027
 20
12.9516340865
 10
1.0078229252
 20
12.900279857
 10
0.9872673643
 20
12.8467386514
 10
0.9687943935
 20
12.7911740101
 10
0.9527114393
 20
12.7334223578
 10
0.9385355786
 20
12.6737481404
 10
0.9261058372
 20
12.6122394962
  0
LWPOLYLINE
  5
3B8
100
AcDbEntity
  8
RACCORDO
100
AcDbPolyline
 62
7
  6
CONTINUOUS
 90
31
 70
0
 10
-5.6100769122
 20
5.2175903741
 10
-5.3144046932
 20
5.5175613825
 10
-5.0047201117
 20
5.799567682
 10
-4.6810231679
 20
6.0636095279
 10
-4.3422661573
 20
6.3104356783
 10
-3.9894967842
 20
6.539297901
 10
-3.625858162
 20
6.7479510126
 10
-3.2512409612
 20
6.9361512892
 10
-2.8657545112
 20
7.1041430454
 10
-2.4728699136
 20
7.2504131956
 10
-2.0725278653
 20
7.3747626746
 10
-1.6647876694
 20
7.477391042
 10
-1.2532983371
 20
7.5573831324
 10
-0.8380276298
 20
7.6145368081
 10
-0.419007786
 20
7.6490544874
 10
0.0000154674
 20
7.660627783
 10
0.4190466222
 20
7.6490507323
 10
0.8380811866
 20
7.6145292979
 10
1.2533599596
 20
7.55737291
 10
1.6648416402
 20
7.4773807332
 10
2.0725675293
 20
7.3747533224
 10
2.4729023277
 20
7.2504021373
 10
2.8657968298
 20
7.1041236864
 10
3.2513002411
 20
6.9361209668
 10
3.6259248789
 20
6.7479151537
 10
3.9895513745
 20
6.5392668914
 10
4.3422990965
 20
6.3104149451
 10
4.681038469
 20
6.0635977124
 10
5.0047262997
 20
5.7995611638
 10
5.3144057808
 20
5.5175588028
 10
5.6100769122
 20
5.2175903741
  0
LINE
  5
3B9
100
AcDbEntity
  8
0
100
AcDbLine
 62
7
  6
CONTINUOUS
 10
-8.0127659619
 20
3.8775
 11
-7.9489361674
 21
3.94
  0
LWPOLYLINE
  5
3BA
100
AcDbEntity
  8
RACCORDO
100
AcDbPolyline
 62
7
  6
CONTINUOUS
 90
16
 70
0
 10
-5.7855183748
 20
5.0243379499
 10
-5.7734109541
 20
5.0358966808
 10
-5.7603793672
 20
5.045088465
 10
-5.746423614
 20
5.0519133039
 10
-5.731138914
 20
5.0564221354
 10
-5.7149300477
 20
5.0585640232
 10
-5.6990113568
 20
5.0581861564
 10
-5.6834242077
 20
5.055117509
 10
-5.668127234
 20
5.0495291064
 10
-5.6542106783
 20
5.0417812147
 10
-5.6417360955
 20
5.0316922799
 10
-5.6306419306
 20
5.0194438535
 10
-5.6218337613
 20
5.00594086
 10
-5.6156134468
 20
4.9914849403
 10
-5.6116791278
 20
4.9757744515
 10
-5.6100308043
 20
4.9588093923
  0
LINE
  5
3BB
100
AcDbEntity
  8
0
100
AcDbLine
 62
7
  6
CONTINUOUS
 10
-8.1829787374
 20
4.3358330154
 11
-8.1191489279
 21
4.3775
  0
LINE
  5
3BC
100
AcDbEntity
  8
0
100
AcDbLine
 62
7
  6
CONTINUOUS
 10
-8.8
 20
2.6275
 11
-7.9489361674
 21
3.1483330154
  0
LWPOLYLINE
  5
3BD
100
AcDbEntity
  8
0
100
AcDbPolyline
 62
7
  6
CONTINUOUS
 90
28
 70
0
 10
4.7768149081
 20
12.4907062385
 10
4.8128877425
 20
12.5123999808
 10
4.8462467645
 20
12.5374174031
 10
4.876891974
 20
12.5657584927
 10
4.905281458
 20
12.5978622882
 10
4.9309571296
 20
12.633289719
 10
4.952544728
 20
12.6707236125
 10
4.9697120284
 20
12.7101868631
 10
4.9827912556
 20
12.7516565523
 10
4.9914048227
 20
12.793746803
 10
4.9954088486
 20
12.8364470704
 10
4.9949472144
 20
12.8797678906
 10
4.9900739765
 20
12.9223550257
 10
4.9806779139
 20
12.9641849506
 10
4.9668702476
 20
13.0052811995
 10
4.9490386981
 20
13.0443601402
 10
4.9270543458
 20
13.0813931885
 10
4.9010461102
 20
13.1164089525
 10
4.8717884707
 20
13.1482096025
 10
4.8391065734
 20
13.1767134876
 10
4.8031752721
 20
13.2020022895
 10
4.7652936082
 20
13.2231231857
 10
4.7252800224
 20
13.2397999091
 10
4.6833160739
 20
13.2523087525
 10
4.6412454811
 20
13.2605257328
 10
4.5996828165
 20
13.2644095252
 10
4.5580135075
 20
13.2640014628
 10
4.5162375541
 20
13.2593015455
  0
LINE
  5
3BE
100
AcDbEntity
  8
0
100
AcDbLine
 62
7
  6
CONTINUOUS
 10
-7.9914893687
 20
3.7525
 11
-7.8851063803
 21
3.815
  0
LINE
  5
3BF
100
AcDbEntity
  8
0
100
AcDbLine
 62
7
  6
CONTINUOUS
 10
-8.6085106611
 20
4.2941669846
 11
-8.5659574747
 21
4.315
  0
LINE
  5
3C0
100
AcDbEntity
  8
0
100
AcDbLine
 62
7
  6
CONTINUOUS
 10
-8.2255319238
 20
4.4608330154
 11
-8.1404255211
 21
4.5025
  0
LWPOLYLINE
  5
3C1
100
AcDbEntity
  8
0
100
AcDbPolyline
 62
7
  6
CONTINUOUS
 90
8
 70
0
 10
4.7271859962
 20
11.1621033059
 10
4.7344833534
 20
11.1653618326
 10
4.7415351328
 20
11.1696171472
 10
4.7482551938
 20
11.1747485191
 10
4.7543851143
 20
11.1803937576
 10
4.7599123536
 20
11.1865362663
 10
4.7648494524
 20
11.1931926408
 10
4.7689756098
 20
11.2000504795
  0
LINE
  5
3C2
100
AcDbEntity
  8
0
100
AcDbLine
 62
7
  6
CONTINUOUS
 10
-8.8
 20
5.4608330154
 11
-7.8
 21
5.7941669846
  0
LINE
  5
3C3
100
AcDbEntity
  8
0
100
AcDbLine
 62
7
  6
CONTINUOUS
 10
-8.7148936272
 20
5.3775
 11
-8.1404255211
 21
5.565
  0
LINE
  5
3C4
100
AcDbEntity
  8
0
100
AcDbLine
 62
7
  6
CONTINUOUS
 10
-8.0553191483
 20
5.5858330154
 11
-7.8
 21
5.6691669846
  0
LINE
  5
3C5
100
AcDbEntity
  8
0
100
AcDbLine
 62
7
  6
CONTINUOUS
 10
-8.6297872543
 20
4.4191669846
 11
-8.5659574747
 21
4.44
  0
LINE
  5
3C6
100
AcDbEntity
  8
0
100
AcDbLine
 62
7
  6
CONTINUOUS
 10
-8.025260572
 20
-9.7718051776
 11
-7.7352065968
 21
-9.7068361337
  0
LINE
  5
3C7
100
AcDbEntity
  8
0
100
AcDbLine
 62
7
  6
CONTINUOUS
 10
-7.7352065968
 20
-9.7068361337
 11
-7.4426043786
 21
-9.6428467383
  0
LINE
  5
3C8
100
AcDbEntity
  8
0
100
AcDbLine
 62
7
  6
CONTINUOUS
 10
-7.4426043786
 20
-9.6428467383
 11
-7.2213808028
 21
-9.5954718227
  0
LINE
  5
3C9
100
AcDbEntity
  8
RACCORDO
100
AcDbLine
 62
7
  6
CONTINUOUS
 10
2.4760409428
 20
-7.015480183
 11
2.3927260619
 21
-7.023790722
  0
LINE
  5
3CA
100
AcDbEntity
  8
RACCORDO
100
AcDbLine
 62
7
  6
CONTINUOUS
 10
2.0938676525
 20
-7.0261806034
 11
-2.0938676525
 21
-7.0261806034
  0
LINE
  5
3CB
100
AcDbEntity
  8
RACCORDO
100
AcDbLine
 62
7
  6
CONTINUOUS
 10
-4.8177218442
 20
-7.0130903017
 11
-2.7748993522
 21
-7.0130903017
  0
LINE
  5
3CC
100
AcDbEntity
  8
RACCORDO
100
AcDbLine
 62
7
  6
CONTINUOUS
 10
4.8177218441
 20
-7.0130903017
 11
2.7748993522
 21
-7.0130903017
  0
LINE
  5
3CD
100
AcDbEntity
  8
DRAFT
100
AcDbLine
 62
7
  6
CONTINUOUS
 10
4.8499508763
 20
-7.0
 11
2.6457513111
 21
-7.0
  0
LINE
  5
3CE
100
AcDbEntity
  8
DRAFT
100
AcDbLine
 62
7
  6
CONTINUOUS
 10
-2.6457513111
 20
-7.0
 11
-4.8499508764
 21
-7.0
  0
LINE
  5
3CF
100
AcDbEntity
  8
0
100
AcDbLine
 62
7
  6
CONTINUOUS
 10
-8.8
 20
-6.81
 11
-7.8
 21
-6.81
  0
LINE
  5
3D0
100
AcDbEntity
  8
RACCORDO
100
AcDbLine
 62
7
  6
CONTINUOUS
 10
-2.3927260619
 20
-7.023790722
 11
-2.4760409428
 21
-7.015480183
  0
LINE
  5
3D1
100
AcDbEntity
  8
0
100
AcDbLine
 62
7
  6
CONTINUOUS
 10
7.5523763139
 20
-9.6668304958
 11
7.2212101145
 21
-9.5953536493
  0
LINE
  5
3D2
100
AcDbEntity
  8
0
100
AcDbLine
 62
7
  6
CONTINUOUS
 10
7.8349927881
 20
-9.7291995578
 11
7.5523763139
 21
-9.6668304958
  0
LINE
  5
3D3
100
AcDbEntity
  8
0
100
AcDbLine
 62
7
  6
CONTINUOUS
 10
8.0252741745
 20
-9.7719259344
 11
7.8349927881
 21
-9.7291995578
  0
LWPOLYLINE
  5
3D4
100
AcDbEntity
  8
RACCORDO
100
AcDbPolyline
 62
7
  6
CONTINUOUS
 90
8
 70
0
 10
9.583581878
 20
-9.5663944438
 10
9.5815565958
 20
-9.5658413411
 10
9.5764517092
 20
-9.565305535
 10
9.5682672182
 20
-9.5647870256
 10
9.556833283
 20
-9.5642801996
 10
9.5423197433
 20
-9.5637906703
 10
9.5252361187
 20
-9.5633352772
 10
9.4832537126
 20
-9.5625306444
  0
LINE
  5
3D5
100
AcDbEntity
  8
0
100
AcDbLine
 62
7
  6
CONTINUOUS
 10
-8.1404255211
 20
-5.4141666269
 11
-8.7148936272
 21
-5.2266666269
  0
LINE
  5
3D6
100
AcDbEntity
  8
0
100
AcDbLine
 62
7
  6
CONTINUOUS
 10
-7.8
 20
-5.5183333731
 11
-8.0553191483
 21
-5.435
  0
LINE
  5
3D7
100
AcDbEntity
  8
0
100
AcDbLine
 62
7
  6
CONTINUOUS
 10
-7.8
 20
-5.6433333731
 11
-8.8
 21
-5.31
  0
LINE
  5
3D8
100
AcDbEntity
  8
0
100
AcDbLine
 62
7
  6
CONTINUOUS
 10
6.260304042
 20
-11.1585358465
 11
6.2281482281
 21
-11.1449972769
  0
LINE
  5
3D9
100
AcDbEntity
  8
0
100
AcDbLine
 62
7
  6
CONTINUOUS
 10
6.2923360259
 20
-11.1722790924
 11
6.260304042
 21
-11.1585358465
  0
LWPOLYLINE
  5
3DA
100
AcDbEntity
  8
RACCORDO
100
AcDbPolyline
 62
7
  6
CONTINUOUS
 90
9
 70
0
 10
-3.1047208298
 20
-7.0
 10
-3.2513078625
 20
-6.9361170639
 10
-3.6259337617
 20
-6.7479103794
 10
-3.989558762
 20
-6.5392627188
 10
-4.3423035551
 20
-6.3104121524
 10
-4.6810405279
 20
-6.0635961225
 10
-5.0047271429
 20
-5.799560281
 10
-5.3144059377
 20
-5.51755845
 10
-5.6100769122
 20
-5.2175903741
  0
LINE
  5
3DB
100
AcDbEntity
  8
0
100
AcDbLine
 62
7
  6
CONTINUOUS
 10
6.3242441797
 20
-11.1862270146
 11
6.2923360259
 21
-11.1722790924
  0
LINE
  5
3DC
100
AcDbEntity
  8
0
100
AcDbLine
 62
7
  6
CONTINUOUS
 10
6.3367528929
 20
-11.1677254263
 11
6.2388223825
 21
-11.1221062937
  0
LINE
  5
3DD
100
AcDbEntity
  8
TRASH
100
AcDbLine
 62
7
  6
CONTINUOUS
 10
5.4802765161
 20
-10.5197234839
 11
4.8550027231
 21
-10.2281482281
  0
LINE
  5
3DE
100
AcDbEntity
  8
0
100
AcDbLine
 62
7
  6
CONTINUOUS
 10
-7.9489361674
 20
-3.8725
 11
-8.0340425551
 21
-3.8308332539
  0
LINE
  5
3DF
100
AcDbEntity
  8
0
100
AcDbLine
 62
7
  6
CONTINUOUS
 10
5.3143316445
 20
-10.685668357
 11
5.2531310757
 21
-10.6549022944
  0
LINE
  5
3E0
100
AcDbEntity
  8
0
100
AcDbLine
 62
7
  6
CONTINUOUS
 10
5.2531310757
 20
-10.6549022944
 11
5.1719630442
 21
-10.6135866118
  0
LINE
  5
3E1
100
AcDbEntity
  8
0
100
AcDbLine
 62
7
  6
CONTINUOUS
 10
5.1719630442
 20
-10.6135866118
 11
5.0912912284
 21
-10.5720143407
  0
LINE
  5
3E2
100
AcDbEntity
  8
0
100
AcDbLine
 62
7
  6
CONTINUOUS
 10
5.0912912284
 20
-10.5720143407
 11
5.008716618
 21
-10.5290152387
  0
LWPOLYLINE
  5
3E3
100
AcDbEntity
  8
0
100
AcDbPolyline
 62
7
  6
CONTINUOUS
 90
3
 70
0
 10
5.008716618
 20
-10.5290152387
 10
4.8217874115
 20
-10.4302912806
 10
4.7952905423
 20
-10.4160654041
  0
LINE
  5
3E4
100
AcDbEntity
  8
0
100
AcDbLine
 62
7
  6
CONTINUOUS
 10
-7.9914893687
 20
-3.9975
 11
-8.0553191483
 21
-3.9558332539
  0
LWPOLYLINE
  5
3E5
100
AcDbEntity
  8
RACCORDO
100
AcDbPolyline
 62
7
  6
CONTINUOUS
 90
16
 70
0
 10
-5.7984616946
 20
-4.9900242461
 10
-5.7862215519
 20
-5.0017626866
 10
-5.773063094
 20
-5.0110830365
 10
-5.758986321
 20
-5.0179852957
 10
-5.743584835
 20
-5.0225153374
 10
-5.7272650339
 20
-5.0246272884
 10
-5.7112461114
 20
-5.0241835297
 10
-5.6955511414
 20
-5.0209930967
 10
-5.68015705
 20
-5.0152469539
 10
-5.66621381
 20
-5.0073803757
 10
-5.6538318053
 20
-4.9972316837
 10
-5.6429006519
 20
-4.9849625563
 10
-5.634239171
 20
-4.9714933038
 10
-5.6281203029
 20
-4.9571306962
 10
-5.6242711074
 20
-4.9415679635
 10
-5.6226915844
 20
-4.9248051057
  0
LINE
  5
3E6
100
AcDbEntity
  8
0
100
AcDbLine
 62
7
  6
CONTINUOUS
 10
-7.8638297871
 20
-3.9558332539
 11
-7.9489361674
 21
-3.8725
  0
LINE
  5
3E7
100
AcDbEntity
  8
0
100
AcDbLine
 62
7
  6
CONTINUOUS
 10
-8.6510638475
 20
4.0025
 11
-8.6723404408
 21
4.065
  0
LINE
  5
3E8
100
AcDbEntity
  8
0
100
AcDbLine
 62
7
  6
CONTINUOUS
 10
-8.7787234068
 20
3.9816669846
 11
-8.8
 21
4.065
  0
LINE
  5
3E9
100
AcDbEntity
  8
0
100
AcDbLine
 62
7
  6
CONTINUOUS
 10
-7.9276595742
 20
1.94
 11
-7.9489361674
 21
2.0233330154
  0
LINE
  5
3EA
100
AcDbEntity
  8
0
100
AcDbLine
 62
7
  6
CONTINUOUS
 10
-7.8
 20
1.94
 11
-7.8212765951
 21
2.0441669846
  0
LINE
  5
3EB
100
AcDbEntity
  8
0
100
AcDbLine
 62
7
  6
CONTINUOUS
 10
-7.8
 20
4.19
 11
-7.8212765951
 21
4.2941669846
  0
LWPOLYLINE
  5
3EC
100
AcDbEntity
  8
RACCORDO
100
AcDbPolyline
 62
7
  6
CONTINUOUS
 90
16
 70
0
 10
-5.6226915844
 20
4.9248051057
 10
-5.6243296094
 20
4.9417286954
 10
-5.6282388782
 20
4.9574048732
 10
-5.6344193906
 20
4.9718336391
 10
-5.643150933
 20
4.9853106306
 10
-5.654153719
 20
4.9975402101
 10
-5.6665883903
 20
5.0076354655
 10
-5.6805572872
 20
5.0154392143
 10
-5.6959580693
 20
5.0211086389
 10
-5.7116443572
 20
5.0242283749
 10
-5.7276415522
 20
5.0246062025
 10
-5.7439242531
 20
5.0224343414
 10
-5.7592698762
 20
5.0178740858
 10
-5.7732708935
 20
5.0109792004
 10
-5.786334833
 20
5.0016959205
 10
-5.7984616946
 20
4.9900242461
  0
LINE
  5
3ED
100
AcDbEntity
  8
0
100
AcDbLine
 62
7
  6
CONTINUOUS
 10
-3.9124301676
 20
-17.6519832402
 11
-3.8977653631
 21
-17.8279608939
  0
LWPOLYLINE
  5
3EE
100
AcDbEntity
  8
RACCORDO
100
AcDbPolyline
 62
7
  6
CONTINUOUS
 90
4
 70
0
 10
-7.3089365232
 20
18.7
 10
-7.3071842988
 20
18.6739981974
 10
-7.3020705504
 20
18.6484605873
 10
-7.2936811322
 20
18.6238056948
  0
LWPOLYLINE
  5
3EF
100
AcDbEntity
  8
RACCORDO
100
AcDbPolyline
 62
7
  6
CONTINUOUS
 90
7
 70
0
 10
-6.3
 20
-4.3084267572
 10
-6.2994302968
 20
-4.3187437371
 10
-6.2978966059
 20
-4.3287376882
 10
-6.2953989272
 20
-4.3384086107
 10
-6.2919372608
 20
-4.3477565045
 10
-6.2875116066
 20
-4.3567813695
 10
-6.2821219647
 20
-4.3654832059
  0
LINE
  5
3F0
100
AcDbEntity
  8
RACCORDO
100
AcDbLine
 62
250
  6
CONTINUOUS
 10
-6.8198368876
 20
18.5
 11
-6.7148190698
 21
15.2755396155
  0
LINE
  5
3F1
100
AcDbEntity
  8
RACCORDO
100
AcDbLine
 62
250
  6
CONTINUOUS
 10
-6.6200664561
 20
18.7
 11
-6.5153193024
 21
15.4838500694
  0
LWPOLYLINE
  5
3F2
100
AcDbEntity
  8
RACCORDO
100
AcDbPolyline
 62
250
  6
CONTINUOUS
 90
4
 70
0
 10
-6.8578578064
 20
18.5150141001
 10
-6.8576438686
 20
18.5064813311
 10
-6.8574316569
 20
18.5015710627
 10
-6.8572211714
 20
18.5
  0
LWPOLYLINE
  5
3F3
100
AcDbEntity
  8
RACCORDO
100
AcDbPolyline
 62
250
  6
CONTINUOUS
 90
6
 70
0
 10
-6.6583046098
 20
18.7265437312
 10
-6.6580841085
 20
18.7166156985
 10
-6.657865331
 20
18.7090041923
 10
-6.6576514257
 20
18.7036862684
 10
-6.6574392443
 20
18.700684871
 10
-6.6572287868
 20
18.7
  0
LINE
  5
3F4
100
AcDbEntity
  8
RACCORDO
100
AcDbLine
 62
250
  6
CONTINUOUS
 10
-7.0425072881
 20
21.0094865114
 11
-7.0294001425
 21
20.2585786438
  0
LINE
  5
3F5
100
AcDbEntity
  8
RACCORDO
100
AcDbLine
 62
250
  6
CONTINUOUS
 10
-6.6587222959
 20
18.7537847545
 11
-6.6583046098
 21
18.7265437312
  0
LWPOLYLINE
  5
3F6
100
AcDbEntity
  8
RACCORDO
100
AcDbPolyline
 62
250
  6
CONTINUOUS
 90
3
 70
0
 10
-6.8585099766
 20
18.5647948201
 10
-6.8582971659
 20
18.544124914
 10
-6.8578578064
 20
18.5150141001
  0
LINE
  5
3F7
100
AcDbEntity
  8
RACCORDO
100
AcDbLine
 62
250
  6
CONTINUOUS
 10
-6.6592621331
 20
18.8111757553
 11
-6.6587222959
 21
18.7537847545
  0
LINE
  5
3F8
100
AcDbEntity
  8
RACCORDO
100
AcDbLine
 62
250
  6
CONTINUOUS
 10
-6.6597765552
 20
18.9309505512
 11
-6.6592621331
 21
18.8111757553
  0
LINE
  5
3F9
100
AcDbEntity
  8
RACCORDO
100
AcDbLine
 62
250
  6
CONTINUOUS
 10
-6.6598468471
 20
19.0
 11
-6.6597765552
 21
18.9309505512
  0
LINE
  5
3FA
100
AcDbEntity
  8
0
100
AcDbLine
 62
7
  6
CONTINUOUS
 10
-6.675
 20
12.657051888
 11
-6.675
 21
14.117556
  0
LINE
  5
3FB
100
AcDbEntity
  8
RACCORDO
100
AcDbLine
 62
7
  6
CONTINUOUS
 10
-6.6598468471
 20
20.1171572875
 11
-6.6598468471
 21
19.0
  0
LINE
  5
3FC
100
AcDbEntity
  8
RACCORDO
100
AcDbLine
 62
7
  6
CONTINUOUS
 10
-6.6598468471
 20
-20.1171572875
 11
-6.6598468471
 21
-19.0
  0
LINE
  5
3FD
100
AcDbEntity
  8
RACCORDO
100
AcDbLine
 62
7
  6
CONTINUOUS
 10
-6.6
 20
-13.0426749904
 11
-6.6
 21
-10.8545158464
  0
LINE
  5
3FE
100
AcDbEntity
  8
0
100
AcDbLine
 62
7
  6
CONTINUOUS
 10
-6.6
 20
-10.8545158464
 11
-6.6
 21
-10.6504680325
  0
LINE
  5
3FF
100
AcDbEntity
  8
0
100
AcDbLine
 62
7
  6
CONTINUOUS
 10
-6.6
 20
-9.3495328982
 11
-6.6
 21
-9.1454843702
  0
LINE
  5
400
100
AcDbEntity
  8
RACCORDO
100
AcDbLine
 62
7
  6
CONTINUOUS
 10
-6.6
 20
-9.1454843702
 11
-6.6
 21
-6.9573250096
  0
LINE
  5
401
100
AcDbEntity
  8
RACCORDO
100
AcDbLine
 62
7
  6
CONTINUOUS
 10
-6.3
 20
4.3084267572
 11
-6.3
 21
-4.3084267572
  0
LINE
  5
402
100
AcDbEntity
  8
0
100
AcDbLine
 62
7
  6
CONTINUOUS
 10
-5.925
 20
12.657055
 11
-5.925
 21
14.117556
  0
LINE
  5
403
100
AcDbEntity
  8
RACCORDO
100
AcDbLine
 62
7
  6
CONTINUOUS
 10
-5.6226915844
 20
-4.9248051057
 11
-5.6226915844
 21
4.9248051057
  0
LINE
  5
404
100
AcDbEntity
  8
DRAFT
100
AcDbLine
 62
7
  6
CONTINUOUS
 10
-5.6
 20
-5.2117655358
 11
-5.6
 21
5.2117655358
  0
LINE
  5
405
100
AcDbEntity
  8
0
100
AcDbLine
 62
7
  6
CONTINUOUS
 10
-5.4
 20
-9.1454841536
 11
-5.4
 21
-9.3495319675
  0
LINE
  5
406
100
AcDbEntity
  8
0
100
AcDbLine
 62
7
  6
CONTINUOUS
 10
-5.4
 20
-10.6504671018
 11
-5.4
 21
-10.8545156298
  0
LINE
  5
407
100
AcDbEntity
  8
RACCORDO
100
AcDbLine
 62
7
  6
CONTINUOUS
 10
-5.4
 20
-13.0426749904
 11
-5.4
 21
-10.8545156298
  0
LINE
  5
408
100
AcDbEntity
  8
RACCORDO
100
AcDbLine
 62
7
  6
CONTINUOUS
 10
-5.4
 20
-9.1454841536
 11
-5.4
 21
-6.9573250096
  0
LINE
  5
409
100
AcDbEntity
  8
0
100
AcDbLine
 62
7
  6
CONTINUOUS
 10
-5.3
 20
-19.2
 11
-5.3
 21
-13.2
  0
LINE
  5
40A
100
AcDbEntity
  8
0
100
AcDbLine
 62
7
  6
CONTINUOUS
 10
-5.05
 20
-13.5877374302
 11
-5.05
 21
-13.738575419
  0
LINE
  5
40B
100
AcDbEntity
  8
0
100
AcDbLine
 62
7
  6
CONTINUOUS
 10
-5.05
 20
-14.7525418994
 11
-5.05
 21
-14.9033798883
  0
LINE
  5
40C
100
AcDbEntity
  8
0
100
AcDbLine
 62
7
  6
CONTINUOUS
 10
-6.2281401299
 20
-11.67523394
 11
-6.2281927462
 21
-11.1450079244
  0
LINE
  5
40D
100
AcDbEntity
  8
0
100
AcDbLine
 62
7
  6
CONTINUOUS
 10
-5.7718072608
 20
-8.854992077
 11
-5.771859871
 21
-8.3247660599
  0
LINE
  5
40E
100
AcDbEntity
  8
0
100
AcDbLine
 62
7
  6
CONTINUOUS
 10
-6.2283532711
 20
-8.8549604169
 11
-6.2279454512
 21
-8.3247395594
  0
LINE
  5
40F
100
AcDbEntity
  8
0
100
AcDbLine
 62
7
  6
CONTINUOUS
 10
-5.7716467289
 20
-11.1450395831
 11
-5.7720545488
 21
-11.6752604406
  0
LINE
  5
410
100
AcDbEntity
  8
RACCORDO
100
AcDbLine
 62
250
  6
CONTINUOUS
 10
-6.6598468471
 20
-19.0
 11
-6.6595136004
 21
-18.8535433406
  0
LINE
  5
411
100
AcDbEntity
  8
RACCORDO
100
AcDbLine
 62
250
  6
CONTINUOUS
 10
-6.6595136004
 20
-18.8535433406
 11
-6.6588973716
 21
-18.7689459364
  0
LINE
  5
412
100
AcDbEntity
  8
RACCORDO
100
AcDbLine
 62
250
  6
CONTINUOUS
 10
-6.858694955
 20
-18.5868922589
 11
-6.8582822013
 21
-18.5428412449
  0
LWPOLYLINE
  5
413
100
AcDbEntity
  8
RACCORDO
100
AcDbPolyline
 62
250
  6
CONTINUOUS
 90
8
 70
0
 10
-6.6588973716
 20
-18.7689459364
 10
-6.6584997794
 20
-18.7377325012
 10
-6.6582894159
 20
-18.7257751862
 10
-6.658071608
 20
-18.7161265276
 10
-6.6578557061
 20
-18.708730302
 10
-6.657644827
 20
-18.7035677683
 10
-6.6574358539
 20
-18.7006576676
 10
-6.6572287868
 20
-18.7
  0
LINE
  5
414
100
AcDbEntity
  8
RACCORDO
100
AcDbLine
 62
250
  6
CONTINUOUS
 10
-7.0425072881
 20
-21.0094865114
 11
-7.0294001425
 21
-20.2585786438
  0
LWPOLYLINE
  5
415
100
AcDbEntity
  8
RACCORDO
100
AcDbPolyline
 62
250
  6
CONTINUOUS
 90
5
 70
0
 10
-6.8582822013
 20
-18.5428412449
 10
-6.8578486339
 20
-18.5145705904
 10
-6.8576376605
 20
-18.5062894625
 10
-6.8574285064
 20
-18.5015245106
 10
-6.8572211714
 20
-18.5
  0
LINE
  5
416
100
AcDbEntity
  8
RACCORDO
100
AcDbLine
 62
250
  6
CONTINUOUS
 10
-6.7148190698
 20
-15.2755396155
 11
-6.8198368876
 21
-18.5
  0
LINE
  5
417
100
AcDbEntity
  8
RACCORDO
100
AcDbLine
 62
250
  6
CONTINUOUS
 10
-6.5153193024
 20
-15.4838500694
 11
-6.6200664561
 21
-18.7
  0
LWPOLYLINE
  5
418
100
AcDbEntity
  8
RACCORDO
100
AcDbPolyline
 62
7
  6
CONTINUOUS
 90
13
 70
0
 10
-7.5184775044
 20
-15.483378525
 10
-7.5167459172
 20
-15.4557762904
 10
-7.5115595482
 20
-15.4288106788
 10
-7.5030389781
 20
-15.4029109815
 10
-7.4913687432
 20
-15.3784690173
 10
-7.4767719554
 20
-15.3558765062
 10
-7.4594919121
 20
-15.3355278816
 10
-7.4398058361
 20
-15.3177252699
 10
-7.4180826208
 20
-15.3027590431
 10
-7.3947628176
 20
-15.2909290282
 10
-7.3702803715
 20
-15.2824077141
 10
-7.3450382139
 20
-15.2772639035
 10
-7.319462557
 20
-15.2755396155
  0
LWPOLYLINE
  5
419
100
AcDbEntity
  8
RACCORDO
100
AcDbPolyline
 62
250
  6
CONTINUOUS
 90
4
 70
0
 10
-7.234606201
 20
-18.7
 10
-7.2328954339
 20
-18.6738947616
 10
-7.2277924042
 20
-18.648236191
 10
-7.2193844262
 20
-18.6234633135
  0
LWPOLYLINE
  5
41A
100
AcDbEntity
  8
RACCORDO
100
AcDbPolyline
 62
7
  6
CONTINUOUS
 90
4
 70
0
 10
-7.3089365232
 20
-18.7
 10
-7.3071946849
 20
-18.6741235681
 10
-7.3021106415
 20
-18.6486379494
 10
-7.293751803
 20
-18.6239765047
  0
LWPOLYLINE
  5
41B
100
AcDbEntity
  8
RACCORDO
100
AcDbPolyline
 62
7
  6
CONTINUOUS
 90
16
 70
0
 10
-5.6100308043
 20
-4.9588093923
 10
-5.6116049835
 20
-4.9755285587
 10
-5.6154420595
 20
-4.991055662
 10
-5.6215420323
 20
-5.0053907034
 10
-5.6301757288
 20
-5.01883949
 10
-5.6410723221
 20
-5.0310962166
 10
-5.6534193318
 20
-5.0412434658
 10
-5.667327762
 20
-5.0491208091
 10
-5.6826866086
 20
-5.0548886774
 10
-5.6983503785
 20
-5.0581109441
 10
-5.7143419456
 20
-5.0585969266
 10
-5.7306384361
 20
-5.0565373081
 10
-5.7460257356
 20
-5.0520680098
 10
-5.7600991396
 20
-5.0452343384
 10
-5.7732633526
 20
-5.0359909855
 10
-5.7855183748
 20
-5.0243379499
  0
LINE
  5
41C
100
AcDbEntity
  8
RACCORDO
100
AcDbLine
 62
250
  6
CONTINUOUS
 10
-9.65
 20
-20.5997254977
 11
-9.5879500862
 21
-20.2270948741
  0
LINE
  5
41D
100
AcDbEntity
  8
RACCORDO
100
AcDbLine
 62
250
  6
CONTINUOUS
 10
-9.3501255952
 20
-20.9
 11
-9.2879615093
 21
-20.5266837345
  0
LINE
  5
41E
100
AcDbEntity
  8
0
100
AcDbLine
 62
7
  6
CONTINUOUS
 10
-8.7787234068
 20
-4.0391667461
 11
-8.7361702204
 21
-3.9558332539
  0
LWPOLYLINE
  5
41F
100
AcDbEntity
  8
0
100
AcDbPolyline
 62
7
  6
CONTINUOUS
 90
13
 70
0
 10
5.0035843673
 20
16.950533157
 10
5.0782933486
 20
17.0445568691
 10
5.1469291754
 20
17.1419658382
 10
5.209491848
 20
17.2427599922
 10
5.2661659333
 20
17.3473264378
 10
5.3167668642
 20
17.455277909
 10
5.3607409396
 20
17.5654527968
 10
5.3979399278
 20
17.6777774416
 10
5.4285120604
 20
17.7923253879
 10
5.4523483314
 20
17.9081558801
 10
5.4694124054
 20
18.0249553175
 10
5.4797406179
 20
18.1430372288
 10
5.4833329687
 20
18.262401574
  0
LINE
  5
420
100
AcDbEntity
  8
0
100
AcDbLine
 62
7
  6
CONTINUOUS
 10
-7.9489361674
 20
1.5858330154
 11
-7.8638297871
 21
1.6691669846
  0
LINE
  5
421
100
AcDbEntity
  8
0
100
AcDbLine
 62
7
  6
CONTINUOUS
 10
4.0344925161
 20
12.9624207547
 11
5.3865535485
 21
14.2458490803
  0
LINE
  5
422
100
AcDbEntity
  8
0
100
AcDbLine
 62
7
  6
CONTINUOUS
 10
3.081348
 20
12.0576422917
 11
3.897045
 21
12.8319318547
  0
LINE
  5
423
100
AcDbEntity
  8
0
100
AcDbLine
 62
7
  6
CONTINUOUS
 10
2.042892
 20
11.0718910233
 11
2.997344
 21
11.9778934079
  0
LINE
  5
424
100
AcDbEntity
  8
0
100
AcDbLine
 62
7
  6
CONTINUOUS
 10
0.4191575609
 20
9.5305752919
 11
1.8770221184
 21
10.9144388241
  0
LINE
  5
425
100
AcDbEntity
  8
0
100
AcDbLine
 62
7
  6
CONTINUOUS
 10
4.5162375541
 20
13.2593015455
 11
5.4673834379
 21
14.1607034074
  0
LINE
  5
426
100
AcDbEntity
  8
0
100
AcDbLine
 62
7
  6
CONTINUOUS
 10
2.224637
 20
11.0875244918
 11
3.079244
 21
11.8974437271
  0
LINE
  5
427
100
AcDbEntity
  8
0
100
AcDbLine
 62
7
  6
CONTINUOUS
 10
0.5817812422
 20
9.5305752919
 11
2.0584702029
 21
10.9300483562
  0
LINE
  5
428
100
AcDbEntity
  8
0
100
AcDbLine
 62
7
  6
CONTINUOUS
 10
3.1633556078
 20
11.9771568412
 11
4.0502372222
 21
12.8176654192
  0
LINE
  5
429
100
AcDbEntity
  8
0
100
AcDbLine
 62
7
  6
CONTINUOUS
 10
-8.0553191483
 20
1.6691669846
 11
-7.9914893687
 21
1.7108330154
  0
LINE
  5
42A
100
AcDbEntity
  8
0
100
AcDbLine
 62
7
  6
CONTINUOUS
 10
-8.6723404408
 20
2.565
 11
-7.8
 21
3.0858330154
  0
LINE
  5
42B
100
AcDbEntity
  8
0
100
AcDbLine
 62
7
  6
CONTINUOUS
 10
-8.5021276355
 20
3.9191669846
 11
-8.4382978559
 21
3.94
  0
LINE
  5
42C
100
AcDbEntity
  8
0
100
AcDbLine
 62
7
  6
CONTINUOUS
 10
-8.0765957415
 20
3.8566669846
 11
-8.0127659619
 21
3.8775
  0
LINE
  5
42D
100
AcDbEntity
  8
0
100
AcDbLine
 62
7
  6
CONTINUOUS
 10
-8.5872340679
 20
-6.685
 11
-7.8
 21
-6.685
  0
LINE
  5
42E
100
AcDbEntity
  8
0
100
AcDbLine
 62
7
  6
CONTINUOUS
 10
-8.5872340679
 20
-5.935
 11
-7.8
 21
-5.935
  0
LINE
  5
42F
100
AcDbEntity
  8
0
100
AcDbLine
 62
7
  6
CONTINUOUS
 10
-8.8
 20
-5.81
 11
-7.8
 21
-5.81
  0
LINE
  5
430
100
AcDbEntity
  8
0
100
AcDbLine
 62
7
  6
CONTINUOUS
 10
-8.0340425551
 20
-3.8308332539
 11
-8.1404255211
 21
-3.81
  0
LINE
  5
431
100
AcDbEntity
  8
0
100
AcDbLine
 62
7
  6
CONTINUOUS
 10
-8.0553191483
 20
-3.9558332539
 11
-8.1404255211
 21
-3.935
  0
LINE
  5
432
100
AcDbEntity
  8
0
100
AcDbLine
 62
7
  6
CONTINUOUS
 10
5.739695958
 20
-8.8414641535
 11
5.7718517719
 21
-8.8550027231
  0
LINE
  5
433
100
AcDbEntity
  8
0
100
AcDbLine
 62
7
  6
CONTINUOUS
 10
5.7076639741
 20
-8.8277209076
 11
5.739695958
 21
-8.8414641535
  0
LINE
  5
434
100
AcDbEntity
  8
0
100
AcDbLine
 62
7
  6
CONTINUOUS
 10
5.6757558203
 20
-8.8137729854
 11
5.7076639741
 21
-8.8277209076
  0
LINE
  5
435
100
AcDbEntity
  8
0
100
AcDbLine
 62
7
  6
CONTINUOUS
 10
5.6632471071
 20
-8.8322745737
 11
5.7611776175
 21
-8.8778937063
  0
LINE
  5
436
100
AcDbEntity
  8
TRASH
100
AcDbLine
 62
7
  6
CONTINUOUS
 10
6.5197234839
 20
-9.4802765161
 11
7.1449972769
 21
-9.7718517719
  0
LINE
  5
437
100
AcDbEntity
  8
0
100
AcDbLine
 62
7
  6
CONTINUOUS
 10
6.6856683555
 20
-9.314331643
 11
6.7468689243
 21
-9.3450977056
  0
LINE
  5
438
100
AcDbEntity
  8
0
100
AcDbLine
 62
7
  6
CONTINUOUS
 10
6.7468689243
 20
-9.3450977056
 11
6.8280369558
 21
-9.3864133882
  0
LINE
  5
439
100
AcDbEntity
  8
0
100
AcDbLine
 62
7
  6
CONTINUOUS
 10
6.8280369558
 20
-9.3864133882
 11
6.9087087716
 21
-9.4279856593
  0
LINE
  5
43A
100
AcDbEntity
  8
0
100
AcDbLine
 62
7
  6
CONTINUOUS
 10
6.9087087716
 20
-9.4279856593
 11
6.991283382
 21
-9.4709847613
  0
LWPOLYLINE
  5
43B
100
AcDbEntity
  8
0
100
AcDbPolyline
 62
7
  6
CONTINUOUS
 90
3
 70
0
 10
6.991283382
 20
-9.4709847613
 10
7.1782125885
 20
-9.5697087194
 10
7.2047094577
 20
-9.5839345959
  0
LINE
  5
43C
100
AcDbEntity
  8
0
100
AcDbLine
 62
7
  6
CONTINUOUS
 10
4.7952905423
 20
-10.4160654041
 11
4.7787898855
 21
-10.4046463507
  0
LWPOLYLINE
  5
43D
100
AcDbEntity
  8
RACCORDO
100
AcDbPolyline
 62
250
  6
CONTINUOUS
 90
7
 70
0
 10
6.67521242
 20
-20.1707191451
 10
6.6867803067
 20
-20.1872875146
 10
6.7013382517
 20
-20.2027109185
 10
6.7186088814
 20
-20.2166740213
 10
6.7382822012
 20
-20.2289285414
 10
6.7600355757
 20
-20.2392755665
 10
6.7834819673
 20
-20.2475324589
  0
LINE
  5
43E
100
AcDbEntity
  8
0
100
AcDbLine
 62
7
  6
CONTINUOUS
 10
-7.9489361674
 20
2.0233330154
 11
-7.9914893687
 21
2.0858330154
  0
LINE
  5
43F
100
AcDbEntity
  8
0
100
AcDbLine
 62
7
  6
CONTINUOUS
 10
-7.8212765951
 20
2.0441669846
 11
-7.8638297871
 21
2.1275
  0
LINE
  5
440
100
AcDbEntity
  8
0
100
AcDbLine
 62
7
  6
CONTINUOUS
 10
-8.7361702204
 20
3.8983330154
 11
-8.7787234068
 21
3.9816669846
  0
LINE
  5
441
100
AcDbEntity
  8
0
100
AcDbLine
 62
7
  6
CONTINUOUS
 10
-7.8212765951
 20
4.2941669846
 11
-7.8638297871
 21
4.3775
  0
LINE
  5
442
100
AcDbEntity
  8
0
100
AcDbLine
 62
7
  6
CONTINUOUS
 10
-7.9276595742
 20
4.19
 11
-7.9489361674
 21
4.2733330154
  0
LINE
  5
443
100
AcDbEntity
  8
RACCORDO
100
AcDbLine
 62
250
  6
CONTINUOUS
 10
-9.65
 20
20.5997254977
 11
-9.5879500862
 21
20.2270948741
  0
LINE
  5
444
100
AcDbEntity
  8
RACCORDO
100
AcDbLine
 62
250
  6
CONTINUOUS
 10
-9.3501255952
 20
20.9
 11
-9.2879615093
 21
20.5266837345
  0
LWPOLYLINE
  5
445
100
AcDbEntity
  8
RACCORDO
100
AcDbPolyline
 62
250
  6
CONTINUOUS
 90
13
 70
0
 10
-6.6598468471
 20
20.1171572875
 10
-6.66166905
 20
20.1353593577
 10
-6.6668092065
 20
20.1533149498
 10
-6.67521242
 20
20.1707191451
 10
-6.6867803067
 20
20.1872875146
 10
-6.7013382517
 20
20.2027109185
 10
-6.7186088814
 20
20.2166740213
 10
-6.7382822012
 20
20.2289285414
 10
-6.7600355757
 20
20.2392755665
 10
-6.7834819673
 20
20.2475324589
 10
-6.8082132153
 20
20.2535604456
 10
-6.8338112531
 20
20.2572623286
 10
-6.8598392317
 20
20.2585786438
  0
LINE
  5
446
100
AcDbEntity
  8
0
100
AcDbLine
 62
7
  6
CONTINUOUS
 10
-4.5002221437
 20
10.0041723992
 11
-4.50278
 21
10.132446
  0
LINE
  5
447
100
AcDbEntity
  8
0
100
AcDbLine
 62
7
  6
CONTINUOUS
 10
-4.0779329609
 20
-13.3845251397
 11
-4.0779329609
 21
-13.5877374302
  0
LINE
  5
448
100
AcDbEntity
  8
0
100
AcDbLine
 62
7
  6
CONTINUOUS
 10
-4.0779329609
 20
-13.7720949721
 11
-4.0779329609
 21
-14.2425143884
  0
LINE
  5
449
100
AcDbEntity
  8
0
100
AcDbLine
 62
7
  6
CONTINUOUS
 10
-4.0779329609
 20
-14.5493296089
 11
-4.0779329609
 21
-14.7525418994
  0
LINE
  5
44A
100
AcDbEntity
  8
0
100
AcDbLine
 62
7
  6
CONTINUOUS
 10
-4.0779329609
 20
-14.9368994413
 11
-4.0779329609
 21
-15.4073188577
  0
LINE
  5
44B
100
AcDbEntity
  8
0
100
AcDbLine
 62
7
  6
CONTINUOUS
 10
-3.9082402235
 20
-15.5884357542
 11
-3.9082402235
 21
-14.9368994413
  0
LINE
  5
44C
100
AcDbEntity
  8
0
100
AcDbLine
 62
7
  6
CONTINUOUS
 10
-3.9082402235
 20
-14.7525418994
 11
-3.9082402235
 21
-14.5493296089
  0
LINE
  5
44D
100
AcDbEntity
  8
0
100
AcDbLine
 62
7
  6
CONTINUOUS
 10
-3.9082402235
 20
-14.4236312849
 11
-3.9082402235
 21
-13.7720949721
  0
LINE
  5
44E
100
AcDbEntity
  8
0
100
AcDbLine
 62
7
  6
CONTINUOUS
 10
-3.9082402235
 20
-13.5877374302
 11
-3.9082402235
 21
-13.3845251397
  0
LINE
  5
44F
100
AcDbEntity
  8
DRAFT
100
AcDbLine
 62
7
  6
CONTINUOUS
 10
-3.75
 20
21.2
 11
-3.75
 21
21.1647852141
  0
LINE
  5
450
100
AcDbEntity
  8
DRAFT
100
AcDbLine
 62
7
  6
CONTINUOUS
 10
-3.75
 20
-21.2
 11
-3.75
 21
-21.1647852141
  0
LINE
  5
451
100
AcDbEntity
  8
0
100
AcDbLine
 62
7
  6
CONTINUOUS
 10
-3.55
 20
-14.9368994413
 11
-3.55
 21
-14.7525418994
  0
LINE
  5
452
100
AcDbEntity
  8
0
100
AcDbLine
 62
7
  6
CONTINUOUS
 10
-3.55
 20
-13.7720949721
 11
-3.55
 21
-13.5877374302
  0
LINE
  5
453
100
AcDbEntity
  8
0
100
AcDbLine
 62
7
  6
CONTINUOUS
 10
-3.325042
 20
16.7519
 11
-3.325042
 21
17.121932
  0
LINE
  5
454
100
AcDbEntity
  8
0
100
AcDbLine
 62
7
  6
CONTINUOUS
 10
-3.325042
 20
17.962609
 11
-3.325042
 21
18.829056
  0
LINE
  5
455
100
AcDbEntity
  8
0
100
AcDbLine
 62
7
  6
CONTINUOUS
 10
-3.325037
 20
11.556827
 11
-3.325037
 21
11.926845
  0
LINE
  5
456
100
AcDbEntity
  8
0
100
AcDbLine
 62
7
  6
CONTINUOUS
 10
-3.325037
 20
12.744837
 11
-3.325037
 21
13.114855
  0
LINE
  5
457
100
AcDbEntity
  8
0
100
AcDbLine
 62
7
  6
CONTINUOUS
 10
-3.325037
 20
13.361529
 11
-3.325037
 21
13.731543
  0
LINE
  5
458
100
AcDbEntity
  8
0
100
AcDbLine
 62
7
  6
CONTINUOUS
 10
-3.325037
 20
14.101543
 11
-3.325037
 21
14.660905
  0
LINE
  5
459
100
AcDbEntity
  8
0
100
AcDbLine
 62
7
  6
CONTINUOUS
 10
-3.325037
 20
15.35187
 11
-3.325037
 21
15.911232
  0
LINE
  5
45A
100
AcDbEntity
  8
0
100
AcDbLine
 62
7
  6
CONTINUOUS
 10
-6.2279454512
 20
-8.3247395594
 11
-6.3242441797
 21
-8.8137729854
  0
LINE
  5
45B
100
AcDbEntity
  8
0
100
AcDbLine
 62
7
  6
CONTINUOUS
 10
-5.7720545488
 20
-11.6752604406
 11
-5.6757558203
 21
-11.1862270146
  0
LINE
  5
45C
100
AcDbEntity
  8
RACCORDO
100
AcDbLine
 62
7
  6
CONTINUOUS
 10
-9.583581878
 20
-9.5663944438
 11
-9.65
 21
-9.6992408051
  0
LINE
  5
45D
100
AcDbEntity
  8
0
100
AcDbLine
 62
7
  6
CONTINUOUS
 10
-8.6510638475
 20
-4.06
 11
-8.6085106611
 21
-3.9975
  0
LINE
  5
45E
100
AcDbEntity
  8
0
100
AcDbLine
 62
7
  6
CONTINUOUS
 10
-8.7361702204
 20
-3.9558332539
 11
-8.6510638475
 21
-3.8725
  0
LINE
  5
45F
100
AcDbEntity
  8
0
100
AcDbLine
 62
7
  6
CONTINUOUS
 10
-8.8
 20
-1.2475
 11
-7.9489361674
 21
-0.7266665077
  0
LINE
  5
460
100
AcDbEntity
  8
0
100
AcDbLine
 62
7
  6
CONTINUOUS
 10
-8.6723404408
 20
-1.31
 11
-7.8
 21
-0.7891665077
  0
LINE
  5
461
100
AcDbEntity
  8
0
100
AcDbLine
 62
7
  6
CONTINUOUS
 10
-8.0340425551
 20
1.5441669846
 11
-7.9489361674
 21
1.5858330154
  0
LINE
  5
462
100
AcDbEntity
  8
0
100
AcDbLine
 62
7
  6
CONTINUOUS
 10
-8.8
 20
-4.6433332539
 11
-7.8
 21
-4.6433332539
  0
LINE
  5
463
100
AcDbEntity
  8
0
100
AcDbLine
 62
7
  6
CONTINUOUS
 10
-8.6723404408
 20
-4.5183332539
 11
-7.9276595742
 21
-4.5183332539
  0
LINE
  5
464
100
AcDbEntity
  8
0
100
AcDbLine
 62
7
  6
CONTINUOUS
 10
-8.4595744491
 20
-3.935
 11
-8.1404255211
 21
-3.935
  0
LINE
  5
465
100
AcDbEntity
  8
0
100
AcDbLine
 62
7
  6
CONTINUOUS
 10
-8.4595744491
 20
-3.81
 11
-8.1404255211
 21
-3.81
  0
LINE
  5
466
100
AcDbEntity
  8
0
100
AcDbLine
 62
7
  6
CONTINUOUS
 10
-8.8
 20
-3.6433332539
 11
-7.8
 21
-3.6433332539
  0
LINE
  5
467
100
AcDbEntity
  8
0
100
AcDbLine
 62
7
  6
CONTINUOUS
 10
-8.6723404408
 20
-3.5183332539
 11
-8.3957446694
 21
-3.5183332539
  0
LINE
  5
468
100
AcDbEntity
  8
0
100
AcDbLine
 62
7
  6
CONTINUOUS
 10
-8.2680851102
 20
-3.5183332539
 11
-7.9276595742
 21
-3.5183332539
  0
LINE
  5
469
100
AcDbEntity
  8
0
100
AcDbLine
 62
7
  6
CONTINUOUS
 10
7.2212101145
 20
-9.5953536493
 11
7.2047094577
 21
-9.5839345959
  0
LINE
  5
46A
100
AcDbEntity
  8
0
100
AcDbLine
 62
7
  6
CONTINUOUS
 10
-7.8638297871
 20
2.1275
 11
-7.9489361674
 21
2.2108330154
  0
LINE
  5
46B
100
AcDbEntity
  8
0
100
AcDbLine
 62
7
  6
CONTINUOUS
 10
-8.6510638475
 20
3.815
 11
-8.7361702204
 21
3.8983330154
  0
LINE
  5
46C
100
AcDbEntity
  8
0
100
AcDbLine
 62
7
  6
CONTINUOUS
 10
-8.6085106611
 20
3.94
 11
-8.6510638475
 21
4.0025
  0
LINE
  5
46D
100
AcDbEntity
  8
0
100
AcDbLine
 62
7
  6
CONTINUOUS
 10
-7.9489361674
 20
4.2733330154
 11
-7.9914893687
 21
4.3358330154
  0
LINE
  5
46E
100
AcDbEntity
  8
DRAFT
100
AcDbLine
 62
7
  6
CONTINUOUS
 10
-3.1
 20
-21.2
 11
-3.1
 21
-22.4
  0
LINE
  5
46F
100
AcDbEntity
  8
DRAFT
100
AcDbLine
 62
7
  6
CONTINUOUS
 10
-3.1
 20
21.2
 11
-3.1
 21
22.4
  0
LINE
  5
470
100
AcDbEntity
  8
0
100
AcDbLine
 62
7
  6
CONTINUOUS
 10
-2.982778
 20
18.327522
 11
-2.982778
 21
18.777699
  0
LINE
  5
471
100
AcDbEntity
  8
RACCORDO
100
AcDbLine
 62
250
  6
CONTINUOUS
 10
-2.7748993522
 20
-7.0130903017
 11
-2.7748993522
 21
-12.9869096983
  0
LINE
  5
472
100
AcDbEntity
  8
0
100
AcDbLine
 62
7
  6
CONTINUOUS
 10
-2.532571
 20
18.327526
 11
-2.532571
 21
18.777699
  0
LINE
  5
473
100
AcDbEntity
  8
RACCORDO
100
AcDbLine
 62
250
  6
CONTINUOUS
 10
-2.4760409428
 20
-7.015480183
 11
-2.4760409428
 21
-12.984519817
  0
LINE
  5
474
100
AcDbEntity
  8
RACCORDO
100
AcDbLine
 62
250
  6
CONTINUOUS
 10
-2.3927260619
 20
-7.023790722
 11
-2.3927260619
 21
-12.976209278
  0
LINE
  5
475
100
AcDbEntity
  8
0
100
AcDbLine
 62
7
  6
CONTINUOUS
 10
-2.190307
 20
18.332669
 11
-2.190302
 21
18.65561
  0
LINE
  5
476
100
AcDbEntity
  8
0
100
AcDbLine
 62
7
  6
CONTINUOUS
 10
-2.190302
 20
16.757598
 11
-2.190302
 21
17.116239
  0
LINE
  5
477
100
AcDbEntity
  8
RACCORDO
100
AcDbLine
 62
250
  6
CONTINUOUS
 10
-2.0938676525
 20
-7.0261806034
 11
-2.0938676525
 21
-12.9738193966
  0
LINE
  5
478
100
AcDbEntity
  8
0
100
AcDbLine
 62
7
  6
CONTINUOUS
 10
-1.838789
 20
16.644734
 11
-1.838789
 21
17.229107
  0
LINE
  5
479
100
AcDbEntity
  8
DRAFT
100
AcDbLine
 62
7
  6
CONTINUOUS
 10
3.0118365096
 20
22.4
 11
2.6768152463
 21
21.2
  0
LINE
  5
47A
100
AcDbEntity
  8
DRAFT
100
AcDbLine
 62
7
  6
CONTINUOUS
 10
3.9733373476
 20
23.5
 11
3.9526845545
 21
23.4301797403
  0
LWPOLYLINE
  5
47B
100
AcDbEntity
  8
0
100
AcDbPolyline
 62
7
  6
CONTINUOUS
 90
25
 70
0
 10
1.4547726463
 20
13.2027837486
 10
1.4623465467
 20
13.2257878379
 10
1.4668382543
 20
13.249325508
 10
1.4682477693
 20
13.2733967567
 10
1.4666415982
 20
13.2985306758
 10
1.4619532344
 20
13.3241981679
 10
1.4539831576
 20
13.3488119539
 10
1.4424710374
 20
13.3724260404
 10
1.4276772042
 20
13.3949864287
 10
1.4101831289
 20
13.4147438451
 10
1.3895572619
 20
13.4312932823
 10
1.3662311529
 20
13.4450397649
 10
1.3420809208
 20
13.4554490717
 10
1.3173250365
 20
13.462350063
 10
1.2917450291
 20
13.465913888
 10
1.2665616055
 20
13.4661197576
 10
1.241883526
 20
13.4628896428
 10
1.2176020303
 20
13.4563015709
 10
1.1946115437
 20
13.4465688344
 10
1.1728150741
 20
13.4335387561
 10
1.1523096136
 20
13.4173640014
 10
1.1342805647
 20
13.3987158764
 10
1.1186872962
 20
13.3772863816
 10
1.1055704394
 20
13.3533835
 10
1.0962372907
 20
13.3286025176
  0
LINE
  5
47C
100
AcDbEntity
  8
0
100
AcDbLine
 62
7
  6
CONTINUOUS
 10
-7.1616711075
 20
-10.2675098583
 11
-7.1449972769
 21
-10.2281482281
  0
LWPOLYLINE
  5
47D
100
AcDbEntity
  8
0
100
AcDbPolyline
 62
7
  6
CONTINUOUS
 90
3
 70
0
 10
-7.2212101145
 20
-10.4046463507
 10
-7.178568648
 20
-10.3067418836
 10
-7.1616711075
 20
-10.2675098583
  0
LINE
  5
47E
100
AcDbEntity
  8
0
100
AcDbLine
 62
7
  6
CONTINUOUS
 10
-7.2047094577
 20
-10.4160654041
 11
-7.1221062937
 21
-10.2388223825
  0
LINE
  5
47F
100
AcDbEntity
  8
TRASH
100
AcDbLine
 62
7
  6
CONTINUOUS
 10
-6.519717435
 20
-9.4802732178
 11
-6.2281482281
 21
-8.8550027231
  0
LWPOLYLINE
  5
480
100
AcDbEntity
  8
RACCORDO
100
AcDbPolyline
 62
7
  6
CONTINUOUS
 90
8
 70
0
 10
7.293751803
 20
18.6239765047
 10
7.2822380187
 20
18.6005570772
 10
7.2677505446
 20
18.5787914426
 10
7.2505363116
 20
18.5590737083
 10
7.2308931205
 20
18.5417572449
 10
7.2091397129
 20
18.5271341059
 10
7.1856187697
 20
18.5154532061
 10
7.1607168843
 20
18.5069324742
  0
LWPOLYLINE
  5
481
100
AcDbEntity
  8
RACCORDO
100
AcDbPolyline
 62
250
  6
CONTINUOUS
 90
5
 70
0
 10
7.2193844262
 20
18.6234633135
 10
7.2078153628
 20
18.6
 10
7.1932831637
 20
18.5782477142
 10
7.1760364791
 20
18.5585786438
 10
7.1634252964
 20
18.5470018494
  0
LINE
  5
482
100
AcDbEntity
  8
0
100
AcDbLine
 62
7
  6
CONTINUOUS
 10
-6.5513688687
 20
-9.2519164006
 11
-6.6
 21
-9.3495328982
  0
LINE
  5
483
100
AcDbEntity
  8
0
100
AcDbLine
 62
7
  6
CONTINUOUS
 10
-6.6856681008
 20
-9.3143320038
 11
-6.6572345431
 21
-9.2577462138
  0
LINE
  5
484
100
AcDbEntity
  8
0
100
AcDbLine
 62
7
  6
CONTINUOUS
 10
-6.4896779516
 20
-9.1297759238
 11
-6.5513688687
 21
-9.2519164006
  0
LINE
  5
485
100
AcDbEntity
  8
0
100
AcDbLine
 62
7
  6
CONTINUOUS
 10
-6.6572345431
 20
-9.2577462138
 11
-6.6190899101
 21
-9.1827286305
  0
LINE
  5
486
100
AcDbEntity
  8
0
100
AcDbLine
 62
7
  6
CONTINUOUS
 10
-6.6190899101
 20
-9.1827286305
 11
-6.6
 21
-9.1454843702
  0
LINE
  5
487
100
AcDbEntity
  8
0
100
AcDbLine
 62
7
  6
CONTINUOUS
 10
-6.4138941891
 20
-8.9816112262
 11
-6.4896779516
 21
-9.1297759238
  0
LINE
  5
488
100
AcDbEntity
  8
0
100
AcDbLine
 62
7
  6
CONTINUOUS
 10
-6.3367528929
 20
-8.8322745737
 11
-6.4138941891
 21
-8.9816112262
  0
LINE
  5
489
100
AcDbEntity
  8
0
100
AcDbLine
 62
7
  6
CONTINUOUS
 10
5.3999676142
 20
9.6175640389
 11
5.4822600513
 21
9.7012831434
  0
LINE
  5
48A
100
AcDbEntity
  8
0
100
AcDbLine
 62
7
  6
CONTINUOUS
 10
-8.5446808219
 20
-3.9558332539
 11
-8.4595744491
 21
-3.935
  0
LINE
  5
48B
100
AcDbEntity
  8
0
100
AcDbLine
 62
7
  6
CONTINUOUS
 10
-8.5659574747
 20
-3.8308332539
 11
-8.4595744491
 21
-3.81
  0
LINE
  5
48C
100
AcDbEntity
  8
0
100
AcDbLine
 62
7
  6
CONTINUOUS
 10
-8.3957446694
 20
-2.9766667461
 11
-8.2680851102
 21
-2.9766667461
  0
LINE
  5
48D
100
AcDbEntity
  8
0
100
AcDbLine
 62
7
  6
CONTINUOUS
 10
-8.8
 20
-2.8933332539
 11
-8.6723404408
 21
-2.8933332539
  0
LINE
  5
48E
100
AcDbEntity
  8
0
100
AcDbLine
 62
7
  6
CONTINUOUS
 10
-7.9276595742
 20
-2.8933332539
 11
-7.8
 21
-2.8933332539
  0
LINE
  5
48F
100
AcDbEntity
  8
0
100
AcDbLine
 62
7
  6
CONTINUOUS
 10
-8.8
 20
-1.7266665077
 11
-7.8
 21
-1.7266665077
  0
LINE
  5
490
100
AcDbEntity
  8
0
100
AcDbLine
 62
7
  6
CONTINUOUS
 10
-8.8
 20
-1.6016665077
 11
-7.8
 21
-1.6016665077
  0
LINE
  5
491
100
AcDbEntity
  8
0
100
AcDbLine
 62
7
  6
CONTINUOUS
 10
-7.9489361674
 20
2.2108330154
 11
-8.0340425551
 21
2.2525
  0
LINE
  5
492
100
AcDbEntity
  8
0
100
AcDbLine
 62
7
  6
CONTINUOUS
 10
-7.9914893687
 20
2.0858330154
 11
-8.0553191483
 21
2.1275
  0
LINE
  5
493
100
AcDbEntity
  8
0
100
AcDbLine
 62
7
  6
CONTINUOUS
 10
-7.8638297871
 20
4.3775
 11
-7.9489361674
 21
4.4608330154
  0
LINE
  5
494
100
AcDbEntity
  8
0
100
AcDbLine
 62
7
  6
CONTINUOUS
 10
6.5197234842
 20
-10.5197234842
 11
6.6856681008
 21
-10.6856679962
  0
LINE
  5
495
100
AcDbEntity
  8
0
100
AcDbLine
 62
7
  6
CONTINUOUS
 10
5.4802765158
 20
-9.4802765158
 11
5.3143318992
 21
-9.3143320038
  0
LINE
  5
496
100
AcDbEntity
  8
0
100
AcDbLine
 62
7
  6
CONTINUOUS
 10
5.6632470591
 20
-11.1677253337
 11
5.6759253364
 21
-11.1864777236
  0
LWPOLYLINE
  5
497
100
AcDbEntity
  8
RACCORDO
100
AcDbPolyline
 62
7
  6
CONTINUOUS
 90
8
 70
0
 10
7.2936811322
 20
-18.6238056948
 10
7.2821620547
 20
-18.6004322166
 10
7.2677050687
 20
-18.5787289921
 10
7.250536297
 20
-18.5590736936
 10
7.2309257685
 20
-18.5417887896
 10
7.209212759
 20
-18.5271768639
 10
7.1857903053
 20
-18.5155248943
 10
7.1610692283
 20
-18.5070349419
  0
LWPOLYLINE
  5
498
100
AcDbEntity
  8
0
100
AcDbPolyline
 62
7
  6
CONTINUOUS
 90
8
 70
0
 10
3.2741886738
 20
-13.0
 10
3.2765986169
 20
-13.0058980303
 10
3.2872022292
 20
-13.0398796192
 10
3.2950872336
 20
-13.074746217
 10
3.3009887406
 20
-13.1099199723
 10
3.3051517872
 20
-13.1452082682
 10
3.3073313364
 20
-13.1808037187
 10
3.3075273882
 20
-13.2167063217
  0
LINE
  5
499
100
AcDbEntity
  8
DRAFT
100
AcDbLine
 62
7
  6
CONTINUOUS
 10
3.9733373476
 20
-23.5
 11
3.9526845545
 21
-23.4301797403
  0
LINE
  5
49A
100
AcDbEntity
  8
DRAFT
100
AcDbLine
 62
7
  6
CONTINUOUS
 10
2.6768152463
 20
-21.2
 11
3.0118365096
 21
-22.4
  0
LWPOLYLINE
  5
49B
100
AcDbEntity
  8
RACCORDO
100
AcDbPolyline
 62
250
  6
CONTINUOUS
 90
13
 70
0
 10
0.2649134011
 20
-19.5938857461
 10
0.2631488246
 20
-19.5687085423
 10
0.2580027931
 20
-19.5439603064
 10
0.249562886
 20
-19.5200632434
 10
0.2379728705
 20
-19.4974250586
 10
0.223430291
 20
-19.4764320693
 10
0.2061831349
 20
-19.4574425926
 10
0.1865255069
 20
-19.4407807098
 10
0.1647926978
 20
-19.4267308484
 10
0.1413555591
 20
-19.4155329292
 10
0.1166139877
 20
-19.4073781356
 10
0.0909900701
 20
-19.4024056991
 10
0.0649210165
 20
-19.4007005801
  0
LINE
  5
49C
100
AcDbEntity
  8
RACCORDO
100
AcDbLine
 62
250
  6
CONTINUOUS
 10
-0.2649134011
 20
-19.5938857461
 11
-0.3987736215
 21
-15.4838500694
  0
LINE
  5
49D
100
AcDbEntity
  8
RACCORDO
100
AcDbLine
 62
250
  6
CONTINUOUS
 10
-0.0649210165
 20
-19.4007005808
 11
-0.1992738542
 21
-15.2755396155
  0
LWPOLYLINE
  5
49E
100
AcDbEntity
  8
RACCORDO
100
AcDbPolyline
 62
250
  6
CONTINUOUS
 90
3
 70
0
 10
-0.2643828219
 20
-19.6175022913
 10
-0.264640027
 20
-19.6041911109
 10
-0.2649134011
 20
-19.5938857461
  0
LINE
  5
49F
100
AcDbEntity
  8
RACCORDO
100
AcDbLine
 62
250
  6
CONTINUOUS
 10
-0.0646458243
 20
-19.4175833679
 11
-0.0649210165
 21
-19.4007005808
  0
LINE
  5
4A0
100
AcDbEntity
  8
RACCORDO
100
AcDbLine
 62
250
  6
CONTINUOUS
 10
-0.2639141051
 20
-19.6534136762
 11
-0.2643828219
 21
-19.6175022913
  0
LINE
  5
4A1
100
AcDbEntity
  8
RACCORDO
100
AcDbLine
 62
250
  6
CONTINUOUS
 10
-0.0641459597
 20
-19.4677006562
 11
-0.0646458243
 21
-19.4175833679
  0
LINE
  5
4A2
100
AcDbEntity
  8
RACCORDO
100
AcDbLine
 62
250
  6
CONTINUOUS
 10
-0.2633545401
 20
-19.7278964334
 11
-0.2639141051
 21
-19.6534136762
  0
LINE
  5
4A3
100
AcDbEntity
  8
RACCORDO
100
AcDbLine
 62
250
  6
CONTINUOUS
 10
-0.0632256648
 20
-19.6725733934
 11
-0.0641459597
 21
-19.4677006562
  0
LINE
  5
4A4
100
AcDbEntity
  8
RACCORDO
100
AcDbLine
 62
250
  6
CONTINUOUS
 10
0.0632251651
 20
19.6727093348
 11
0.064145624
 21
19.4677300809
  0
LINE
  5
4A5
100
AcDbEntity
  8
RACCORDO
100
AcDbLine
 62
250
  6
CONTINUOUS
 10
-0.2629729446
 20
-19.883663494
 11
-0.2633545401
 21
-19.7278964334
  0
LINE
  5
4A6
100
AcDbEntity
  8
0
100
AcDbLine
 62
7
  6
CONTINUOUS
 10
-1.474958
 20
17.345916
 11
-1.474954
 21
17.715935
  0
LINE
  5
4A7
100
AcDbEntity
  8
0
100
AcDbLine
 62
7
  6
CONTINUOUS
 10
-1.474958
 20
17.962609
 11
-1.474958
 21
18.332628
  0
LINE
  5
4A8
100
AcDbEntity
  8
0
100
AcDbLine
 62
7
  6
CONTINUOUS
 10
-1.474954
 20
14.101543
 11
-1.474954
 21
14.471557
  0
LINE
  5
4A9
100
AcDbEntity
  8
0
100
AcDbLine
 62
7
  6
CONTINUOUS
 10
-1.474954
 20
15.541218
 11
-1.474954
 21
15.911232
  0
LINE
  5
4AA
100
AcDbEntity
  8
0
100
AcDbLine
 62
7
  6
CONTINUOUS
 10
-1.474954
 20
14.821383
 11
-1.474958
 21
15.191388
  0
LINE
  5
4AB
100
AcDbEntity
  8
0
100
AcDbLine
 62
7
  6
CONTINUOUS
 10
-1.474949
 20
12.150825
 11
-1.474954
 21
12.520852
  0
LINE
  5
4AC
100
AcDbEntity
  8
0
100
AcDbLine
 62
7
  6
CONTINUOUS
 10
-1.474954
 20
16.157906
 11
-1.474958
 21
16.52792
  0
LINE
  5
4AD
100
AcDbEntity
  8
0
100
AcDbLine
 62
7
  6
CONTINUOUS
 10
-1.474949
 20
13.361525
 11
-1.474954
 21
13.731539
  0
LINE
  5
4AE
100
AcDbEntity
  8
0
100
AcDbLine
 62
7
  6
CONTINUOUS
 10
-1.474958
 20
19.02641
 11
-1.474963
 21
19.443173
  0
LINE
  5
4AF
100
AcDbEntity
  8
0
100
AcDbLine
 62
7
  6
CONTINUOUS
 10
-1.3
 20
-19.2
 11
-1.3
 21
-13.2
  0
LINE
  5
4B0
100
AcDbEntity
  8
RACCORDO
100
AcDbLine
 62
7
  6
CONTINUOUS
 10
-0.2629729446
 20
-20.2904156765
 11
-0.2629729446
 21
-19.883663494
  0
LINE
  5
4B1
100
AcDbEntity
  8
RACCORDO
100
AcDbLine
 62
7
  6
CONTINUOUS
 10
-0.2629729446
 20
19.883663494
 11
-0.2629729446
 21
20.5680847998
  0
LINE
  5
4B2
100
AcDbEntity
  8
RACCORDO
100
AcDbLine
 62
250
  6
CONTINUOUS
 10
-0.06298056
 20
-20.292145819
 11
-0.0632256648
 21
-19.6725733934
  0
LINE
  5
4B3
100
AcDbEntity
  8
RACCORDO
100
AcDbLine
 62
250
  6
CONTINUOUS
 10
0.06298056
 20
20.5698149423
 11
0.0632251651
 21
19.6727093348
  0
LINE
  5
4B4
100
AcDbEntity
  8
RACCORDO
100
AcDbLine
 62
250
  6
CONTINUOUS
 10
-0.0635212212
 20
19.5794139545
 11
-0.06298056
 21
20.5698149423
  0
LINE
  5
4B5
100
AcDbEntity
  8
RACCORDO
100
AcDbLine
 62
250
  6
CONTINUOUS
 10
0.0635224622
 20
-19.5791554642
 11
0.06298056
 21
-20.292145819
  0
LINE
  5
4B6
100
AcDbEntity
  8
RACCORDO
100
AcDbLine
 62
250
  6
CONTINUOUS
 10
-0.2633518506
 20
19.7283925666
 11
-0.2629729446
 21
19.883663494
  0
LINE
  5
4B7
100
AcDbEntity
  8
RACCORDO
100
AcDbLine
 62
250
  6
CONTINUOUS
 10
0.0641459596
 20
-19.4677006562
 11
0.0635224622
 21
-19.5791554642
  0
LINE
  5
4B8
100
AcDbEntity
  8
RACCORDO
100
AcDbLine
 62
250
  6
CONTINUOUS
 10
-0.2639106098
 20
19.6537471979
 11
-0.2633518506
 21
19.7283925666
  0
LWPOLYLINE
  5
4B9
100
AcDbEntity
  8
RACCORDO
100
AcDbPolyline
 62
250
  6
CONTINUOUS
 90
4
 70
0
 10
-0.0649210165
 20
19.4007005808
 10
-0.0646457757
 20
19.4175809263
 10
-0.0643873115
 20
19.4400028908
 10
-0.0635212212
 20
19.5794139545
  0
LWPOLYLINE
  5
4BA
100
AcDbEntity
  8
RACCORDO
100
AcDbPolyline
 62
250
  6
CONTINUOUS
 90
4
 70
0
 10
-0.2649134011
 20
19.5938857461
 10
-0.2646386284
 20
19.6042715122
 10
-0.2643803683
 20
19.6176631564
 10
-0.2639106098
 20
19.6537471979
  0
LINE
  5
4BB
100
AcDbEntity
  8
RACCORDO
100
AcDbLine
 62
250
  6
CONTINUOUS
 10
-0.3987736215
 20
15.4838500694
 11
-0.2649134011
 21
19.5938857461
  0
LINE
  5
4BC
100
AcDbEntity
  8
RACCORDO
100
AcDbLine
 62
250
  6
CONTINUOUS
 10
-0.1992738542
 20
15.2755396155
 11
-0.0649210165
 21
19.4007005808
  0
LWPOLYLINE
  5
4BD
100
AcDbEntity
  8
RACCORDO
100
AcDbPolyline
 62
7
  6
CONTINUOUS
 90
13
 70
0
 10
0.3987736215
 20
15.4838500694
 10
0.3970285162
 20
15.4562067423
 10
0.3918217078
 20
15.4291926456
 10
0.3832724541
 20
15.4032390193
 10
0.37156302
 20
15.3787379782
 10
0.3569172775
 20
15.3560852012
 10
0.3395835202
 20
15.3356819
 10
0.3198410579
 20
15.3178312955
 10
0.2980599278
 20
15.3028242084
 10
0.2746862145
 20
15.2909642084
 10
0.2501574067
 20
15.2824237631
 10
0.2248772973
 20
15.277268854
 10
0.1992738542
 20
15.2755396155
  0
LWPOLYLINE
  5
4BE
100
AcDbEntity
  8
RACCORDO
100
AcDbPolyline
 62
250
  6
CONTINUOUS
 90
13
 70
0
 10
0.2649134011
 20
19.5938857461
 10
0.2631484735
 20
19.568706008
 10
0.2580015521
 20
19.543955866
 10
0.2495604493
 20
19.5200575866
 10
0.2379691803
 20
19.4974189027
 10
0.2234255058
 20
19.4764260567
 10
0.206177558
 20
19.4574372114
 10
0.1865196071
 20
19.4407763388
 10
0.164787041
 20
19.4267276931
 10
0.1413506427
 20
19.4155309604
 10
0.1166102649
 20
19.4073771702
 10
0.0909880075
 20
19.4024054358
 10
0.0649210165
 20
19.4007005808
  0
LINE
  5
4BF
100
AcDbEntity
  8
0
100
AcDbLine
 62
7
  6
CONTINUOUS
 10
0.9155831894
 20
12.5488082535
 11
0.9069676351
 21
12.4834543947
  0
LWPOLYLINE
  5
4C0
100
AcDbEntity
  8
0
100
AcDbPolyline
 62
7
  6
CONTINUOUS
 90
4
 70
0
 10
1.052275914
 20
12.4834543947
 10
1.0581785172
 20
12.5282123457
 10
1.0649047837
 20
12.5716645864
 10
1.0724547137
 20
12.613811125
  0
LINE
  5
4C1
100
AcDbEntity
  8
0
100
AcDbLine
 62
7
  6
CONTINUOUS
 10
0.9261058372
 20
12.6122394962
 11
0.9155831894
 21
12.5488082535
  0
LWPOLYLINE
  5
4C2
100
AcDbEntity
  8
0
100
AcDbPolyline
 62
7
  6
CONTINUOUS
 90
10
 70
0
 10
1.0962372907
 20
13.3286025176
 10
1.0913223669
 20
13.3029040309
 10
1.0901911512
 20
13.2763274364
 10
1.0922473903
 20
13.2505862338
 10
1.0976042098
 20
13.2258899031
 10
1.1061484841
 20
13.2020289717
 10
1.1169445825
 20
13.1800885226
 10
1.1296806284
 20
13.1604302558
 10
1.1446684985
 20
13.1426924849
 10
1.1619081928
 20
13.1268752152
  0
LWPOLYLINE
  5
4C3
100
AcDbEntity
  8
0
100
AcDbPolyline
 62
7
  6
CONTINUOUS
 90
13
 70
0
 10
1.0724547137
 20
12.613811125
 10
1.0807943708
 20
12.6546578989
 10
1.0899576914
 20
12.6941989867
 10
1.1000464842
 20
12.7324166084
 10
1.1110777375
 20
12.7694148401
 10
1.1230344632
 20
12.8050896201
 10
1.1359675056
 20
12.8391109641
 10
1.149754568
 20
12.8714894178
 10
1.1645179472
 20
12.9022144522
 10
1.180675378
 20
12.9309244734
 10
1.1982701675
 20
12.9577460481
 10
1.2172590087
 20
12.9825526266
 10
1.2379297158
 20
13.0046029441
  0
LINE
  5
4C4
100
AcDbEntity
  8
0
100
AcDbLine
 62
7
  6
CONTINUOUS
 10
-4.8383288925
 20
-9.7324901417
 11
-4.8550027231
 21
-9.7718517719
  0
LWPOLYLINE
  5
4C5
100
AcDbEntity
  8
0
100
AcDbPolyline
 62
7
  6
CONTINUOUS
 90
3
 70
0
 10
-4.7787898855
 20
-9.5953536493
 10
-4.821431352
 20
-9.6932581164
 10
-4.8383288925
 20
-9.7324901417
  0
LWPOLYLINE
  5
4C6
100
AcDbEntity
  8
0
100
AcDbPolyline
 62
7
  6
CONTINUOUS
 90
4
 70
0
 10
4.7689756098
 20
11.2000504795
 10
4.7722172254
 20
11.2070056484
 10
4.7746478995
 20
11.2141622811
 10
4.7762676322
 20
11.2215203774
  0
LINE
  5
4C7
100
AcDbEntity
  8
0
100
AcDbLine
 62
7
  6
CONTINUOUS
 10
-4.7952905423
 20
-9.5839345959
 11
-4.8778937063
 21
-9.7611776175
  0
LINE
  5
4C8
100
AcDbEntity
  8
TRASH
100
AcDbLine
 62
7
  6
CONTINUOUS
 10
-5.480282565
 20
-10.5197267822
 11
-5.7718517719
 21
-11.1449972769
  0
LINE
  5
4C9
100
AcDbEntity
  8
0
100
AcDbLine
 62
7
  6
CONTINUOUS
 10
-5.4487592592
 20
-10.7483391196
 11
-5.4
 21
-10.6504671018
  0
LINE
  5
4CA
100
AcDbEntity
  8
0
100
AcDbLine
 62
7
  6
CONTINUOUS
 10
-5.3143318992
 20
-10.6856679962
 11
-5.3427654569
 21
-10.7422537862
  0
LINE
  5
4CB
100
AcDbEntity
  8
0
100
AcDbLine
 62
7
  6
CONTINUOUS
 10
-5.5104784997
 20
-10.8705318632
 11
-5.4487592592
 21
-10.7483391196
  0
LINE
  5
4CC
100
AcDbEntity
  8
0
100
AcDbLine
 62
7
  6
CONTINUOUS
 10
-5.3427654569
 20
-10.7422537862
 11
-5.3809100899
 21
-10.8172713695
  0
LINE
  5
4CD
100
AcDbEntity
  8
0
100
AcDbLine
 62
7
  6
CONTINUOUS
 10
-5.3809100899
 20
-10.8172713695
 11
-5.4
 21
-10.8545156298
  0
LINE
  5
4CE
100
AcDbEntity
  8
0
100
AcDbLine
 62
7
  6
CONTINUOUS
 10
-5.58615519
 20
-11.0184847831
 11
-5.5104784997
 21
-10.8705318632
  0
LINE
  5
4CF
100
AcDbEntity
  8
0
100
AcDbLine
 62
7
  6
CONTINUOUS
 10
-5.6632471071
 20
-11.1677254263
 11
-5.58615519
 21
-11.0184847831
  0
LINE
  5
4D0
100
AcDbEntity
  8
0
100
AcDbLine
 62
7
  6
CONTINUOUS
 10
-6.3242441797
 20
-8.8137729854
 11
-6.3367528929
 21
-8.8322745737
  0
LINE
  5
4D1
100
AcDbEntity
  8
0
100
AcDbLine
 62
7
  6
CONTINUOUS
 10
-8.6085106611
 20
-3.9975
 11
-8.5446808219
 21
-3.9558332539
  0
LINE
  5
4D2
100
AcDbEntity
  8
0
100
AcDbLine
 62
7
  6
CONTINUOUS
 10
-8.6510638475
 20
-3.8725
 11
-8.5659574747
 21
-3.8308332539
  0
LINE
  5
4D3
100
AcDbEntity
  8
0
100
AcDbLine
 62
7
  6
CONTINUOUS
 10
-8.8
 20
-1.435
 11
-7.8
 21
-1.435
  0
LINE
  5
4D4
100
AcDbEntity
  8
0
100
AcDbLine
 62
7
  6
CONTINUOUS
 10
-8.6723404408
 20
-1.31
 11
-7.8
 21
-1.31
  0
LINE
  5
4D5
100
AcDbEntity
  8
0
100
AcDbLine
 62
7
  6
CONTINUOUS
 10
-8.8
 20
-0.7266665077
 11
-7.9489361674
 21
-0.7266665077
  0
LINE
  5
4D6
100
AcDbEntity
  8
0
100
AcDbLine
 62
7
  6
CONTINUOUS
 10
-8.8
 20
-0.6016665077
 11
-7.8
 21
-0.6016665077
  0
LINE
  5
4D7
100
AcDbEntity
  8
0
100
AcDbLine
 62
7
  6
CONTINUOUS
 10
-8.0553191483
 20
2.1275
 11
-8.1404255211
 21
2.1483330154
  0
LINE
  5
4D8
100
AcDbEntity
  8
0
100
AcDbLine
 62
7
  6
CONTINUOUS
 10
-7.9914893687
 20
4.3358330154
 11
-8.0553191483
 21
4.3775
  0
LINE
  5
4D9
100
AcDbEntity
  8
0
100
AcDbLine
 62
7
  6
CONTINUOUS
 10
5.561245571
 20
-10.9699726458
 11
5.6632470591
 21
-11.1677253337
  0
LINE
  5
4DA
100
AcDbEntity
  8
0
100
AcDbLine
 62
7
  6
CONTINUOUS
 10
5.4985712506
 20
-10.8470795985
 11
5.561245571
 21
-10.9699726458
  0
LINE
  5
4DB
100
AcDbEntity
  8
0
100
AcDbLine
 62
7
  6
CONTINUOUS
 10
5.4
 20
-10.8545158464
 11
5.3522461644
 21
-10.760992504
  0
LWPOLYLINE
  5
4DC
100
AcDbEntity
  8
0
100
AcDbPolyline
 62
7
  6
CONTINUOUS
 90
3
 70
0
 10
5.3522461644
 20
-10.760992504
 10
5.3237738274
 20
-10.7045433011
 10
5.3143316445
 20
-10.685668357
  0
LINE
  5
4DD
100
AcDbEntity
  8
0
100
AcDbLine
 62
7
  6
CONTINUOUS
 10
5.4490047422
 20
-10.7488272441
 11
5.4985712506
 21
-10.8470795985
  0
LINE
  5
4DE
100
AcDbEntity
  8
0
100
AcDbLine
 62
7
  6
CONTINUOUS
 10
5.4
 20
-10.6504680325
 11
5.4490047422
 21
-10.7488272441
  0
LWPOLYLINE
  5
4DF
100
AcDbEntity
  8
RACCORDO
100
AcDbPolyline
 62
250
  6
CONTINUOUS
 90
4
 70
0
 10
-7.2193844262
 20
18.6234633136
 10
-7.2277924042
 20
18.648236191
 10
-7.2328954339
 20
18.6738947616
 10
-7.234606201
 20
18.7
  0
LWPOLYLINE
  5
4E0
100
AcDbEntity
  8
0
100
AcDbPolyline
 62
7
  6
CONTINUOUS
 90
3
 70
0
 10
0.8911510718
 20
11.7820536536
 10
0.8950518183
 20
11.7270964954
 10
0.899961753
 20
11.6729933325
  0
LWPOLYLINE
  5
4E1
100
AcDbEntity
  8
RACCORDO
100
AcDbPolyline
 62
250
  6
CONTINUOUS
 90
13
 70
0
 10
-0.2649134011
 20
19.5938857461
 10
-0.2631487481
 20
19.5687079866
 10
-0.2580025227
 20
19.5439593332
 10
-0.2495623553
 20
19.5200620045
 10
-0.2379720678
 20
19.4974237119
 10
-0.223429252
 20
19.4764307557
 10
-0.2061819258
 20
19.4574414183
 10
-0.1865242297
 20
19.4407797572
 10
-0.1647914758
 20
19.4267301621
 10
-0.141354499
 20
19.415532502
 10
-0.1166131859
 20
19.4073779272
 10
-0.0909896263
 20
19.4024056443
 10
-0.0649210163
 20
19.4007005848
  0
LINE
  5
4E2
100
AcDbEntity
  8
RACCORDO
100
AcDbLine
 62
250
  6
CONTINUOUS
 10
0.0649210165
 20
19.4007005808
 11
0.1992738542
 21
15.2755396155
  0
LINE
  5
4E3
100
AcDbEntity
  8
RACCORDO
100
AcDbLine
 62
250
  6
CONTINUOUS
 10
0.2649134011
 20
19.5938857461
 11
0.3987736215
 21
15.4838500694
  0
LWPOLYLINE
  5
4E4
100
AcDbEntity
  8
RACCORDO
100
AcDbPolyline
 62
250
  6
CONTINUOUS
 90
3
 70
0
 10
0.2643803683
 20
19.6176631592
 10
0.2646386284
 20
19.6042715139
 10
0.2649134011
 20
19.5938857461
  0
LINE
  5
4E5
100
AcDbEntity
  8
RACCORDO
100
AcDbLine
 62
250
  6
CONTINUOUS
 10
0.0646457757
 20
19.4175809263
 11
0.0649210165
 21
19.4007005808
  0
LINE
  5
4E6
100
AcDbEntity
  8
RACCORDO
100
AcDbLine
 62
250
  6
CONTINUOUS
 10
0.2639106098
 20
19.6537472005
 11
0.2643803683
 21
19.6176631592
  0
LINE
  5
4E7
100
AcDbEntity
  8
RACCORDO
100
AcDbLine
 62
250
  6
CONTINUOUS
 10
0.064145624
 20
19.4677300809
 11
0.0646457757
 21
19.4175809263
  0
LINE
  5
4E8
100
AcDbEntity
  8
RACCORDO
100
AcDbLine
 62
250
  6
CONTINUOUS
 10
0.2633518505
 20
19.728392566
 11
0.2639106098
 21
19.6537472005
  0
LINE
  5
4E9
100
AcDbEntity
  8
RACCORDO
100
AcDbLine
 62
250
  6
CONTINUOUS
 10
0.2629729446
 20
19.883663494
 11
0.2633518505
 21
19.728392566
  0
LINE
  5
4EA
100
AcDbEntity
  8
0
100
AcDbLine
 62
7
  6
CONTINUOUS
 10
0.3987736215
 20
15.4838500694
 11
0.3973847163
 21
19.9580320107
  0
LINE
  5
4EB
100
AcDbEntity
  8
RACCORDO
100
AcDbLine
 62
7
  6
CONTINUOUS
 10
0.2629729446
 20
20.5680847998
 11
0.2629729446
 21
19.883663494
  0
LINE
  5
4EC
100
AcDbEntity
  8
RACCORDO
100
AcDbLine
 62
7
  6
CONTINUOUS
 10
0.2629729446
 20
-19.883663494
 11
0.2629729446
 21
-20.2904156765
  0
LINE
  5
4ED
100
AcDbEntity
  8
0
100
AcDbLine
 62
7
  6
CONTINUOUS
 10
0.834640845
 20
11.7820536536
 11
0.834640845
 21
12.4834660046
  0
LINE
  5
4EE
100
AcDbEntity
  8
0
100
AcDbLine
 62
7
  6
CONTINUOUS
 10
0.929693375
 20
11.1519124002
 11
0.929693375
 21
11.4651207748
  0
LINE
  5
4EF
100
AcDbEntity
  8
0
100
AcDbLine
 62
7
  6
CONTINUOUS
 10
0.977332
 20
11.924691829
 11
0.977332
 21
12.3407802208
  0
LINE
  5
4F0
100
AcDbEntity
  8
0
100
AcDbLine
 62
7
  6
CONTINUOUS
 10
1.042762
 20
11.924691829
 11
1.042762
 21
12.3407802208
  0
LINE
  5
4F1
100
AcDbEntity
  8
0
100
AcDbLine
 62
7
  6
CONTINUOUS
 10
1.1854664597
 20
11.7820536536
 11
1.1854664597
 21
12.4834660046
  0
LINE
  5
4F2
100
AcDbEntity
  8
0
100
AcDbLine
 62
7
  6
CONTINUOUS
 10
1.3103085078
 20
11.0098563702
 11
1.3103085078
 21
11.1519007903
  0
LINE
  5
4F3
100
AcDbEntity
  8
0
100
AcDbLine
 62
7
  6
CONTINUOUS
 10
1.3103208469
 20
10.7061155703
 11
1.3103208469
 21
10.8573260191
  0
LINE
  5
4F4
100
AcDbEntity
  8
0
100
AcDbLine
 62
7
  6
CONTINUOUS
 10
1.3103208469
 20
11.3956872582
 11
1.3103208469
 21
13.0534751492
  0
LINE
  5
4F5
100
AcDbEntity
  8
0
100
AcDbLine
 62
7
  6
CONTINUOUS
 10
1.4530248475
 20
10.7061155703
 11
1.4530248475
 21
10.8779764316
  0
LINE
  5
4F6
100
AcDbEntity
  8
0
100
AcDbLine
 62
7
  6
CONTINUOUS
 10
1.458935
 20
11.0216725797
 11
1.458935
 21
13.0590750146
  0
LINE
  5
4F7
100
AcDbEntity
  8
0
100
AcDbLine
 62
7
  6
CONTINUOUS
 10
1.6747746472
 20
13.1822755576
 11
1.6747746472
 21
13.2772178227
  0
LINE
  5
4F8
100
AcDbEntity
  8
0
100
AcDbLine
 62
7
  6
CONTINUOUS
 10
1.674787
 20
12.9767708714
 11
1.674787
 21
13.0389708421
  0
LINE
  5
4F9
100
AcDbEntity
  8
0
100
AcDbLine
 62
7
  6
CONTINUOUS
 10
1.8489555797
 20
-13.6881831718
 11
1.8489555797
 21
-13.7807840174
  0
LINE
  5
4FA
100
AcDbEntity
  8
0
100
AcDbLine
 62
7
  6
CONTINUOUS
 10
1.850359
 20
-14.300878
 11
1.850359
 21
-15.336591
  0
LINE
  5
4FB
100
AcDbEntity
  8
0
100
AcDbLine
 62
7
  6
CONTINUOUS
 10
1.850359
 20
-17.057151
 11
1.850359
 21
-18.092878
  0
LINE
  5
4FC
100
AcDbEntity
  8
0
100
AcDbLine
 62
7
  6
CONTINUOUS
 10
1.850359
 20
-18.510901
 11
1.850359
 21
-18.699984
  0
LINE
  5
4FD
100
AcDbEntity
  8
0
100
AcDbLine
 62
7
  6
CONTINUOUS
 10
1.850359
 20
-19.494112
 11
1.850359
 21
-19.706303
  0
LINE
  5
4FE
100
AcDbEntity
  8
0
100
AcDbLine
 62
7
  6
CONTINUOUS
 10
1.850364
 20
-15.590784
 11
1.850364
 21
-15.79878
  0
LINE
  5
4FF
100
AcDbEntity
  8
0
100
AcDbLine
 62
7
  6
CONTINUOUS
 10
1.850364
 20
-16.66435
 11
1.850364
 21
-16.880707
  0
LINE
  5
500
100
AcDbEntity
  8
RACCORDO
100
AcDbLine
 62
250
  6
CONTINUOUS
 10
0.2633545402
 20
-19.7278964343
 11
0.2629729446
 21
-19.883663494
  0
LINE
  5
501
100
AcDbEntity
  8
RACCORDO
100
AcDbLine
 62
250
  6
CONTINUOUS
 10
0.263914105
 20
-19.6534136727
 11
0.2633545402
 21
-19.7278964343
  0
LWPOLYLINE
  5
502
100
AcDbEntity
  8
RACCORDO
100
AcDbPolyline
 62
250
  6
CONTINUOUS
 90
3
 70
0
 10
0.0649210165
 20
-19.4007005808
 10
0.0646458243
 20
-19.4175833679
 10
0.0641459596
 20
-19.4677006562
  0
LWPOLYLINE
  5
503
100
AcDbEntity
  8
RACCORDO
100
AcDbPolyline
 62
250
  6
CONTINUOUS
 90
4
 70
0
 10
0.2649134011
 20
-19.5938857461
 10
0.264640027
 20
-19.6041911084
 10
0.2643828219
 20
-19.6175022873
 10
0.263914105
 20
-19.6534136727
  0
LINE
  5
504
100
AcDbEntity
  8
RACCORDO
100
AcDbLine
 62
250
  6
CONTINUOUS
 10
0.1992738542
 20
-15.2755396155
 11
0.0649210165
 21
-19.4007005808
  0
LINE
  5
505
100
AcDbEntity
  8
RACCORDO
100
AcDbLine
 62
250
  6
CONTINUOUS
 10
0.3987736215
 20
-15.4838500694
 11
0.2649134011
 21
-19.5938857461
  0
LWPOLYLINE
  5
506
100
AcDbEntity
  8
0
100
AcDbPolyline
 62
7
  6
CONTINUOUS
 90
40
 70
0
 10
1.9250000011
 20
18.262401574
 10
1.9295859551
 20
18.3831118729
 10
1.943808371
 20
18.5025105416
 10
1.967667249
 20
18.6205976084
 10
2.0012220553
 20
18.7382753779
 10
2.0444133235
 20
18.8546415857
 10
2.0970626545
 20
18.9669894778
 10
2.1597249678
 20
19.0753966838
 10
2.2318453438
 20
19.1797857653
 10
2.3115806243
 20
19.2772175041
 10
2.3990899535
 20
19.3672698288
 10
2.4942141871
 20
19.4503651145
 10
2.5946327346
 20
19.5248309016
 10
2.7000722628
 20
19.5904048373
 10
2.8108061048
 20
19.64734956
 10
2.925333669
 20
19.6947801165
 10
3.0439322747
 20
19.7326203059
 10
3.1663246026
 20
19.7609465224
 10
3.2901781032
 20
19.7791026903
 10
3.41583459
 20
19.78685329
 10
3.5429522497
 20
19.7844339048
 10
3.6681730929
 20
19.7718950813
 10
3.7910753902
 20
19.7490233569
 10
3.9120808712
 20
19.716032108
 10
4.0290967354
 20
19.6736121092
 10
4.1420197359
 20
19.6216466855
 10
4.2509531198
 20
19.5602523001
 10
4.3541138273
 20
19.490469424
 10
4.4516145805
 20
19.4120453575
 10
4.5433426573
 20
19.3252325076
 10
4.6271768328
 20
19.2318290333
 10
4.7028858723
 20
19.1318225081
 10
4.7707010103
 20
19.0252250691
 10
4.8291947251
 20
18.9138717894
 10
4.8782263532
 20
18.7974287557
 10
4.917936558
 20
18.6762296395
 10
4.9473198081
 20
18.5531110084
 10
4.9660766414
 20
18.4281842418
 10
4.97450652
 20
18.301337871
 10
4.9725022988
 20
18.1750743383
  0
LWPOLYLINE
  5
507
100
AcDbEntity
  8
RACCORDO
100
AcDbPolyline
 62
7
  6
CONTINUOUS
 90
13
 70
0
 10
-0.3987736215
 20
-15.4838500694
 10
-0.3970285162
 20
-15.4562067423
 10
-0.3918217078
 20
-15.4291926456
 10
-0.3832724541
 20
-15.4032390193
 10
-0.37156302
 20
-15.3787379782
 10
-0.3569172775
 20
-15.3560852012
 10
-0.3395835202
 20
-15.3356819
 10
-0.3198410579
 20
-15.3178312955
 10
-0.2980599278
 20
-15.3028242084
 10
-0.2746862145
 20
-15.2909642084
 10
-0.2501574067
 20
-15.2824237631
 10
-0.2248772973
 20
-15.277268854
 10
-0.1992738542
 20
-15.2755396155
  0
LWPOLYLINE
  5
508
100
AcDbEntity
  8
RACCORDO
100
AcDbPolyline
 62
250
  6
CONTINUOUS
 90
13
 70
0
 10
-0.2649134011
 20
-19.5938857461
 10
-0.2631484735
 20
-19.5687060081
 10
-0.2580015521
 20
-19.5439558661
 10
-0.2495604494
 20
-19.5200575867
 10
-0.2379691805
 20
-19.4974189026
 10
-0.2234255062
 20
-19.4764260564
 10
-0.2061775585
 20
-19.4574372108
 10
-0.1865196078
 20
-19.4407763378
 10
-0.1647870417
 20
-19.4267276916
 10
-0.1413506434
 20
-19.4155309587
 10
-0.1166102654
 20
-19.4073771687
 10
-0.0909880078
 20
-19.4024054348
 10
-0.0649210165
 20
-19.4007005808
  0
LWPOLYLINE
  5
509
100
AcDbEntity
  8
RACCORDO
100
AcDbPolyline
 62
7
  6
CONTINUOUS
 90
8
 70
0
 10
-7.293751803
 20
-18.6239765047
 10
-7.2822380187
 20
-18.6005570772
 10
-7.2677505446
 20
-18.5787914426
 10
-7.2505363116
 20
-18.5590737083
 10
-7.2308931205
 20
-18.5417572449
 10
-7.2091397129
 20
-18.5271341059
 10
-7.1856187697
 20
-18.5154532061
 10
-7.1607168843
 20
-18.5069324742
  0
LWPOLYLINE
  5
50A
100
AcDbEntity
  8
RACCORDO
100
AcDbPolyline
 62
250
  6
CONTINUOUS
 90
5
 70
0
 10
-7.2193844262
 20
-18.6234633135
 10
-7.2078153628
 20
-18.6
 10
-7.1932831637
 20
-18.5782477142
 10
-7.1760364791
 20
-18.5585786438
 10
-7.1634252964
 20
-18.5470018494
  0
LINE
  5
50B
100
AcDbEntity
  8
0
100
AcDbLine
 62
7
  6
CONTINUOUS
 10
-5.6757558203
 20
-11.1862270146
 11
-5.6632471071
 21
-11.1677254263
  0
LINE
  5
50C
100
AcDbEntity
  8
0
100
AcDbLine
 62
7
  6
CONTINUOUS
 10
-8.8
 20
0.565
 11
-8.693617034
 21
0.565
  0
LINE
  5
50D
100
AcDbEntity
  8
0
100
AcDbLine
 62
7
  6
CONTINUOUS
 10
-8.693617034
 20
0.8983334923
 11
-7.8
 21
0.8983334923
  0
LINE
  5
50E
100
AcDbEntity
  8
0
100
AcDbLine
 62
7
  6
CONTINUOUS
 10
-8.693617034
 20
1.0233334923
 11
-7.8
 21
1.0233334923
  0
LINE
  5
50F
100
AcDbEntity
  8
0
100
AcDbLine
 62
7
  6
CONTINUOUS
 10
-8.8
 20
1.3566669846
 11
-8.693617034
 21
1.3566669846
  0
LINE
  5
510
100
AcDbEntity
  8
0
100
AcDbLine
 62
7
  6
CONTINUOUS
 10
-8.8
 20
1.5233330154
 11
-8.1404255211
 21
1.5233330154
  0
LINE
  5
511
100
AcDbEntity
  8
0
100
AcDbLine
 62
7
  6
CONTINUOUS
 10
-8.8
 20
1.6483330154
 11
-8.1404255211
 21
1.6483330154
  0
LINE
  5
512
100
AcDbEntity
  8
0
100
AcDbLine
 62
7
  6
CONTINUOUS
 10
-8.0340425551
 20
2.2525
 11
-8.1404255211
 21
2.2733330154
  0
LINE
  5
513
100
AcDbEntity
  8
0
100
AcDbLine
 62
7
  6
CONTINUOUS
 10
-8.5659574747
 20
3.7941669846
 11
-8.6510638475
 21
3.815
  0
LINE
  5
514
100
AcDbEntity
  8
0
100
AcDbLine
 62
7
  6
CONTINUOUS
 10
-8.5446808219
 20
3.9191669846
 11
-8.6085106611
 21
3.94
  0
LINE
  5
515
100
AcDbEntity
  8
0
100
AcDbLine
 62
7
  6
CONTINUOUS
 10
-7.9489361674
 20
4.4608330154
 11
-8.0340425551
 21
4.5025
  0
LINE
  5
516
100
AcDbEntity
  8
0
100
AcDbLine
 62
7
  6
CONTINUOUS
 10
6.3367529409
 20
-8.8322746663
 11
6.3240746619
 21
-8.8135222739
  0
LINE
  5
517
100
AcDbEntity
  8
0
100
AcDbLine
 62
7
  6
CONTINUOUS
 10
6.426040288
 20
-9.0052464061
 11
6.3367529409
 21
-8.8322746663
  0
LINE
  5
518
100
AcDbEntity
  8
0
100
AcDbLine
 62
7
  6
CONTINUOUS
 10
6.6
 20
-9.1454841536
 11
6.6477538356
 21
-9.239007496
  0
LINE
  5
519
100
AcDbEntity
  8
0
100
AcDbLine
 62
7
  6
CONTINUOUS
 10
6.5139676461
 20
-9.1776746771
 11
6.426040288
 21
-9.0052464061
  0
LWPOLYLINE
  5
51A
100
AcDbEntity
  8
0
100
AcDbPolyline
 62
7
  6
CONTINUOUS
 90
3
 70
0
 10
6.6477538356
 20
-9.239007496
 10
6.6762261726
 20
-9.2954566989
 10
6.6856683555
 20
-9.314331643
  0
LWPOLYLINE
  5
51B
100
AcDbEntity
  8
0
100
AcDbPolyline
 62
7
  6
CONTINUOUS
 90
3
 70
0
 10
6.6
 20
-9.3495319675
 10
6.5715331047
 20
-9.2923096463
 10
6.5139676461
 20
-9.1776746771
  0
LWPOLYLINE
  5
51C
100
AcDbEntity
  8
RACCORDO
100
AcDbPolyline
 62
7
  6
CONTINUOUS
 90
8
 70
0
 10
-7.2936811322
 20
18.6238056948
 10
-7.2821620547
 20
18.6004322166
 10
-7.2677050687
 20
18.5787289921
 10
-7.250536297
 20
18.5590736936
 10
-7.2309257685
 20
18.5417887896
 10
-7.209212759
 20
18.5271768639
 10
-7.1857903053
 20
18.5155248943
 10
-7.1610692283
 20
18.5070349419
  0
LINE
  5
51D
100
AcDbEntity
  8
0
100
AcDbLine
 62
7
  6
CONTINUOUS
 10
4.877893713
 20
-9.7611776274
 11
4.7952906344
 21
-9.5839345468
  0
LINE
  5
51E
100
AcDbEntity
  8
TRASH
100
AcDbLine
 62
7
  6
CONTINUOUS
 10
5.5268692362
 20
-10.6196800794
 11
5.4802765161
 21
-10.5197234839
  0
LINE
  5
51F
100
AcDbEntity
  8
TRASH
100
AcDbLine
 62
7
  6
CONTINUOUS
 10
6.4731307638
 20
-9.3803199206
 11
6.5197234839
 21
-9.4802765161
  0
LINE
  5
520
100
AcDbEntity
  8
TRASH
100
AcDbLine
 62
7
  6
CONTINUOUS
 10
5.7718517819
 20
-11.1449972701
 11
5.5268692362
 21
-10.6196800794
  0
LINE
  5
521
100
AcDbEntity
  8
TRASH
100
AcDbLine
 62
7
  6
CONTINUOUS
 10
6.2281482181
 20
-8.8550027299
 11
6.4731307638
 21
-9.3803199206
  0
LINE
  5
522
100
AcDbEntity
  8
0
100
AcDbLine
 62
7
  6
CONTINUOUS
 10
4.8550027299
 20
-9.7718517819
 11
4.7786191972
 21
-9.5954718227
  0
LWPOLYLINE
  5
523
100
AcDbEntity
  8
RACCORDO
100
AcDbPolyline
 62
250
  6
CONTINUOUS
 90
4
 70
0
 10
7.2193844262
 20
-18.6234633136
 10
7.2277924042
 20
-18.648236191
 10
7.2328954339
 20
-18.6738947616
 10
7.234606201
 20
-18.7
  0
LWPOLYLINE
  5
524
100
AcDbEntity
  8
0
100
AcDbPolyline
 62
7
  6
CONTINUOUS
 90
4
 70
0
 10
3.3791346774
 20
-13.0906173828
 10
3.3716242508
 20
-13.0460420598
 10
3.3615419942
 20
-13.0034453202
 10
3.3604549537
 20
-13.0
  0
LWPOLYLINE
  5
525
100
AcDbEntity
  8
0
100
AcDbPolyline
 62
7
  6
CONTINUOUS
 90
31
 70
0
 10
1.4166659382
 20
18.262401574
 10
1.4207832927
 20
18.1352710508
 10
1.4325973597
 20
18.009452551
 10
1.4521081394
 20
17.884946119
 10
1.4794085983
 20
17.7612185704
 10
1.5144057698
 20
17.6388031658
 10
1.5568207544
 20
17.5192996579
 10
1.6067849449
 20
17.4028129006
 10
1.6641669484
 20
17.2892382006
 10
1.7282936863
 20
17.1798610578
 10
1.7992659317
 20
17.074710475
 10
1.8769829116
 20
16.973757647
 10
1.9604692279
 20
16.8782014099
 10
2.0497958894
 20
16.7881304303
 10
2.1448918874
 20
16.7034562539
 10
2.2445687972
 20
16.6251120656
 10
2.3488231897
 20
16.5531356295
 10
2.4576584941
 20
16.4874893768
 10
2.5698965733
 20
16.4289935062
 10
2.6856311103
 20
16.377744201
 10
2.804768422
 20
16.333645436
 10
2.9258493226
 20
16.2972290961
 10
3.0488269453
 20
16.2686483528
 10
3.1737481569
 20
16.2477501341
 10
3.299294372
 20
16.2346069465
 10
3.4255613835
 20
16.2292438359
 10
3.5524533984
 20
16.2316357847
 10
3.6783644525
 20
16.241780187
 10
3.8027592243
 20
16.2596761599
 10
3.9261730352
 20
16.2853245435
 10
4.0486058853
 20
16.3187252987
  0
LINE
  5
526
100
AcDbEntity
  8
0
100
AcDbLine
 62
7
  6
CONTINUOUS
 10
2.018425
 20
-17.893286
 11
2.018425
 21
-17.057151
  0
LINE
  5
527
100
AcDbEntity
  8
0
100
AcDbLine
 62
7
  6
CONTINUOUS
 10
2.018425
 20
-15.137013
 11
2.018425
 21
-14.300878
  0
LINE
  5
528
100
AcDbEntity
  8
0
100
AcDbLine
 62
7
  6
CONTINUOUS
 10
2.044033
 20
13.1478592795
 11
2.044033
 21
13.3359957459
  0
LINE
  5
529
100
AcDbEntity
  8
RACCORDO
100
AcDbLine
 62
250
  6
CONTINUOUS
 10
2.0938676525
 20
-12.9738193966
 11
2.0938676525
 21
-7.0261806034
  0
LINE
  5
52A
100
AcDbEntity
  8
0
100
AcDbLine
 62
7
  6
CONTINUOUS
 10
2.16645
 20
11.7582520735
 11
2.16645
 21
12.632073786
  0
LINE
  5
52B
100
AcDbEntity
  8
0
100
AcDbLine
 62
7
  6
CONTINUOUS
 10
2.1723478618
 20
13.1359222422
 11
2.1723478618
 21
13.4608482364
  0
LINE
  5
52C
100
AcDbEntity
  8
RACCORDO
100
AcDbLine
 62
250
  6
CONTINUOUS
 10
2.3927260619
 20
-12.976209278
 11
2.3927260619
 21
-7.023790722
  0
LINE
  5
52D
100
AcDbEntity
  8
0
100
AcDbLine
 62
7
  6
CONTINUOUS
 10
2.451858
 20
11.7582520735
 11
2.451858
 21
12.5137940707
  0
LINE
  5
52E
100
AcDbEntity
  8
RACCORDO
100
AcDbLine
 62
250
  6
CONTINUOUS
 10
2.4760409428
 20
-7.015480183
 11
2.4760409428
 21
-12.984519817
  0
LINE
  5
52F
100
AcDbEntity
  8
0
100
AcDbLine
 62
7
  6
CONTINUOUS
 10
2.49532
 20
-14.357559
 11
2.49532
 21
-15.137013
  0
LINE
  5
530
100
AcDbEntity
  8
0
100
AcDbLine
 62
7
  6
CONTINUOUS
 10
2.49532
 20
-17.113875
 11
2.49532
 21
-17.893286
  0
LINE
  5
531
100
AcDbEntity
  8
0
100
AcDbLine
 62
7
  6
CONTINUOUS
 10
2.663401
 20
-17.893286
 11
2.663401
 21
-17.113875
  0
LINE
  5
532
100
AcDbEntity
  8
0
100
AcDbLine
 62
7
  6
CONTINUOUS
 10
2.663401
 20
-15.137013
 11
2.663401
 21
-14.357559
  0
LINE
  5
533
100
AcDbEntity
  8
RACCORDO
100
AcDbLine
 62
250
  6
CONTINUOUS
 10
2.7748993522
 20
-7.0130903017
 11
2.7748993522
 21
-12.9869096983
  0
LINE
  5
534
100
AcDbEntity
  8
DRAFT
100
AcDbLine
 62
7
  6
CONTINUOUS
 10
3.1
 20
-21.2
 11
3.1
 21
-22.4
  0
LINE
  5
535
100
AcDbEntity
  8
DRAFT
100
AcDbLine
 62
7
  6
CONTINUOUS
 10
3.1
 20
21.2
 11
3.1
 21
22.4
  0
LINE
  5
536
100
AcDbEntity
  8
0
100
AcDbLine
 62
7
  6
CONTINUOUS
 10
3.182302
 20
-14.29455
 11
3.182302
 21
-15.137013
  0
LINE
  5
537
100
AcDbEntity
  8
0
100
AcDbLine
 62
7
  6
CONTINUOUS
 10
3.182302
 20
-17.050852
 11
3.182302
 21
-17.893286
  0
LINE
  5
538
100
AcDbEntity
  8
0
100
AcDbLine
 62
7
  6
CONTINUOUS
 10
3.350368
 20
-19.706303
 11
3.350368
 21
-19.517235
  0
LINE
  5
539
100
AcDbEntity
  8
0
100
AcDbLine
 62
7
  6
CONTINUOUS
 10
3.350368
 20
-18.729391
 11
3.350368
 21
-18.510901
  0
LINE
  5
53A
100
AcDbEntity
  8
0
100
AcDbLine
 62
7
  6
CONTINUOUS
 10
3.350368
 20
-18.092878
 11
3.350368
 21
-17.050852
  0
LINE
  5
53B
100
AcDbEntity
  8
0
100
AcDbLine
 62
7
  6
CONTINUOUS
 10
3.350368
 20
-15.336591
 11
3.350368
 21
-14.29455
  0
LINE
  5
53C
100
AcDbEntity
  8
0
100
AcDbLine
 62
7
  6
CONTINUOUS
 10
3.350372
 20
-16.351297
 11
3.350372
 21
-16.124417
  0
LWPOLYLINE
  5
53D
100
AcDbEntity
  8
0
100
AcDbPolyline
 62
7
  6
CONTINUOUS
 90
19
 70
0
 10
3.3075273882
 20
-13.2167063217
 10
3.3066637504
 20
-13.2602849696
 10
3.3024512943
 20
-13.3028110807
 10
3.2948900199
 20
-13.3442846618
 10
3.2840134863
 20
-13.3852684936
 10
3.2697881344
 20
-13.4251998065
 10
3.2521132869
 20
-13.4623902917
 10
3.2305725626
 20
-13.4963778589
 10
3.2055823426
 20
-13.5276246317
 10
3.1782910931
 20
-13.555828633
 10
3.1487879932
 20
-13.5808315443
 10
3.1169838637
 20
-13.602791711
 10
3.0837596332
 20
-13.6218821512
 10
3.0491084575
 20
-13.6379486709
 10
3.0130371809
 20
-13.6511454809
 10
2.9764472642
 20
-13.6621082031
 10
2.9395661533
 20
-13.6708285987
 10
2.9021664024
 20
-13.6773149136
 10
2.864467135
 20
-13.6822274931
  0
LWPOLYLINE
  5
53E
100
AcDbEntity
  8
0
100
AcDbPolyline
 62
7
  6
CONTINUOUS
 90
10
 70
0
 10
4.9725022988
 20
18.1750743383
 10
4.9597294432
 20
18.0491024241
 10
4.9365224877
 20
17.9237133912
 10
4.9037778918
 20
17.8022835676
 10
4.8611774248
 20
17.6852926625
 10
4.8090393174
 20
17.5722611918
 10
4.7492147206
 20
17.4651268252
 10
4.6823206847
 20
17.3645355622
 10
4.6077401595
 20
17.2698416807
 10
4.5254731449
 20
17.1810453012
  0
LINE
  5
53F
100
AcDbEntity
  8
DRAFT
100
AcDbLine
 62
7
  6
CONTINUOUS
 10
-2.6768152463
 20
-21.2
 11
-3.0118365096
 21
-22.4
  0
LINE
  5
540
100
AcDbEntity
  8
DRAFT
100
AcDbLine
 62
7
  6
CONTINUOUS
 10
-3.9733373476
 20
-23.5
 11
-3.9526845545
 21
-23.4301797403
  0
LWPOLYLINE
  5
541
100
AcDbEntity
  8
RACCORDO
100
AcDbPolyline
 62
250
  6
CONTINUOUS
 90
4
 70
0
 10
-6.67521242
 20
-20.1707191451
 10
-6.6668092065
 20
-20.1533149498
 10
-6.66166905
 20
-20.1353593577
 10
-6.6598468471
 20
-20.1171572875
  0
LINE
  5
542
100
AcDbEntity
  8
0
100
AcDbLine
 62
7
  6
CONTINUOUS
 10
-5.3143316445
 20
-9.314331643
 11
-5.4802765158
 21
-9.4802765158
  0
LINE
  5
543
100
AcDbEntity
  8
0
100
AcDbLine
 62
7
  6
CONTINUOUS
 10
-6.5197234842
 20
-10.5197234842
 11
-6.6856683555
 21
-10.685668357
  0
LINE
  5
544
100
AcDbEntity
  8
0
100
AcDbLine
 62
7
  6
CONTINUOUS
 10
-8.5872340679
 20
-6.685
 11
-7.8
 21
-6.3933333433
  0
LINE
  5
545
100
AcDbEntity
  8
0
100
AcDbLine
 62
7
  6
CONTINUOUS
 10
-8.8
 20
-6.6225
 11
-7.9063829809
 21
-6.31
  0
LINE
  5
546
100
AcDbEntity
  8
0
100
AcDbLine
 62
7
  6
CONTINUOUS
 10
-8.8
 20
-5.1433333731
 11
-7.8
 21
-4.81
  0
LINE
  5
547
100
AcDbEntity
  8
0
100
AcDbLine
 62
7
  6
CONTINUOUS
 10
-8.7148936272
 20
-5.2266666269
 11
-8.1404255211
 21
-5.0391666269
  0
LINE
  5
548
100
AcDbEntity
  8
0
100
AcDbLine
 62
7
  6
CONTINUOUS
 10
-8.0553191483
 20
-5.0183333731
 11
-7.8
 21
-4.935
  0
LINE
  5
549
100
AcDbEntity
  8
0
100
AcDbLine
 62
7
  6
CONTINUOUS
 10
-8.1404255211
 20
1.6483330154
 11
-8.0553191483
 21
1.6691669846
  0
LINE
  5
54A
100
AcDbEntity
  8
0
100
AcDbLine
 62
7
  6
CONTINUOUS
 10
-8.1404255211
 20
1.5233330154
 11
-8.0340425551
 21
1.5441669846
  0
LINE
  5
54B
100
AcDbEntity
  8
0
100
AcDbLine
 62
7
  6
CONTINUOUS
 10
-8.8
 20
2.1483330154
 11
-8.1404255211
 21
2.1483330154
  0
LINE
  5
54C
100
AcDbEntity
  8
0
100
AcDbLine
 62
7
  6
CONTINUOUS
 10
-8.8
 20
2.2733330154
 11
-8.1404255211
 21
2.2733330154
  0
LINE
  5
54D
100
AcDbEntity
  8
0
100
AcDbLine
 62
7
  6
CONTINUOUS
 10
-8.8
 20
2.44
 11
-7.8
 21
2.44
  0
LINE
  5
54E
100
AcDbEntity
  8
0
100
AcDbLine
 62
7
  6
CONTINUOUS
 10
-8.6723404408
 20
2.565
 11
-7.8
 21
2.565
  0
LINE
  5
54F
100
AcDbEntity
  8
0
100
AcDbLine
 62
7
  6
CONTINUOUS
 10
-8.8
 20
3.1483330154
 11
-7.9489361674
 21
3.1483330154
  0
LINE
  5
550
100
AcDbEntity
  8
0
100
AcDbLine
 62
7
  6
CONTINUOUS
 10
-8.8
 20
3.2733330154
 11
-7.8
 21
3.2733330154
  0
LINE
  5
551
100
AcDbEntity
  8
0
100
AcDbLine
 62
7
  6
CONTINUOUS
 10
-8.8
 20
3.44
 11
-7.8
 21
3.44
  0
LINE
  5
552
100
AcDbEntity
  8
0
100
AcDbLine
 62
7
  6
CONTINUOUS
 10
-8.8
 20
3.565
 11
-7.8
 21
3.565
  0
LINE
  5
553
100
AcDbEntity
  8
0
100
AcDbLine
 62
7
  6
CONTINUOUS
 10
-8.1404255211
 20
5.19
 11
-8.7148936272
 21
5.3775
  0
LINE
  5
554
100
AcDbEntity
  8
0
100
AcDbLine
 62
7
  6
CONTINUOUS
 10
-7.8
 20
5.0858330154
 11
-8.0553191483
 21
5.1691669846
  0
LINE
  5
555
100
AcDbEntity
  8
0
100
AcDbLine
 62
7
  6
CONTINUOUS
 10
-7.8
 20
4.9608330154
 11
-8.8
 21
5.2941669846
  0
LINE
  5
556
100
AcDbEntity
  8
0
100
AcDbLine
 62
7
  6
CONTINUOUS
 10
7.122106287
 20
-10.2388223726
 11
7.2047093656
 21
-10.4160654532
  0
LINE
  5
557
100
AcDbEntity
  8
0
100
AcDbLine
 62
7
  6
CONTINUOUS
 10
7.1449972701
 20
-10.2281482181
 11
7.2213807973
 21
-10.4045281811
  0
LINE
  5
558
100
AcDbEntity
  8
DRAFT
100
AcDbLine
 62
7
  6
CONTINUOUS
 10
-3.9733373476
 20
23.5
 11
-3.9526845545
 21
23.4301797403
  0
LINE
  5
559
100
AcDbEntity
  8
DRAFT
100
AcDbLine
 62
7
  6
CONTINUOUS
 10
-3.0118365096
 20
22.4
 11
-2.6768152463
 21
21.2
  0
LWPOLYLINE
  5
55A
100
AcDbEntity
  8
0
100
AcDbPolyline
 62
7
  6
CONTINUOUS
 90
3
 70
0
 10
1.0932678937
 20
11.3956872582
 10
1.08006388
 20
11.4566838022
 10
1.0684081889
 20
11.5190395057
  0
LINE
  5
55B
100
AcDbEntity
  8
0
100
AcDbLine
 62
7
  6
CONTINUOUS
 10
1.0684081889
 20
11.5190395057
 11
1.0583008205
 21
11.5827543559
  0
LWPOLYLINE
  5
55C
100
AcDbEntity
  8
0
100
AcDbPolyline
 62
7
  6
CONTINUOUS
 90
4
 70
0
 10
1.0583008205
 20
11.5827543559
 10
1.0497417748
 20
11.6478283397
 10
1.0427310517
 20
11.7142614436
 10
1.0372686513
 20
11.7820536536
  0
LWPOLYLINE
  5
55D
100
AcDbEntity
  8
0
100
AcDbPolyline
 62
7
  6
CONTINUOUS
 90
5
 70
0
 10
0.899961753
 20
11.6729933325
 10
0.905880876
 20
11.6197441721
 10
0.9128091874
 20
11.5673490211
 10
0.920746687
 20
11.5158078864
 10
0.929693375
 20
11.4651207748
  0
LWPOLYLINE
  5
55E
100
AcDbEntity
  8
RACCORDO
100
AcDbPolyline
 62
250
  6
CONTINUOUS
 90
4
 70
0
 10
6.6598468471
 20
-20.1171572875
 10
6.66166905
 20
-20.1353593577
 10
6.6668092065
 20
-20.1533149498
 10
6.67521242
 20
-20.1707191451
  0
LWPOLYLINE
  5
55F
100
AcDbEntity
  8
RACCORDO
100
AcDbPolyline
 62
7
  6
CONTINUOUS
 90
16
 70
0
 10
5.6226915844
 20
-4.9248051057
 10
5.6243296094
 20
-4.9417286954
 10
5.6282388782
 20
-4.9574048732
 10
5.6344193906
 20
-4.9718336391
 10
5.643150933
 20
-4.9853106306
 10
5.654153719
 20
-4.9975402101
 10
5.6665883903
 20
-5.0076354655
 10
5.6805572872
 20
-5.0154392143
 10
5.6959580693
 20
-5.0211086389
 10
5.7116443572
 20
-5.0242283749
 10
5.7276415522
 20
-5.0246062025
 10
5.7439242531
 20
-5.0224343414
 10
5.7592698762
 20
-5.0178740858
 10
5.7732708935
 20
-5.0109792004
 10
5.786334833
 20
-5.0016959205
 10
5.7984616946
 20
-4.9900242461
  0
LINE
  5
560
100
AcDbEntity
  8
DRAFT
100
AcDbLine
 62
7
  6
CONTINUOUS
 10
3.75
 20
21.2
 11
3.75
 21
21.1647852141
  0
LINE
  5
561
100
AcDbEntity
  8
DRAFT
100
AcDbLine
 62
7
  6
CONTINUOUS
 10
3.75
 20
-21.2
 11
3.75
 21
-21.1647852141
  0
LINE
  5
562
100
AcDbEntity
  8
0
100
AcDbLine
 62
7
  6
CONTINUOUS
 10
4.6341225209
 20
11.2947179954
 11
4.6341225209
 21
12.4461009411
  0
LINE
  5
563
100
AcDbEntity
  8
0
100
AcDbLine
 62
7
  6
CONTINUOUS
 10
4.7768149081
 20
11.4858861471
 11
4.7768149081
 21
12.4907062385
  0
LINE
  5
564
100
AcDbEntity
  8
0
100
AcDbLine
 62
7
  6
CONTINUOUS
 10
4.9915248819
 20
11.2215203774
 11
4.9915248819
 21
11.4858861471
  0
LINE
  5
565
100
AcDbEntity
  8
RACCORDO
100
AcDbLine
 62
7
  6
CONTINUOUS
 10
5.4
 20
-13.0426749904
 11
5.4
 21
-10.8545158464
  0
LINE
  5
566
100
AcDbEntity
  8
0
100
AcDbLine
 62
7
  6
CONTINUOUS
 10
5.4
 20
-10.8545158464
 11
5.4
 21
-10.6504680325
  0
LINE
  5
567
100
AcDbEntity
  8
0
100
AcDbLine
 62
7
  6
CONTINUOUS
 10
5.4
 20
-9.3495328982
 11
5.4
 21
-9.1454843702
  0
LINE
  5
568
100
AcDbEntity
  8
RACCORDO
100
AcDbLine
 62
7
  6
CONTINUOUS
 10
5.4
 20
-9.1454843702
 11
5.4
 21
-6.9573250096
  0
LWPOLYLINE
  5
569
100
AcDbEntity
  8
RACCORDO
100
AcDbPolyline
 62
7
  6
CONTINUOUS
 90
16
 70
0
 10
5.6100308043
 20
4.9588093923
 10
5.6116049835
 20
4.9755285587
 10
5.6154420595
 20
4.991055662
 10
5.6215420323
 20
5.0053907034
 10
5.6301757288
 20
5.01883949
 10
5.6410723221
 20
5.0310962166
 10
5.6534193318
 20
5.0412434658
 10
5.667327762
 20
5.0491208091
 10
5.6826866086
 20
5.0548886774
 10
5.6983503785
 20
5.0581109441
 10
5.7143419456
 20
5.0585969266
 10
5.7306384361
 20
5.0565373081
 10
5.7460257356
 20
5.0520680098
 10
5.7600991396
 20
5.0452343384
 10
5.7732633526
 20
5.0359909855
 10
5.7855183748
 20
5.0243379499
  0
LWPOLYLINE
  5
56A
100
AcDbEntity
  8
0
100
AcDbPolyline
 62
7
  6
CONTINUOUS
 90
6
 70
0
 10
3.3811343505
 20
-13.3217727522
 10
3.3855762959
 20
-13.2762845604
 10
3.3875846414
 20
-13.2297986112
 10
3.3871148727
 20
-13.1824956655
 10
3.3842658387
 20
-13.1360422069
 10
3.3791346774
 20
-13.0906173828
  0
LINE
  5
56B
100
AcDbEntity
  8
0
100
AcDbLine
 62
7
  6
CONTINUOUS
 10
-7.2047093656
 20
-9.5839345468
 11
-7.2213808028
 21
-9.5954718227
  0
LINE
  5
56C
100
AcDbEntity
  8
0
100
AcDbLine
 62
7
  6
CONTINUOUS
 10
-7.2047093656
 20
-9.5839345468
 11
-7.1770627469
 21
-9.5690719275
  0
LINE
  5
56D
100
AcDbEntity
  8
0
100
AcDbLine
 62
7
  6
CONTINUOUS
 10
-7.1770627469
 20
-9.5690719275
 11
-6.9441359057
 21
-9.4463788113
  0
LINE
  5
56E
100
AcDbEntity
  8
0
100
AcDbLine
 62
7
  6
CONTINUOUS
 10
-6.9441359057
 20
-9.4463788113
 11
-6.8640665197
 21
-9.4049151724
  0
LINE
  5
56F
100
AcDbEntity
  8
0
100
AcDbLine
 62
7
  6
CONTINUOUS
 10
-6.8640665197
 20
-9.4049151724
 11
-6.7849147778
 21
-9.3643901452
  0
LWPOLYLINE
  5
570
100
AcDbEntity
  8
0
100
AcDbPolyline
 62
7
  6
CONTINUOUS
 90
3
 70
0
 10
-6.7849147778
 20
-9.3643901452
 10
-6.7055762524
 20
-9.3242906718
 10
-6.6856681008
 20
-9.3143320038
  0
LINE
  5
571
100
AcDbEntity
  8
0
100
AcDbLine
 62
7
  6
CONTINUOUS
 10
-8.5659574747
 20
3.7941669846
 11
-8.4808510423
 21
3.7941669846
  0
LINE
  5
572
100
AcDbEntity
  8
0
100
AcDbLine
 62
7
  6
CONTINUOUS
 10
-8.5446808219
 20
3.9191669846
 11
-8.5021276355
 21
3.9191669846
  0
LINE
  5
573
100
AcDbEntity
  8
0
100
AcDbLine
 62
7
  6
CONTINUOUS
 10
-8.1191489279
 20
4.3775
 11
-8.0553191483
 21
4.3775
  0
LINE
  5
574
100
AcDbEntity
  8
0
100
AcDbLine
 62
7
  6
CONTINUOUS
 10
-8.1404255211
 20
4.5025
 11
-8.0340425551
 21
4.5025
  0
LINE
  5
575
100
AcDbEntity
  8
0
100
AcDbLine
 62
7
  6
CONTINUOUS
 10
-8.8
 20
4.6691669846
 11
-7.8
 21
4.6691669846
  0
LINE
  5
576
100
AcDbEntity
  8
0
100
AcDbLine
 62
7
  6
CONTINUOUS
 10
-8.8
 20
4.7941669846
 11
-7.8
 21
4.7941669846
  0
LINE
  5
577
100
AcDbEntity
  8
RACCORDO
100
AcDbLine
 62
7
  6
CONTINUOUS
 10
9.583581878
 20
-9.5663944438
 11
9.65
 21
-9.6992408051
  0
LWPOLYLINE
  5
578
100
AcDbEntity
  8
RACCORDO
100
AcDbPolyline
 62
7
  6
CONTINUOUS
 90
4
 70
0
 10
7.3089365232
 20
-18.7
 10
7.3071842988
 20
-18.6739981974
 10
7.3020705504
 20
-18.6484605873
 10
7.2936811322
 20
-18.6238056948
  0
LWPOLYLINE
  5
579
100
AcDbEntity
  8
RACCORDO
100
AcDbPolyline
 62
7
  6
CONTINUOUS
 90
7
 70
0
 10
6.3
 20
4.3084267572
 10
6.2994302968
 20
4.3187437371
 10
6.2978966059
 20
4.3287376882
 10
6.2953989272
 20
4.3384086107
 10
6.2919372608
 20
4.3477565045
 10
6.2875116066
 20
4.3567813695
 10
6.2821219647
 20
4.3654832059
  0
LINE
  5
57A
100
AcDbEntity
  8
RACCORDO
100
AcDbLine
 62
250
  6
CONTINUOUS
 10
6.6200664561
 20
-18.7
 11
6.5153193024
 21
-15.4838500694
  0
LINE
  5
57B
100
AcDbEntity
  8
RACCORDO
100
AcDbLine
 62
250
  6
CONTINUOUS
 10
6.8198368876
 20
-18.5
 11
6.7148190698
 21
-15.2755396155
  0
LWPOLYLINE
  5
57C
100
AcDbEntity
  8
RACCORDO
100
AcDbPolyline
 62
250
  6
CONTINUOUS
 90
4
 70
0
 10
6.8578578064
 20
-18.5150141001
 10
6.8576438686
 20
-18.5064813311
 10
6.8574316569
 20
-18.5015710627
 10
6.8572211714
 20
-18.5
  0
LWPOLYLINE
  5
57D
100
AcDbEntity
  8
RACCORDO
100
AcDbPolyline
 62
250
  6
CONTINUOUS
 90
6
 70
0
 10
6.6583046098
 20
-18.7265437312
 10
6.6580841085
 20
-18.7166156985
 10
6.657865331
 20
-18.7090041923
 10
6.6576514257
 20
-18.7036862684
 10
6.6574392443
 20
-18.700684871
 10
6.6572287868
 20
-18.7
  0
LINE
  5
57E
100
AcDbEntity
  8
RACCORDO
100
AcDbLine
 62
250
  6
CONTINUOUS
 10
7.0425072881
 20
-21.0094865114
 11
7.0294001425
 21
-20.2585786438
  0
LINE
  5
57F
100
AcDbEntity
  8
RACCORDO
100
AcDbLine
 62
250
  6
CONTINUOUS
 10
7.2419286989
 20
-20.8366629075
 11
7.2293696815
 21
-20.1171572875
  0
LINE
  5
580
100
AcDbEntity
  8
RACCORDO
100
AcDbLine
 62
250
  6
CONTINUOUS
 10
6.6587222959
 20
-18.7537847545
 11
6.6583046098
 21
-18.7265437312
  0
LINE
  5
581
100
AcDbEntity
  8
RACCORDO
100
AcDbLine
 62
250
  6
CONTINUOUS
 10
6.8582971659
 20
-18.544124914
 11
6.8578578064
 21
-18.5150141001
  0
LINE
  5
582
100
AcDbEntity
  8
RACCORDO
100
AcDbLine
 62
250
  6
CONTINUOUS
 10
6.6558702077
 20
20.5728350282
 11
6.6598468471
 21
20.1171572875
  0
LINE
  5
583
100
AcDbEntity
  8
RACCORDO
100
AcDbLine
 62
250
  6
CONTINUOUS
 10
6.8556039598
 20
20.7438927334
 11
6.8598392317
 21
20.2585786438
  0
LINE
  5
584
100
AcDbEntity
  8
RACCORDO
100
AcDbLine
 62
250
  6
CONTINUOUS
 10
6.6592621331
 20
-18.8111757553
 11
6.6587222959
 21
-18.7537847545
  0
LINE
  5
585
100
AcDbEntity
  8
RACCORDO
100
AcDbLine
 62
250
  6
CONTINUOUS
 10
6.8589120864
 20
-18.6182987462
 11
6.8582971659
 21
-18.544124914
  0
LINE
  5
586
100
AcDbEntity
  8
RACCORDO
100
AcDbLine
 62
250
  6
CONTINUOUS
 10
6.6597765552
 20
-18.9309505512
 11
6.6592621331
 21
-18.8111757553
  0
LINE
  5
587
100
AcDbEntity
  8
RACCORDO
100
AcDbLine
 62
250
  6
CONTINUOUS
 10
7.0294550094
 20
18.9247049643
 11
7.0302764825
 21
18.7233617108
  0
LINE
  5
588
100
AcDbEntity
  8
RACCORDO
100
AcDbLine
 62
250
  6
CONTINUOUS
 10
6.8597689629
 20
-18.8849468293
 11
6.8589120864
 21
-18.6182987462
  0
LINE
  5
589
100
AcDbEntity
  8
RACCORDO
100
AcDbLine
 62
250
  6
CONTINUOUS
 10
6.6598468471
 20
-19.0
 11
6.6597765552
 21
-18.9309505512
  0
LINE
  5
58A
100
AcDbEntity
  8
DRAFT
100
AcDbLine
 62
7
  6
CONTINUOUS
 10
5.6
 20
5.2117655358
 11
5.6
 21
-5.2117655358
  0
LINE
  5
58B
100
AcDbEntity
  8
RACCORDO
100
AcDbLine
 62
7
  6
CONTINUOUS
 10
5.6226915844
 20
4.9248051057
 11
5.6226915844
 21
-4.9248051057
  0
LINE
  5
58C
100
AcDbEntity
  8
RACCORDO
100
AcDbLine
 62
7
  6
CONTINUOUS
 10
6.3
 20
-4.3084267572
 11
6.3
 21
4.3084267572
  0
LINE
  5
58D
100
AcDbEntity
  8
0
100
AcDbLine
 62
7
  6
CONTINUOUS
 10
6.493211
 20
9.9333350472
 11
6.493211
 21
14.0666649528
  0
LINE
  5
58E
100
AcDbEntity
  8
0
100
AcDbLine
 62
7
  6
CONTINUOUS
 10
6.5
 20
15.2124015748
 11
6.5
 21
16.2290675115
  0
LINE
  5
58F
100
AcDbEntity
  8
0
100
AcDbLine
 62
7
  6
CONTINUOUS
 10
6.6
 20
-9.1454841536
 11
6.6
 21
-9.3495319675
  0
LINE
  5
590
100
AcDbEntity
  8
0
100
AcDbLine
 62
7
  6
CONTINUOUS
 10
6.6
 20
-10.6504671018
 11
6.6
 21
-10.8545156298
  0
LINE
  5
591
100
AcDbEntity
  8
RACCORDO
100
AcDbLine
 62
7
  6
CONTINUOUS
 10
6.6
 20
-13.0426749904
 11
6.6
 21
-10.8545156298
  0
LINE
  5
592
100
AcDbEntity
  8
RACCORDO
100
AcDbLine
 62
7
  6
CONTINUOUS
 10
6.6
 20
-9.1454841536
 11
6.6
 21
-6.9573250096
  0
LINE
  5
593
100
AcDbEntity
  8
RACCORDO
100
AcDbLine
 62
7
  6
CONTINUOUS
 10
6.6598468471
 20
20.1171572875
 11
6.6598468471
 21
19.0
  0
LINE
  5
594
100
AcDbEntity
  8
RACCORDO
100
AcDbLine
 62
7
  6
CONTINUOUS
 10
6.6598468471
 20
-20.1171572875
 11
6.6598468471
 21
-19.0
  0
LINE
  5
595
100
AcDbEntity
  8
RACCORDO
100
AcDbLine
 62
250
  6
CONTINUOUS
 10
6.8598392317
 20
-19.0
 11
6.8597689629
 21
-18.8849468293
  0
LINE
  5
596
100
AcDbEntity
  8
RACCORDO
100
AcDbLine
 62
250
  6
CONTINUOUS
 10
6.8598392317
 20
-20.2585786438
 11
6.8598392317
 21
-19.0
  0
LINE
  5
597
100
AcDbEntity
  8
RACCORDO
100
AcDbLine
 62
250
  6
CONTINUOUS
 10
7.0294550094
 20
18.9247049643
 11
7.0294001425
 21
20.2585786438
  0
LINE
  5
598
100
AcDbEntity
  8
0
100
AcDbLine
 62
7
  6
CONTINUOUS
 10
5.7718598701
 20
-11.67523394
 11
5.7718072538
 21
-11.1450079244
  0
LINE
  5
599
100
AcDbEntity
  8
0
100
AcDbLine
 62
7
  6
CONTINUOUS
 10
6.2281927392
 20
-8.854992077
 11
6.228140129
 21
-8.3247660599
  0
LINE
  5
59A
100
AcDbEntity
  8
0
100
AcDbLine
 62
7
  6
CONTINUOUS
 10
6.5155248515
 20
16.2271963497
 11
6.5167082077
 21
19.9580320107
  0
LINE
  5
59B
100
AcDbEntity
  8
0
100
AcDbLine
 62
7
  6
CONTINUOUS
 10
5.7716467289
 20
-8.8549604169
 11
5.7720545488
 21
-8.3247395594
  0
LINE
  5
59C
100
AcDbEntity
  8
0
100
AcDbLine
 62
7
  6
CONTINUOUS
 10
6.2283532711
 20
-11.1450395831
 11
6.2279454512
 21
-11.6752604406
  0
LINE
  5
59D
100
AcDbEntity
  8
RACCORDO
100
AcDbLine
 62
250
  6
CONTINUOUS
 10
6.8598392317
 20
20.2585786438
 11
6.8592321097
 21
18.6801191672
  0
LINE
  5
59E
100
AcDbEntity
  8
RACCORDO
100
AcDbLine
 62
250
  6
CONTINUOUS
 10
7.0294001425
 20
-20.2585786438
 11
7.0298548336
 21
-18.7965852034
  0
LINE
  5
59F
100
AcDbEntity
  8
RACCORDO
100
AcDbLine
 62
250
  6
CONTINUOUS
 10
6.6598468471
 20
19.0
 11
6.6595136004
 21
18.8535433406
  0
LINE
  5
5A0
100
AcDbEntity
  8
RACCORDO
100
AcDbLine
 62
250
  6
CONTINUOUS
 10
7.0298548336
 20
-18.7965852034
 11
7.0303183743
 21
-18.7173757397
  0
LINE
  5
5A1
100
AcDbEntity
  8
RACCORDO
100
AcDbLine
 62
250
  6
CONTINUOUS
 10
6.8592321097
 20
18.6801191672
 11
6.8584924692
 21
18.5629094278
  0
LINE
  5
5A2
100
AcDbEntity
  8
RACCORDO
100
AcDbLine
 62
250
  6
CONTINUOUS
 10
6.6582724256
 20
-20.2975681228
 11
6.6598468471
 21
-20.1171572875
  0
LINE
  5
5A3
100
AcDbEntity
  8
RACCORDO
100
AcDbLine
 62
250
  6
CONTINUOUS
 10
6.8598392317
 20
-20.2585786438
 11
6.8580061777
 21
-20.4686258279
  0
LINE
  5
5A4
100
AcDbEntity
  8
RACCORDO
100
AcDbLine
 62
250
  6
CONTINUOUS
 10
6.6595136004
 20
18.8535433406
 11
6.6588973716
 21
18.7689459364
  0
LWPOLYLINE
  5
5A5
100
AcDbEntity
  8
RACCORDO
100
AcDbPolyline
 62
250
  6
CONTINUOUS
 90
6
 70
0
 10
6.8584924692
 20
18.5629094278
 10
6.858064508
 20
18.5266899686
 10
6.8578486339
 20
18.5145705904
 10
6.8576376605
 20
18.5062894625
 10
6.8574285064
 20
18.5015245106
 10
6.8572211714
 20
18.5
  0
LWPOLYLINE
  5
5A6
100
AcDbEntity
  8
RACCORDO
100
AcDbPolyline
 62
250
  6
CONTINUOUS
 90
8
 70
0
 10
6.6588973716
 20
18.7689459364
 10
6.6584997794
 20
18.7377325012
 10
6.6582894159
 20
18.7257751862
 10
6.658071608
 20
18.7161265276
 10
6.6578557061
 20
18.708730302
 10
6.657644827
 20
18.7035677683
 10
6.6574358539
 20
18.7006576676
 10
6.6572287868
 20
18.7
  0
LINE
  5
5A7
100
AcDbEntity
  8
RACCORDO
100
AcDbLine
 62
250
  6
CONTINUOUS
 10
7.0425072881
 20
21.0094865114
 11
7.0294001425
 21
20.2585786438
  0
LINE
  5
5A8
100
AcDbEntity
  8
RACCORDO
100
AcDbLine
 62
250
  6
CONTINUOUS
 10
7.2419286989
 20
20.8366629075
 11
7.2293696815
 21
20.1171572875
  0
LWPOLYLINE
  5
5A9
100
AcDbEntity
  8
0
100
AcDbPolyline
 62
7
  6
CONTINUOUS
 90
13
 70
0
 10
6.5
 20
18.262401574
 10
6.4959804971
 20
18.1053160065
 10
6.4840125371
 20
17.9492826251
 10
6.4640961198
 20
17.7943014811
 10
6.4361631174
 20
17.639868501
 10
6.4002816577
 20
17.4864878472
 10
6.356656125
 20
17.3356719727
 10
6.3051141063
 20
17.1874885486
 10
6.2458280145
 20
17.0418700932
 10
6.1795194724
 20
16.9001264147
 10
6.1064290209
 20
16.7626942143
 10
6.0263161192
 20
16.6291370423
 10
5.9391807672
 20
16.4994550129
  0
LINE
  5
5AA
100
AcDbEntity
  8
0
100
AcDbLine
 62
250
  6
CONTINUOUS
 10
6.5153181259
 20
15.4838139458
 11
6.6200664561
 21
18.7
  0
LINE
  5
5AB
100
AcDbEntity
  8
RACCORDO
100
AcDbLine
 62
250
  6
CONTINUOUS
 10
6.7148190698
 20
15.2755396155
 11
6.8198368876
 21
18.5
  0
LWPOLYLINE
  5
5AC
100
AcDbEntity
  8
RACCORDO
100
AcDbPolyline
 62
7
  6
CONTINUOUS
 90
13
 70
0
 10
7.5184775044
 20
15.483378525
 10
7.5167459172
 20
15.4557762904
 10
7.5115595482
 20
15.4288106788
 10
7.5030389781
 20
15.4029109815
 10
7.4913687432
 20
15.3784690173
 10
7.4767719554
 20
15.3558765062
 10
7.4594919121
 20
15.3355278816
 10
7.4398058361
 20
15.3177252699
 10
7.4180826208
 20
15.3027590431
 10
7.3947628176
 20
15.2909290282
 10
7.3702803715
 20
15.2824077141
 10
7.3450382139
 20
15.2772639035
 10
7.319462557
 20
15.2755396155
  0
LWPOLYLINE
  5
5AD
100
AcDbEntity
  8
RACCORDO
100
AcDbPolyline
 62
250
  6
CONTINUOUS
 90
4
 70
0
 10
7.234606201
 20
18.7
 10
7.2328954339
 20
18.6738947616
 10
7.2277924042
 20
18.648236191
 10
7.2193844262
 20
18.6234633135
  0
LWPOLYLINE
  5
5AE
100
AcDbEntity
  8
RACCORDO
100
AcDbPolyline
 62
7
  6
CONTINUOUS
 90
4
 70
0
 10
7.3089365232
 20
18.7
 10
7.3071946849
 20
18.6741235681
 10
7.3021106415
 20
18.6486379494
 10
7.293751803
 20
18.6239765047
  0
LINE
  5
5AF
100
AcDbEntity
  8
RACCORDO
100
AcDbLine
 62
250
  6
CONTINUOUS
 10
9.3501255952
 20
20.9
 11
9.2879615093
 21
20.5266837345
  0
LINE
  5
5B0
100
AcDbEntity
  8
RACCORDO
100
AcDbLine
 62
250
  6
CONTINUOUS
 10
9.65
 20
20.5997254977
 11
9.5879500862
 21
20.2270948741
  0
LINE
  5
5B1
100
AcDbEntity
  8
0
100
AcDbLine
 62
7
  6
CONTINUOUS
 10
-4.7786192027
 20
-10.4045281811
 11
-4.7952906344
 21
-10.4160654532
  0
LINE
  5
5B2
100
AcDbEntity
  8
0
100
AcDbLine
 62
7
  6
CONTINUOUS
 10
-4.7952906344
 20
-10.4160654532
 11
-4.8229372531
 21
-10.4309280725
  0
LINE
  5
5B3
100
AcDbEntity
  8
0
100
AcDbLine
 62
7
  6
CONTINUOUS
 10
-4.8229372531
 20
-10.4309280725
 11
-5.0558640943
 21
-10.5536211887
  0
LINE
  5
5B4
100
AcDbEntity
  8
0
100
AcDbLine
 62
7
  6
CONTINUOUS
 10
-5.0558640943
 20
-10.5536211887
 11
-5.1359334803
 21
-10.5950848276
  0
LINE
  5
5B5
100
AcDbEntity
  8
0
100
AcDbLine
 62
7
  6
CONTINUOUS
 10
-5.1359334803
 20
-10.5950848276
 11
-5.2150852222
 21
-10.6356098548
  0
LWPOLYLINE
  5
5B6
100
AcDbEntity
  8
0
100
AcDbPolyline
 62
7
  6
CONTINUOUS
 90
3
 70
0
 10
-5.2150852222
 20
-10.6356098548
 10
-5.2944237476
 20
-10.6757093282
 10
-5.3143318992
 20
-10.6856679962
  0
LINE
  5
5B7
100
AcDbEntity
  8
0
100
AcDbLine
 62
7
  6
CONTINUOUS
 10
-5.7611776274
 20
-8.877893713
 11
-5.6632470591
 21
-8.8322746663
  0
LINE
  5
5B8
100
AcDbEntity
  8
TRASH
100
AcDbLine
 62
7
  6
CONTINUOUS
 10
-6.6197016286
 20
-9.5268969783
 11
-6.5197267822
 21
-9.480282565
  0
LINE
  5
5B9
100
AcDbEntity
  8
TRASH
100
AcDbLine
 62
7
  6
CONTINUOUS
 10
-7.1449972701
 20
-9.7718517819
 11
-6.6197016286
 21
-9.5268969783
  0
LINE
  5
5BA
100
AcDbEntity
  8
0
100
AcDbLine
 62
7
  6
CONTINUOUS
 10
-5.7718517819
 20
-8.8550027299
 11
-5.6759253381
 21
-8.8135222739
  0
LINE
  5
5BB
100
AcDbEntity
  8
0
100
AcDbLine
 62
7
  6
CONTINUOUS
 10
-8.0765957415
 20
3.7316669846
 11
-7.9914893687
 21
3.7525
  0
LINE
  5
5BC
100
AcDbEntity
  8
0
100
AcDbLine
 62
7
  6
CONTINUOUS
 10
-8.4808510423
 20
3.7941669846
 11
-8.3957446694
 21
3.815
  0
LWPOLYLINE
  5
5BD
100
AcDbEntity
  8
0
100
AcDbPolyline
 62
7
  6
CONTINUOUS
 90
3
 70
0
 10
1.0417945088
 20
11.1151552301
 10
1.0607539799
 20
11.0804836176
 10
1.080886875
 20
11.0478975728
  0
LINE
  5
5BE
100
AcDbEntity
  8
0
100
AcDbLine
 62
7
  6
CONTINUOUS
 10
1.0240084615
 20
11.1519124002
 11
1.0417945088
 21
11.1151552301
  0
LWPOLYLINE
  5
5BF
100
AcDbEntity
  8
0
100
AcDbPolyline
 62
7
  6
CONTINUOUS
 90
14
 70
0
 10
4.1765425437
 20
12.8058958668
 10
4.1830520236
 20
12.7673482136
 10
4.1931543453
 20
12.7298745136
 10
4.2068495089
 20
12.6934747733
 10
4.2242904544
 20
12.657687529
 10
4.2453242419
 20
12.622974255
 10
4.2694920509
 20
12.5907193713
 10
4.2970036612
 20
12.5610681766
 10
4.3276492931
 20
12.5338753962
 10
4.3603407871
 20
12.5100895995
 10
4.3951785856
 20
12.4899396966
 10
4.4320622461
 20
12.4731968005
 10
4.4696022822
 20
12.4601227867
 10
4.5073355314
 20
12.4508049514
  0
LINE
  5
5C0
100
AcDbEntity
  8
RACCORDO
100
AcDbLine
 62
250
  6
CONTINUOUS
 10
9.3501255952
 20
-20.9
 11
9.2879615093
 21
-20.5266837345
  0
LINE
  5
5C1
100
AcDbEntity
  8
RACCORDO
100
AcDbLine
 62
250
  6
CONTINUOUS
 10
9.65
 20
-20.5997254977
 11
9.5879500862
 21
-20.2270948741
  0
LWPOLYLINE
  5
5C2
100
AcDbEntity
  8
RACCORDO
100
AcDbPolyline
 62
250
  6
CONTINUOUS
 90
5
 70
0
 10
9.5879500862
 20
-20.2270948741
 10
9.5877764426
 20
-20.2250020531
 10
9.5876085547
 20
-20.2210994734
 10
9.5874464226
 20
-20.2153871352
 10
9.5872886078
 20
-20.2077750951
  0
LINE
  5
5C3
100
AcDbEntity
  8
RACCORDO
100
AcDbLine
 62
250
  6
CONTINUOUS
 10
7.1094109243
 20
18.5
 11
7.319462557
 21
15.2755396155
  0
LINE
  5
5C4
100
AcDbEntity
  8
RACCORDO
100
AcDbLine
 62
250
  6
CONTINUOUS
 10
7.3089365232
 20
18.7
 11
7.5184775044
 21
15.483378525
  0
LWPOLYLINE
  5
5C5
100
AcDbEntity
  8
RACCORDO
100
AcDbPolyline
 62
250
  6
CONTINUOUS
 90
3
 70
0
 10
9.2879615093
 20
-20.5266837345
 10
9.2877878755
 20
-20.5216877301
 10
9.2876199879
 20
-20.5118970808
  0
LWPOLYLINE
  5
5C6
100
AcDbEntity
  8
RACCORDO
100
AcDbPolyline
 62
250
  6
CONTINUOUS
 90
8
 70
0
 10
7.2316159776
 20
18.7539032017
 10
7.2320259031
 20
18.7389509382
 10
7.2324517745
 20
18.7266130291
 10
7.2328932409
 20
18.7166600608
 10
7.2333313154
 20
18.7090286155
 10
7.2337596691
 20
18.703697554
 10
7.234184631
 20
18.7006880155
 10
7.234606201
 20
18.7
  0
LWPOLYLINE
  5
5C7
100
AcDbEntity
  8
RACCORDO
100
AcDbPolyline
 62
250
  6
CONTINUOUS
 90
6
 70
0
 10
7.032481887
 20
18.5442382846
 10
7.0329234369
 20
18.5275687847
 10
7.0333615908
 20
18.5150549444
 10
7.0337900106
 20
18.5064996115
 10
7.0342150343
 20
18.501575651
 10
7.034636662
 20
18.5
  0
LINE
  5
5C8
100
AcDbEntity
  8
RACCORDO
100
AcDbLine
 62
250
  6
CONTINUOUS
 10
7.2308608451
 20
18.7903377281
 11
7.2316159776
 21
18.7539032017
  0
LINE
  5
5C9
100
AcDbEntity
  8
RACCORDO
100
AcDbLine
 62
250
  6
CONTINUOUS
 10
7.0316459995
 20
18.5897453031
 11
7.032481887
 21
18.5442382846
  0
LINE
  5
5CA
100
AcDbEntity
  8
RACCORDO
100
AcDbLine
 62
250
  6
CONTINUOUS
 10
7.2302463083
 20
18.8341069331
 11
7.2308608451
 21
18.7903377281
  0
LINE
  5
5CB
100
AcDbEntity
  8
RACCORDO
100
AcDbLine
 62
250
  6
CONTINUOUS
 10
7.0308908793
 20
18.6506224102
 11
7.0316459995
 21
18.5897453031
  0
LINE
  5
5CC
100
AcDbEntity
  8
RACCORDO
100
AcDbLine
 62
250
  6
CONTINUOUS
 10
7.0302764825
 20
18.7233617108
 11
7.0308908793
 21
18.6506224102
  0
LINE
  5
5CD
100
AcDbEntity
  8
RACCORDO
100
AcDbLine
 62
250
  6
CONTINUOUS
 10
7.2296328074
 20
18.9066510222
 11
7.2302463083
 21
18.8341069331
  0
LINE
  5
5CE
100
AcDbEntity
  8
RACCORDO
100
AcDbLine
 62
250
  6
CONTINUOUS
 10
7.2293778235
 20
18.9775145419
 11
7.2296328074
 21
18.9066510222
  0
LINE
  5
5CF
100
AcDbEntity
  8
RACCORDO
100
AcDbLine
 62
250
  6
CONTINUOUS
 10
7.2293696815
 20
20.1171572875
 11
7.2293778235
 21
18.9775145419
  0
LINE
  5
5D0
100
AcDbEntity
  8
0
100
AcDbLine
 62
7
  6
CONTINUOUS
 10
7.5
 20
9.9333350472
 11
7.5
 21
14.0666649528
  0
LINE
  5
5D1
100
AcDbEntity
  8
RACCORDO
100
AcDbLine
 62
250
  6
CONTINUOUS
 10
7.2293696815
 20
-20.1171572875
 11
7.2295241191
 21
-18.9276857274
  0
LINE
  5
5D2
100
AcDbEntity
  8
RACCORDO
100
AcDbLine
 62
250
  6
CONTINUOUS
 10
7.2295241191
 20
-18.9276857274
 11
7.2300346566
 21
-18.8537040678
  0
LINE
  5
5D3
100
AcDbEntity
  8
RACCORDO
100
AcDbLine
 62
250
  6
CONTINUOUS
 10
7.0303183743
 20
-18.7173757397
 11
7.0312958308
 21
-18.6149697892
  0
LINE
  5
5D4
100
AcDbEntity
  8
RACCORDO
100
AcDbLine
 62
250
  6
CONTINUOUS
 10
7.2300346566
 20
-18.8537040678
 11
7.2305820071
 21
-18.8081854909
  0
LWPOLYLINE
  5
5D5
100
AcDbEntity
  8
RACCORDO
100
AcDbPolyline
 62
250
  6
CONTINUOUS
 90
8
 70
0
 10
7.0312958308
 20
-18.6149697892
 10
7.0320910524
 20
-18.5630592344
 10
7.0325118958
 20
-18.54294942
 10
7.0329477295
 20
-18.5267597118
 10
7.0333799802
 20
-18.5146097851
 10
7.033802457
 20
-18.5063070286
 10
7.034221351
 20
-18.5015289258
 10
7.034636662
 20
-18.5
  0
LWPOLYLINE
  5
5D6
100
AcDbEntity
  8
RACCORDO
100
AcDbPolyline
 62
250
  6
CONTINUOUS
 90
10
 70
0
 10
7.2305820071
 20
-18.8081854909
 10
7.2312659314
 20
-18.7690824571
 10
7.2316560751
 20
-18.752297366
 10
7.2320612451
 20
-18.737820952
 10
7.2324822778
 20
-18.7258402601
 10
7.2329183368
 20
-18.7161682454
 10
7.2333506371
 20
-18.7087533662
 10
7.2337729171
 20
-18.7035784419
 10
7.2341914384
 20
-18.7006606532
 10
7.234606201
 20
-18.7
  0
LWPOLYLINE
  5
5D7
100
AcDbEntity
  8
RACCORDO
100
AcDbPolyline
 62
250
  6
CONTINUOUS
 90
5
 70
0
 10
9.2879615093
 20
20.5266837345
 10
9.2877877837
 20
20.5216851553
 10
9.2876198055
 20
20.5118885272
 10
9.2874575749
 20
20.4973894322
 10
9.2870053681
 20
20.427308795
  0
LWPOLYLINE
  5
5D8
100
AcDbEntity
  8
RACCORDO
100
AcDbPolyline
 62
7
  6
CONTINUOUS
 90
13
 70
0
 10
6.5153193024
 20
-15.4838500694
 10
6.5170644077
 20
-15.4562067423
 10
6.5222712162
 20
-15.4291926456
 10
6.5308204698
 20
-15.4032390193
 10
6.5425299039
 20
-15.3787379782
 10
6.5571756465
 20
-15.3560852012
 10
6.5745094037
 20
-15.3356819
 10
6.5942518661
 20
-15.3178312955
 10
6.6160329961
 20
-15.3028242084
 10
6.6394067095
 20
-15.2909642084
 10
6.6639355173
 20
-15.2824237631
 10
6.6892156266
 20
-15.277268854
 10
6.7148190698
 20
-15.2755396155
  0
LINE
  5
5D9
100
AcDbEntity
  8
RACCORDO
100
AcDbLine
 62
250
  6
CONTINUOUS
 10
7.319462557
 20
-15.2755396155
 11
7.1094109243
 21
-18.5
  0
LINE
  5
5DA
100
AcDbEntity
  8
RACCORDO
100
AcDbLine
 62
250
  6
CONTINUOUS
 10
7.5184775044
 20
-15.483378525
 11
7.3089365232
 21
-18.7
  0
LWPOLYLINE
  5
5DB
100
AcDbEntity
  8
RACCORDO
100
AcDbPolyline
 62
250
  6
CONTINUOUS
 90
6
 70
0
 10
6.6572287868
 20
-18.7
 10
6.6589397493
 20
-18.6738947616
 10
6.664043362
 20
-18.648236191
 10
6.6724523006
 20
-18.6234633135
 10
6.6840226857
 20
-18.6
 10
6.698556545
 20
-18.5782477142
  0
LWPOLYLINE
  5
5DC
100
AcDbEntity
  8
RACCORDO
100
AcDbPolyline
 62
7
  6
CONTINUOUS
 90
6
 70
0
 10
6.6200664561
 20
-18.7
 10
6.6217837243
 20
-18.6740798342
 10
6.6268536167
 20
-18.6485625367
 10
6.6352044001
 20
-18.6238823695
 10
6.6467097823
 20
-18.60045995
 10
6.6611858003
 20
-18.5787024009
  0
LWPOLYLINE
  5
5DD
100
AcDbEntity
  8
RACCORDO
100
AcDbPolyline
 62
250
  6
CONTINUOUS
 90
7
 70
0
 10
9.5879500862
 20
20.2270948741
 10
9.5877762434
 20
20.2249972825
 10
9.5876081876
 20
20.2210877512
 10
9.587445919
 20
20.2153662803
 10
9.587288001
 20
20.2077426378
 10
9.5871358702
 20
20.1983070557
 10
9.5868621716
 20
20.1747673026
  0
LINE
  5
5DE
100
AcDbEntity
  8
0
100
AcDbLine
 62
7
  6
CONTINUOUS
 10
5.7720545488
 20
-8.3247395594
 11
5.6757558203
 21
-8.8137729854
  0
LINE
  5
5DF
100
AcDbEntity
  8
0
100
AcDbLine
 62
7
  6
CONTINUOUS
 10
6.2279454512
 20
-11.6752604406
 11
6.3242441797
 21
-11.1862270146
  0
LINE
  5
5E0
100
AcDbEntity
  8
0
100
AcDbLine
 62
7
  6
CONTINUOUS
 10
4.8383288925
 20
-10.2675098583
 11
4.8550027231
 21
-10.2281482281
  0
LWPOLYLINE
  5
5E1
100
AcDbEntity
  8
0
100
AcDbPolyline
 62
7
  6
CONTINUOUS
 90
3
 70
0
 10
4.7787898855
 20
-10.4046463507
 10
4.821431352
 20
-10.3067418836
 10
4.8383288925
 20
-10.2675098583
  0
LINE
  5
5E2
100
AcDbEntity
  8
0
100
AcDbLine
 62
7
  6
CONTINUOUS
 10
4.7952905423
 20
-10.4160654041
 11
4.8778937063
 21
-10.2388223825
  0
LWPOLYLINE
  5
5E3
100
AcDbEntity
  8
RACCORDO
100
AcDbPolyline
 62
7
  6
CONTINUOUS
 90
7
 70
0
 10
6.2821219647
 20
-4.3654832059
 10
6.2875467728
 20
-4.3566690767
 10
6.2919935267
 20
-4.3475768359
 10
6.2954622264
 20
-4.3382064836
 10
6.2979528718
 20
-4.3285580197
 10
6.299465463
 20
-4.3186314442
 10
6.3
 20
-4.3084267572
  0
LWPOLYLINE
  5
5E4
100
AcDbEntity
  8
RACCORDO
100
AcDbPolyline
 62
7
  6
CONTINUOUS
 90
9
 70
0
 10
5.6100769122
 20
-5.2175903741
 10
5.3144048441
 20
-5.5175610274
 10
5.004720963
 20
-5.7995667862
 10
4.6810252688
 20
-6.0636079055
 10
4.3422707299
 20
-6.3104328154
 10
3.9895043779
 20
-6.539293612
 10
3.6258673083
 20
-6.7479460967
 10
3.2512488308
 20
-6.9361472609
 10
3.1047279873
 20
-7.0
  0
LWPOLYLINE
  5
5E5
100
AcDbEntity
  8
RACCORDO
100
AcDbPolyline
 62
7
  6
CONTINUOUS
 90
16
 70
0
 10
5.7855183748
 20
-5.0243379499
 10
5.7734109541
 20
-5.0358966808
 10
5.7603793672
 20
-5.045088465
 10
5.746423614
 20
-5.0519133039
 10
5.731138914
 20
-5.0564221354
 10
5.7149300477
 20
-5.0585640232
 10
5.6990113568
 20
-5.0581861564
 10
5.6834242077
 20
-5.055117509
 10
5.668127234
 20
-5.0495291064
 10
5.6542106783
 20
-5.0417812147
 10
5.6417360955
 20
-5.0316922799
 10
5.6306419306
 20
-5.0194438535
 10
5.6218337613
 20
-5.00594086
 10
5.6156134468
 20
-4.9914849403
 10
5.6116791278
 20
-4.9757744515
 10
5.6100308043
 20
-4.9588093923
  0
LINE
  5
5E6
100
AcDbEntity
  8
0
100
AcDbLine
 62
7
  6
CONTINUOUS
 10
-6.2388223726
 20
-11.122106287
 11
-6.3367529409
 21
-11.1677253337
  0
LINE
  5
5E7
100
AcDbEntity
  8
TRASH
100
AcDbLine
 62
7
  6
CONTINUOUS
 10
-5.3802983716
 20
-10.4731030218
 11
-5.4802732178
 21
-10.519717435
  0
LINE
  5
5E8
100
AcDbEntity
  8
TRASH
100
AcDbLine
 62
7
  6
CONTINUOUS
 10
-4.8550027299
 20
-10.2281482181
 11
-5.3802983716
 21
-10.4731030218
  0
LINE
  5
5E9
100
AcDbEntity
  8
0
100
AcDbLine
 62
7
  6
CONTINUOUS
 10
-6.2281482181
 20
-11.1449972701
 11
-6.3240746636
 21
-11.1864777236
  0
LWPOLYLINE
  5
5EA
100
AcDbEntity
  8
RACCORDO
100
AcDbPolyline
 62
250
  6
CONTINUOUS
 90
5
 70
0
 10
-7.1645043191
 20
18.5479169535
 10
-7.1760364792
 20
18.5585786439
 10
-7.1932831638
 20
18.5782477143
 10
-7.2078153628
 20
18.6000000001
 10
-7.2193844262
 20
18.6234633136
  0
LWPOLYLINE
  5
5EB
100
AcDbEntity
  8
RACCORDO
100
AcDbPolyline
 62
7
  6
CONTINUOUS
 90
16
 70
0
 10
5.7984616946
 20
4.9900242461
 10
5.7862215519
 20
5.0017626866
 10
5.773063094
 20
5.0110830365
 10
5.758986321
 20
5.0179852957
 10
5.743584835
 20
5.0225153374
 10
5.7272650339
 20
5.0246272884
 10
5.7112461114
 20
5.0241835297
 10
5.6955511414
 20
5.0209930967
 10
5.68015705
 20
5.0152469539
 10
5.66621381
 20
5.0073803757
 10
5.6538318053
 20
4.9972316837
 10
5.6429006519
 20
4.9849625563
 10
5.634239171
 20
4.9714933038
 10
5.6281203029
 20
4.9571306962
 10
5.6242711074
 20
4.9415679635
 10
5.6226915844
 20
4.9248051057
  0
LWPOLYLINE
  5
5EC
100
AcDbEntity
  8
0
100
AcDbPolyline
 62
7
  6
CONTINUOUS
 90
6
 70
0
 10
1.080886875
 20
11.0478975728
 10
1.1022181424
 20
11.0173209496
 10
1.1247228338
 20
10.9888299116
 10
1.1483261038
 20
10.9626529329
 10
1.1730972758
 20
10.93876683
 10
1.1989670266
 20
10.9171948018
  0
LWPOLYLINE
  5
5ED
100
AcDbEntity
  8
RACCORDO
100
AcDbPolyline
 62
250
  6
CONTINUOUS
 90
13
 70
0
 10
7.2293696815
 20
20.1171572875
 10
7.2274017151
 20
20.1352963416
 10
7.2221423768
 20
20.1531896548
 10
7.2136494171
 20
20.1705357589
 10
7.2020236077
 20
20.1870530906
 10
7.1874402364
 20
20.2024368699
 10
7.170174151
 20
20.2163768226
 10
7.1505322297
 20
20.2286273937
 10
7.128834401
 20
20.2389909837
 10
7.1054631376
 20
20.2472862956
 10
7.0808217567
 20
20.2533749129
 10
7.0553235464
 20
20.257159202
 10
7.0294001425
 20
20.2585786438
  0
LINE
  5
5EE
100
AcDbEntity
  8
RACCORDO
100
AcDbLine
 62
250
  6
CONTINUOUS
 10
9.5872886078
 20
-20.2077750951
 11
9.5869945607
 21
-20.1873915688
  0
LINE
  5
5EF
100
AcDbEntity
  8
RACCORDO
100
AcDbLine
 62
250
  6
CONTINUOUS
 10
9.2876199879
 20
-20.5118970808
 11
9.2873000053
 21
-20.4783599802
  0
LINE
  5
5F0
100
AcDbEntity
  8
RACCORDO
100
AcDbLine
 62
250
  6
CONTINUOUS
 10
9.5869945607
 20
-20.1873915688
 11
9.5866333375
 21
-20.1455366434
  0
LINE
  5
5F1
100
AcDbEntity
  8
RACCORDO
100
AcDbLine
 62
250
  6
CONTINUOUS
 10
9.2873000053
 20
-20.4783599802
 11
9.2865505933
 21
-20.281545463
  0
LINE
  5
5F2
100
AcDbEntity
  8
RACCORDO
100
AcDbLine
 62
250
  6
CONTINUOUS
 10
9.5866333375
 20
-20.1455366434
 11
9.586313809
 21
-20.0554130014
  0
LINE
  5
5F3
100
AcDbEntity
  8
RACCORDO
100
AcDbLine
 62
250
  6
CONTINUOUS
 10
9.2865505933
 20
-20.281545463
 11
9.2837449843
 21
-10.4384918426
  0
LWPOLYLINE
  5
5F4
100
AcDbEntity
  8
RACCORDO
100
AcDbPolyline
 62
250
  6
CONTINUOUS
 90
3
 70
0
 10
9.586313809
 20
-20.0554130014
 10
9.5840487807
 20
-12.0338224892
 10
9.5837337608
 20
-10.4333017676
  0
LINE
  5
5F5
100
AcDbEntity
  8
RACCORDO
100
AcDbLine
 62
7
  6
CONTINUOUS
 10
9.65
 20
20.5997254977
 11
9.65
 21
-9.6992408051
  0
LINE
  5
5F6
100
AcDbEntity
  8
RACCORDO
100
AcDbLine
 62
7
  6
CONTINUOUS
 10
9.65
 20
-10.3007591949
 11
9.65
 21
-20.5997254977
  0
LINE
  5
5F7
100
AcDbEntity
  8
RACCORDO
100
AcDbLine
 62
250
  6
CONTINUOUS
 10
9.2832070893
 20
6.8905886095
 11
9.2835914673
 21
-9.5612009259
  0
LINE
  5
5F8
100
AcDbEntity
  8
RACCORDO
100
AcDbLine
 62
250
  6
CONTINUOUS
 10
9.5831950125
 20
6.8811942407
 11
9.583581878
 21
-9.5663944438
  0
LINE
  5
5F9
100
AcDbEntity
  8
RACCORDO
100
AcDbLine
 62
250
  6
CONTINUOUS
 10
9.2870053681
 20
20.427308795
 11
9.2832070893
 21
6.8905886095
  0
LINE
  5
5FA
100
AcDbEntity
  8
RACCORDO
100
AcDbLine
 62
250
  6
CONTINUOUS
 10
9.5865386019
 20
20.1290162081
 11
9.5831950125
 21
6.8811942407
  0
LINE
  5
5FB
100
AcDbEntity
  8
RACCORDO
100
AcDbLine
 62
250
  6
CONTINUOUS
 10
9.5868621716
 20
20.1747673026
 11
9.5865386019
 21
20.1290162081
  0
LINE
  5
5FC
100
AcDbEntity
  8
0
100
AcDbLine
 62
7
  6
CONTINUOUS
 10
7.1616711075
 20
-9.7324901417
 11
7.1449972769
 21
-9.7718517719
  0
LWPOLYLINE
  5
5FD
100
AcDbEntity
  8
0
100
AcDbPolyline
 62
7
  6
CONTINUOUS
 90
3
 70
0
 10
7.2212101145
 20
-9.5953536493
 10
7.178568648
 20
-9.6932581164
 10
7.1616711075
 20
-9.7324901417
  0
LINE
  5
5FE
100
AcDbEntity
  8
0
100
AcDbLine
 62
7
  6
CONTINUOUS
 10
7.2047094577
 20
-9.5839345959
 11
7.1221062937
 21
-9.7611776175
  0
LINE
  5
5FF
100
AcDbEntity
  8
TRASH
100
AcDbLine
 62
7
  6
CONTINUOUS
 10
5.480282565
 20
-9.4802732178
 11
5.7718517719
 21
-8.8550027231
  0
LINE
  5
600
100
AcDbEntity
  8
TRASH
100
AcDbLine
 62
7
  6
CONTINUOUS
 10
6.519717435
 20
-10.5197267822
 11
6.2281482281
 21
-11.1449972769
  0
LINE
  5
601
100
AcDbEntity
  8
0
100
AcDbLine
 62
7
  6
CONTINUOUS
 10
5.4486311313
 20
-9.2519164006
 11
5.4
 21
-9.3495328982
  0
LINE
  5
602
100
AcDbEntity
  8
0
100
AcDbLine
 62
7
  6
CONTINUOUS
 10
5.3143318992
 20
-9.3143320038
 11
5.3427654569
 21
-9.2577462138
  0
LINE
  5
603
100
AcDbEntity
  8
0
100
AcDbLine
 62
7
  6
CONTINUOUS
 10
5.5103220484
 20
-9.1297759238
 11
5.4486311313
 21
-9.2519164006
  0
LINE
  5
604
100
AcDbEntity
  8
0
100
AcDbLine
 62
7
  6
CONTINUOUS
 10
5.3427654569
 20
-9.2577462138
 11
5.3809100899
 21
-9.1827286305
  0
LINE
  5
605
100
AcDbEntity
  8
0
100
AcDbLine
 62
7
  6
CONTINUOUS
 10
5.3809100899
 20
-9.1827286305
 11
5.4
 21
-9.1454843702
  0
LINE
  5
606
100
AcDbEntity
  8
0
100
AcDbLine
 62
7
  6
CONTINUOUS
 10
5.5861058109
 20
-8.9816112262
 11
5.5103220484
 21
-9.1297759238
  0
LINE
  5
607
100
AcDbEntity
  8
0
100
AcDbLine
 62
7
  6
CONTINUOUS
 10
5.6632471071
 20
-8.8322745737
 11
5.5861058109
 21
-8.9816112262
  0
LINE
  5
608
100
AcDbEntity
  8
0
100
AcDbLine
 62
7
  6
CONTINUOUS
 10
5.6757558203
 20
-8.8137729854
 11
5.6632471071
 21
-8.8322745737
  0
LINE
  5
609
100
AcDbEntity
  8
RACCORDO
100
AcDbLine
 62
7
  6
CONTINUOUS
 10
-6.5167778011
 20
-20.1560734983
 11
-6.6582724256
 21
-20.2975681228
  0
LWPOLYLINE
  5
60A
100
AcDbEntity
  8
RACCORDO
100
AcDbPolyline
 62
7
  6
CONTINUOUS
 90
7
 70
0
 10
-7.1634252964
 20
-18.5470018494
 10
-7.1563704043
 20
-18.5413293319
 10
-7.1346214315
 20
-18.5267949192
 10
-7.1111616916
 20
-18.5152240935
 10
-7.0863925871
 20
-18.5068148347
 10
-7.0607379245
 20
-18.5017110277
 10
-7.034636662
 20
-18.5
  0
LINE
  5
60B
100
AcDbEntity
  8
0
100
AcDbLine
 62
7
  6
CONTINUOUS
 10
4.7952906344
 20
-9.5839345468
 11
4.7786191972
 21
-9.5954718227
  0
LINE
  5
60C
100
AcDbEntity
  8
0
100
AcDbLine
 62
7
  6
CONTINUOUS
 10
6.2281482181
 20
-8.8550027299
 11
6.3240746619
 21
-8.8135222739
  0
LWPOLYLINE
  5
60D
100
AcDbEntity
  8
0
100
AcDbPolyline
 62
7
  6
CONTINUOUS
 90
3
 70
0
 10
4.7115961264
 20
11.1582144274
 10
4.7195569205
 20
11.1597208374
 10
4.7271859962
 20
11.1621033059
  0
LINE
  5
60E
100
AcDbEntity
  8
0
100
AcDbLine
 62
7
  6
CONTINUOUS
 10
0.4191575609
 20
9.5305752919
 11
0.5817812422
 21
9.5305752919
  0
LINE
  5
60F
100
AcDbEntity
  8
0
100
AcDbLine
 62
7
  6
CONTINUOUS
 10
6.493211
 20
9.9333350472
 11
7.5
 21
9.9333350472
  0
LINE
  5
610
100
AcDbEntity
  8
0
100
AcDbLine
 62
7
  6
CONTINUOUS
 10
-8.848037
 20
10.132446
 11
-8.09722
 21
10.132446
  0
LINE
  5
611
100
AcDbEntity
  8
0
100
AcDbLine
 62
7
  6
CONTINUOUS
 10
-4.50278
 20
10.132446
 11
-3.751963
 21
10.132446
  0
LWPOLYLINE
  5
612
100
AcDbEntity
  8
0
100
AcDbPolyline
 62
7
  6
CONTINUOUS
 90
3
 70
0
 10
1.2530595461
 20
10.8819864673
 10
1.2812823148
 20
10.8683501734
 10
1.3103208469
 20
10.8573260191
  0
LWPOLYLINE
  5
613
100
AcDbEntity
  8
0
100
AcDbPolyline
 62
7
  6
CONTINUOUS
 90
10
 70
0
 10
1.3103085078
 20
11.0098563702
 10
1.2929298987
 20
11.0203451205
 10
1.2763125439
 20
11.0322189114
 10
1.2604564434
 20
11.0454777409
 10
1.2453929488
 20
11.0602036654
 10
1.2310907084
 20
11.0763146231
 10
1.2174556672
 20
11.0935644348
 10
1.2044564736
 20
11.1118710391
 10
1.1921244791
 20
11.1313164919
 10
1.1804596838
 20
11.1519007903
  0
LWPOLYLINE
  5
614
100
AcDbEntity
  8
0
100
AcDbPolyline
 62
7
  6
CONTINUOUS
 90
3
 70
0
 10
1.1989670266
 20
10.9171948018
 10
1.2256525406
 20
10.8982348963
 10
1.2530595461
 20
10.8819864673
  0
LINE
  5
615
100
AcDbEntity
  8
RACCORDO
100
AcDbLine
 62
7
  6
CONTINUOUS
 10
-6.5210300654
 20
20.437994886
 11
-6.6558702077
 21
20.5728350282
  0
LINE
  5
616
100
AcDbEntity
  8
0
100
AcDbLine
 62
7
  6
CONTINUOUS
 10
11.15
 20
-21.8997711479
 11
11.15
 21
21.8997711479
  0
LWPOLYLINE
  5
617
100
AcDbEntity
  8
RACCORDO
100
AcDbPolyline
 62
250
  6
CONTINUOUS
 90
13
 70
0
 10
9.5879500862
 20
-20.2270948741
 10
9.5853674824
 20
-20.2661860451
 10
9.5776994966
 20
-20.3046091301
 10
9.5650771148
 20
-20.3417071021
 10
9.5477160418
 20
-20.3768455738
 10
9.5259130313
 20
-20.4094236186
 10
9.5000408266
 20
-20.4388840564
 10
9.4705417469
 20
-20.4647230353
 10
9.4379201734
 20
-20.4864985912
 10
9.4027339671
 20
-20.5038382142
 10
9.3655848338
 20
-20.5164452911
 10
9.3271080177
 20
-20.5241041531
 10
9.2879615093
 20
-20.5266837345
  0
LINE
  5
618
100
AcDbEntity
  8
0
100
AcDbLine
 62
7
  6
CONTINUOUS
 10
6.5512407408
 20
-10.7483391196
 11
6.6
 21
-10.6504671018
  0
LINE
  5
619
100
AcDbEntity
  8
0
100
AcDbLine
 62
7
  6
CONTINUOUS
 10
6.6856681008
 20
-10.6856679962
 11
6.6572345431
 21
-10.7422537862
  0
LINE
  5
61A
100
AcDbEntity
  8
0
100
AcDbLine
 62
7
  6
CONTINUOUS
 10
6.4895215003
 20
-10.8705318632
 11
6.5512407408
 21
-10.7483391196
  0
LINE
  5
61B
100
AcDbEntity
  8
0
100
AcDbLine
 62
7
  6
CONTINUOUS
 10
6.6572345431
 20
-10.7422537862
 11
6.6190899101
 21
-10.8172713695
  0
LINE
  5
61C
100
AcDbEntity
  8
0
100
AcDbLine
 62
7
  6
CONTINUOUS
 10
6.6190899101
 20
-10.8172713695
 11
6.6
 21
-10.8545156298
  0
LINE
  5
61D
100
AcDbEntity
  8
0
100
AcDbLine
 62
7
  6
CONTINUOUS
 10
6.41384481
 20
-11.0184847831
 11
6.4895215003
 21
-10.8705318632
  0
LINE
  5
61E
100
AcDbEntity
  8
0
100
AcDbLine
 62
7
  6
CONTINUOUS
 10
6.3367528929
 20
-11.1677254263
 11
6.41384481
 21
-11.0184847831
  0
LINE
  5
61F
100
AcDbEntity
  8
0
100
AcDbLine
 62
7
  6
CONTINUOUS
 10
6.3242441797
 20
-11.1862270146
 11
6.3367528929
 21
-11.1677254263
  0
LINE
  5
620
100
AcDbEntity
  8
0
100
AcDbLine
 62
7
  6
CONTINUOUS
 10
6.6856683555
 20
-9.314331643
 11
6.5197234842
 21
-9.4802765158
  0
LINE
  5
621
100
AcDbEntity
  8
0
100
AcDbLine
 62
7
  6
CONTINUOUS
 10
5.4802765158
 20
-10.5197234842
 11
5.3143316445
 21
-10.685668357
  0
LINE
  5
622
100
AcDbEntity
  8
0
100
AcDbLine
 62
7
  6
CONTINUOUS
 10
4.7952906344
 20
-9.5839345468
 11
4.8229372531
 21
-9.5690719275
  0
LINE
  5
623
100
AcDbEntity
  8
0
100
AcDbLine
 62
7
  6
CONTINUOUS
 10
4.8229372531
 20
-9.5690719275
 11
5.0558640943
 21
-9.4463788113
  0
LINE
  5
624
100
AcDbEntity
  8
0
100
AcDbLine
 62
7
  6
CONTINUOUS
 10
5.0558640943
 20
-9.4463788113
 11
5.1359334803
 21
-9.4049151724
  0
LINE
  5
625
100
AcDbEntity
  8
0
100
AcDbLine
 62
7
  6
CONTINUOUS
 10
5.1359334803
 20
-9.4049151724
 11
5.2150852222
 21
-9.3643901452
  0
LWPOLYLINE
  5
626
100
AcDbEntity
  8
0
100
AcDbPolyline
 62
7
  6
CONTINUOUS
 90
3
 70
0
 10
5.2150852222
 20
-9.3643901452
 10
5.2944237476
 20
-9.3242906718
 10
5.3143318992
 20
-9.3143320038
  0
LINE
  5
627
100
AcDbEntity
  8
0
100
AcDbLine
 62
7
  6
CONTINUOUS
 10
6.2388223726
 20
-8.877893713
 11
6.3367529409
 21
-8.8322746663
  0
LINE
  5
628
100
AcDbEntity
  8
TRASH
100
AcDbLine
 62
7
  6
CONTINUOUS
 10
5.3802983714
 20
-9.5268969783
 11
5.4802732178
 21
-9.480282565
  0
LINE
  5
629
100
AcDbEntity
  8
TRASH
100
AcDbLine
 62
7
  6
CONTINUOUS
 10
6.6197016284
 20
-10.4731030218
 11
6.5197267822
 21
-10.519717435
  0
LINE
  5
62A
100
AcDbEntity
  8
TRASH
100
AcDbLine
 62
7
  6
CONTINUOUS
 10
4.8550027299
 20
-9.7718517819
 11
5.3802983714
 21
-9.5268969783
  0
LINE
  5
62B
100
AcDbEntity
  8
TRASH
100
AcDbLine
 62
7
  6
CONTINUOUS
 10
7.1449972701
 20
-10.2281482181
 11
6.6197016284
 21
-10.4731030218
  0
LINE
  5
62C
100
AcDbEntity
  8
0
100
AcDbLine
 62
7
  6
CONTINUOUS
 10
4.0553035161
 20
11.1017669961
 11
4.7115961229
 21
11.1582144271
  0
LINE
  5
62D
100
AcDbEntity
  8
0
100
AcDbLine
 62
7
  6
CONTINUOUS
 10
1.4530248475
 20
10.8779764316
 11
1.8770221184
 21
10.9144388241
  0
LINE
  5
62E
100
AcDbEntity
  8
0
100
AcDbLine
 62
7
  6
CONTINUOUS
 10
2.0584702029
 20
10.9300483562
 11
3.9025503981
 21
11.0886296505
  0
LINE
  5
62F
100
AcDbEntity
  8
0
100
AcDbLine
 62
7
  6
CONTINUOUS
 10
1.458935
 20
11.0216725797
 11
2.042892
 21
11.0718910233
  0
LINE
  5
630
100
AcDbEntity
  8
0
100
AcDbLine
 62
7
  6
CONTINUOUS
 10
2.224637
 20
11.0875244918
 11
3.768528
 21
11.2202950067
  0
LINE
  5
631
100
AcDbEntity
  8
0
100
AcDbLine
 62
7
  6
CONTINUOUS
 10
3.9211614072
 20
11.2334089314
 11
4.6341225209
 21
11.2947179954
  0
LINE
  5
632
100
AcDbEntity
  8
0
100
AcDbLine
 62
7
  6
CONTINUOUS
 10
1.3103208469
 20
10.7061155703
 11
1.4530248475
 21
10.7061155703
  0
LINE
  5
633
100
AcDbEntity
  8
0
100
AcDbLine
 62
7
  6
CONTINUOUS
 10
1.1804596838
 20
11.1519007903
 11
1.3103085078
 21
11.1519007903
  0
LINE
  5
634
100
AcDbEntity
  8
0
100
AcDbLine
 62
7
  6
CONTINUOUS
 10
0.929693375
 20
11.1519124002
 11
1.0240084615
 21
11.1519124002
  0
LINE
  5
635
100
AcDbEntity
  8
0
100
AcDbLine
 62
7
  6
CONTINUOUS
 10
4.7762676322
 20
11.2215203774
 11
4.9915248819
 21
11.2215203774
  0
LINE
  5
636
100
AcDbEntity
  8
0
100
AcDbLine
 62
7
  6
CONTINUOUS
 10
1.0932678937
 20
11.3956872582
 11
1.3103208469
 21
11.3956872582
  0
LINE
  5
637
100
AcDbEntity
  8
0
100
AcDbLine
 62
7
  6
CONTINUOUS
 10
4.7768149081
 20
11.4858861471
 11
4.9915248819
 21
11.4858861471
  0
LINE
  5
638
100
AcDbEntity
  8
0
100
AcDbLine
 62
7
  6
CONTINUOUS
 10
2.16645
 20
11.7582520735
 11
2.451858
 21
11.7582520735
  0
LINE
  5
639
100
AcDbEntity
  8
0
100
AcDbLine
 62
7
  6
CONTINUOUS
 10
0.834640845
 20
11.7820536536
 11
0.8911510718
 21
11.7820536536
  0
LINE
  5
63A
100
AcDbEntity
  8
0
100
AcDbLine
 62
7
  6
CONTINUOUS
 10
1.0372686513
 20
11.7820536536
 11
1.1854664597
 21
11.7820536536
  0
LINE
  5
63B
100
AcDbEntity
  8
0
100
AcDbLine
 62
7
  6
CONTINUOUS
 10
0.977332
 20
11.924691829
 11
1.042762
 21
11.924691829
  0
LINE
  5
63C
100
AcDbEntity
  8
0
100
AcDbLine
 62
7
  6
CONTINUOUS
 10
0.977332
 20
12.3407802208
 11
1.042762
 21
12.3407802208
  0
LINE
  5
63D
100
AcDbEntity
  8
0
100
AcDbLine
 62
7
  6
CONTINUOUS
 10
-2.051155
 20
12.335843
 11
-3.325037
 21
12.744837
  0
LINE
  5
63E
100
AcDbEntity
  8
0
100
AcDbLine
 62
7
  6
CONTINUOUS
 10
-1.474954
 20
12.520852
 11
-3.325037
 21
13.114855
  0
LINE
  5
63F
100
AcDbEntity
  8
0
100
AcDbLine
 62
7
  6
CONTINUOUS
 10
1.962811
 20
13.1554320844
 11
1.7788383135
 21
13.3359957459
  0
LINE
  5
640
100
AcDbEntity
  8
0
100
AcDbLine
 62
7
  6
CONTINUOUS
 10
1.6516144876
 20
13.4608482364
 11
0.5627064277
 21
14.5295576957
  0
LINE
  5
641
100
AcDbEntity
  8
0
100
AcDbLine
 62
7
  6
CONTINUOUS
 10
3.9211614072
 20
11.2334089314
 11
3.1633556078
 21
11.9771568412
  0
LINE
  5
642
100
AcDbEntity
  8
0
100
AcDbLine
 62
7
  6
CONTINUOUS
 10
5.4822600513
 20
9.7012831434
 11
4.0553035161
 21
11.1017669961
  0
LINE
  5
643
100
AcDbEntity
  8
0
100
AcDbLine
 62
7
  6
CONTINUOUS
 10
3.081348
 20
12.0576422917
 11
2.1241028257
 21
12.9971131802
  0
LINE
  5
644
100
AcDbEntity
  8
0
100
AcDbLine
 62
7
  6
CONTINUOUS
 10
2.331451
 20
12.632073786
 11
1.980589
 21
12.9767708714
  0
LINE
  5
645
100
AcDbEntity
  8
0
100
AcDbLine
 62
7
  6
CONTINUOUS
 10
2.997344
 20
11.9778934079
 11
2.451858
 21
12.5137940707
  0
LINE
  5
646
100
AcDbEntity
  8
0
100
AcDbLine
 62
7
  6
CONTINUOUS
 10
5.3999676142
 20
9.6175640389
 11
3.9025503981
 21
11.0886296505
  0
LINE
  5
647
100
AcDbEntity
  8
0
100
AcDbLine
 62
7
  6
CONTINUOUS
 10
1.6747746472
 20
13.2772178227
 11
0.4000000018
 21
14.5295576957
  0
LINE
  5
648
100
AcDbEntity
  8
0
100
AcDbLine
 62
7
  6
CONTINUOUS
 10
3.768528
 20
11.2202950067
 11
3.079244
 21
11.8974437271
  0
LINE
  5
649
100
AcDbEntity
  8
RACCORDO
100
AcDbLine
 62
7
  6
CONTINUOUS
 10
7.5073728206
 20
-20.5266837345
 11
7.3830351795
 21
-20.9
  0
LINE
  5
64A
100
AcDbEntity
  8
RACCORDO
100
AcDbLine
 62
7
  6
CONTINUOUS
 10
9.5837337608
 20
-10.4333017676
 11
9.65
 21
-10.3007591949
  0
LINE
  5
64B
100
AcDbEntity
  8
0
100
AcDbLine
 62
7
  6
CONTINUOUS
 10
7.2213807973
 20
-10.4045281811
 11
7.2047093656
 21
-10.4160654532
  0
LINE
  5
64C
100
AcDbEntity
  8
0
100
AcDbLine
 62
7
  6
CONTINUOUS
 10
7.2047093656
 20
-10.4160654532
 11
7.1770627469
 21
-10.4309280725
  0
LINE
  5
64D
100
AcDbEntity
  8
0
100
AcDbLine
 62
7
  6
CONTINUOUS
 10
7.1770627469
 20
-10.4309280725
 11
6.9441359057
 21
-10.5536211887
  0
LINE
  5
64E
100
AcDbEntity
  8
0
100
AcDbLine
 62
7
  6
CONTINUOUS
 10
6.9441359057
 20
-10.5536211887
 11
6.8640665197
 21
-10.5950848276
  0
LINE
  5
64F
100
AcDbEntity
  8
0
100
AcDbLine
 62
7
  6
CONTINUOUS
 10
6.8640665197
 20
-10.5950848276
 11
6.7849147778
 21
-10.6356098548
  0
LWPOLYLINE
  5
650
100
AcDbEntity
  8
0
100
AcDbPolyline
 62
7
  6
CONTINUOUS
 90
3
 70
0
 10
6.7849147778
 20
-10.6356098548
 10
6.7055762524
 20
-10.6757093282
 10
6.6856681008
 20
-10.6856679962
  0
LINE
  5
651
100
AcDbEntity
  8
0
100
AcDbLine
 62
7
  6
CONTINUOUS
 10
5.7611776274
 20
-11.122106287
 11
5.6632470591
 21
-11.1677253337
  0
LINE
  5
652
100
AcDbEntity
  8
0
100
AcDbLine
 62
7
  6
CONTINUOUS
 10
5.7718517819
 20
-11.1449972701
 11
5.6759253364
 21
-11.1864777236
  0
LWPOLYLINE
  5
653
100
AcDbEntity
  8
0
100
AcDbPolyline
 62
7
  6
CONTINUOUS
 90
7
 70
0
 10
4.5847711562
 20
12.4431759679
 10
4.5930160186
 20
12.4432573975
 10
4.601253027
 20
12.4435012535
 10
4.6094821815
 20
12.4439075358
 10
4.6177034819
 20
12.4444762446
 10
4.6259169284
 20
12.4452073797
 10
4.6341225209
 20
12.4461009411
  0
LINE
  5
654
100
AcDbEntity
  8
0
100
AcDbLine
 62
7
  6
CONTINUOUS
 10
1.052275914
 20
12.4834543947
 11
1.1854664597
 21
12.4834660046
  0
LINE
  5
655
100
AcDbEntity
  8
0
100
AcDbLine
 62
7
  6
CONTINUOUS
 10
2.16645
 20
12.632073786
 11
2.331451
 21
12.632073786
  0
LINE
  5
656
100
AcDbEntity
  8
0
100
AcDbLine
 62
7
  6
CONTINUOUS
 10
1.674787
 20
12.9767708714
 11
1.980589
 21
12.9767708714
  0
LINE
  5
657
100
AcDbEntity
  8
0
100
AcDbLine
 62
7
  6
CONTINUOUS
 10
1.7788383135
 20
13.3359957459
 11
2.044033
 21
13.3359957459
  0
LINE
  5
658
100
AcDbEntity
  8
0
100
AcDbLine
 62
7
  6
CONTINUOUS
 10
-3.325037
 20
13.361529
 11
-1.474949
 21
13.361525
  0
LINE
  5
659
100
AcDbEntity
  8
0
100
AcDbLine
 62
7
  6
CONTINUOUS
 10
1.6516144876
 20
13.4608482364
 11
2.1723478618
 21
13.4608482364
  0
LINE
  5
65A
100
AcDbEntity
  8
0
100
AcDbLine
 62
7
  6
CONTINUOUS
 10
-3.325037
 20
13.731543
 11
-1.474954
 21
13.731539
  0
LINE
  5
65B
100
AcDbEntity
  8
0
100
AcDbLine
 62
7
  6
CONTINUOUS
 10
6.493211
 20
14.0666649528
 11
7.5
 21
14.0666649528
  0
LINE
  5
65C
100
AcDbEntity
  8
0
100
AcDbLine
 62
7
  6
CONTINUOUS
 10
-3.325037
 20
14.101543
 11
-1.474954
 21
14.101543
  0
LINE
  5
65D
100
AcDbEntity
  8
0
100
AcDbLine
 62
7
  6
CONTINUOUS
 10
0.834640845
 20
12.4834660046
 11
0.9069676351
 21
12.4834543947
  0
LINE
  5
65E
100
AcDbEntity
  8
0
100
AcDbLine
 62
7
  6
CONTINUOUS
 10
1.674787
 20
13.0389708421
 11
1.458935
 21
13.0590750146
  0
LINE
  5
65F
100
AcDbEntity
  8
0
100
AcDbLine
 62
7
  6
CONTINUOUS
 10
3.897045
 20
12.8319318547
 11
2.1241028257
 21
12.9971131802
  0
LINE
  5
660
100
AcDbEntity
  8
0
100
AcDbLine
 62
7
  6
CONTINUOUS
 10
4.1765425437
 20
12.8058958668
 11
4.0502372222
 21
12.8176654192
  0
LINE
  5
661
100
AcDbEntity
  8
0
100
AcDbLine
 62
7
  6
CONTINUOUS
 10
4.0344925161
 20
12.9624207547
 11
2.1723478618
 21
13.1359222422
  0
LINE
  5
662
100
AcDbEntity
  8
0
100
AcDbLine
 62
7
  6
CONTINUOUS
 10
1.6747746472
 20
13.1822755576
 11
1.4547726463
 21
13.2027837486
  0
LINE
  5
663
100
AcDbEntity
  8
0
100
AcDbLine
 62
7
  6
CONTINUOUS
 10
2.044033
 20
13.1478592795
 11
1.962811
 21
13.1554320844
  0
LWPOLYLINE
  5
664
100
AcDbEntity
  8
0
100
AcDbPolyline
 62
7
  6
CONTINUOUS
 90
3
 70
0
 10
4.5073355314
 20
12.4508049514
 10
4.545725156
 20
12.4451560107
 10
4.5847711562
 20
12.4431759679
  0
LINE
  5
665
100
AcDbEntity
  8
0
100
AcDbLine
 62
7
  6
CONTINUOUS
 10
-2.120197
 20
15.006388
 11
-3.325037
 21
15.35187
  0
LWPOLYLINE
  5
666
100
AcDbEntity
  8
RACCORDO
100
AcDbPolyline
 62
7
  6
CONTINUOUS
 90
22
 70
0
 10
-6.6582893563
 20
20.5731858629
 10
-6.6604840487
 20
20.5745561168
 10
-6.6638174644
 20
20.578199069
 10
-6.6682896036
 20
20.5838064498
 10
-6.6740318125
 20
20.5910923324
 10
-6.6809127448
 20
20.5996995251
 10
-6.6885383612
 20
20.6091344359
 10
-6.6968644881
 20
20.6188983798
 10
-6.705935299
 20
20.6288065493
 10
-6.7154892748
 20
20.6388819844
 10
-6.7254271808
 20
20.6489332698
 10
-6.7358482518
 20
20.6588217863
 10
-6.7467886728
 20
20.6687569856
 10
-6.7583832426
 20
20.6787825169
 10
-6.7704971624
 20
20.6886536776
 10
-6.7827622208
 20
20.6981785418
 10
-6.795173684
 20
20.7072714599
 10
-6.8077362858
 20
20.7158745039
 10
-6.8200960153
 20
20.7238673744
 10
-6.832134869
 20
20.7311986846
 10
-6.8439708505
 20
20.7378753505
 10
-6.8556039598
 20
20.7438927334
  0
LINE
  5
667
100
AcDbEntity
  8
0
100
AcDbLine
 62
7
  6
CONTINUOUS
 10
5.4673834379
 20
14.1607034074
 11
5.3865535485
 21
14.2458490803
  0
LINE
  5
668
100
AcDbEntity
  8
RACCORDO
100
AcDbLine
 62
7
  6
CONTINUOUS
 10
7.5073728206
 20
20.5266837345
 11
7.3830351795
 21
20.9
  0
LINE
  5
669
100
AcDbEntity
  8
RACCORDO
100
AcDbLine
 62
7
  6
CONTINUOUS
 10
0.2629729446
 20
-20.2904156765
 11
0.3973151228
 21
-20.1560734983
  0
LINE
  5
66A
100
AcDbEntity
  8
DRAFT
100
AcDbLine
 62
7
  6
CONTINUOUS
 10
-6.8667670239
 20
-21.1647852141
 11
-6.9339198284
 21
-21.2
  0
LWPOLYLINE
  5
66B
100
AcDbEntity
  8
RACCORDO
100
AcDbPolyline
 62
7
  6
CONTINUOUS
 90
22
 70
0
 10
-6.8580061777
 20
-20.4686258279
 10
-6.846381134
 20
-20.4626136638
 10
-6.8345385633
 20
-20.4559334645
 10
-6.8224784656
 20
-20.44858812
 10
-6.8100772969
 20
-20.4405664465
 10
-6.7974586013
 20
-20.4319215305
 10
-6.7849930103
 20
-20.4227826222
 10
-6.7726756348
 20
-20.4132068417
 10
-6.7605113639
 20
-20.4032828639
 10
-6.7488854971
 20
-20.3932191254
 10
-6.7379423624
 20
-20.3832683271
 10
-6.7275376318
 20
-20.3733801457
 10
-6.717623621
 20
-20.3633395394
 10
-6.7080994163
 20
-20.3532826782
 10
-6.6990659315
 20
-20.3434021932
 10
-6.6907782232
 20
-20.3336747166
 10
-6.6831928593
 20
-20.3242843846
 10
-6.6763532718
 20
-20.3157238609
 10
-6.6706448143
 20
-20.3084789724
 10
-6.6661959377
 20
-20.3029033449
 10
-6.662878191
 20
-20.2992814252
 10
-6.6606915742
 20
-20.2979189575
  0
LWPOLYLINE
  5
66C
100
AcDbEntity
  8
0
100
AcDbPolyline
 62
7
  6
CONTINUOUS
 90
18
 70
0
 10
-4.4035403876
 20
-17.8384864559
 10
-4.3495993759
 20
-17.8223094826
 10
-4.2996916647
 20
-17.801125323
 10
-4.2542017269
 20
-17.7747296353
 10
-4.2127450895
 20
-17.7433267094
 10
-4.1758977427
 20
-17.7078612481
 10
-4.1436000264
 20
-17.6679665409
 10
-4.1159116007
 20
-17.6240092313
 10
-4.0935874364
 20
-17.5780340731
 10
-4.0766637106
 20
-17.530018133
 10
-4.0651042462
 20
-17.4799843047
 10
-4.0595554826
 20
-17.4300461227
 10
-4.0603920801
 20
-17.3803362779
 10
-4.0672393783
 20
-17.3307220833
 10
-4.0796198357
 20
-17.2829190467
 10
-4.0978414754
 20
-17.2368564771
 10
-4.1215962743
 20
-17.1926051014
 10
-4.149482621
 20
-17.1520925892
  0
LINE
  5
66D
100
AcDbEntity
  8
0
100
AcDbLine
 62
7
  6
CONTINUOUS
 10
-6.675
 20
14.117556
 11
-5.925
 21
14.117556
  0
LINE
  5
66E
100
AcDbEntity
  8
0
100
AcDbLine
 62
7
  6
CONTINUOUS
 10
-2.694959
 20
14.471557
 11
-1.474954
 21
14.471557
  0
LINE
  5
66F
100
AcDbEntity
  8
0
100
AcDbLine
 62
7
  6
CONTINUOUS
 10
-8.8480371177
 20
14.517556
 11
-8.09722
 21
14.517556
  0
LINE
  5
670
100
AcDbEntity
  8
0
100
AcDbLine
 62
7
  6
CONTINUOUS
 10
-4.5027830484
 20
14.517556
 11
-3.7519628823
 21
14.517556
  0
LINE
  5
671
100
AcDbEntity
  8
0
100
AcDbLine
 62
7
  6
CONTINUOUS
 10
0.4000000018
 20
14.5295576957
 11
0.5627064277
 21
14.5295576957
  0
LINE
  5
672
100
AcDbEntity
  8
RACCORDO
100
AcDbLine
 62
7
  6
CONTINUOUS
 10
-7.319462557
 20
15.2755396155
 11
-6.7148190698
 21
15.2755396155
  0
LINE
  5
673
100
AcDbEntity
  8
RACCORDO
100
AcDbLine
 62
7
  6
CONTINUOUS
 10
-0.1992738542
 20
15.2755396155
 11
0.1992738542
 21
15.2755396155
  0
LINE
  5
674
100
AcDbEntity
  8
RACCORDO
100
AcDbLine
 62
7
  6
CONTINUOUS
 10
6.7148190698
 20
15.2755396155
 11
7.319462557
 21
15.2755396155
  0
LINE
  5
675
100
AcDbEntity
  8
0
100
AcDbLine
 62
7
  6
CONTINUOUS
 10
-2.694959
 20
15.541213
 11
-1.474954
 21
15.541218
  0
LWPOLYLINE
  5
676
100
AcDbEntity
  8
0
100
AcDbPolyline
 62
7
  6
CONTINUOUS
 90
6
 70
0
 10
6.7148190698
 20
15.2755396155
 10
6.6943007571
 20
15.2766449626
 10
6.6739297808
 20
15.2799548161
 10
6.6539264323
 20
15.2854585211
 10
6.6344990839
 20
15.2931348068
 10
6.6158790695
 20
15.3029185759
  0
LWPOLYLINE
  5
677
100
AcDbEntity
  8
RACCORDO
100
AcDbPolyline
 62
7
  6
CONTINUOUS
 90
13
 70
0
 10
-7.319462557
 20
15.2755396155
 10
-7.3450382139
 20
15.2772639035
 10
-7.3702803715
 20
15.2824077141
 10
-7.3947628176
 20
15.2909290282
 10
-7.4180826208
 20
15.3027590431
 10
-7.4398058361
 20
15.3177252699
 10
-7.4594919121
 20
15.3355278816
 10
-7.4767719554
 20
15.3558765062
 10
-7.4913687432
 20
15.3784690173
 10
-7.5030389781
 20
15.4029109815
 10
-7.5115595482
 20
15.4288106788
 10
-7.5167459172
 20
15.4557762904
 10
-7.5184775044
 20
15.483378525
  0
LWPOLYLINE
  5
678
100
AcDbEntity
  8
RACCORDO
100
AcDbPolyline
 62
7
  6
CONTINUOUS
 90
13
 70
0
 10
-0.1992738542
 20
15.2755396155
 10
-0.224877675
 20
15.2772689045
 10
-0.2501581719
 20
15.2824239732
 10
-0.274687355
 20
15.2909646938
 10
-0.2980614494
 20
15.3028251149
 10
-0.3198428908
 20
15.3178327493
 10
-0.3395854632
 20
15.3356839056
 10
-0.3569191744
 20
15.3560877534
 10
-0.371564704
 20
15.3787409917
 10
-0.3832736838
 20
15.4032420839
 10
-0.3918223686
 20
15.4291951871
 10
-0.3970287097
 20
15.4562082553
 10
-0.3987736215
 20
15.4838500694
  0
LINE
  5
679
100
AcDbEntity
  8
0
100
AcDbLine
 62
7
  6
CONTINUOUS
 10
-1.474958
 20
15.191388
 11
-2.694959
 21
15.541213
  0
LINE
  5
67A
100
AcDbEntity
  8
0
100
AcDbLine
 62
7
  6
CONTINUOUS
 10
-1.474954
 20
16.157906
 11
-3.325042
 21
16.7519
  0
LINE
  5
67B
100
AcDbEntity
  8
0
100
AcDbLine
 62
7
  6
CONTINUOUS
 10
-1.474958
 20
16.52792
 11
-1.838789
 21
16.644734
  0
LINE
  5
67C
100
AcDbEntity
  8
0
100
AcDbLine
 62
7
  6
CONTINUOUS
 10
-2.190302
 20
16.757598
 11
-2.748836
 21
16.936914
  0
LINE
  5
67D
100
AcDbEntity
  8
DRAFT
100
AcDbLine
 62
7
  6
CONTINUOUS
 10
-6.9339198284
 20
21.2
 11
-6.8667670239
 21
21.1647852141
  0
LINE
  5
67E
100
AcDbEntity
  8
RACCORDO
100
AcDbLine
 62
7
  6
CONTINUOUS
 10
0.3930628585
 20
20.437994886
 11
0.2629729446
 21
20.5680847998
  0
LWPOLYLINE
  5
67F
100
AcDbEntity
  8
0
100
AcDbPolyline
 62
7
  6
CONTINUOUS
 90
8
 70
0
 10
6.5671304662
 20
15.3437244138
 10
6.5538704213
 20
15.3606663567
 10
6.5423744149
 20
15.3789992534
 10
6.5327783048
 20
15.3985328172
 10
6.5252003763
 20
15.4190029513
 10
6.5197276049
 20
15.4401776092
 10
6.5164207454
 20
15.4618621112
 10
6.5153187866
 20
15.4838342317
  0
LWPOLYLINE
  5
680
100
AcDbEntity
  8
RACCORDO
100
AcDbPolyline
 62
7
  6
CONTINUOUS
 90
5
 70
0
 10
6.6467097823
 20
18.60045995
 10
6.6352044001
 20
18.6238823695
 10
6.6268536167
 20
18.6485625367
 10
6.6217837243
 20
18.6740798342
 10
6.6200664561
 20
18.7
  0
LWPOLYLINE
  5
681
100
AcDbEntity
  8
RACCORDO
100
AcDbPolyline
 62
7
  6
CONTINUOUS
 90
5
 70
0
 10
6.6611858003
 20
-18.5787024009
 10
6.678390465
 20
-18.5589942732
 10
6.6980324725
 20
-18.5416836961
 10
6.7197873722
 20
-18.5270694334
 10
6.7432991968
 20
-18.5154061091
  0
LWPOLYLINE
  5
682
100
AcDbEntity
  8
RACCORDO
100
AcDbPolyline
 62
250
  6
CONTINUOUS
 90
3
 70
0
 10
6.698556545
 20
-18.5782477142
 10
6.7158052
 20
-18.5585786438
 10
6.7354735215
 20
-18.5413293319
  0
LINE
  5
683
100
AcDbEntity
  8
0
100
AcDbLine
 62
7
  6
CONTINUOUS
 10
2.14659
 20
-19.517235
 11
3.350368
 21
-18.729391
  0
LINE
  5
684
100
AcDbEntity
  8
0
100
AcDbLine
 62
7
  6
CONTINUOUS
 10
3.066765
 20
-18.699984
 11
1.850359
 21
-19.494112
  0
LINE
  5
685
100
AcDbEntity
  8
RACCORDO
100
AcDbLine
 62
7
  6
CONTINUOUS
 10
-7.2419286989
 20
-20.8366629075
 11
-7.3830351795
 21
-20.9
  0
LINE
  5
686
100
AcDbEntity
  8
0
100
AcDbLine
 62
7
  6
CONTINUOUS
 10
1.850364
 20
-16.880707
 11
3.350372
 21
-16.351297
  0
LWPOLYLINE
  5
687
100
AcDbEntity
  8
RACCORDO
100
AcDbPolyline
 62
250
  6
CONTINUOUS
 90
7
 70
0
 10
-6.7834819673
 20
-20.2475324589
 10
-6.7600355757
 20
-20.2392755665
 10
-6.7382822012
 20
-20.2289285414
 10
-6.7186088814
 20
-20.2166740213
 10
-6.7013382517
 20
-20.2027109185
 10
-6.6867803067
 20
-20.1872875146
 10
-6.67521242
 20
-20.1707191451
  0
LINE
  5
688
100
AcDbEntity
  8
0
100
AcDbLine
 62
7
  6
CONTINUOUS
 10
3.150795
 20
-16.2336415
 11
1.850364
 21
-16.66435
  0
LWPOLYLINE
  5
689
100
AcDbEntity
  8
RACCORDO
100
AcDbPolyline
 62
7
  6
CONTINUOUS
 90
3
 70
0
 10
7.1607168843
 20
18.5069324742
 10
7.1348648826
 20
18.5017443099
 10
7.1085073836
 20
18.5
  0
LINE
  5
68A
100
AcDbEntity
  8
0
100
AcDbLine
 62
7
  6
CONTINUOUS
 10
-3.325037
 20
15.911232
 11
-1.474954
 21
15.911232
  0
LWPOLYLINE
  5
68B
100
AcDbEntity
  8
RACCORDO
100
AcDbPolyline
 62
7
  6
CONTINUOUS
 90
3
 70
0
 10
-7.1610692283
 20
18.5070349419
 10
-7.1354636732
 20
18.5018319132
 10
-7.1094109243
 20
18.5
  0
LINE
  5
68C
100
AcDbEntity
  8
RACCORDO
100
AcDbLine
 62
7
  6
CONTINUOUS
 10
-7.2419286989
 20
20.8366629075
 11
-7.3830351795
 21
20.9
  0
LINE
  5
68D
100
AcDbEntity
  8
0
100
AcDbLine
 62
7
  6
CONTINUOUS
 10
6.5
 20
15.2124015748
 11
5.2301263923
 21
15.7855004023
  0
LINE
  5
68E
100
AcDbEntity
  8
0
100
AcDbLine
 62
7
  6
CONTINUOUS
 10
4.0486058853
 20
16.3187252987
 11
2.8233519924
 21
16.8716872892
  0
LINE
  5
68F
100
AcDbEntity
  8
0
100
AcDbLine
 62
7
  6
CONTINUOUS
 10
5.0035843673
 20
16.950533157
 11
4.5254731449
 21
17.1810453012
  0
LINE
  5
690
100
AcDbEntity
  8
0
100
AcDbLine
 62
7
  6
CONTINUOUS
 10
6.5
 20
16.2290675115
 11
5.9391807672
 21
16.4994550129
  0
LWPOLYLINE
  5
691
100
AcDbEntity
  8
0
100
AcDbPolyline
 62
7
  6
CONTINUOUS
 90
22
 70
0
 10
2.8233593003
 20
16.8716839914
 10
2.7479765475
 20
16.9083404792
 10
2.6751224959
 20
16.9487529248
 10
2.6047971456
 20
16.9929212969
 10
2.5368099146
 20
17.0409987657
 10
2.4713513848
 20
17.092832088
 10
2.4089933017
 20
17.1479616124
 10
2.3497645239
 20
17.2064138898
 10
2.2936361928
 20
17.26816229
 10
2.2410934778
 20
17.3326673982
 10
2.1921587047
 20
17.3999507276
 10
2.1468095477
 20
17.4699906864
 10
2.1054641991
 20
17.5421832152
 10
2.068149995
 20
17.6165483866
 10
2.0348395994
 20
17.6930660576
 10
2.0058691963
 20
17.771071863
 10
1.9813085873
 20
17.8505897413
 10
1.9610879709
 20
17.9315956993
 10
1.9453341262
 20
18.0133534972
 10
1.9340893128
 20
18.0956177168
 10
1.9273112712
 20
18.1786337477
 10
1.9250000011
 20
18.262401574
  0
LWPOLYLINE
  5
692
100
AcDbEntity
  8
0
100
AcDbPolyline
 62
7
  6
CONTINUOUS
 90
4
 70
0
 10
6.6158790695
 20
15.3029185759
 10
6.5983119011
 20
15.3146889282
 10
6.5820032772
 20
15.328334412
 10
6.5671304662
 20
15.3437244138
  0
LWPOLYLINE
  5
693
100
AcDbEntity
  8
RACCORDO
100
AcDbPolyline
 62
250
  6
CONTINUOUS
 90
6
 70
0
 10
6.698556545
 20
18.5782477143
 10
6.6840226857
 20
18.6000000001
 10
6.6724523006
 20
18.6234633136
 10
6.664043362
 20
18.648236191
 10
6.6589397493
 20
18.6738947616
 10
6.6572287868
 20
18.7
  0
LWPOLYLINE
  5
694
100
AcDbEntity
  8
RACCORDO
100
AcDbPolyline
 62
250
  6
CONTINUOUS
 90
3
 70
0
 10
6.7354735215
 20
-18.5413293319
 10
6.7572249791
 20
-18.5267949192
 10
6.7810436205
 20
-18.5150769382
  0
LINE
  5
695
100
AcDbEntity
  8
0
100
AcDbLine
 62
7
  6
CONTINUOUS
 10
-3.325042
 20
17.962609
 11
-1.474958
 21
17.962609
  0
LINE
  5
696
100
AcDbEntity
  8
0
100
AcDbLine
 62
7
  6
CONTINUOUS
 10
0.4000000015
 20
18.262401574
 11
1.4166659382
 21
18.262401574
  0
LINE
  5
697
100
AcDbEntity
  8
0
100
AcDbLine
 62
7
  6
CONTINUOUS
 10
5.4833329687
 20
18.262401574
 11
6.5
 21
18.262401574
  0
LINE
  5
698
100
AcDbEntity
  8
0
100
AcDbLine
 62
7
  6
CONTINUOUS
 10
-2.982778
 20
18.327522
 11
-2.532571
 21
18.327526
  0
LINE
  5
699
100
AcDbEntity
  8
RACCORDO
100
AcDbLine
 62
7
  6
CONTINUOUS
 10
6.8202886235
 20
18.5
 11
7.1085073836
 21
18.5
  0
LINE
  5
69A
100
AcDbEntity
  8
RACCORDO
100
AcDbLine
 62
7
  6
CONTINUOUS
 10
-6.8202886235
 20
18.5
 11
-7.1085073836
 21
18.5
  0
LINE
  5
69B
100
AcDbEntity
  8
RACCORDO
100
AcDbLine
 62
250
  6
CONTINUOUS
 10
6.6572287868
 20
18.7
 11
6.6200664561
 21
18.7
  0
LINE
  5
69C
100
AcDbEntity
  8
RACCORDO
100
AcDbLine
 62
250
  6
CONTINUOUS
 10
-6.6572287868
 20
18.7
 11
-6.6200664561
 21
18.7
  0
LINE
  5
69D
100
AcDbEntity
  8
RACCORDO
100
AcDbLine
 62
250
  6
CONTINUOUS
 10
7.234606201
 20
18.7
 11
7.3089365232
 21
18.7
  0
LINE
  5
69E
100
AcDbEntity
  8
RACCORDO
100
AcDbLine
 62
250
  6
CONTINUOUS
 10
-7.234606201
 20
18.7
 11
-7.3089365232
 21
18.7
  0
LINE
  5
69F
100
AcDbEntity
  8
RACCORDO
100
AcDbLine
 62
250
  6
CONTINUOUS
 10
6.6598468471
 20
19.0
 11
7.2293696815
 21
19.0
  0
LINE
  5
6A0
100
AcDbEntity
  8
RACCORDO
100
AcDbLine
 62
250
  6
CONTINUOUS
 10
-6.6598468471
 20
19.0
 11
-7.2293696815
 21
19.0
  0
LINE
  5
6A1
100
AcDbEntity
  8
0
100
AcDbLine
 62
7
  6
CONTINUOUS
 10
-2.190307
 20
18.332669
 11
-1.474958
 21
18.332628
  0
LWPOLYLINE
  5
6A2
100
AcDbEntity
  8
RACCORDO
100
AcDbPolyline
 62
7
  6
CONTINUOUS
 90
7
 70
0
 10
-7.034636662
 20
18.5
 10
-7.0607379245
 20
18.5017110277
 10
-7.0863925872
 20
18.5068148348
 10
-7.1111616916
 20
18.5152240935
 10
-7.1346214316
 20
18.5267949193
 10
-7.1563704044
 20
18.541329332
 10
-7.1645043191
 20
18.5479169535
  0
LWPOLYLINE
  5
6A3
100
AcDbEntity
  8
RACCORDO
100
AcDbPolyline
 62
7
  6
CONTINUOUS
 90
5
 70
0
 10
6.8572211714
 20
18.5
 10
6.8311169269
 20
18.5017110277
 10
6.8054593333
 20
18.5068148348
 10
6.7806873991
 20
18.5152240935
 10
6.776710767
 20
18.5169219261
  0
LWPOLYLINE
  5
6A4
100
AcDbEntity
  8
RACCORDO
100
AcDbPolyline
 62
7
  6
CONTINUOUS
 90
4
 70
0
 10
6.8202886235
 20
18.5
 10
6.7939855153
 20
18.5017370046
 10
6.7681744471
 20
18.5069073744
 10
6.7432991968
 20
18.5154061091
  0
LWPOLYLINE
  5
6A5
100
AcDbEntity
  8
RACCORDO
100
AcDbPolyline
 62
250
  6
CONTINUOUS
 90
3
 70
0
 10
6.7354735214
 20
18.541329332
 10
6.7158052
 20
18.5585786439
 10
6.698556545
 20
18.5782477143
  0
LINE
  5
6A6
100
AcDbEntity
  8
RACCORDO
100
AcDbLine
 62
7
  6
CONTINUOUS
 10
7.055874803
 20
-20.9974535593
 11
7.0425072881
 21
-21.0094865114
  0
LINE
  5
6A7
100
AcDbEntity
  8
RACCORDO
100
AcDbLine
 62
7
  6
CONTINUOUS
 10
7.1094912525
 20
-20.9499376582
 11
7.055874803
 21
-20.9974535593
  0
LWPOLYLINE
  5
6A8
100
AcDbEntity
  8
RACCORDO
100
AcDbPolyline
 62
7
  6
CONTINUOUS
 90
3
 70
0
 10
7.1948944831
 20
-20.8750755778
 10
7.1610166114
 20
-20.904584292
 10
7.1094912525
 20
-20.9499376582
  0
LINE
  5
6A9
100
AcDbEntity
  8
RACCORDO
100
AcDbLine
 62
7
  6
CONTINUOUS
 10
7.2205806983
 20
-20.8531402181
 11
7.1948944831
 21
-20.8750755778
  0
LINE
  5
6AA
100
AcDbEntity
  8
RACCORDO
100
AcDbLine
 62
7
  6
CONTINUOUS
 10
7.2269247241
 20
-20.8478512965
 11
7.2205806983
 21
-20.8531402181
  0
LWPOLYLINE
  5
6AB
100
AcDbEntity
  8
RACCORDO
100
AcDbPolyline
 62
7
  6
CONTINUOUS
 90
4
 70
0
 10
6.7432991968
 20
-18.5154061091
 10
6.7681744471
 20
-18.5069073744
 10
6.7939855153
 20
-18.5017370046
 10
6.8202886235
 20
-18.5
  0
LWPOLYLINE
  5
6AC
100
AcDbEntity
  8
RACCORDO
100
AcDbPolyline
 62
7
  6
CONTINUOUS
 90
4
 70
0
 10
6.7810436205
 20
-18.5150769382
 10
6.8054593334
 20
-18.5068148347
 10
6.8311169269
 20
-18.5017110277
 10
6.8572211714
 20
-18.5
  0
LWPOLYLINE
  5
6AD
100
AcDbEntity
  8
RACCORDO
100
AcDbPolyline
 62
250
  6
CONTINUOUS
 90
13
 70
0
 10
-7.0294001425
 20
20.2585786438
 10
-7.0553235464
 20
20.257159202
 10
-7.0808217567
 20
20.2533749129
 10
-7.1054631376
 20
20.2472862956
 10
-7.128834401
 20
20.2389909837
 10
-7.1505322297
 20
20.2286273937
 10
-7.170174151
 20
20.2163768226
 10
-7.1874402364
 20
20.2024368699
 10
-7.2020236077
 20
20.1870530906
 10
-7.2136494171
 20
20.1705357589
 10
-7.2221423768
 20
20.1531896548
 10
-7.2274017151
 20
20.1352963416
 10
-7.2293696815
 20
20.1171572875
  0
LWPOLYLINE
  5
6AE
100
AcDbEntity
  8
RACCORDO
100
AcDbPolyline
 62
250
  6
CONTINUOUS
 90
13
 70
0
 10
6.8598392317
 20
20.2585786438
 10
6.8338112531
 20
20.2572623286
 10
6.8082132153
 20
20.2535604456
 10
6.7834819673
 20
20.2475324589
 10
6.7600355757
 20
20.2392755665
 10
6.7382822012
 20
20.2289285414
 10
6.7186088814
 20
20.2166740213
 10
6.7013382517
 20
20.2027109185
 10
6.6867803067
 20
20.1872875146
 10
6.67521242
 20
20.1707191451
 10
6.6668092065
 20
20.1533149498
 10
6.66166905
 20
20.1353593577
 10
6.6598468471
 20
20.1171572875
  0
LINE
  5
6AF
100
AcDbEntity
  8
RACCORDO
100
AcDbLine
 62
250
  6
CONTINUOUS
 10
-0.0649210165
 20
19.4007005808
 11
0.0649210165
 21
19.4007005808
  0
LINE
  5
6B0
100
AcDbEntity
  8
RACCORDO
100
AcDbLine
 62
250
  6
CONTINUOUS
 10
-0.2629729446
 20
19.883663494
 11
0.2629729446
 21
19.883663494
  0
LINE
  5
6B1
100
AcDbEntity
  8
RACCORDO
100
AcDbLine
 62
250
  6
CONTINUOUS
 10
-6.5167082077
 20
19.9580320107
 11
-0.3973847163
 21
19.9580320107
  0
LINE
  5
6B2
100
AcDbEntity
  8
RACCORDO
100
AcDbLine
 62
250
  6
CONTINUOUS
 10
0.3973847163
 20
19.9580320107
 11
6.5167082077
 21
19.9580320107
  0
LINE
  5
6B3
100
AcDbEntity
  8
RACCORDO
100
AcDbLine
 62
250
  6
CONTINUOUS
 10
-7.515636529
 20
20.0474767673
 11
-9.3252506099
 21
20.0473610372
  0
LINE
  5
6B4
100
AcDbEntity
  8
RACCORDO
100
AcDbLine
 62
250
  6
CONTINUOUS
 10
7.2293696815
 20
20.1171572875
 11
6.6598468471
 21
20.1171572875
  0
LINE
  5
6B5
100
AcDbEntity
  8
RACCORDO
100
AcDbLine
 62
250
  6
CONTINUOUS
 10
-6.6598468471
 20
20.1171572875
 11
-7.2293696815
 21
20.1171572875
  0
LINE
  5
6B6
100
AcDbEntity
  8
RACCORDO
100
AcDbLine
 62
250
  6
CONTINUOUS
 10
7.0294001425
 20
20.2585786438
 11
6.8598392317
 21
20.2585786438
  0
LINE
  5
6B7
100
AcDbEntity
  8
RACCORDO
100
AcDbLine
 62
250
  6
CONTINUOUS
 10
-6.8598392317
 20
20.2585786438
 11
-7.0294001425
 21
20.2585786438
  0
LINE
  5
6B8
100
AcDbEntity
  8
RACCORDO
100
AcDbLine
 62
7
  6
CONTINUOUS
 10
-6.5210300654
 20
20.437994886
 11
-0.3930628585
 21
20.437994886
  0
LINE
  5
6B9
100
AcDbEntity
  8
RACCORDO
100
AcDbLine
 62
7
  6
CONTINUOUS
 10
0.3930628585
 20
20.437994886
 11
6.5210300654
 21
20.437994886
  0
LINE
  5
6BA
100
AcDbEntity
  8
RACCORDO
100
AcDbLine
 62
250
  6
CONTINUOUS
 10
9.2879615093
 20
20.5266837345
 11
7.5073728206
 21
20.5266837345
  0
LINE
  5
6BB
100
AcDbEntity
  8
RACCORDO
100
AcDbLine
 62
250
  6
CONTINUOUS
 10
-7.5073728206
 20
20.5266837345
 11
-9.2879615093
 21
20.5266837345
  0
LINE
  5
6BC
100
AcDbEntity
  8
RACCORDO
100
AcDbLine
 62
7
  6
CONTINUOUS
 10
6.6582893563
 20
20.5731858629
 11
-6.6582893563
 21
20.5731858629
  0
LINE
  5
6BD
100
AcDbEntity
  8
RACCORDO
100
AcDbLine
 62
250
  6
CONTINUOUS
 10
6.8556039598
 20
20.7438927334
 11
-6.8556039598
 21
20.7438927334
  0
LINE
  5
6BE
100
AcDbEntity
  8
RACCORDO
100
AcDbLine
 62
7
  6
CONTINUOUS
 10
9.3501255952
 20
20.9
 11
7.3830351795
 21
20.9
  0
LINE
  5
6BF
100
AcDbEntity
  8
RACCORDO
100
AcDbLine
 62
7
  6
CONTINUOUS
 10
-7.3830351795
 20
20.9
 11
-9.3501255952
 21
20.9
  0
LWPOLYLINE
  5
6C0
100
AcDbEntity
  8
RACCORDO
100
AcDbPolyline
 62
250
  6
CONTINUOUS
 90
13
 70
0
 10
7.515636529
 20
20.0474767673
 10
9.3252506105
 20
20.0473610361
 10
9.3635333904
 20
20.0470431171
 10
9.4005094461
 20
20.046528388
 10
9.4355531019
 20
20.0458255588
 10
9.4680713801
 20
20.0449465219
 10
9.4975140356
 20
20.0439061519
 10
9.5233828658
 20
20.0427220528
 10
9.5452401416
 20
20.041414261
 10
9.5627160137
 20
20.0400049058
 10
9.5755147709
 20
20.0385178349
 10
9.583419844
 20
20.0369782113
 10
9.5862974704
 20
20.0354120872
  0
LWPOLYLINE
  5
6C1
100
AcDbEntity
  8
RACCORDO
100
AcDbPolyline
 62
7
  6
CONTINUOUS
 90
6
 70
0
 10
6.7432991968
 20
18.5154061091
 10
6.7197873722
 20
18.5270694334
 10
6.6980324725
 20
18.5416836961
 10
6.678390465
 20
18.5589942732
 10
6.6611858003
 20
18.5787024009
 10
6.6467097823
 20
18.60045995
  0
LWPOLYLINE
  5
6C2
100
AcDbEntity
  8
RACCORDO
100
AcDbPolyline
 62
250
  6
CONTINUOUS
 90
3
 70
0
 10
6.776710767
 20
18.5169219261
 10
6.757224979
 20
18.5267949193
 10
6.7354735214
 20
18.541329332
  0
LWPOLYLINE
  5
6C3
100
AcDbEntity
  8
RACCORDO
100
AcDbPolyline
 62
7
  6
CONTINUOUS
 90
4
 70
0
 10
7.2359625226
 20
20.8405916279
 10
7.2390584773
 20
20.8381523097
 10
7.2410348192
 20
20.8368223095
 10
7.2419286989
 20
20.8366629075
  0
LWPOLYLINE
  5
6C4
100
AcDbEntity
  8
RACCORDO
100
AcDbPolyline
 62
7
  6
CONTINUOUS
 90
3
 70
0
 10
7.2196903264
 20
20.8538879832
 10
7.2262675206
 20
20.8484063534
 10
7.2359625226
 20
20.8405916279
  0
LINE
  5
6C5
100
AcDbEntity
  8
RACCORDO
100
AcDbLine
 62
7
  6
CONTINUOUS
 10
7.1933978089
 20
20.8763693993
 11
7.2196903264
 21
20.8538879832
  0
LWPOLYLINE
  5
6C6
100
AcDbEntity
  8
RACCORDO
100
AcDbPolyline
 62
7
  6
CONTINUOUS
 90
3
 70
0
 10
7.1082227362
 20
20.9510743423
 10
7.1472234187
 20
20.9166738744
 10
7.1933978089
 20
20.8763693993
  0
LWPOLYLINE
  5
6C7
100
AcDbEntity
  8
RACCORDO
100
AcDbPolyline
 62
7
  6
CONTINUOUS
 90
3
 70
0
 10
7.0684513859
 20
20.9862689466
 10
7.0949472853
 20
20.9628966864
 10
7.1082227362
 20
20.9510743423
  0
LWPOLYLINE
  5
6C8
100
AcDbEntity
  8
RACCORDO
100
AcDbPolyline
 62
7
  6
CONTINUOUS
 90
3
 70
0
 10
7.0425072881
 20
21.0094865114
 10
7.0553773717
 20
20.9978705966
 10
7.0684513859
 20
20.9862689466
  0
LWPOLYLINE
  5
6C9
100
AcDbEntity
  8
RACCORDO
100
AcDbPolyline
 62
250
  6
CONTINUOUS
 90
12
 70
0
 10
9.5862974704
 20
-20.0354120872
 10
9.5834198475
 20
-20.0369782115
 10
9.5755147772
 20
-20.0385178353
 10
9.5627160222
 20
-20.0400049065
 10
9.5452401515
 20
-20.0414142621
 10
9.5233828763
 20
-20.0427220544
 10
9.4975140459
 20
-20.043906154
 10
9.4680713898
 20
-20.0449465248
 10
9.4355531103
 20
-20.0458255623
 10
9.4005094528
 20
-20.0465283918
 10
9.363533395
 20
-20.0470431204
 10
9.3252506128
 20
-20.0473610386
  0
LINE
  5
6CA
100
AcDbEntity
  8
DRAFT
100
AcDbLine
 62
7
  6
CONTINUOUS
 10
3.0
 20
23.5
 11
2.7812783412
 21
23.4563623377
  0
LWPOLYLINE
  5
6CB
100
AcDbEntity
  8
RACCORDO
100
AcDbPolyline
 62
7
  6
CONTINUOUS
 90
5
 70
0
 10
-7.2419286989
 20
20.8366629075
 10
-7.2410711055
 20
20.8368010859
 10
-7.2391819589
 20
20.8380636212
 10
-7.2362200437
 20
20.8403931378
 10
-7.2269247241
 20
20.8478512965
  0
LINE
  5
6CC
100
AcDbEntity
  8
DRAFT
100
AcDbLine
 62
7
  6
CONTINUOUS
 10
-6.8667670239
 20
21.1647852141
 11
-3.75
 21
21.1647852141
  0
LINE
  5
6CD
100
AcDbEntity
  8
DRAFT
100
AcDbLine
 62
7
  6
CONTINUOUS
 10
3.75
 20
21.1647852141
 11
6.8667670239
 21
21.1647852141
  0
LINE
  5
6CE
100
AcDbEntity
  8
DRAFT
100
AcDbLine
 62
7
  6
CONTINUOUS
 10
-6.9339198284
 20
21.2
 11
6.9339198284
 21
21.2
  0
LINE
  5
6CF
100
AcDbEntity
  8
DRAFT
100
AcDbLine
 62
7
  6
CONTINUOUS
 10
10.6503805997
 20
22.4
 11
5.55
 21
22.4
  0
LINE
  5
6D0
100
AcDbEntity
  8
0
100
AcDbLine
 62
7
  6
CONTINUOUS
 10
3.1
 20
22.4
 11
-3.1
 21
22.4
  0
LINE
  5
6D1
100
AcDbEntity
  8
DRAFT
100
AcDbLine
 62
7
  6
CONTINUOUS
 10
-5.55
 20
22.4
 11
-10.6503805997
 21
22.4
  0
LWPOLYLINE
  5
6D2
100
AcDbEntity
  8
RACCORDO
100
AcDbPolyline
 62
250
  6
CONTINUOUS
 90
13
 70
0
 10
9.2879615093
 20
20.5266837345
 10
9.3271077807
 20
20.5241041843
 10
9.3655844083
 20
20.5164454049
 10
9.4027334084
 20
20.5038384451
 10
9.4379195362
 20
20.4864989584
 10
9.4705410889
 20
20.4647235392
 10
9.5000402096
 20
20.4388846722
 10
9.525912506
 20
20.4094243018
 10
9.5477156404
 20
20.3768462676
 10
9.5650768517
 20
20.3417077355
 10
9.5776993635
 20
20.3046096252
 10
9.5853674451
 20
20.2661863267
 10
9.5879500862
 20
20.2270948741
  0
LINE
  5
6D3
100
AcDbEntity
  8
DRAFT
100
AcDbLine
 62
7
  6
CONTINUOUS
 10
-3.0
 20
23.5
 11
-2.7812783412
 21
23.4563623377
  0
LINE
  5
6D4
100
AcDbEntity
  8
DRAFT
100
AcDbLine
 62
7
  6
CONTINUOUS
 10
3.9526845545
 20
23.4301797403
 11
-3.9526845545
 21
23.4301797403
  0
LINE
  5
6D5
100
AcDbEntity
  8
DRAFT
100
AcDbLine
 62
7
  6
CONTINUOUS
 10
-2.7812783412
 20
23.4563623377
 11
2.7812783412
 21
23.4563623377
  0
LINE
  5
6D6
100
AcDbEntity
  8
DRAFT
100
AcDbLine
 62
7
  6
CONTINUOUS
 10
3.9733373476
 20
23.5
 11
3.0
 21
23.5
  0
LINE
  5
6D7
100
AcDbEntity
  8
DRAFT
100
AcDbLine
 62
7
  6
CONTINUOUS
 10
-3.0
 20
23.5
 11
-3.9733373476
 21
23.5
  0
CIRCLE
  5
6D8
100
AcDbEntity
  8
RACCORDO
100
AcDbCircle
 62
7
  6
CONTINUOUS
 10
-6.0
 20
-10.0
 40
3.2134765996
  0
CIRCLE
  5
6D9
100
AcDbEntity
  8
RACCORDO
100
AcDbCircle
 62
250
  6
CONTINUOUS
 10
-6.0
 20
-10.0
 40
3.2119544786
  0
ARC
  5
6DA
100
AcDbEntity
  8
0
100
AcDbCircle
 62
7
  6
CONTINUOUS
 10
-6.0
 20
-10.0
 40
3.101269272
100
AcDbArc
 50
258.8446892253
 51
281.1553107747
  0
ARC
  5
6DB
100
AcDbEntity
  8
0
100
AcDbCircle
 62
7
  6
CONTINUOUS
 10
-6.0
 20
-10.0
 40
3.101269272
100
AcDbArc
 50
78.8446892253
 51
101.1553107747
  0
ARC
  5
6DC
100
AcDbEntity
  8
RACCORDO
100
AcDbCircle
 62
250
  6
CONTINUOUS
 10
-6.0
 20
-10.0
 40
3.0961636749
100
AcDbArc
 50
101.1739425774
 51
258.8260574226
  0
ARC
  5
6DD
100
AcDbEntity
  8
RACCORDO
100
AcDbCircle
 62
250
  6
CONTINUOUS
 10
-6.0
 20
-10.0
 40
3.0961636749
100
AcDbArc
 50
281.1739425774
 51
78.8260574226
  0
ARC
  5
6DE
100
AcDbEntity
  8
RACCORDO
100
AcDbCircle
 62
250
  6
CONTINUOUS
 10
-6.0
 20
-10.0
 40
2.8611819045
100
AcDbArc
 50
102.1049800361
 51
257.8950199639
  0
ARC
  5
6DF
100
AcDbEntity
  8
RACCORDO
100
AcDbCircle
 62
250
  6
CONTINUOUS
 10
-6.0
 20
-10.0
 40
2.8611819045
100
AcDbArc
 50
282.1049800361
 51
77.8950199639
  0
ARC
  5
6E0
100
AcDbEntity
  8
0
100
AcDbCircle
 62
7
  6
CONTINUOUS
 10
-6.0
 20
-10.0
 40
2.0380758723
100
AcDbArc
 50
353.5713514116
 51
6.4252322565
  0
ARC
  5
6E1
100
AcDbEntity
  8
0
100
AcDbCircle
 62
7
  6
CONTINUOUS
 10
-6.0
 20
-10.0
 40
2.0380758723
100
AcDbArc
 50
173.5713514759
 51
186.4252322565
  0
ARC
  5
6E2
100
AcDbEntity
  8
0
100
AcDbCircle
 62
7
  6
CONTINUOUS
 10
-6.0
 20
-10.0
 40
1.6906970966
100
AcDbArc
 50
262.2449363515
 51
277.7484053658
  0
ARC
  5
6E3
100
AcDbEntity
  8
0
100
AcDbCircle
 62
7
  6
CONTINUOUS
 10
-6.0
 20
-10.0
 40
1.6906970966
100
AcDbArc
 50
82.2449363817
 51
97.7484053658
  0
ARC
  5
6E4
100
AcDbEntity
  8
TRASH
100
AcDbCircle
 62
7
  6
CONTINUOUS
 10
-6.0
 20
-10.0
 40
1.1472328625
100
AcDbArc
 50
167.9845776281
 51
192.0153200785
  0
ARC
  5
6E5
100
AcDbEntity
  8
TRASH
100
AcDbCircle
 62
7
  6
CONTINUOUS
 10
-6.0
 20
-10.0
 40
1.1472328625
100
AcDbArc
 50
347.9845776281
 51
12.0153200785
  0
ARC
  5
6E6
100
AcDbEntity
  8
TRASH
100
AcDbCircle
 62
7
  6
CONTINUOUS
 10
-6.0
 20
-10.0
 40
1.1472328182
100
AcDbArc
 50
257.9846799215
 51
282.0154223719
  0
ARC
  5
6E7
100
AcDbEntity
  8
TRASH
100
AcDbCircle
 62
7
  6
CONTINUOUS
 10
-6.0
 20
-10.0
 40
1.1472328182
100
AcDbArc
 50
77.9846799215
 51
102.0154223719
  0
ARC
  5
6E8
100
AcDbEntity
  8
DRAFT
100
AcDbCircle
 62
7
  6
CONTINUOUS
 10
-4.95
 20
-23.1
 40
0.5
100
AcDbArc
 50
350.803718421
 51
119.112422776
  0
ARC
  5
6E9
100
AcDbEntity
  8
DRAFT
100
AcDbCircle
 62
7
  6
CONTINUOUS
 10
-11.25
 20
-0.0
 40
28.0
100
AcDbArc
 50
55.8789063483
 51
57.0647695028
  0
ARC
  5
6EA
100
AcDbEntity
  8
DRAFT
100
AcDbCircle
 62
7
  6
CONTINUOUS
 10
-11.25
 20
-0.0
 40
28.0
100
AcDbArc
 50
302.9352304972
 51
304.1210936517
  0
ARC
  5
6EB
100
AcDbEntity
  8
DRAFT
100
AcDbCircle
 62
7
  6
CONTINUOUS
 10
-11.25
 20
-0.0
 40
28.0
100
AcDbArc
 50
48.2819495688
 51
54.0372348486
  0
ARC
  5
6EC
100
AcDbEntity
  8
DRAFT
100
AcDbCircle
 62
7
  6
CONTINUOUS
 10
-11.25
 20
-0.0
 40
28.0
100
AcDbArc
 50
305.9627651514
 51
311.7180504312
  0
ARC
  5
6ED
100
AcDbEntity
  8
DRAFT
100
AcDbCircle
 62
7
  6
CONTINUOUS
 10
-11.25
 20
0.0
 40
27.9301797403
100
AcDbArc
 50
305.881601122
 51
310.6207502002
  0
ARC
  5
6EE
100
AcDbEntity
  8
DRAFT
100
AcDbCircle
 62
7
  6
CONTINUOUS
 10
-11.25
 20
0.0
 40
27.9301797403
100
AcDbArc
 50
302.9775446409
 51
304.2022576811
  0
ARC
  5
6EF
100
AcDbEntity
  8
DRAFT
100
AcDbCircle
 62
7
  6
CONTINUOUS
 10
-11.25
 20
0.0
 40
27.9301797403
100
AcDbArc
 50
55.7977423189
 51
57.0224553591
  0
ARC
  5
6F0
100
AcDbEntity
  8
DRAFT
100
AcDbCircle
 62
7
  6
CONTINUOUS
 10
-11.25
 20
0.0
 40
27.9301797403
100
AcDbArc
 50
49.3792497998
 51
54.118398878
  0
ARC
  5
6F1
100
AcDbEntity
  8
0
100
AcDbCircle
 62
7
  6
CONTINUOUS
 10
-6.3
 20
14.417556
 40
2.5499986575
100
AcDbArc
 50
177.752529198
 51
2.247470802
  0
ARC
  5
6F2
100
AcDbEntity
  8
0
100
AcDbCircle
 62
7
  6
CONTINUOUS
 10
-6.3
 20
10.032446
 40
2.5499985399
100
AcDbArc
 50
177.7525290943
 51
2.2474709057
  0
ARC
  5
6F3
100
AcDbEntity
  8
0
100
AcDbCircle
 62
7
  6
CONTINUOUS
 10
-6.3
 20
10.032446
 40
1.7999999246
100
AcDbArc
 50
176.8152613297
 51
359.0999862851
  0
ARC
  5
6F4
100
AcDbEntity
  8
0
100
AcDbCircle
 62
7
  6
CONTINUOUS
 10
-6.3
 20
14.417556
 40
1.7999999246
100
AcDbArc
 50
176.8152613297
 51
257.9753003079
  0
ARC
  5
6F5
100
AcDbEntity
  8
0
100
AcDbCircle
 62
7
  6
CONTINUOUS
 10
-6.3
 20
14.417556
 40
1.7999968808
100
AcDbArc
 50
282.0247203293
 51
3.1847440612
  0
ARC
  5
6F6
100
AcDbEntity
  8
0
100
AcDbCircle
 62
7
  6
CONTINUOUS
 10
-2.757674
 20
18.829056
 40
0.5673701434
100
AcDbArc
 50
22.8429066477
 51
180.0
  0
ARC
  5
6F7
100
AcDbEntity
  8
DRAFT
100
AcDbCircle
 62
7
  6
CONTINUOUS
 10
-4.95
 20
23.1
 40
0.5
100
AcDbArc
 50
240.887577224
 51
9.1962815791
  0
ARC
  5
6F8
100
AcDbEntity
  8
0
100
AcDbCircle
 62
7
  6
CONTINUOUS
 10
-2.757674
 20
18.777699
 40
0.225104
100
AcDbArc
 50
0.0
 51
180.0
  0
CIRCLE
  5
6F9
100
AcDbEntity
  8
RACCORDO
100
AcDbCircle
 62
7
  6
CONTINUOUS
 10
6.0
 20
-10.0
 40
3.2134765996
  0
CIRCLE
  5
6FA
100
AcDbEntity
  8
RACCORDO
100
AcDbCircle
 62
250
  6
CONTINUOUS
 10
6.0
 20
-10.0
 40
3.2119544786
  0
ARC
  5
6FB
100
AcDbEntity
  8
0
100
AcDbCircle
 62
7
  6
CONTINUOUS
 10
6.0
 20
-10.0
 40
3.101269272
100
AcDbArc
 50
258.8446892253
 51
281.1553107747
  0
ARC
  5
6FC
100
AcDbEntity
  8
0
100
AcDbCircle
 62
7
  6
CONTINUOUS
 10
6.0
 20
-10.0
 40
3.101269272
100
AcDbArc
 50
78.8446892253
 51
101.1553107747
  0
ARC
  5
6FD
100
AcDbEntity
  8
RACCORDO
100
AcDbCircle
 62
250
  6
CONTINUOUS
 10
6.0
 20
-10.0
 40
3.0961636749
100
AcDbArc
 50
101.1739425774
 51
258.8260574226
  0
ARC
  5
6FE
100
AcDbEntity
  8
RACCORDO
100
AcDbCircle
 62
250
  6
CONTINUOUS
 10
6.0
 20
-10.0
 40
3.0961636749
100
AcDbArc
 50
281.1739425774
 51
78.8260574226
  0
ARC
  5
6FF
100
AcDbEntity
  8
RACCORDO
100
AcDbCircle
 62
250
  6
CONTINUOUS
 10
6.0
 20
-10.0
 40
2.8611819045
100
AcDbArc
 50
102.1049800361
 51
257.8950199639
  0
ARC
  5
700
100
AcDbEntity
  8
RACCORDO
100
AcDbCircle
 62
250
  6
CONTINUOUS
 10
6.0
 20
-10.0
 40
2.8611819045
100
AcDbArc
 50
282.1049800361
 51
77.8950199639
  0
ARC
  5
701
100
AcDbEntity
  8
0
100
AcDbCircle
 62
7
  6
CONTINUOUS
 10
6.0
 20
-10.0
 40
2.0380758723
100
AcDbArc
 50
353.5713514116
 51
6.4252322565
  0
ARC
  5
702
100
AcDbEntity
  8
0
100
AcDbCircle
 62
7
  6
CONTINUOUS
 10
6.0
 20
-10.0
 40
2.0380758723
100
AcDbArc
 50
173.5713514759
 51
186.4252322565
  0
ARC
  5
703
100
AcDbEntity
  8
0
100
AcDbCircle
 62
7
  6
CONTINUOUS
 10
6.0
 20
-10.0
 40
1.6906970966
100
AcDbArc
 50
262.2449363515
 51
277.7484053658
  0
ARC
  5
704
100
AcDbEntity
  8
0
100
AcDbCircle
 62
7
  6
CONTINUOUS
 10
6.0
 20
-10.0
 40
1.6906970966
100
AcDbArc
 50
82.2449363817
 51
97.7484053658
  0
ARC
  5
705
100
AcDbEntity
  8
TRASH
100
AcDbCircle
 62
7
  6
CONTINUOUS
 10
6.0
 20
-10.0
 40
1.1472328625
100
AcDbArc
 50
167.9845776281
 51
192.0153200785
  0
ARC
  5
706
100
AcDbEntity
  8
TRASH
100
AcDbCircle
 62
7
  6
CONTINUOUS
 10
6.0
 20
-10.0
 40
1.1472328625
100
AcDbArc
 50
347.9845776281
 51
12.0153200785
  0
ARC
  5
707
100
AcDbEntity
  8
TRASH
100
AcDbCircle
 62
7
  6
CONTINUOUS
 10
6.0
 20
-10.0
 40
1.1472328182
100
AcDbArc
 50
257.9846799215
 51
282.0154223719
  0
ARC
  5
708
100
AcDbEntity
  8
TRASH
100
AcDbCircle
 62
7
  6
CONTINUOUS
 10
6.0
 20
-10.0
 40
1.1472328182
100
AcDbArc
 50
77.9846799215
 51
102.0154223719
  0
ARC
  5
709
100
AcDbEntity
  8
DRAFT
100
AcDbCircle
 62
7
  6
CONTINUOUS
 10
4.95
 20
-23.1
 40
0.5
100
AcDbArc
 50
60.887577224
 51
189.196281579
  0
ARC
  5
70A
100
AcDbEntity
  8
DRAFT
100
AcDbCircle
 62
7
  6
CONTINUOUS
 10
11.25
 20
-0.0
 40
28.0
100
AcDbArc
 50
122.9352304972
 51
124.1210936517
  0
ARC
  5
70B
100
AcDbEntity
  8
DRAFT
100
AcDbCircle
 62
7
  6
CONTINUOUS
 10
11.25
 20
-0.0
 40
28.0
100
AcDbArc
 50
235.8789063483
 51
237.0647695028
  0
ARC
  5
70C
100
AcDbEntity
  8
DRAFT
100
AcDbCircle
 62
7
  6
CONTINUOUS
 10
11.25
 20
-0.0
 40
28.0
100
AcDbArc
 50
228.2819495688
 51
234.0372348486
  0
ARC
  5
70D
100
AcDbEntity
  8
DRAFT
100
AcDbCircle
 62
7
  6
CONTINUOUS
 10
11.25
 20
-0.0
 40
28.0
100
AcDbArc
 50
125.9627651514
 51
131.7180504312
  0
ARC
  5
70E
100
AcDbEntity
  8
DRAFT
100
AcDbCircle
 62
7
  6
CONTINUOUS
 10
11.25
 20
-0.0
 40
27.9301797403
100
AcDbArc
 50
235.7977423189
 51
237.0224553591
  0
ARC
  5
70F
100
AcDbEntity
  8
DRAFT
100
AcDbCircle
 62
7
  6
CONTINUOUS
 10
11.25
 20
-0.0
 40
27.9301797403
100
AcDbArc
 50
229.3792497998
 51
234.118398878
  0
ARC
  5
710
100
AcDbEntity
  8
DRAFT
100
AcDbCircle
 62
7
  6
CONTINUOUS
 10
11.25
 20
-0.0
 40
27.9301797403
100
AcDbArc
 50
122.9775446409
 51
124.2022576811
  0
ARC
  5
711
100
AcDbEntity
  8
DRAFT
100
AcDbCircle
 62
7
  6
CONTINUOUS
 10
11.25
 20
-0.0
 40
27.9301797403
100
AcDbArc
 50
125.881601122
 51
130.6207502002
  0
ARC
  5
712
100
AcDbEntity
  8
RACCORDO
100
AcDbCircle
 62
7
  6
CONTINUOUS
 10
-0.0
 20
-0.0
 40
7.65
100
AcDbArc
 50
139.2854618234
 51
145.2043376808
  0
ARC
  5
713
100
AcDbEntity
  8
RACCORDO
100
AcDbCircle
 62
7
  6
CONTINUOUS
 10
-0.0
 20
-0.0
 40
7.65
100
AcDbArc
 50
214.7956623192
 51
220.7145381766
  0
ARC
  5
714
100
AcDbEntity
  8
RACCORDO
100
AcDbCircle
 62
7
  6
CONTINUOUS
 10
-0.0
 20
-0.0
 40
7.65
100
AcDbArc
 50
319.2854618234
 51
325.2043376808
  0
ARC
  5
715
100
AcDbEntity
  8
RACCORDO
100
AcDbCircle
 62
7
  6
CONTINUOUS
 10
-0.0
 20
-0.0
 40
7.65
100
AcDbArc
 50
34.7956623192
 51
40.7145381766
  0
CIRCLE
  5
716
100
AcDbEntity
  8
DRAFT
100
AcDbCircle
 62
7
  6
CONTINUOUS
 10
-0.0
 20
-0.0
 40
4.8
  0
CIRCLE
  5
717
100
AcDbEntity
  8
0
100
AcDbCircle
 62
7
  6
CONTINUOUS
 10
3.449999
 20
18.262401
 40
0.508333
  0
ARC
  5
718
100
AcDbEntity
  8
DRAFT
100
AcDbCircle
 62
7
  6
CONTINUOUS
 10
4.95
 20
23.1
 40
0.5
100
AcDbArc
 50
170.803718421
 51
299.112422776
  0
CIRCLE
  5
719
100
AcDbEntity
  8
0
100
AcDbCircle
 62
7
  6
CONTINUOUS
 10
4.584765
 20
12.8540804347
 40
0.213753
  0
CIRCLE
  5
71A
100
AcDbEntity
  8
0
100
AcDbCircle
 62
7
  6
CONTINUOUS
 10
4.584765
 20
12.8540804347
 40
0.138824
  0
ELLIPSE
  5
71B
100
AcDbEntity
  8
0
100
AcDbEllipse
 62
7
  6
CONTINUOUS
 10
530.9131011482
 20
90.6521504773
 30
0.0
 11
-535.1140688131
 21
0.0000279813
 31
0.0
 40
0.9951246679
 41
0.192429822
 42
0.1933650101
  0
ELLIPSE
  5
71C
100
AcDbEntity
  8
0
100
AcDbEllipse
 62
7
  6
CONTINUOUS
 10
-518.9131014676
 20
-110.6521504328
 30
0.0
 11
535.1140690522
 21
0.0000119097
 31
0.0
 40
0.9951246675
 41
0.192429747
 42
0.1933649351
  0
ELLIPSE
  5
71D
100
AcDbEntity
  8
0
100
AcDbEllipse
 62
7
  6
CONTINUOUS
 10
518.9131011482
 20
90.6521504773
 30
0.0
 11
-535.1140688131
 21
0.0000279813
 31
0.0
 40
0.9951246679
 41
0.192429822
 42
0.1933650101
  0
ELLIPSE
  5
71E
100
AcDbEntity
  8
0
100
AcDbEllipse
 62
7
  6
CONTINUOUS
 10
-530.9131014676
 20
-110.6521504328
 30
0.0
 11
535.1140690522
 21
0.0000119097
 31
0.0
 40
0.9951246675
 41
0.192429747
 42
0.1933649351
  0
ELLIPSE
  5
71F
100
AcDbEntity
  8
DRAFT
100
AcDbEllipse
 62
7
  6
CONTINUOUS
 10
-0.0
 20
-6.9738193966
 30
0.0
 11
4.0
 21
0.0
 31
0.0
 40
0.0087268678
 41
-2.2935305746
 42
-0.848062079
  0
ELLIPSE
  5
720
100
AcDbEntity
  8
DRAFT
100
AcDbEllipse
 62
7
  6
CONTINUOUS
 10
-0.0
 20
-13.0261806034
 30
0.0
 11
4.0
 21
-0.0
 31
0.0
 40
0.0087268678
 41
0.848062079
 42
2.2935305746
  0
ELLIPSE
  5
721
100
AcDbEntity
  8
RACCORDO
100
AcDbEllipse
 62
7
  6
CONTINUOUS
 10
2.7748993522
 20
-12.984291638
 30
0.0
 11
0.3
 21
-0.0
 31
0.0
 40
0.0087268678
 41
-3.054326191
 42
-1.5707963268
  0
ELLIPSE
  5
722
100
AcDbEntity
  8
RACCORDO
100
AcDbEllipse
 62
7
  6
CONTINUOUS
 10
2.7748993522
 20
-7.015708362
 30
0.0
 11
0.3
 21
0.0
 31
0.0
 40
0.0087268678
 41
1.5707963268
 42
3.054326191
  0
ELLIPSE
  5
723
100
AcDbEntity
  8
RACCORDO
100
AcDbEllipse
 62
7
  6
CONTINUOUS
 10
2.0938676525
 20
-7.023562543
 30
0.0
 11
0.3
 21
0.0
 31
0.0
 40
0.0087268678
 41
-1.5707963268
 42
-0.0872664626
  0
ELLIPSE
  5
724
100
AcDbEntity
  8
RACCORDO
100
AcDbEllipse
 62
7
  6
CONTINUOUS
 10
-2.0938676525
 20
-7.023562543
 30
0.0
 11
0.3
 21
-0.0
 31
0.0
 40
0.0087268678
 41
-3.054326191
 42
-1.5707963268
  0
ELLIPSE
  5
725
100
AcDbEntity
  8
RACCORDO
100
AcDbEllipse
 62
7
  6
CONTINUOUS
 10
-2.7748993522
 20
-12.984291638
 30
0.0
 11
0.3
 21
0.0
 31
0.0
 40
0.0087268678
 41
-1.5707963268
 42
-0.0872664626
  0
ELLIPSE
  5
726
100
AcDbEntity
  8
RACCORDO
100
AcDbEllipse
 62
7
  6
CONTINUOUS
 10
-2.7748993522
 20
-7.015708362
 30
0.0
 11
0.3
 21
-0.0
 31
0.0
 40
0.0087268678
 41
0.0872664626
 42
1.5707963268
  0
ELLIPSE
  5
727
100
AcDbEntity
  8
RACCORDO
100
AcDbEllipse
 62
7
  6
CONTINUOUS
 10
-2.0938676525
 20
-12.976437457
 30
0.0
 11
0.3
 21
-0.0
 31
0.0
 40
0.0087268678
 41
1.5707963268
 42
3.054326191
  0
ELLIPSE
  5
728
100
AcDbEntity
  8
RACCORDO
100
AcDbEllipse
 62
7
  6
CONTINUOUS
 10
2.0938676525
 20
-12.976437457
 30
0.0
 11
0.3
 21
-0.0
 31
0.0
 40
0.0087268678
 41
0.0872664626
 42
1.5707963268
  0
ELLIPSE
  5
729
100
AcDbEntity
  8
0
100
AcDbEllipse
 62
7
  6
CONTINUOUS
 10
10.649923836
 20
21.899313827
 30
0.0
 11
0.1582391023
 21
0.4751033573
 31
0.0
 40
0.9984778551
 41
-1.2488325878
 42
0.3210503505
  0
ELLIPSE
  5
72A
100
AcDbEntity
  8
0
100
AcDbEllipse
 62
7
  6
CONTINUOUS
 10
10.649923836
 20
-21.899313827
 30
0.0
 11
-0.1582391023
 21
0.4751033573
 31
0.0
 40
0.9984778551
 41
2.8205423031
 42
4.3904252414
  0
ELLIPSE
  5
72B
100
AcDbEntity
  8
0
100
AcDbEllipse
 62
7
  6
CONTINUOUS
 10
-10.649923836
 20
21.899313827
 30
0.0
 11
-0.1582391023
 21
0.4751033573
 31
0.0
 40
0.9984778551
 41
-0.3210503505
 42
1.2488325878
  0
ELLIPSE
  5
72C
100
AcDbEntity
  8
0
100
AcDbEllipse
 62
7
  6
CONTINUOUS
 10
-10.649923836
 20
-21.899313827
 30
0.0
 11
0.1582391023
 21
0.4751033573
 31
0.0
 40
0.9984778551
 41
1.8927600658
 42
3.4626430041
  0
ELLIPSE
  5
72D
100
AcDbEntity
  8
RACCORDO
100
AcDbEllipse
 62
7
  6
CONTINUOUS
 10
-9.3499885765
 20
20.5995882962
 30
0.0
 11
-0.0493465499
 21
0.2963426463
 31
0.0
 40
0.9985916141
 41
-0.1647763639
 42
1.4055632513
  0
ELLIPSE
  5
72E
100
AcDbEntity
  8
RACCORDO
100
AcDbEllipse
 62
7
  6
CONTINUOUS
 10
9.3499885765
 20
20.5995882962
 30
0.0
 11
0.0493465499
 21
0.2963426463
 31
0.0
 40
0.9985916141
 41
-1.4055632513
 42
0.1647763639
  0
ELLIPSE
  5
72F
100
AcDbEntity
  8
RACCORDO
100
AcDbEllipse
 62
7
  6
CONTINUOUS
 10
-9.3499885765
 20
-20.5995882962
 30
0.0
 11
0.0493465499
 21
0.2963426463
 31
0.0
 40
0.9985916141
 41
-4.5471559049
 42
-2.9768162897
  0
ELLIPSE
  5
730
100
AcDbEntity
  8
RACCORDO
100
AcDbEllipse
 62
7
  6
CONTINUOUS
 10
9.3499885765
 20
-20.5995882962
 30
0.0
 11
-0.0493465499
 21
0.2963426463
 31
0.0
 40
0.9985916141
 41
-3.3063690174
 42
-1.7360294022
  0
ELLIPSE
  5
731
100
AcDbEntity
  8
RACCORDO
100
AcDbEllipse
 62
7
  6
CONTINUOUS
 10
-14.3109501524
 20
0.0
 30
0.0
 11
0.0
 21
498.5
 31
0.0
 40
0.0174550649
 41
-1.5608487016
 42
-1.5603332922
  0
ELLIPSE
  5
732
100
AcDbEntity
  8
RACCORDO
100
AcDbEllipse
 62
7
  6
CONTINUOUS
 10
-14.3109501524
 20
0.0
 30
0.0
 11
0.0
 21
498.5
 31
0.0
 40
0.0174550649
 41
-1.5812593614
 42
-1.580743952
  0
ELLIPSE
  5
733
100
AcDbEntity
  8
RACCORDO
100
AcDbEllipse
 62
7
  6
CONTINUOUS
 10
14.3109501524
 20
0.0
 30
0.0
 11
0.0
 21
498.5
 31
0.0
 40
0.0174550649
 41
-4.7024413552
 42
-4.7019259458
  0
ELLIPSE
  5
734
100
AcDbEntity
  8
RACCORDO
100
AcDbEllipse
 62
7
  6
CONTINUOUS
 10
14.3109501524
 20
0.0
 30
0.0
 11
0.0
 21
498.5
 31
0.0
 40
0.0174550649
 41
1.5603332922
 42
1.5608487016
  0
ELLIPSE
  5
735
100
AcDbEntity
  8
RACCORDO
100
AcDbEllipse
 62
7
  6
CONTINUOUS
 10
-3.9494709069
 20
-0.0
 30
0.0
 11
0.0
 21
498.5
 31
0.0
 40
0.0087268678
 41
-1.6112407994
 42
-1.6018622062
  0
ELLIPSE
  5
736
100
AcDbEntity
  8
RACCORDO
100
AcDbEllipse
 62
7
  6
CONTINUOUS
 10
0.3930247808
 20
19.9380139244
 30
0.0
 11
0.0
 21
0.5
 31
0.0
 40
0.0087268678
 41
-1.5307494509
 42
-0.0087266463
  0
ELLIPSE
  5
737
100
AcDbEntity
  8
RACCORDO
100
AcDbEllipse
 62
7
  6
CONTINUOUS
 10
3.9494709069
 20
0.0
 30
0.0
 11
0.0
 21
498.5
 31
0.0
 40
0.0087268678
 41
-4.6813231009
 42
-4.6719445077
  0
ELLIPSE
  5
738
100
AcDbEntity
  8
RACCORDO
100
AcDbEllipse
 62
7
  6
CONTINUOUS
 10
-0.3930247808
 20
19.9380139244
 30
0.0
 11
0.0
 21
0.5
 31
0.0
 40
0.0087268678
 41
0.0087266463
 42
1.5307494509
  0
ELLIPSE
  5
739
100
AcDbEntity
  8
RACCORDO
100
AcDbEllipse
 62
7
  6
CONTINUOUS
 10
3.9494709069
 20
0.0
 30
0.0
 11
0.0
 21
498.5
 31
0.0
 40
0.0087268678
 41
1.5307494509
 42
1.5397304474
  0
ELLIPSE
  5
73A
100
AcDbEntity
  8
RACCORDO
100
AcDbEllipse
 62
7
  6
CONTINUOUS
 10
6.5210681431
 20
19.9380139244
 30
0.0
 11
0.0
 21
0.5
 31
0.0
 40
0.0087268678
 41
0.0087266463
 42
1.5307494509
  0
ELLIPSE
  5
73B
100
AcDbEntity
  8
RACCORDO
100
AcDbEllipse
 62
7
  6
CONTINUOUS
 10
-6.5210681431
 20
19.9380139244
 30
0.0
 11
0.0
 21
0.5
 31
0.0
 40
0.0087268678
 41
-1.5307494509
 42
-0.0087266463
  0
ELLIPSE
  5
73C
100
AcDbEntity
  8
RACCORDO
100
AcDbEllipse
 62
7
  6
CONTINUOUS
 10
10.8635638309
 20
0.0
 30
0.0
 11
0.0
 21
498.5
 31
0.0
 40
0.0087268678
 41
-4.6813231009
 42
-4.6719445077
  0
ELLIPSE
  5
73D
100
AcDbEntity
  8
RACCORDO
100
AcDbEllipse
 62
7
  6
CONTINUOUS
 10
-10.8635638309
 20
0.0
 30
0.0
 11
0.0
 21
498.5
 31
0.0
 40
0.0087268678
 41
-1.6112407994
 42
-1.6018622062
  0
ELLIPSE
  5
73E
100
AcDbEntity
  8
RACCORDO
100
AcDbEllipse
 62
7
  6
CONTINUOUS
 10
-11.25
 20
-0.4799914261
 30
0.0
 11
0.0
 21
27.4986903856
 31
0.0
 40
0.9998476487
 41
-2.4222061861
 42
-2.4136768153
  0
ELLIPSE
  5
73F
100
AcDbEntity
  8
RACCORDO
100
AcDbEllipse
 62
7
  6
CONTINUOUS
 10
11.25
 20
-0.4799914261
 30
0.0
 11
0.0
 21
27.4986903856
 31
0.0
 40
0.9998476487
 41
-3.8695084919
 42
-3.8609791211
  0
ELLIPSE
  5
740
100
AcDbEntity
  8
RACCORDO
100
AcDbEllipse
 62
7
  6
CONTINUOUS
 10
7.5069160569
 20
-20.0273689671
 30
0.0
 11
-0.0
 21
0.5
 31
0.0
 40
0.0174550649
 41
-3.089232776
 42
-1.6110227751
  0
ELLIPSE
  5
741
100
AcDbEntity
  8
RACCORDO
100
AcDbEllipse
 62
7
  6
CONTINUOUS
 10
-1.1786741678
 20
-0.0
 30
0.0
 11
0.0
 21
498.5
 31
0.0
 40
0.0174550649
 41
-1.6110227751
 42
-1.6018612598
  0
ELLIPSE
  5
742
100
AcDbEntity
  8
RACCORDO
100
AcDbEllipse
 62
7
  6
CONTINUOUS
 10
7.5069160569
 20
20.0273689671
 30
0.0
 11
-0.0
 21
0.5
 31
0.0
 40
0.0174550649
 41
-1.5305698785
 42
-0.0523598776
  0
ELLIPSE
  5
743
100
AcDbEntity
  8
RACCORDO
100
AcDbEllipse
 62
7
  6
CONTINUOUS
 10
-1.1786741678
 20
-0.0
 30
0.0
 11
0.0
 21
498.5
 31
0.0
 40
0.0174550649
 41
-1.5397313937
 42
-1.5305698785
  0
ELLIPSE
  5
744
100
AcDbEntity
  8
RACCORDO
100
AcDbEllipse
 62
7
  6
CONTINUOUS
 10
-7.5069160569
 20
-20.0273689671
 30
0.0
 11
0.0
 21
0.5
 31
0.0
 40
0.0174550649
 41
-4.6721625321
 42
-3.1939525311
  0
ELLIPSE
  5
745
100
AcDbEntity
  8
RACCORDO
100
AcDbEllipse
 62
7
  6
CONTINUOUS
 10
1.1786741678
 20
0.0
 30
0.0
 11
0.0
 21
498.5
 31
0.0
 40
0.0174550649
 41
-4.6813240473
 42
-4.6721625321
  0
ELLIPSE
  5
746
100
AcDbEntity
  8
RACCORDO
100
AcDbEllipse
 62
7
  6
CONTINUOUS
 10
-7.5069160569
 20
20.0273689671
 30
0.0
 11
-0.0
 21
0.5
 31
0.0
 40
0.0174550649
 41
0.0523598776
 42
1.5305698785
  0
ELLIPSE
  5
747
100
AcDbEntity
  8
RACCORDO
100
AcDbEllipse
 62
7
  6
CONTINUOUS
 10
1.1786741678
 20
0.0
 30
0.0
 11
0.0
 21
498.5
 31
0.0
 40
0.0174550649
 41
1.5305698785
 42
1.5397313937
  0
ELLIPSE
  5
748
100
AcDbEntity
  8
RACCORDO
100
AcDbEllipse
 62
7
  6
CONTINUOUS
 10
11.25
 20
0.4799914261
 30
0.0
 11
0.0
 21
27.4986903856
 31
0.0
 40
0.9998476487
 41
0.7193864675
 42
0.7279158383
  0
ELLIPSE
  5
749
100
AcDbEntity
  8
RACCORDO
100
AcDbEllipse
 62
7
  6
CONTINUOUS
 10
-11.25
 20
0.4799914261
 30
0.0
 11
0.0
 21
27.4986903856
 31
0.0
 40
0.9998476487
 41
-0.7279158383
 42
-0.7193864675
  0
ELLIPSE
  5
74A
100
AcDbEntity
  8
RACCORDO
100
AcDbEllipse
 62
7
  6
CONTINUOUS
 10
-6.8558627241
 20
20.5728199289
 30
0.0
 11
0.200007485
 21
-0.0000148403
 31
0.0
 40
0.0122341997
 41
0.0122354048
 42
0.1561732272
  0
ELLIPSE
  5
74B
100
AcDbEntity
  8
RACCORDO
100
AcDbEllipse
 62
7
  6
CONTINUOUS
 10
6.858264942
 20
-20.2975530235
 30
0.0
 11
0.200007485
 21
-0.0000148403
 31
0.0
 40
0.0122341997
 41
-3.1293572488
 42
-2.9854194263
  0
ELLIPSE
  5
74C
100
AcDbEntity
  8
RACCORDO
100
AcDbEllipse
 62
7
  6
CONTINUOUS
 10
-10.8635638309
 20
0.0
 30
0.0
 11
0.0
 21
498.5
 31
0.0
 40
0.0087268678
 41
-1.5397304474
 42
-1.5307494509
  0
ENDSEC
  0
SECTION
  2
OBJECTS
  0
DICTIONARY
  5
C
100
AcDbDictionary
280
0
281
1
  3
ACAD_GROUP
350
D
  3
ACAD_MLINESTYLE
350
17
  3
ACAD_LAYOUT
350
1A
  3
ACAD_PLOTSETTINGS
350
19
  3
ACAD_PLOTSTYLENAME
350
E
  0
DICTIONARY
  5
D
102
{ACAD_REACTORS
330
C
102
}
100
AcDbDictionary
280
0
281
1
  0
ACDBDICTIONARYWDFLT
  5
E
102
{ACAD_REACTORS
330
C
102
}
100
AcDbDictionary
281
1
  3
Normal
350
F
100
AcDbDictionaryWithDefault
340
F
  0
DICTIONARY
  5
17
102
{ACAD_REACTORS
330
C
102
}
100
AcDbDictionary
280
0
281
1
  3
Standard
350
18
  0
DICTIONARY
  5
19
102
{ACAD_REACTORS
330
C
102
}
100
AcDbDictionary
281
1
  0
DICTIONARY
  5
1A
102
{ACAD_REACTORS
330
C
102
}
100
AcDbDictionary
281
1
  3
Model
350
74D
  3
Layout1
350
74E
  0
ACDBPLACEHOLDER
  5
F
102
{ACAD_REACTORS
330
E
102
}
  0
MLINESTYLE
  5
18
102
{ACAD_REACTORS
330
17
102
}
100
AcDbMlineStyle
  2
STANDARD
 70
0
  3

 62
256
 51
90.0
 52
90.0
 71
2
 49
0.5
 62
256
  6
BYLAYER
 49
-0.5
 62
256
  6
BYLAYER
  0
LAYOUT
  5
74D
102
{ACAD_REACTORS
330
1A
102
}
100
AcDbPlotSettings
  1

  2
none_device
  4
ISO_A4_(297.00_x_210.00_MM)
  6

 40
0.0
 41
0.0
 42
0.0
 43
0.0
 44
297.0
 45
210.0
 46
0.0
 47
0.0
 48
0.0
 49
0.0
140
0.0
141
0.0
142
1.0
143
1.0
 70
1024
 72
1
 73
0
 74
0
  7

 75
0
147
1.0
148
0.0
149
0.0
100
AcDbLayout
  1
Model
 70
0
 71
0
 10
0.0
 20
0.0
 11
297.0
 21
210.0
 12
0.0
 22
0.0
 32
0.0
 14
0.0
 24
0.0
 34
0.0
 15
0.0
 25
0.0
 35
0.0
146
0.0
 13
0.0
 23
0.0
 33
0.0
 16
1.0
 26
0.0
 36
0.0
 17
0.0
 27
1.0
 37
0.0
 76
0
330
213
345
0
346
0
  0
LAYOUT
  5
74E
102
{ACAD_REACTORS
330
1A
102
}
100
AcDbPlotSettings
  1

  2
none_device
  4
ISO_A4_(297.00_x_210.00_MM)
  6

 40
0.0
 41
0.0
 42
0.0
 43
0.0
 44
297.0
 45
210.0
 46
0.0
 47
0.0
 48
0.0
 49
0.0
140
0.0
141
0.0
142
1.0
143
1.0
 70
0
 72
1
 73
0
 74
0
  7

 75
0
147
1.0
148
0.0
149
0.0
100
AcDbLayout
  1
Layout1
 70
0
 71
1
 10
0.0
 20
0.0
 11
297.0
 21
210.0
 12
0.0
 22
0.0
 32
0.0
 14
0.0
 24
0.0
 34
0.0
 15
0.0
 25
0.0
 35
0.0
146
0.0
 13
0.0
 23
0.0
 33
0.0
 16
1.0
 26
0.0
 36
0.0
 17
0.0
 27
1.0
 37
0.0
 76
0
330
214
345
0
346
0
  0
ENDSEC
  0
EOF
