  0
SECTION
  2
HEADER
  9
$ACADVER
  1
AC1024
  9
$DWGCODEPAGE
  3
ANSI_1252
  9
$EXTMAX
 10
297.0
 20
210.0
 30
0.0
  9
$EXTMIN
 10
0.0
 20
0.0
 30
0.0
  9
$LIMMIN
 10
0.0
 20
0.0
  9
$LIMMAX
 10
297.0
 20
210.0
  9
$VIEWCTR
 10
148.5
 20
105.0
  9
$VIEWSIZE
 40
210.0
  9
$CLAYER
  8
0
  9
$LTSCALE
 40
16.335
  9
$CELTYPE
  6
BYLAYER
  9
$DIMSCALE
 40
1.0
  9
$DIMASZ
 40
3.0
  9
$DIMEXO
 40
0.5
  9
$DIMDLI
 40
11.286
  9
$DIMEXE
 40
1.5
  9
$DIMCEN
 40
2.673
  9
$DIMLFAC
 40
1.0
  9
$DIMBLK
  1
_FILLED
  9
$DIMALT
 70
0
  9
$DIMALTF
 40
0.0393700787
  9
$DIMTXT
 40
3.0
  9
$DIMTOL
 70
1
  9
$DIMLIM
 70
0
  9
$DIMTFAC
 40
1.0
  9
$DIMTP
 40
0.01
  9
$DIMTM
 40
0.01
  9
$DIMGAP
 40
0.625
  9
$DIMDSEP
 70
44
  9
$AUNITS
 70
0
  9
$PDMODE
 70
3
  9
$PDSIZE
 40
3.0
  9
$HANDSEED
  5
566
  9
$TILEMODE
 70
1
  9
$MEASUREMENT
 70
1
  9
$INSUNITS
 70
4
  0
ENDSEC
  0
SECTION
  2
CLASSES
  0
CLASS
  1
ACDBDICTIONARYWDFLT
  2
AcDbDictionaryWithDefault
  3
AutoCAD 2000
 90
0
 91
1
280
0
281
0
  0
CLASS
  1
ACDBPLACEHOLDER
  2
AcDbPlaceHolder
  3
AutoCAD 2000
 90
0
 91
1
280
0
281
0
  0
CLASS
  1
LAYOUT
  2
AcDbLayout
  3
AutoCAD 2000
 90
0
 91
0
280
0
281
0
  0
ENDSEC
  0
SECTION
  2
TABLES
  0
TABLE
  2
VPORT
  5
8
100
AcDbSymbolTable
 70
2
  0
VPORT
  5
1F4
100
AcDbSymbolTableRecord
100
AcDbViewportTableRecord
  2
*ACTIVE
 70
0
 10
0.0
 20
0.0
 11
1.0
 21
1.0
 12
148.5
 22
105.0
 13
0.0
 23
0.0
 14
1.0
 24
1.0
 15
0.0
 25
0.0
 16
0.0
 26
0.0
 36
1.0
 17
0.0
 27
0.0
 37
0.0
 40
210.0
 41
1.4142857143
 42
50.0
 43
0.0
 44
0.0
 50
0.0
 51
0.0
 71
0
 72
100
 73
1
 74
1
 75
0
 76
0
 77
0
 78
0
  0
ENDTAB
  0
TABLE
  2
LTYPE
  5
5
100
AcDbSymbolTable
 70
6
  0
LTYPE
  5
14
100
AcDbSymbolTableRecord
100
AcDbLinetypeTableRecord
  2
BYBLOCK
 70
0
  3

 72
65
 73
0
 40
0.0
  0
LTYPE
  5
15
100
AcDbSymbolTableRecord
100
AcDbLinetypeTableRecord
  2
BYLAYER
 70
0
  3

 72
65
 73
0
 40
0.0
  0
LTYPE
  5
16
100
AcDbSymbolTableRecord
100
AcDbLinetypeTableRecord
  2
CONTINUOUS
 70
64
  3
Solid line
 72
65
 73
0
 40
0.0
  0
LTYPE
  5
1F5
100
AcDbSymbolTableRecord
100
AcDbLinetypeTableRecord
  2
CENTER
 70
64
  3
____ _ ____ _ ____ _ ____ _ ____ _ ____ _ ____
 72
65
 73
4
 40
0.6
 49
0.375
 74
0
 49
-0.075
 74
0
 49
0.075
 74
0
 49
-0.075
 74
0
  0
LTYPE
  5
1F6
100
AcDbSymbolTableRecord
100
AcDbLinetypeTableRecord
  2
HIDDEN
 70
64
  3
- - - - - - - - - - - - - - - - - - - -
 72
65
 73
2
 40
0.2
 49
0.1
 74
0
 49
-0.1
 74
0
  0
LTYPE
  5
1F7
100
AcDbSymbolTableRecord
100
AcDbLinetypeTableRecord
  2
PHANTOM
 70
64
  3
_____ _ _ _____ _ _ _____ _ _ _____
 72
65
 73
6
 40
0.8
 49
0.45
 74
0
 49
-0.05
 74
0
 49
0.1
 74
0
 49
-0.05
 74
0
 49
0.1
 74
0
 49
-0.05
 74
0
  0
LTYPE
  5
1F8
100
AcDbSymbolTableRecord
100
AcDbLinetypeTableRecord
  2
DOT
 70
64
  3
. . . . . . . . . . . . . . . . . . . .
 72
65
 73
2
 40
0.2
 49
0.1
 74
0
 49
-0.1
 74
0
  0
LTYPE
  5
1F9
100
AcDbSymbolTableRecord
100
AcDbLinetypeTableRecord
  2
DASHED
 70
64
  3
- - - - - - - - - - - - - - - - - - - -
 72
65
 73
2
 40
0.2
 49
0.1
 74
0
 49
-0.1
 74
0
  0
ENDTAB
  0
TABLE
  2
LAYER
  5
2
100
AcDbSymbolTable
 70
36
  0
LAYER
  5
10
100
AcDbSymbolTableRecord
100
AcDbLayerTableRecord
  2
0
 70
0
 62
7
  6
CONTINUOUS
370
-3
390
F
  0
LAYER
  5
1FA
100
AcDbSymbolTableRecord
100
AcDbLayerTableRecord
  2
DEFAULT_1
 70
0
 62
7
  6
CENTER
370
-3
390
F
  0
LAYER
  5
1FB
100
AcDbSymbolTableRecord
100
AcDbLayerTableRecord
  2
DEFAULT_2
 70
0
 62
7
  6
HIDDEN
370
-3
390
F
  0
LAYER
  5
1FC
100
AcDbSymbolTableRecord
100
AcDbLayerTableRecord
  2
DEFAULT_3
 70
0
 62
7
  6
PHANTOM
370
-3
390
F
  0
LAYER
  5
1FD
100
AcDbSymbolTableRecord
100
AcDbLayerTableRecord
  2
ASSI
 70
0
 62
7
  6
CONTINUOUS
370
-3
390
F
  0
LAYER
  5
1FE
100
AcDbSymbolTableRecord
100
AcDbLayerTableRecord
  2
COORDINATE
 70
0
 62
7
  6
CONTINUOUS
370
-3
390
F
  0
LAYER
  5
1FF
100
AcDbSymbolTableRecord
100
AcDbLayerTableRecord
  2
COORD_ORIGINE
 70
0
 62
7
  6
CONTINUOUS
370
-3
390
F
  0
LAYER
  5
200
100
AcDbSymbolTableRecord
100
AcDbLayerTableRecord
  2
COPY_PUBLISH
 70
0
 62
7
  6
CONTINUOUS
370
-3
390
F
  0
LAYER
  5
201
100
AcDbSymbolTableRecord
100
AcDbLayerTableRecord
  2
COSMETICI
 70
0
 62
7
  6
CONTINUOUS
370
-3
390
F
  0
LAYER
  5
202
100
AcDbSymbolTableRecord
100
AcDbLayerTableRecord
  2
CURVE
 70
0
 62
7
  6
CONTINUOUS
370
-3
390
F
  0
LAYER
  5
203
100
AcDbSymbolTableRecord
100
AcDbLayerTableRecord
  2
DRAFT
 70
0
 62
7
  6
CONTINUOUS
370
-3
390
F
  0
LAYER
  5
204
100
AcDbSymbolTableRecord
100
AcDbLayerTableRecord
  2
IMPORT_IGES
 70
0
 62
7
  6
CONTINUOUS
370
-3
390
F
  0
LAYER
  5
205
100
AcDbSymbolTableRecord
100
AcDbLayerTableRecord
  2
NOTE
 70
0
 62
7
  6
CONTINUOUS
370
-3
390
F
  0
LAYER
  5
206
100
AcDbSymbolTableRecord
100
AcDbLayerTableRecord
  2
PIANI
 70
0
 62
7
  6
CONTINUOUS
370
-3
390
F
  0
LAYER
  5
207
100
AcDbSymbolTableRecord
100
AcDbLayerTableRecord
  2
PIANI_ORIGINE
 70
0
 62
7
  6
CONTINUOUS
370
-3
390
F
  0
LAYER
  5
208
100
AcDbSymbolTableRecord
100
AcDbLayerTableRecord
  2
PIANI_RIFERIMENTO
 70
0
 62
7
  6
CONTINUOUS
370
-3
390
F
  0
LAYER
  5
209
100
AcDbSymbolTableRecord
100
AcDbLayerTableRecord
  2
PUNTI
 70
0
 62
7
  6
CONTINUOUS
370
-3
390
F
  0
LAYER
  5
20A
100
AcDbSymbolTableRecord
100
AcDbLayerTableRecord
  2
RACCORDO
 70
0
 62
7
  6
CONTINUOUS
370
-3
390
F
  0
LAYER
  5
20B
100
AcDbSymbolTableRecord
100
AcDbLayerTableRecord
  2
SIMBOLI
 70
0
 62
7
  6
CONTINUOUS
370
-3
390
F
  0
LAYER
  5
20C
100
AcDbSymbolTableRecord
100
AcDbLayerTableRecord
  2
SMUSSO
 70
0
 62
7
  6
CONTINUOUS
370
-3
390
F
  0
LAYER
  5
20D
100
AcDbSymbolTableRecord
100
AcDbLayerTableRecord
  2
SNAPLINE
 70
0
 62
7
  6
CONTINUOUS
370
-3
390
F
  0
LAYER
  5
20E
100
AcDbSymbolTableRecord
100
AcDbLayerTableRecord
  2
SUPERFICI
 70
0
 62
7
  6
CONTINUOUS
370
-3
390
F
  0
LAYER
  5
20F
100
AcDbSymbolTableRecord
100
AcDbLayerTableRecord
  2
TRASH
 70
0
 62
7
  6
CONTINUOUS
370
-3
390
F
  0
ENDTAB
  0
TABLE
  2
STYLE
  5
3
100
AcDbSymbolTable
 70
1
  0
STYLE
  5
11
100
AcDbSymbolTableRecord
100
AcDbTextStyleTableRecord
  2
STANDARD
 70
0
 40
0.0
 41
0.8
 50
0.0
 71
0
 42
0.2
  3
txt
  4

  0
STYLE
  5
210
100
AcDbSymbolTableRecord
100
AcDbTextStyleTableRecord
  2
TEXTSTYLE_1
 70
0
 40
0.0
 41
0.8
 50
0.0
 71
0
 42
0.2
  3
gdt
  4

  0
ENDTAB
  0
TABLE
  2
VIEW
  5
6
100
AcDbSymbolTable
 70
0
  0
ENDTAB
  0
TABLE
  2
UCS
  5
7
100
AcDbSymbolTable
 70
0
  0
ENDTAB
  0
TABLE
  2
APPID
  5
9
100
AcDbSymbolTable
 70
1
  0
APPID
  5
211
100
AcDbSymbolTableRecord
100
AcDbRegAppTableRecord
  2
ACAD
 70
0
  0
ENDTAB
  0
TABLE
  2
BLOCK_RECORD
  5
1
100
AcDbSymbolTable
 70
0
  0
BLOCK_RECORD
  5
212
100
AcDbSymbolTableRecord
100
AcDbBlockTableRecord
  2
*Model_Space
  0
BLOCK_RECORD
  5
213
100
AcDbSymbolTableRecord
100
AcDbBlockTableRecord
  2
*Paper_Space
  0
BLOCK_RECORD
  5
214
100
AcDbSymbolTableRecord
100
AcDbBlockTableRecord
  2
_FILLED
  0
ENDTAB
  0
TABLE
  2
DIMSTYLE
  5
A
100
AcDbSymbolTable
 70
1
100
AcDbDimStyleTable
 71
0
  0
DIMSTYLE
105
215
100
AcDbSymbolTableRecord
100
AcDbDimStyleTableRecord
  2
STANDARD
 70
0
  3

  4

 40
1.0
 41
3.0
 42
0.5
 43
0.38
 44
1.5
 45
0.0
 46
0.0
 47
0.01
 48
0.01
140
3.0
141
0.09
142
0.0
143
25.4
144
1.0
145
0.0
146
1.0
147
0.625
 71
1
 72
0
 73
0
 74
0
 75
0
 76
0
 77
1
 78
8
 79
2
170
0
171
1
172
0
173
0
174
0
175
0
176
0
177
0
178
0
270
2
179
2
271
2
272
2
273
2
274
2
275
0
280
0
281
0
282
0
283
1
284
8
285
0
286
0
287
3
288
0
340
11
278
44
341
214
342
214
343
214
344
214
  0
ENDTAB
  0
ENDSEC
  0
SECTION
  2
BLOCKS
  0
BLOCK
  5
20
100
AcDbEntity
  8
0
100
AcDbBlockBegin
  2
*Model_Space
 70
0
 10
0.0
 20
0.0
 30
0.0
  3
*Model_Space
  1

  0
ENDBLK
  5
21
100
AcDbEntity
  8
0
100
AcDbBlockEnd
  0
BLOCK
  5
1C
100
AcDbEntity
  8
0
100
AcDbBlockBegin
  2
*Paper_Space
 70
0
 10
0.0
 20
0.0
 30
0.0
  3
*Paper_Space
  1

  0
ENDBLK
  5
1D
100
AcDbEntity
  8
0
100
AcDbBlockEnd
  0
BLOCK
  5
216
100
AcDbEntity
  8
0
100
AcDbBlockBegin
  2
_FILLED
 70
64
 10
0.0
 20
0.0
  3
_FILLED
  1

  0
SOLID
  5
217
100
AcDbEntity
  8
0
  6
BYBLOCK
 62
0
100
AcDbTrace
 10
0.0
 20
0.0
 11
-1.0
 21
0.3166666667
 12
-1.0
 22
-0.3166666667
 13
-1.0
 23
-0.3166666667
  0
ENDBLK
  5
218
100
AcDbEntity
  8
0
  6
BYBLOCK
 62
0
100
AcDbBlockEnd
  0
ENDSEC
  0
SECTION
  2
ENTITIES
  0
LWPOLYLINE
  5
219
100
AcDbEntity
  8
RACCORDO
100
AcDbPolyline
 62
7
  6
CONTINUOUS
 90
8
 70
0
 10
-10.9984642288
 20
19.688555781
 10
-10.9924989175
 20
19.6939417456
 10
-10.9874880966
 20
19.6985294902
 10
-10.9834074171
 20
19.7023077966
 10
-10.9802839182
 20
19.7052613903
 10
-10.9781266132
 20
19.7073909292
 10
-10.9769264888
 20
19.7087054331
 10
-10.9766835452
 20
19.7092142325
  0
LWPOLYLINE
  5
21A
100
AcDbEntity
  8
RACCORDO
100
AcDbPolyline
 62
7
  6
CONTINUOUS
 90
4
 70
0
 10
-11.0411419576
 20
19.6506432041
 10
-11.0309596464
 20
19.6595759724
 10
-11.0216073903
 20
19.6678661382
 10
-10.9984642288
 20
19.688555781
  0
LWPOLYLINE
  5
21B
100
AcDbEntity
  8
RACCORDO
100
AcDbPolyline
 62
7
  6
CONTINUOUS
 90
6
 70
0
 10
-8.0905818756
 20
21.9545227854
 10
-8.0735392429
 20
21.9661901338
 10
-8.0674271169
 20
21.9704552361
 10
-8.0631188978
 20
21.9736022182
 10
-8.0605156956
 20
21.9756136358
 10
-8.0596175103
 20
21.9764665763
  0
LWPOLYLINE
  5
21C
100
AcDbEntity
  8
RACCORDO
100
AcDbPolyline
 62
7
  6
CONTINUOUS
 90
3
 70
0
 10
-8.1405065487
 20
21.9209404493
 10
-8.1012392736
 20
21.9472959815
 10
-8.0905818756
 20
21.9545227854
  0
LINE
  5
21D
100
AcDbEntity
  8
RACCORDO
100
AcDbLine
 62
7
  6
CONTINUOUS
 10
-8.3288217931
 20
21.795379522
 11
-8.263738253
 21
21.8388861794
  0
LINE
  5
21E
100
AcDbEntity
  8
RACCORDO
100
AcDbLine
 62
7
  6
CONTINUOUS
 10
-8.263738253
 20
21.8388861794
 11
-8.1405065487
 21
21.9209404493
  0
LINE
  5
21F
100
AcDbEntity
  8
RACCORDO
100
AcDbLine
 62
7
  6
CONTINUOUS
 10
-8.352073844
 20
21.7799875185
 11
-8.3288217931
 21
21.795379522
  0
LWPOLYLINE
  5
220
100
AcDbEntity
  8
RACCORDO
100
AcDbPolyline
 62
7
  6
CONTINUOUS
 90
3
 70
0
 10
-8.1405105231
 20
-24.8364655389
 10
-8.3065110503
 20
-24.7258044677
 10
-8.352073844
 20
-24.6955146771
  0
LINE
  5
221
100
AcDbEntity
  8
RACCORDO
100
AcDbLine
 62
7
  6
CONTINUOUS
 10
-8.1012291897
 20
-24.8628299941
 11
-8.1405105231
 21
-24.8364655389
  0
LWPOLYLINE
  5
222
100
AcDbEntity
  8
RACCORDO
100
AcDbPolyline
 62
7
  6
CONTINUOUS
 90
3
 70
0
 10
-8.0735413451
 20
-24.881714561
 10
-8.0905752951
 20
-24.8700544076
 10
-8.1012291897
 20
-24.8628299941
  0
LINE
  5
223
100
AcDbEntity
  8
RACCORDO
100
AcDbLine
 62
7
  6
CONTINUOUS
 10
-11.0309600772
 20
-22.5751030028
 11
-11.0411419576
 21
-22.5661703626
  0
LINE
  5
224
100
AcDbEntity
  8
RACCORDO
100
AcDbLine
 62
7
  6
CONTINUOUS
 10
-11.0130871272
 20
-22.5910039619
 11
-11.0309600772
 21
-22.5751030028
  0
LINE
  5
225
100
AcDbEntity
  8
RACCORDO
100
AcDbLine
 62
7
  6
CONTINUOUS
 10
-11.6213917376
 20
18.5596139414
 11
-11.4921993446
 21
18.6888063343
  0
LWPOLYLINE
  5
226
100
AcDbEntity
  8
RACCORDO
100
AcDbPolyline
 62
7
  6
CONTINUOUS
 90
5
 70
0
 10
-8.0596175103
 20
-24.8919937348
 10
-8.0605192717
 20
-24.8911399169
 10
-8.0631241809
 20
-24.8891269529
 10
-8.0674322378
 20
-24.8859787698
 10
-8.0735413451
 20
-24.881714561
  0
LINE
  5
227
100
AcDbEntity
  8
RACCORDO
100
AcDbLine
 62
7
  6
CONTINUOUS
 10
-11.6213917376
 20
-21.4751410999
 11
-11.4921993446
 21
-21.6043334929
  0
LINE
  5
228
100
AcDbEntity
  8
RACCORDO
100
AcDbLine
 62
7
  6
CONTINUOUS
 10
15.2364125735
 20
-24.9538676222
 11
15.4230143425
 21
-24.9166382731
  0
LINE
  5
229
100
AcDbEntity
  8
RACCORDO
100
AcDbLine
 62
250
  6
CONTINUOUS
 10
15.1969759481
 20
-24.9577635793
 11
15.3929697866
 21
-24.9186603968
  0
LWPOLYLINE
  5
22A
100
AcDbEntity
  8
RACCORDO
100
AcDbPolyline
 62
250
  6
CONTINUOUS
 90
5
 70
0
 10
15.3929697866
 20
-24.9186603968
 10
15.3998916377
 20
-24.9177996037
 10
15.4112431854
 20
-24.9169699611
 10
15.4270244299
 20
-24.9161714688
 10
15.4411599231
 20
-24.915788075
  0
LWPOLYLINE
  5
22B
100
AcDbEntity
  8
RACCORDO
100
AcDbPolyline
 62
7
  6
CONTINUOUS
 90
6
 70
0
 10
15.4184121676
 20
-24.9169489888
 10
15.4185621196
 20
-24.9169364991
 10
15.4193695398
 20
-24.916874384
 10
15.4209300676
 20
-24.9167670308
 10
15.4230332866
 20
-24.9166371028
 10
15.4256455464
 20
-24.9164907908
  0
LINE
  5
22C
100
AcDbEntity
  8
RACCORDO
100
AcDbLine
 62
250
  6
CONTINUOUS
 10
15.3929697866
 20
-24.9186603968
 11
15.4186882707
 21
-24.9170266611
  0
LINE
  5
22D
100
AcDbEntity
  8
RACCORDO
100
AcDbLine
 62
7
  6
CONTINUOUS
 10
15.4256455464
 20
-24.9164907908
 11
15.4324517608
 21
-24.9161571298
  0
LINE
  5
22E
100
AcDbEntity
  8
RACCORDO
100
AcDbLine
 62
7
  6
CONTINUOUS
 10
15.4324517608
 20
-24.9161571298
 11
15.4411599231
 21
-24.915788075
  0
LINE
  5
22F
100
AcDbEntity
  8
RACCORDO
100
AcDbLine
 62
7
  6
CONTINUOUS
 10
15.4411599231
 20
-24.915788075
 11
15.4515766541
 21
-24.915401227
  0
LINE
  5
230
100
AcDbEntity
  8
RACCORDO
100
AcDbLine
 62
250
  6
CONTINUOUS
 10
15.4474574821
 20
-24.9153972899
 11
15.4515766541
 21
-24.915401227
  0
LINE
  5
231
100
AcDbEntity
  8
RACCORDO
100
AcDbLine
 62
250
  6
CONTINUOUS
 10
15.4636635667
 20
-24.9150085302
 11
15.472320231
 21
-24.9146542615
  0
LINE
  5
232
100
AcDbEntity
  8
RACCORDO
100
AcDbLine
 62
7
  6
CONTINUOUS
 10
15.4515766541
 20
-24.915401227
 11
15.4703462154
 21
-24.9148119338
  0
LINE
  5
233
100
AcDbEntity
  8
RACCORDO
100
AcDbLine
 62
7
  6
CONTINUOUS
 10
15.4703462154
 20
-24.9148119338
 11
15.4929966867
 21
-24.9142259907
  0
LINE
  5
234
100
AcDbEntity
  8
RACCORDO
100
AcDbLine
 62
7
  6
CONTINUOUS
 10
15.4929966867
 20
-24.9142259907
 11
15.5291915268
 21
-24.9134565369
  0
LINE
  5
235
100
AcDbEntity
  8
RACCORDO
100
AcDbLine
 62
7
  6
CONTINUOUS
 10
15.5291915268
 20
-24.9134565369
 11
15.5719762911
 21
-24.9127448446
  0
LINE
  5
236
100
AcDbEntity
  8
RACCORDO
100
AcDbLine
 62
250
  6
CONTINUOUS
 10
15.5695270449
 20
-24.9127383379
 11
15.5719762911
 21
-24.9127448446
  0
LINE
  5
237
100
AcDbEntity
  8
RACCORDO
100
AcDbLine
 62
7
  6
CONTINUOUS
 10
15.5719762911
 20
-24.9127448446
 11
15.6480234811
 21
-24.9118337678
  0
LINE
  5
238
100
AcDbEntity
  8
RACCORDO
100
AcDbLine
 62
250
  6
CONTINUOUS
 10
15.6908500095
 20
-24.9114598376
 11
15.6969377229
 21
-24.9113830271
  0
LINE
  5
239
100
AcDbEntity
  8
RACCORDO
100
AcDbLine
 62
7
  6
CONTINUOUS
 10
15.6480234811
 20
-24.9118337678
 11
15.6908500095
 21
-24.9114598376
  0
LINE
  5
23A
100
AcDbEntity
  8
RACCORDO
100
AcDbLine
 62
250
  6
CONTINUOUS
 10
-1.4114518632
 20
-24.9113587935
 11
-1.3967120362
 21
-24.9115041862
  0
LINE
  5
23B
100
AcDbEntity
  8
RACCORDO
100
AcDbLine
 62
7
  6
CONTINUOUS
 10
-1.3967120362
 20
-24.9115041862
 11
-1.3004360969
 21
-24.9125093418
  0
LINE
  5
23C
100
AcDbEntity
  8
RACCORDO
100
AcDbLine
 62
250
  6
CONTINUOUS
 10
-1.3249154549
 20
-24.9121637412
 11
-1.3004360969
 21
-24.9125093418
  0
LINE
  5
23D
100
AcDbEntity
  8
RACCORDO
100
AcDbLine
 62
7
  6
CONTINUOUS
 10
-1.3004360969
 20
-24.9125093418
 11
-1.2470938209
 21
-24.9133378196
  0
LINE
  5
23E
100
AcDbEntity
  8
RACCORDO
100
AcDbLine
 62
250
  6
CONTINUOUS
 10
-1.2490406549
 20
-24.9132493647
 11
-1.2470938209
 21
-24.9133378196
  0
LINE
  5
23F
100
AcDbEntity
  8
RACCORDO
100
AcDbLine
 62
250
  6
CONTINUOUS
 10
-1.2239499955
 20
-24.9137925803
 11
-1.2159945976
 21
-24.9138858615
  0
LINE
  5
240
100
AcDbEntity
  8
RACCORDO
100
AcDbLine
 62
7
  6
CONTINUOUS
 10
-1.2470938209
 20
-24.9133378196
 11
-1.2032132855
 21
-24.9142549616
  0
LINE
  5
241
100
AcDbEntity
  8
RACCORDO
100
AcDbLine
 62
250
  6
CONTINUOUS
 10
-1.2159945976
 20
-24.9138858615
 11
-1.2032132855
 21
-24.9142549616
  0
LWPOLYLINE
  5
242
100
AcDbEntity
  8
RACCORDO
100
AcDbPolyline
 62
250
  6
CONTINUOUS
 90
3
 70
0
 10
-1.1937957466
 20
-24.9144874204
 10
-1.1864941319
 20
-24.9145867878
 10
-1.1768319118
 20
-24.9149562747
  0
LINE
  5
243
100
AcDbEntity
  8
RACCORDO
100
AcDbLine
 62
7
  6
CONTINUOUS
 10
-1.2032132855
 20
-24.9142549616
 11
-1.1768319118
 21
-24.9149562747
  0
LINE
  5
244
100
AcDbEntity
  8
RACCORDO
100
AcDbLine
 62
250
  6
CONTINUOUS
 10
-1.1692777855
 20
-24.9151914715
 11
-1.1605746563
 21
-24.9153464329
  0
LINE
  5
245
100
AcDbEntity
  8
RACCORDO
100
AcDbLine
 62
7
  6
CONTINUOUS
 10
-1.1768319118
 20
-24.9149562747
 11
-1.1623347907
 21
-24.9154256192
  0
LINE
  5
246
100
AcDbEntity
  8
RACCORDO
100
AcDbLine
 62
250
  6
CONTINUOUS
 10
-1.1502764898
 20
-24.9158828479
 11
-1.1393026507
 21
-24.9161364512
  0
LINE
  5
247
100
AcDbEntity
  8
RACCORDO
100
AcDbLine
 62
7
  6
CONTINUOUS
 10
-1.1623347907
 20
-24.9154256192
 11
-1.1502764898
 21
-24.9158828479
  0
LWPOLYLINE
  5
248
100
AcDbEntity
  8
RACCORDO
100
AcDbPolyline
 62
7
  6
CONTINUOUS
 90
5
 70
0
 10
-1.1502764898
 20
-24.9158828479
 10
-1.1407222007
 20
-24.9163064961
 10
-1.1370038596
 20
-24.9164959572
 10
-1.1339766292
 20
-24.9166676088
 10
-1.1317990118
 20
-24.916806214
  0
LWPOLYLINE
  5
249
100
AcDbEntity
  8
RACCORDO
100
AcDbPolyline
 62
250
  6
CONTINUOUS
 90
3
 70
0
 10
-1.1370038596
 20
-24.9164959572
 10
-1.1230336081
 20
-24.916947394
 10
-1.1114120355
 20
-24.91778871
  0
LWPOLYLINE
  5
24A
100
AcDbEntity
  8
RACCORDO
100
AcDbPolyline
 62
250
  6
CONTINUOUS
 90
3
 70
0
 10
-1.1044379441
 20
-24.9186603968
 10
-1.1301565445
 20
-24.9170266461
 10
-1.1308267445
 20
-24.9169166531
  0
LINE
  5
24B
100
AcDbEntity
  8
RACCORDO
100
AcDbLine
 62
7
  6
CONTINUOUS
 10
-1.1317990118
 20
-24.916806214
 11
-1.130819932
 21
-24.9168751439
  0
LINE
  5
24C
100
AcDbEntity
  8
RACCORDO
100
AcDbLine
 62
250
  6
CONTINUOUS
 10
-1.1114120355
 20
-24.91778871
 11
-1.1044379327
 21
-24.918660399
  0
LINE
  5
24D
100
AcDbEntity
  8
RACCORDO
100
AcDbLine
 62
7
  6
CONTINUOUS
 10
-1.1344779381
 20
-24.9166391833
 11
-0.947880731
 21
-24.9538676222
  0
LINE
  5
24E
100
AcDbEntity
  8
RACCORDO
100
AcDbLine
 62
250
  6
CONTINUOUS
 10
-1.1044379327
 20
-24.918660399
 11
-0.9084441056
 21
-24.9577635793
  0
LWPOLYLINE
  5
24F
100
AcDbEntity
  8
RACCORDO
100
AcDbPolyline
 62
7
  6
CONTINUOUS
 90
9
 70
0
 10
-10.9766835452
 20
-22.624741391
 10
-10.9769337675
 20
-22.6242299235
 10
-10.9781386465
 20
-22.6229099401
 10
-10.9802981823
 20
-22.6207747663
 10
-10.983420377
 20
-22.6178196823
 10
-10.9874972284
 20
-22.6140457895
 10
-10.9925047298
 20
-22.6094636281
 10
-10.9984683388
 20
-22.6040800237
 10
-11.0130871272
 20
-22.5910039619
  0
LWPOLYLINE
  5
250
100
AcDbEntity
  8
RACCORDO
100
AcDbPolyline
 62
7
  6
CONTINUOUS
 90
7
 70
0
 10
-10.6193816083
 20
-21.8043030319
 10
-10.6254253854
 20
-21.7881932643
 10
-10.6303296416
 20
-21.7719104821
 10
-10.6340943769
 20
-21.7555726565
 10
-10.6367195913
 20
-21.7393078072
 10
-10.6382052848
 20
-21.7232533607
 10
-10.6385514574
 20
-21.7075552977
  0
LINE
  5
251
100
AcDbEntity
  8
ASSI
100
AcDbLine
 62
7
  6
CONTINUOUS
 10
-15.2557340787
 20
20.4420075687
 11
-15.2557340787
 21
-23.3575347272
  0
LINE
  5
252
100
AcDbEntity
  8
RACCORDO
100
AcDbLine
 62
250
  6
CONTINUOUS
 10
-4.6599275424
 20
19.0880334378
 11
-4.7057245595
 21
19.0422364207
  0
LINE
  5
253
100
AcDbEntity
  8
RACCORDO
100
AcDbLine
 62
250
  6
CONTINUOUS
 10
-4.4559518796
 20
18.7920281391
 11
-4.4120997398
 21
18.8358802789
  0
LWPOLYLINE
  5
254
100
AcDbEntity
  8
RACCORDO
100
AcDbPolyline
 62
250
  6
CONTINUOUS
 90
5
 70
0
 10
-7.1070302134
 20
-24.9186603968
 10
-7.1001083623
 20
-24.9177996037
 10
-7.0887568146
 20
-24.9169699611
 10
-7.0729755701
 20
-24.9161714688
 10
-7.0588400769
 20
-24.915788075
  0
LWPOLYLINE
  5
255
100
AcDbEntity
  8
RACCORDO
100
AcDbPolyline
 62
7
  6
CONTINUOUS
 90
6
 70
0
 10
-7.0815878324
 20
-24.9169489888
 10
-7.0814378804
 20
-24.9169364991
 10
-7.0806304602
 20
-24.916874384
 10
-7.0790699324
 20
-24.9167670308
 10
-7.0769667134
 20
-24.9166371028
 10
-7.0743544536
 20
-24.9164907908
  0
LINE
  5
256
100
AcDbEntity
  8
RACCORDO
100
AcDbLine
 62
250
  6
CONTINUOUS
 10
-7.1070302134
 20
-24.9186603968
 11
-7.0813117293
 21
-24.9170266611
  0
LINE
  5
257
100
AcDbEntity
  8
RACCORDO
100
AcDbLine
 62
7
  6
CONTINUOUS
 10
-7.0743544536
 20
-24.9164907908
 11
-7.0675482392
 21
-24.9161571298
  0
LINE
  5
258
100
AcDbEntity
  8
RACCORDO
100
AcDbLine
 62
7
  6
CONTINUOUS
 10
-7.0675482392
 20
-24.9161571298
 11
-7.0588400769
 21
-24.915788075
  0
LINE
  5
259
100
AcDbEntity
  8
RACCORDO
100
AcDbLine
 62
7
  6
CONTINUOUS
 10
-7.0588400769
 20
-24.915788075
 11
-7.0484233459
 21
-24.915401227
  0
LINE
  5
25A
100
AcDbEntity
  8
RACCORDO
100
AcDbLine
 62
250
  6
CONTINUOUS
 10
-7.0525425179
 20
-24.9153972899
 11
-7.0484233459
 21
-24.915401227
  0
LINE
  5
25B
100
AcDbEntity
  8
RACCORDO
100
AcDbLine
 62
250
  6
CONTINUOUS
 10
-7.0363364333
 20
-24.9150085302
 11
-7.027679769
 21
-24.9146542615
  0
LINE
  5
25C
100
AcDbEntity
  8
RACCORDO
100
AcDbLine
 62
7
  6
CONTINUOUS
 10
-7.0484233459
 20
-24.915401227
 11
-7.0296537846
 21
-24.9148119338
  0
LINE
  5
25D
100
AcDbEntity
  8
RACCORDO
100
AcDbLine
 62
7
  6
CONTINUOUS
 10
-7.0296537846
 20
-24.9148119338
 11
-7.0070033133
 21
-24.9142259907
  0
LINE
  5
25E
100
AcDbEntity
  8
RACCORDO
100
AcDbLine
 62
7
  6
CONTINUOUS
 10
-7.0070033133
 20
-24.9142259907
 11
-6.9708084732
 21
-24.9134565369
  0
LINE
  5
25F
100
AcDbEntity
  8
RACCORDO
100
AcDbLine
 62
7
  6
CONTINUOUS
 10
-6.9708084732
 20
-24.9134565369
 11
-6.9280237089
 21
-24.9127448446
  0
LINE
  5
260
100
AcDbEntity
  8
RACCORDO
100
AcDbLine
 62
250
  6
CONTINUOUS
 10
-6.9304729551
 20
-24.9127383379
 11
-6.9280237089
 21
-24.9127448446
  0
LINE
  5
261
100
AcDbEntity
  8
RACCORDO
100
AcDbLine
 62
7
  6
CONTINUOUS
 10
-6.9280237089
 20
-24.9127448446
 11
-6.8519765189
 21
-24.9118337678
  0
LINE
  5
262
100
AcDbEntity
  8
RACCORDO
100
AcDbLine
 62
7
  6
CONTINUOUS
 10
-6.8519765189
 20
-24.9118337678
 11
-6.7476797453
 21
-24.9110695082
  0
LINE
  5
263
100
AcDbEntity
  8
RACCORDO
100
AcDbLine
 62
250
  6
CONTINUOUS
 10
-6.7561141889
 20
-24.9110820415
 11
-6.7476797453
 21
-24.9110695082
  0
LINE
  5
264
100
AcDbEntity
  8
RACCORDO
100
AcDbLine
 62
7
  6
CONTINUOUS
 10
15.6908500095
 20
-24.9114598376
 11
15.8179299452
 21
-24.9108042831
  0
LINE
  5
265
100
AcDbEntity
  8
RACCORDO
100
AcDbLine
 62
250
  6
CONTINUOUS
 10
15.7915924351
 20
-24.9108698584
 11
15.8179299452
 21
-24.9108042831
  0
LINE
  5
266
100
AcDbEntity
  8
RACCORDO
100
AcDbLine
 62
7
  6
CONTINUOUS
 10
-6.7476797453
 20
-24.9110695082
 11
-6.630881514
 21
-24.9107304025
  0
LINE
  5
267
100
AcDbEntity
  8
RACCORDO
100
AcDbLine
 62
7
  6
CONTINUOUS
 10
-8.0790714264
 20
-24.9577635793
 11
-7.3030240519
 21
-24.9577635793
  0
LINE
  5
268
100
AcDbEntity
  8
RACCORDO
100
AcDbLine
 62
7
  6
CONTINUOUS
 10
-0.9084441056
 20
-24.9577635793
 11
-0.1323967311
 21
-24.9577635793
  0
LINE
  5
269
100
AcDbEntity
  8
RACCORDO
100
AcDbLine
 62
7
  6
CONTINUOUS
 10
14.4209285736
 20
-24.9577635793
 11
15.1969759481
 21
-24.9577635793
  0
LINE
  5
26A
100
AcDbEntity
  8
RACCORDO
100
AcDbLine
 62
7
  6
CONTINUOUS
 10
21.5915558944
 20
-24.9577635793
 11
22.3676032689
 21
-24.9577635793
  0
LINE
  5
26B
100
AcDbEntity
  8
RACCORDO
100
AcDbLine
 62
250
  6
CONTINUOUS
 10
22.3481493528
 20
-24.8919937348
 11
14.4403824897
 21
-24.8919937348
  0
LINE
  5
26C
100
AcDbEntity
  8
RACCORDO
100
AcDbLine
 62
250
  6
CONTINUOUS
 10
-0.1518506472
 20
-24.8919937348
 11
-8.0596175103
 21
-24.8919937348
  0
LINE
  5
26D
100
AcDbEntity
  8
RACCORDO
100
AcDbLine
 62
250
  6
CONTINUOUS
 10
22.6406056865
 20
-24.6955146771
 11
14.147926156
 21
-24.6955146771
  0
LINE
  5
26E
100
AcDbEntity
  8
RACCORDO
100
AcDbLine
 62
250
  6
CONTINUOUS
 10
0.1406056865
 20
-24.6955146771
 11
-8.352073844
 21
-24.6955146771
  0
LINE
  5
26F
100
AcDbEntity
  8
DRAFT
100
AcDbLine
 62
7
  6
CONTINUOUS
 10
-14.7561146785
 20
-23.8577635793
 11
-9.6557340787
 21
-23.8577635793
  0
LINE
  5
270
100
AcDbEntity
  8
DRAFT
100
AcDbLine
 62
7
  6
CONTINUOUS
 10
1.4442659213
 20
-23.8577635793
 11
12.8442659213
 21
-23.8577635793
  0
LINE
  5
271
100
AcDbEntity
  8
DRAFT
100
AcDbLine
 62
7
  6
CONTINUOUS
 10
23.9442659213
 20
-23.8577635793
 11
29.044646521
 21
-23.8577635793
  0
LINE
  5
272
100
AcDbEntity
  8
DRAFT
100
AcDbLine
 62
7
  6
CONTINUOUS
 10
-1.0265362151
 20
-23.6577635793
 11
-7.1849319424
 21
-23.6577635793
  0
LINE
  5
273
100
AcDbEntity
  8
DRAFT
100
AcDbLine
 62
7
  6
CONTINUOUS
 10
15.3150680576
 20
-23.6577635793
 11
21.4734637849
 21
-23.6577635793
  0
LINE
  5
274
100
AcDbEntity
  8
RACCORDO
100
AcDbLine
 62
7
  6
CONTINUOUS
 10
-6.630881514
 20
-24.9107304025
 11
-1.4891343816
 21
-24.9109459786
  0
LINE
  5
275
100
AcDbEntity
  8
RACCORDO
100
AcDbLine
 62
7
  6
CONTINUOUS
 10
15.8179299452
 20
-24.9108042831
 11
21.0108656184
 21
-24.9109459786
  0
LINE
  5
276
100
AcDbEntity
  8
RACCORDO
100
AcDbLine
 62
250
  6
CONTINUOUS
 10
-1.5043762027
 20
-24.9108662251
 11
-1.4891343816
 21
-24.9109459786
  0
LINE
  5
277
100
AcDbEntity
  8
RACCORDO
100
AcDbLine
 62
7
  6
CONTINUOUS
 10
-1.4891343816
 20
-24.9109459786
 11
-1.3967120362
 21
-24.9115041862
  0
LINE
  5
278
100
AcDbEntity
  8
RACCORDO
100
AcDbLine
 62
7
  6
CONTINUOUS
 10
21.0108656184
 20
-24.9109459786
 11
21.120549259
 21
-24.9116484121
  0
LINE
  5
279
100
AcDbEntity
  8
RACCORDO
100
AcDbLine
 62
7
  6
CONTINUOUS
 10
21.120549259
 20
-24.9116484121
 11
21.1995639031
 21
-24.9125093418
  0
LINE
  5
27A
100
AcDbEntity
  8
RACCORDO
100
AcDbLine
 62
7
  6
CONTINUOUS
 10
21.1995639031
 20
-24.9125093418
 11
21.2529061791
 21
-24.9133378196
  0
LINE
  5
27B
100
AcDbEntity
  8
RACCORDO
100
AcDbLine
 62
250
  6
CONTINUOUS
 10
21.2509593451
 20
-24.9132493647
 11
21.2529061791
 21
-24.9133378196
  0
LINE
  5
27C
100
AcDbEntity
  8
RACCORDO
100
AcDbLine
 62
250
  6
CONTINUOUS
 10
21.2760500045
 20
-24.9137925803
 11
21.2840054024
 21
-24.9138858615
  0
LINE
  5
27D
100
AcDbEntity
  8
RACCORDO
100
AcDbLine
 62
7
  6
CONTINUOUS
 10
21.2529061791
 20
-24.9133378196
 11
21.2967867145
 21
-24.9142549616
  0
LINE
  5
27E
100
AcDbEntity
  8
RACCORDO
100
AcDbLine
 62
250
  6
CONTINUOUS
 10
21.2840054024
 20
-24.9138858615
 11
21.2967867145
 21
-24.9142549616
  0
LWPOLYLINE
  5
27F
100
AcDbEntity
  8
RACCORDO
100
AcDbPolyline
 62
250
  6
CONTINUOUS
 90
3
 70
0
 10
21.3062042534
 20
-24.9144874204
 10
21.3135058681
 20
-24.9145867878
 10
21.3231680882
 20
-24.9149562747
  0
LINE
  5
280
100
AcDbEntity
  8
RACCORDO
100
AcDbLine
 62
7
  6
CONTINUOUS
 10
21.2967867145
 20
-24.9142549616
 11
21.3231680882
 21
-24.9149562747
  0
LINE
  5
281
100
AcDbEntity
  8
RACCORDO
100
AcDbLine
 62
250
  6
CONTINUOUS
 10
21.3307222145
 20
-24.9151914715
 11
21.3394253437
 21
-24.9153464329
  0
LINE
  5
282
100
AcDbEntity
  8
RACCORDO
100
AcDbLine
 62
7
  6
CONTINUOUS
 10
21.3231680882
 20
-24.9149562747
 11
21.3376652093
 21
-24.9154256192
  0
LINE
  5
283
100
AcDbEntity
  8
RACCORDO
100
AcDbLine
 62
250
  6
CONTINUOUS
 10
21.3497235102
 20
-24.9158828479
 11
21.3606973493
 21
-24.9161364512
  0
LINE
  5
284
100
AcDbEntity
  8
RACCORDO
100
AcDbLine
 62
7
  6
CONTINUOUS
 10
21.3376652093
 20
-24.9154256192
 11
21.3497235102
 21
-24.9158828479
  0
LWPOLYLINE
  5
285
100
AcDbEntity
  8
RACCORDO
100
AcDbPolyline
 62
7
  6
CONTINUOUS
 90
5
 70
0
 10
21.3497235102
 20
-24.9158828479
 10
21.3592777993
 20
-24.9163064961
 10
21.3629961404
 20
-24.9164959572
 10
21.3660233708
 20
-24.9166676088
 10
21.3682009882
 20
-24.916806214
  0
LWPOLYLINE
  5
286
100
AcDbEntity
  8
RACCORDO
100
AcDbPolyline
 62
250
  6
CONTINUOUS
 90
3
 70
0
 10
21.3629961404
 20
-24.9164959572
 10
21.3769663919
 20
-24.916947394
 10
21.3885879645
 20
-24.91778871
  0
LWPOLYLINE
  5
287
100
AcDbEntity
  8
RACCORDO
100
AcDbPolyline
 62
250
  6
CONTINUOUS
 90
3
 70
0
 10
21.3955620559
 20
-24.9186603968
 10
21.3698434555
 20
-24.9170266461
 10
21.3691732555
 20
-24.9169166531
  0
LINE
  5
288
100
AcDbEntity
  8
RACCORDO
100
AcDbLine
 62
7
  6
CONTINUOUS
 10
21.3682009882
 20
-24.916806214
 11
21.369180068
 21
-24.9168751439
  0
LINE
  5
289
100
AcDbEntity
  8
RACCORDO
100
AcDbLine
 62
250
  6
CONTINUOUS
 10
21.3885879645
 20
-24.91778871
 11
21.3955620673
 21
-24.918660399
  0
LINE
  5
28A
100
AcDbEntity
  8
RACCORDO
100
AcDbLine
 62
250
  6
CONTINUOUS
 10
-4.7057245595
 20
-21.9577635793
 11
-4.6599275424
 21
-22.0035605963
  0
LINE
  5
28B
100
AcDbEntity
  8
RACCORDO
100
AcDbLine
 62
250
  6
CONTINUOUS
 10
-4.4559518796
 20
-21.7075552977
 11
-4.4120997398
 21
-21.7514074375
  0
LINE
  5
28C
100
AcDbEntity
  8
RACCORDO
100
AcDbLine
 62
250
  6
CONTINUOUS
 10
-11.3316736739
 20
-20.2614683638
 11
-11.6240100372
 21
-17.3083548399
  0
LINE
  5
28D
100
AcDbEntity
  8
RACCORDO
100
AcDbLine
 62
250
  6
CONTINUOUS
 10
-11.0325372875
 20
-19.9577635793
 11
-11.3250416024
 21
-17.0029534479
  0
LINE
  5
28E
100
AcDbEntity
  8
RACCORDO
100
AcDbLine
 62
250
  6
CONTINUOUS
 10
-13.9522735314
 20
-21.8043030319
 11
-13.9522735314
 21
18.8887758734
  0
LINE
  5
28F
100
AcDbEntity
  8
RACCORDO
100
AcDbLine
 62
250
  6
CONTINUOUS
 10
-13.7523039923
 20
-21.6043334929
 11
-13.7523039923
 21
18.6888063343
  0
LINE
  5
290
100
AcDbEntity
  8
RACCORDO
100
AcDbLine
 62
250
  6
CONTINUOUS
 10
-11.6240100372
 20
14.3928276814
 11
-11.3316736739
 21
17.3459412053
  0
LINE
  5
291
100
AcDbEntity
  8
RACCORDO
100
AcDbLine
 62
250
  6
CONTINUOUS
 10
-11.3250416024
 20
14.0874262894
 11
-11.0325372875
 21
17.0422364207
  0
LINE
  5
292
100
AcDbEntity
  8
RACCORDO
100
AcDbLine
 62
7
  6
CONTINUOUS
 10
-4.5220402683
 20
18.5596139414
 11
-4.4574489913
 21
18.6888063343
  0
LINE
  5
293
100
AcDbEntity
  8
RACCORDO
100
AcDbLine
 62
7
  6
CONTINUOUS
 10
2.8281857496
 20
19.7422364207
 11
2.7652153877
 21
19.7092142325
  0
LINE
  5
294
100
AcDbEntity
  8
DRAFT
100
AcDbLine
 62
7
  6
CONTINUOUS
 10
3.2773011007
 20
19.4422364207
 11
3.1342346934
 21
19.3780182393
  0
LINE
  5
295
100
AcDbEntity
  8
RACCORDO
100
AcDbLine
 62
7
  6
CONTINUOUS
 10
-7.2635874265
 20
-24.9538676222
 11
-7.0769856575
 21
-24.9166382731
  0
LINE
  5
296
100
AcDbEntity
  8
RACCORDO
100
AcDbLine
 62
250
  6
CONTINUOUS
 10
-7.3030240519
 20
-24.9577635793
 11
-7.1070302134
 21
-24.9186603968
  0
LINE
  5
297
100
AcDbEntity
  8
DRAFT
100
AcDbLine
 62
7
  6
CONTINUOUS
 10
25.3281857496
 20
-22.6577635793
 11
22.3942659213
 21
-22.6577635793
  0
LINE
  5
298
100
AcDbEntity
  8
RACCORDO
100
AcDbLine
 62
7
  6
CONTINUOUS
 10
22.3942659213
 20
-22.6577635793
 11
21.1153025469
 21
-22.6577635793
  0
LINE
  5
299
100
AcDbEntity
  8
RACCORDO
100
AcDbLine
 62
7
  6
CONTINUOUS
 10
15.6732292956
 20
-22.6577635793
 11
14.3942659213
 21
-22.6577635793
  0
LINE
  5
29A
100
AcDbEntity
  8
DRAFT
100
AcDbLine
 62
7
  6
CONTINUOUS
 10
14.3942659213
 20
-22.6577635793
 11
11.4603460929
 21
-22.6577635793
  0
LINE
  5
29B
100
AcDbEntity
  8
DRAFT
100
AcDbLine
 62
7
  6
CONTINUOUS
 10
-11.0396539071
 20
-22.6577635793
 11
-8.1057340787
 21
-22.6577635793
  0
LINE
  5
29C
100
AcDbEntity
  8
RACCORDO
100
AcDbLine
 62
7
  6
CONTINUOUS
 10
-6.8121632991
 20
-22.6577635793
 11
-1.3993048584
 21
-22.6577635793
  0
LINE
  5
29D
100
AcDbEntity
  8
RACCORDO
100
AcDbLine
 62
7
  6
CONTINUOUS
 10
-0.1057340787
 20
-22.6577635793
 11
-1.3846974531
 21
-22.6577635793
  0
LINE
  5
29E
100
AcDbEntity
  8
DRAFT
100
AcDbLine
 62
7
  6
CONTINUOUS
 10
-0.1057340787
 20
-22.6577635793
 11
2.8281857496
 21
-22.6577635793
  0
LINE
  5
29F
100
AcDbEntity
  8
RACCORDO
100
AcDbLine
 62
7
  6
CONTINUOUS
 10
-6.8267707044
 20
-22.6577635793
 11
-8.1057340787
 21
-22.6577635793
  0
LINE
  5
2A0
100
AcDbEntity
  8
RACCORDO
100
AcDbLine
 62
7
  6
CONTINUOUS
 10
15.6878367009
 20
-22.6577635793
 11
21.1006951416
 21
-22.6577635793
  0
LINE
  5
2A1
100
AcDbEntity
  8
RACCORDO
100
AcDbLine
 62
7
  6
CONTINUOUS
 10
-10.9766835452
 20
-22.624741391
 11
-8.1057340787
 21
-22.624741391
  0
LINE
  5
2A2
100
AcDbEntity
  8
RACCORDO
100
AcDbLine
 62
7
  6
CONTINUOUS
 10
-0.1057340787
 20
-22.624741391
 11
2.7652153877
 21
-22.624741391
  0
LINE
  5
2A3
100
AcDbEntity
  8
RACCORDO
100
AcDbLine
 62
7
  6
CONTINUOUS
 10
11.5233164548
 20
-22.624741391
 11
14.3942659213
 21
-22.624741391
  0
LINE
  5
2A4
100
AcDbEntity
  8
RACCORDO
100
AcDbLine
 62
7
  6
CONTINUOUS
 10
22.3942659213
 20
-22.624741391
 11
25.2652153877
 21
-22.624741391
  0
LINE
  5
2A5
100
AcDbEntity
  8
RACCORDO
100
AcDbLine
 62
250
  6
CONTINUOUS
 10
22.3942659213
 20
-22.5991849355
 11
21.0914044138
 21
-22.5991849355
  0
LINE
  5
2A6
100
AcDbEntity
  8
RACCORDO
100
AcDbLine
 62
250
  6
CONTINUOUS
 10
15.6971274287
 20
-22.5991849355
 11
14.3942659213
 21
-22.5991849355
  0
LINE
  5
2A7
100
AcDbEntity
  8
RACCORDO
100
AcDbLine
 62
250
  6
CONTINUOUS
 10
-0.1057340787
 20
-22.5991849355
 11
-1.4085955862
 21
-22.5991849355
  0
LINE
  5
2A8
100
AcDbEntity
  8
RACCORDO
100
AcDbLine
 62
250
  6
CONTINUOUS
 10
-6.8028725713
 20
-22.5991849355
 11
-8.1057340787
 21
-22.5991849355
  0
LINE
  5
2A9
100
AcDbEntity
  8
RACCORDO
100
AcDbLine
 62
250
  6
CONTINUOUS
 10
-11.0411419576
 20
-22.5661703626
 11
-8.1057340787
 21
-22.5661703626
  0
LINE
  5
2AA
100
AcDbEntity
  8
RACCORDO
100
AcDbLine
 62
250
  6
CONTINUOUS
 10
-0.1057340787
 20
-22.5661703626
 11
2.8296738002
 21
-22.5661703626
  0
LINE
  5
2AB
100
AcDbEntity
  8
RACCORDO
100
AcDbLine
 62
250
  6
CONTINUOUS
 10
11.4588580424
 20
-22.5661703626
 11
14.3942659213
 21
-22.5661703626
  0
LINE
  5
2AC
100
AcDbEntity
  8
RACCORDO
100
AcDbLine
 62
250
  6
CONTINUOUS
 10
22.3942659213
 20
-22.5661703626
 11
25.3296738002
 21
-22.5661703626
  0
LINE
  5
2AD
100
AcDbEntity
  8
RACCORDO
100
AcDbLine
 62
7
  6
CONTINUOUS
 10
24.7511245351
 20
-22.0315774944
 11
12.0374073074
 21
-22.0315774944
  0
LINE
  5
2AE
100
AcDbEntity
  8
RACCORDO
100
AcDbLine
 62
7
  6
CONTINUOUS
 10
2.2511245351
 20
-22.0315774944
 11
-10.4625926926
 21
-22.0315774944
  0
LINE
  5
2AF
100
AcDbEntity
  8
RACCORDO
100
AcDbLine
 62
7
  6
CONTINUOUS
 10
-4.6599275424
 20
-22.0035605963
 11
-3.5515406151
 21
-22.0035605963
  0
LINE
  5
2B0
100
AcDbEntity
  8
RACCORDO
100
AcDbLine
 62
7
  6
CONTINUOUS
 10
17.8400724576
 20
-22.0035605963
 11
18.9484593849
 21
-22.0035605963
  0
LINE
  5
2B1
100
AcDbEntity
  8
RACCORDO
100
AcDbLine
 62
7
  6
CONTINUOUS
 10
24.67731062
 20
-21.9577635793
 11
18.994256402
 21
-21.9577635793
  0
LINE
  5
2B2
100
AcDbEntity
  8
RACCORDO
100
AcDbLine
 62
7
  6
CONTINUOUS
 10
17.7942754405
 20
-21.9577635793
 11
12.1112212225
 21
-21.9577635793
  0
LINE
  5
2B3
100
AcDbEntity
  8
RACCORDO
100
AcDbLine
 62
7
  6
CONTINUOUS
 10
2.17731062
 20
-21.9577635793
 11
-3.505743598
 21
-21.9577635793
  0
LINE
  5
2B4
100
AcDbEntity
  8
RACCORDO
100
AcDbLine
 62
7
  6
CONTINUOUS
 10
-4.7057245595
 20
-21.9577635793
 11
-10.3887787775
 21
-21.9577635793
  0
LINE
  5
2B5
100
AcDbEntity
  8
RACCORDO
100
AcDbLine
 62
250
  6
CONTINUOUS
 10
28.2408053739
 20
-21.8043030319
 11
25.7773011007
 21
-21.8043030319
  0
LINE
  5
2B6
100
AcDbEntity
  8
RACCORDO
100
AcDbLine
 62
250
  6
CONTINUOUS
 10
24.9079134508
 20
-21.8043030319
 11
18.7636535712
 21
-21.8043030319
  0
LINE
  5
2B7
100
AcDbEntity
  8
RACCORDO
100
AcDbLine
 62
250
  6
CONTINUOUS
 10
18.0248782713
 20
-21.8043030319
 11
11.8806183917
 21
-21.8043030319
  0
LINE
  5
2B8
100
AcDbEntity
  8
RACCORDO
100
AcDbLine
 62
250
  6
CONTINUOUS
 10
11.0112307418
 20
-21.8043030319
 11
3.2773011007
 21
-21.8043030319
  0
LINE
  5
2B9
100
AcDbEntity
  8
RACCORDO
100
AcDbLine
 62
250
  6
CONTINUOUS
 10
2.4079134508
 20
-21.8043030319
 11
-3.7363464288
 21
-21.8043030319
  0
LINE
  5
2BA
100
AcDbEntity
  8
RACCORDO
100
AcDbLine
 62
250
  6
CONTINUOUS
 10
-4.4751217287
 20
-21.8043030319
 11
-10.6193816083
 21
-21.8043030319
  0
LINE
  5
2BB
100
AcDbEntity
  8
RACCORDO
100
AcDbLine
 62
250
  6
CONTINUOUS
 10
-11.4887692582
 20
-21.8043030319
 11
-13.9522735314
 21
-21.8043030319
  0
LINE
  5
2BC
100
AcDbEntity
  8
RACCORDO
100
AcDbLine
 62
250
  6
CONTINUOUS
 10
-4.4120997398
 20
-21.7535701156
 11
-3.7993684177
 21
-21.7535701156
  0
LINE
  5
2BD
100
AcDbEntity
  8
RACCORDO
100
AcDbLine
 62
250
  6
CONTINUOUS
 10
18.0879002602
 20
-21.7535701156
 11
18.7006315823
 21
-21.7535701156
  0
LINE
  5
2BE
100
AcDbEntity
  8
RACCORDO
100
AcDbLine
 62
250
  6
CONTINUOUS
 10
28.0408358348
 20
-21.6043334929
 11
25.7807311871
 21
-21.6043334929
  0
LINE
  5
2BF
100
AcDbEntity
  8
RACCORDO
100
AcDbLine
 62
250
  6
CONTINUOUS
 10
24.9255861882
 20
-21.6043334929
 11
18.7459808338
 21
-21.6043334929
  0
LINE
  5
2C0
100
AcDbEntity
  8
RACCORDO
100
AcDbLine
 62
250
  6
CONTINUOUS
 10
18.0425510087
 20
-21.6043334929
 11
11.8629456544
 21
-21.6043334929
  0
LINE
  5
2C1
100
AcDbEntity
  8
RACCORDO
100
AcDbLine
 62
250
  6
CONTINUOUS
 10
11.0078006554
 20
-21.6043334929
 11
3.2807311871
 21
-21.6043334929
  0
LINE
  5
2C2
100
AcDbEntity
  8
RACCORDO
100
AcDbLine
 62
250
  6
CONTINUOUS
 10
2.4255861882
 20
-21.6043334929
 11
-3.7540191662
 21
-21.6043334929
  0
LINE
  5
2C3
100
AcDbEntity
  8
RACCORDO
100
AcDbLine
 62
250
  6
CONTINUOUS
 10
-4.4574489913
 20
-21.6043334929
 11
-10.6370543456
 21
-21.6043334929
  0
LINE
  5
2C4
100
AcDbEntity
  8
RACCORDO
100
AcDbLine
 62
250
  6
CONTINUOUS
 10
-11.4921993446
 20
-21.6043334929
 11
-13.7523039923
 21
-21.6043334929
  0
LINE
  5
2C5
100
AcDbEntity
  8
DRAFT
100
AcDbLine
 62
7
  6
CONTINUOUS
 10
-11.3316736739
 20
-21.4898143868
 11
-10.7173110684
 21
-21.4898143868
  0
LINE
  5
2C6
100
AcDbEntity
  8
DRAFT
100
AcDbLine
 62
7
  6
CONTINUOUS
 10
2.5058429109
 20
-21.4898143868
 11
3.1202055164
 21
-21.4898143868
  0
LINE
  5
2C7
100
AcDbEntity
  8
DRAFT
100
AcDbLine
 62
7
  6
CONTINUOUS
 10
11.1683263261
 20
-21.4898143868
 11
11.7826889316
 21
-21.4898143868
  0
LINE
  5
2C8
100
AcDbEntity
  8
DRAFT
100
AcDbLine
 62
7
  6
CONTINUOUS
 10
25.0058429109
 20
-21.4898143868
 11
25.6202055164
 21
-21.4898143868
  0
LINE
  5
2C9
100
AcDbEntity
  8
DRAFT
100
AcDbLine
 62
7
  6
CONTINUOUS
 10
-13.6231115994
 20
-21.4751410999
 11
-11.6213917376
 21
-21.4751410999
  0
LINE
  5
2CA
100
AcDbEntity
  8
DRAFT
100
AcDbLine
 62
7
  6
CONTINUOUS
 10
-10.5724630687
 20
-21.4751410999
 11
-4.5220402683
 21
-21.4751410999
  0
LINE
  5
2CB
100
AcDbEntity
  8
DRAFT
100
AcDbLine
 62
7
  6
CONTINUOUS
 10
-3.6894278892
 20
-21.4751410999
 11
2.3609949112
 21
-21.4751410999
  0
LINE
  5
2CC
100
AcDbEntity
  8
DRAFT
100
AcDbLine
 62
7
  6
CONTINUOUS
 10
3.4099235801
 20
-21.4751410999
 11
10.8786082624
 21
-21.4751410999
  0
LINE
  5
2CD
100
AcDbEntity
  8
DRAFT
100
AcDbLine
 62
7
  6
CONTINUOUS
 10
11.9275369313
 20
-21.4751410999
 11
17.9779597317
 21
-21.4751410999
  0
LINE
  5
2CE
100
AcDbEntity
  8
DRAFT
100
AcDbLine
 62
7
  6
CONTINUOUS
 10
18.8105721108
 20
-21.4751410999
 11
24.8609949112
 21
-21.4751410999
  0
LINE
  5
2CF
100
AcDbEntity
  8
DRAFT
100
AcDbLine
 62
7
  6
CONTINUOUS
 10
25.9099235801
 20
-21.4751410999
 11
27.9116434419
 21
-21.4751410999
  0
LINE
  5
2D0
100
AcDbEntity
  8
RACCORDO
100
AcDbLine
 62
7
  6
CONTINUOUS
 10
18.4010747802
 20
-20.9577635793
 11
18.3874570623
 21
-20.9577635793
  0
LINE
  5
2D1
100
AcDbEntity
  8
RACCORDO
100
AcDbLine
 62
7
  6
CONTINUOUS
 10
-4.0989252198
 20
-20.9577635793
 11
-4.1125429377
 21
-20.9577635793
  0
LINE
  5
2D2
100
AcDbEntity
  8
RACCORDO
100
AcDbLine
 62
7
  6
CONTINUOUS
 10
21.3655220619
 20
-24.9166391833
 11
21.552119269
 21
-24.9538676222
  0
LINE
  5
2D3
100
AcDbEntity
  8
RACCORDO
100
AcDbLine
 62
250
  6
CONTINUOUS
 10
21.3955620673
 20
-24.918660399
 11
21.5915558944
 21
-24.9577635793
  0
LINE
  5
2D4
100
AcDbEntity
  8
DRAFT
100
AcDbLine
 62
7
  6
CONTINUOUS
 10
3.2773011007
 20
-22.3577635793
 11
3.1342346934
 21
-22.2935453978
  0
LINE
  5
2D5
100
AcDbEntity
  8
RACCORDO
100
AcDbLine
 62
7
  6
CONTINUOUS
 10
2.7652153877
 20
-22.624741391
 11
2.8281857496
 21
-22.6577635793
  0
LINE
  5
2D6
100
AcDbEntity
  8
RACCORDO
100
AcDbLine
 62
7
  6
CONTINUOUS
 10
-4.5220402683
 20
-21.4751410999
 11
-4.4574489913
 21
-21.6043334929
  0
LINE
  5
2D7
100
AcDbEntity
  8
RACCORDO
100
AcDbLine
 62
250
  6
CONTINUOUS
 10
-11.0168678705
 20
17.0422364207
 11
-10.8706268513
 21
14.0874262894
  0
LINE
  5
2D8
100
AcDbEntity
  8
DRAFT
100
AcDbLine
 62
7
  6
CONTINUOUS
 10
-11.3457028509
 20
19.3780182393
 11
-11.3316736739
 21
18.5742872283
  0
LINE
  5
2D9
100
AcDbEntity
  8
RACCORDO
100
AcDbLine
 62
7
  6
CONTINUOUS
 10
-10.7147459331
 20
-21.7837497734
 11
-10.7173110684
 21
-21.4898143868
  0
LINE
  5
2DA
100
AcDbEntity
  8
RACCORDO
100
AcDbLine
 62
7
  6
CONTINUOUS
 10
-11.4887692582
 20
19.4422364207
 11
-11.4887692582
 21
18.8887758734
  0
LINE
  5
2DB
100
AcDbEntity
  8
RACCORDO
100
AcDbLine
 62
7
  6
CONTINUOUS
 10
-11.4887692582
 20
-22.3577635793
 11
-11.4887692582
 21
-21.8043030319
  0
LINE
  5
2DC
100
AcDbEntity
  8
RACCORDO
100
AcDbLine
 62
7
  6
CONTINUOUS
 10
-11.3316736739
 20
-20.2614683638
 11
-11.3316736739
 21
-21.4898143868
  0
LINE
  5
2DD
100
AcDbEntity
  8
RACCORDO
100
AcDbLine
 62
7
  6
CONTINUOUS
 10
-11.3316736739
 20
17.3459412053
 11
-11.3316736739
 21
18.5742872283
  0
LINE
  5
2DE
100
AcDbEntity
  8
RACCORDO
100
AcDbLine
 62
7
  6
CONTINUOUS
 10
-10.7173110684
 20
-20.2619299457
 11
-10.7173110684
 21
-21.4898143868
  0
LINE
  5
2DF
100
AcDbEntity
  8
RACCORDO
100
AcDbLine
 62
7
  6
CONTINUOUS
 10
-10.7173110684
 20
17.3464027872
 11
-10.7173110684
 21
18.5742872283
  0
LINE
  5
2E0
100
AcDbEntity
  8
RACCORDO
100
AcDbLine
 62
7
  6
CONTINUOUS
 10
-10.7147459331
 20
18.8682226148
 11
-10.7173110684
 21
18.5742872283
  0
LINE
  5
2E1
100
AcDbEntity
  8
DRAFT
100
AcDbLine
 62
7
  6
CONTINUOUS
 10
-11.3457028509
 20
-22.2935453978
 11
-11.3316736739
 21
-21.4898143868
  0
LWPOLYLINE
  5
2E2
100
AcDbEntity
  8
RACCORDO
100
AcDbPolyline
 62
7
  6
CONTINUOUS
 90
7
 70
0
 10
-10.6385514574
 20
18.7920281391
 10
-10.6382182565
 20
18.8076625619
 10
-10.636740346
 20
18.8236753161
 10
-10.634117726
 20
18.8399239719
 10
-10.6303503963
 20
18.8562734107
 10
-10.6254383571
 20
18.8725967151
 10
-10.6193816083
 20
18.8887758734
  0
LINE
  5
2E3
100
AcDbEntity
  8
RACCORDO
100
AcDbLine
 62
250
  6
CONTINUOUS
 10
-10.8706268513
 20
-17.0029534479
 11
-11.0168678705
 21
-19.9577635793
  0
LWPOLYLINE
  5
2E4
100
AcDbEntity
  8
RACCORDO
100
AcDbPolyline
 62
7
  6
CONTINUOUS
 90
16
 70
0
 10
-11.6240100372
 20
-17.3083548399
 10
-11.6223632666
 20
-17.2760973288
 10
-11.6174090498
 20
-17.2442788123
 10
-11.6092180019
 20
-17.2132371057
 10
-11.5978940167
 20
-17.1832827415
 10
-11.5835771083
 20
-17.1547463807
 10
-11.5664481491
 20
-17.1279721629
 10
-11.5467413752
 20
-17.1032660056
 10
-11.5246670363
 20
-17.0808346228
 10
-11.5003916478
 20
-17.0608573472
 10
-11.4741094784
 20
-17.0435196668
 10
-11.4461550024
 20
-17.0290596674
 10
-11.4169309656
 20
-17.017688755
 10
-11.3867987125
 20
-17.0095193094
 10
-11.3560574291
 20
-17.0045972873
 10
-11.3250416024
 20
-17.0029534479
  0
LWPOLYLINE
  5
2E5
100
AcDbEntity
  8
RACCORDO
100
AcDbPolyline
 62
7
  6
CONTINUOUS
 90
16
 70
0
 10
-10.5711541475
 20
14.3932918672
 10
-10.5728131164
 20
14.3610071276
 10
-10.5777834102
 20
14.329154708
 10
-10.5859955928
 20
14.2980734068
 10
-10.5973475764
 20
14.2680738365
 10
-10.6116994627
 20
14.2394890097
 10
-10.6288680326
 20
14.2126672822
 10
-10.6486184522
 20
14.1879155725
 10
-10.6707402186
 20
14.1654412943
 10
-10.6950637171
 20
14.1454267136
 10
-10.7213935587
 20
14.1280573799
 10
-10.7493942564
 20
14.1135714662
 10
-10.7786594067
 20
14.1021821187
 10
-10.808825515
 20
14.0940012529
 10
-10.8395931242
 20
14.089072854
 10
-10.8706268513
 20
14.0874262894
  0
LINE
  5
2E6
100
AcDbEntity
  8
RACCORDO
100
AcDbLine
 62
250
  6
CONTINUOUS
 10
2.2511245351
 20
19.1160503358
 11
2.17731062
 21
19.0422364207
  0
LINE
  5
2E7
100
AcDbEntity
  8
RACCORDO
100
AcDbLine
 62
250
  6
CONTINUOUS
 10
2.4270832999
 20
18.7920281391
 11
2.5032777756
 21
18.8682226148
  0
LINE
  5
2E8
100
AcDbEntity
  8
RACCORDO
100
AcDbLine
 62
7
  6
CONTINUOUS
 10
25.32106913
 20
-19.9577635793
 11
25.305399713
 21
-19.9577635793
  0
LINE
  5
2E9
100
AcDbEntity
  8
RACCORDO
100
AcDbLine
 62
7
  6
CONTINUOUS
 10
11.4831321295
 20
-19.9577635793
 11
11.4674627125
 21
-19.9577635793
  0
LINE
  5
2EA
100
AcDbEntity
  8
RACCORDO
100
AcDbLine
 62
7
  6
CONTINUOUS
 10
2.82106913
 20
-19.9577635793
 11
2.805399713
 21
-19.9577635793
  0
LINE
  5
2EB
100
AcDbEntity
  8
RACCORDO
100
AcDbLine
 62
7
  6
CONTINUOUS
 10
-11.0168678705
 20
-19.9577635793
 11
-11.0325372875
 21
-19.9577635793
  0
LINE
  5
2EC
100
AcDbEntity
  8
RACCORDO
100
AcDbLine
 62
7
  6
CONTINUOUS
 10
-4.2233836763
 20
-18.7182186191
 11
-3.9880844812
 21
-18.7182186191
  0
LINE
  5
2ED
100
AcDbEntity
  8
RACCORDO
100
AcDbLine
 62
7
  6
CONTINUOUS
 10
18.2766163237
 20
-18.7182186191
 11
18.5119155188
 21
-18.7182186191
  0
LWPOLYLINE
  5
2EE
100
AcDbEntity
  8
RACCORDO
100
AcDbPolyline
 62
7
  6
CONTINUOUS
 90
16
 70
0
 10
-3.9880844812
 20
-18.7182186191
 10
-3.9570618159
 20
-18.7198654286
 10
-3.9263244109
 20
-18.7247890984
 10
-3.896205708
 20
-18.7329544323
 10
-3.8670160465
 20
-18.7443056848
 10
-3.8390990864
 20
-18.7587296637
 10
-3.8128180982
 20
-18.7760368126
 10
-3.7885019218
 20
-18.7960055911
 10
-3.7663609676
 20
-18.8184517964
 10
-3.7465650731
 20
-18.8432073798
 10
-3.7293234191
 20
-18.8700905685
 10
-3.7148961536
 20
-18.8987822622
 10
-3.7034953234
 20
-18.9288829816
 10
-3.6952604264
 20
-18.9600366557
 10
-3.6902810481
 20
-18.9919463911
 10
-3.6886210346
 20
-19.0242712408
  0
LINE
  5
2EF
100
AcDbEntity
  8
RACCORDO
100
AcDbLine
 62
250
  6
CONTINUOUS
 10
2.17731062
 20
-21.9577635793
 11
2.2511245351
 21
-22.0315774944
  0
LINE
  5
2F0
100
AcDbEntity
  8
RACCORDO
100
AcDbLine
 62
250
  6
CONTINUOUS
 10
2.4270832999
 20
-21.7075552977
 11
2.5032777756
 21
-21.7837497734
  0
LWPOLYLINE
  5
2F1
100
AcDbEntity
  8
RACCORDO
100
AcDbPolyline
 62
7
  6
CONTINUOUS
 90
7
 70
0
 10
-3.7363464288
 20
-21.8043030319
 10
-3.7423902059
 20
-21.7881932643
 10
-3.7472944621
 20
-21.7719104821
 10
-3.7510591975
 20
-21.7555726565
 10
-3.7536844119
 20
-21.7393078072
 10
-3.7551701053
 20
-21.7232533607
 10
-3.7555162779
 20
-21.7075552977
  0
LINE
  5
2F2
100
AcDbEntity
  8
RACCORDO
100
AcDbLine
 62
250
  6
CONTINUOUS
 10
-10.7173110684
 20
17.3464027872
 11
-10.5711541475
 21
14.3932918672
  0
LINE
  5
2F3
100
AcDbEntity
  8
RACCORDO
100
AcDbLine
 62
7
  6
CONTINUOUS
 10
-8.1057340787
 20
19.7422364207
 11
-8.1057340787
 21
19.6506432041
  0
LINE
  5
2F4
100
AcDbEntity
  8
RACCORDO
100
AcDbLine
 62
7
  6
CONTINUOUS
 10
-8.1057340787
 20
-22.5661703626
 11
-8.1057340787
 21
-22.6569551288
  0
LINE
  5
2F5
100
AcDbEntity
  8
RACCORDO
100
AcDbLine
 62
250
  6
CONTINUOUS
 10
-10.5711541475
 20
-17.3088190257
 11
-10.7173110684
 21
-20.2619299457
  0
LWPOLYLINE
  5
2F6
100
AcDbEntity
  8
RACCORDO
100
AcDbPolyline
 62
7
  6
CONTINUOUS
 90
6
 70
0
 10
14.4094181244
 20
21.9545227854
 10
14.4264607571
 20
21.9661901338
 10
14.4325728831
 20
21.9704552361
 10
14.4368811022
 20
21.9736022182
 10
14.4394843044
 20
21.9756136358
 10
14.4403824897
 20
21.9764665763
  0
LWPOLYLINE
  5
2F7
100
AcDbEntity
  8
RACCORDO
100
AcDbPolyline
 62
7
  6
CONTINUOUS
 90
3
 70
0
 10
14.3594934513
 20
21.9209404493
 10
14.3987607264
 20
21.9472959815
 10
14.4094181244
 20
21.9545227854
  0
LINE
  5
2F8
100
AcDbEntity
  8
RACCORDO
100
AcDbLine
 62
7
  6
CONTINUOUS
 10
14.1711782069
 20
21.795379522
 11
14.236261747
 21
21.8388861794
  0
LINE
  5
2F9
100
AcDbEntity
  8
RACCORDO
100
AcDbLine
 62
7
  6
CONTINUOUS
 10
14.236261747
 20
21.8388861794
 11
14.3594934513
 21
21.9209404493
  0
LINE
  5
2FA
100
AcDbEntity
  8
RACCORDO
100
AcDbLine
 62
7
  6
CONTINUOUS
 10
14.147926156
 20
21.7799875185
 11
14.1711782069
 21
21.795379522
  0
LINE
  5
2FB
100
AcDbEntity
  8
RACCORDO
100
AcDbLine
 62
7
  6
CONTINUOUS
 10
-11.3250416024
 20
-17.0029534479
 11
-10.8706268513
 21
-17.0029534479
  0
LINE
  5
2FC
100
AcDbEntity
  8
RACCORDO
100
AcDbLine
 62
7
  6
CONTINUOUS
 10
2.6591586938
 20
-17.0029534479
 11
3.113573445
 21
-17.0029534479
  0
LINE
  5
2FD
100
AcDbEntity
  8
RACCORDO
100
AcDbLine
 62
7
  6
CONTINUOUS
 10
11.1749583976
 20
-17.0029534479
 11
11.6293731487
 21
-17.0029534479
  0
LINE
  5
2FE
100
AcDbEntity
  8
RACCORDO
100
AcDbLine
 62
7
  6
CONTINUOUS
 10
25.1591586938
 20
-17.0029534479
 11
25.613573445
 21
-17.0029534479
  0
LWPOLYLINE
  5
2FF
100
AcDbEntity
  8
RACCORDO
100
AcDbPolyline
 62
7
  6
CONTINUOUS
 90
16
 70
0
 10
18.5119155188
 20
-18.7182186191
 10
18.5429381841
 20
-18.7198654286
 10
18.5736755891
 20
-18.7247890984
 10
18.603794292
 20
-18.7329544323
 10
18.6329839535
 20
-18.7443056848
 10
18.6609009136
 20
-18.7587296637
 10
18.6871819018
 20
-18.7760368126
 10
18.7114980782
 20
-18.7960055911
 10
18.7336390324
 20
-18.8184517964
 10
18.7534349269
 20
-18.8432073798
 10
18.7706765809
 20
-18.8700905685
 10
18.7851038464
 20
-18.8987822622
 10
18.7965046766
 20
-18.9288829816
 10
18.8047395736
 20
-18.9600366557
 10
18.8097189519
 20
-18.9919463911
 10
18.8113789654
 20
-19.0242712408
  0
LWPOLYLINE
  5
300
100
AcDbEntity
  8
RACCORDO
100
AcDbPolyline
 62
7
  6
CONTINUOUS
 90
16
 70
0
 10
-10.8706268513
 20
-17.0029534479
 10
-10.8395931242
 20
-17.0046000126
 10
-10.808825515
 20
-17.0095284114
 10
-10.7786594067
 20
-17.0177092772
 10
-10.7493942564
 20
-17.0290986248
 10
-10.7213935587
 20
-17.0435845385
 10
-10.6950637171
 20
-17.0609538722
 10
-10.6707402186
 20
-17.0809684529
 10
-10.6486184522
 20
-17.103442731
 10
-10.6288680326
 20
-17.1281944408
 10
-10.6116994627
 20
-17.1550161682
 10
-10.5973475764
 20
-17.183600995
 10
-10.5859955928
 20
-17.2136005653
 10
-10.5777834102
 20
-17.2446818666
 10
-10.5728131164
 20
-17.2765342861
 10
-10.5711541475
 20
-17.3088190257
  0
LWPOLYLINE
  5
301
100
AcDbEntity
  8
RACCORDO
100
AcDbPolyline
 62
7
  6
CONTINUOUS
 90
16
 70
0
 10
3.113573445
 20
-17.0029534479
 10
3.1445892716
 20
-17.0045972873
 10
3.175330555
 20
-17.0095193094
 10
3.2054628081
 20
-17.017688755
 10
3.2346868449
 20
-17.0290596674
 10
3.262641321
 20
-17.0435196668
 10
3.2889234903
 20
-17.0608573472
 10
3.3131988789
 20
-17.0808346228
 10
3.3352732177
 20
-17.1032660056
 10
3.3549799916
 20
-17.1279721629
 10
3.3721089508
 20
-17.1547463807
 10
3.3864258592
 20
-17.1832827415
 10
3.3977498444
 20
-17.2132371057
 10
3.4059408923
 20
-17.2442788123
 10
3.4108951091
 20
-17.2760973288
 10
3.4125418797
 20
-17.3083548399
  0
LWPOLYLINE
  5
302
100
AcDbEntity
  8
RACCORDO
100
AcDbPolyline
 62
7
  6
CONTINUOUS
 90
16
 70
0
 10
11.6293731487
 20
-17.0029534479
 10
11.6604068758
 20
-17.0046000126
 10
11.691174485
 20
-17.0095284114
 10
11.7213405933
 20
-17.0177092772
 10
11.7506057436
 20
-17.0290986248
 10
11.7786064413
 20
-17.0435845385
 10
11.8049362829
 20
-17.0609538722
 10
11.8292597814
 20
-17.0809684529
 10
11.8513815478
 20
-17.103442731
 10
11.8711319674
 20
-17.1281944408
 10
11.8883005373
 20
-17.1550161682
 10
11.9026524236
 20
-17.183600995
 10
11.9140044072
 20
-17.2136005653
 10
11.9222165898
 20
-17.2446818666
 10
11.9271868836
 20
-17.2765342861
 10
11.9288458525
 20
-17.3088190257
  0
LWPOLYLINE
  5
303
100
AcDbEntity
  8
RACCORDO
100
AcDbPolyline
 62
7
  6
CONTINUOUS
 90
3
 70
0
 10
14.3594894769
 20
-24.8364655389
 10
14.1934889497
 20
-24.7258044677
 10
14.147926156
 20
-24.6955146771
  0
LINE
  5
304
100
AcDbEntity
  8
RACCORDO
100
AcDbLine
 62
7
  6
CONTINUOUS
 10
14.3987708103
 20
-24.8628299941
 11
14.3594894769
 21
-24.8364655389
  0
LWPOLYLINE
  5
305
100
AcDbEntity
  8
RACCORDO
100
AcDbPolyline
 62
7
  6
CONTINUOUS
 90
3
 70
0
 10
14.4264586549
 20
-24.881714561
 10
14.4094247049
 20
-24.8700544076
 10
14.3987708103
 20
-24.8628299941
  0
LINE
  5
306
100
AcDbEntity
  8
DRAFT
100
AcDbLine
 62
7
  6
CONTINUOUS
 10
-7.1849319424
 20
-23.6577635793
 11
-7.2057340787
 21
-22.6577635793
  0
LINE
  5
307
100
AcDbEntity
  8
RACCORDO
100
AcDbLine
 62
250
  6
CONTINUOUS
 10
-6.6090081509
 20
-24.9106958305
 11
-6.6090081509
 21
-24.9107262915
  0
LINE
  5
308
100
AcDbEntity
  8
RACCORDO
100
AcDbLine
 62
250
  6
CONTINUOUS
 10
-6.6090081509
 20
21.995168672
 11
-6.6090081509
 21
21.995199133
  0
LINE
  5
309
100
AcDbEntity
  8
DRAFT
100
AcDbLine
 62
7
  6
CONTINUOUS
 10
-7.2057340787
 20
19.7422364207
 11
-7.1849319424
 21
20.7422364207
  0
LINE
  5
30A
100
AcDbEntity
  8
RACCORDO
100
AcDbLine
 62
7
  6
CONTINUOUS
 10
-1.3993048584
 20
19.7422364207
 11
-1.1116219065
 21
20.7422364207
  0
LINE
  5
30B
100
AcDbEntity
  8
RACCORDO
100
AcDbLine
 62
7
  6
CONTINUOUS
 10
-0.1323967311
 20
22.0422364207
 11
-0.1518506472
 21
21.9764665763
  0
LINE
  5
30C
100
AcDbEntity
  8
RACCORDO
100
AcDbLine
 62
7
  6
CONTINUOUS
 10
2.3609949112
 20
18.5596139414
 11
2.4255861882
 21
18.6888063343
  0
LWPOLYLINE
  5
30D
100
AcDbEntity
  8
RACCORDO
100
AcDbPolyline
 62
7
  6
CONTINUOUS
 90
8
 70
0
 10
11.5015357712
 20
19.688555781
 10
11.5075010825
 20
19.6939417456
 10
11.5125119034
 20
19.6985294902
 10
11.5165925829
 20
19.7023077966
 10
11.5197160818
 20
19.7052613903
 10
11.5218733868
 20
19.7073909292
 10
11.5230735112
 20
19.7087054331
 10
11.5233164548
 20
19.7092142325
  0
LWPOLYLINE
  5
30E
100
AcDbEntity
  8
RACCORDO
100
AcDbPolyline
 62
7
  6
CONTINUOUS
 90
4
 70
0
 10
11.4588580424
 20
19.6506432041
 10
11.4690403536
 20
19.6595759724
 10
11.4783926097
 20
19.6678661382
 10
11.5015357712
 20
19.688555781
  0
LWPOLYLINE
  5
30F
100
AcDbEntity
  8
RACCORDO
100
AcDbPolyline
 62
7
  6
CONTINUOUS
 90
16
 70
0
 10
25.613573445
 20
-17.0029534479
 10
25.6445892716
 20
-17.0045972873
 10
25.675330555
 20
-17.0095193094
 10
25.7054628081
 20
-17.017688755
 10
25.7346868449
 20
-17.0290596674
 10
25.762641321
 20
-17.0435196668
 10
25.7889234903
 20
-17.0608573472
 10
25.8131988789
 20
-17.0808346228
 10
25.8352732177
 20
-17.1032660056
 10
25.8549799916
 20
-17.1279721629
 10
25.8721089508
 20
-17.1547463807
 10
25.8864258592
 20
-17.1832827415
 10
25.8977498444
 20
-17.2132371057
 10
25.9059408923
 20
-17.2442788123
 10
25.9108951091
 20
-17.2760973288
 10
25.9125418797
 20
-17.3083548399
  0
LINE
  5
310
100
AcDbEntity
  8
RACCORDO
100
AcDbLine
 62
7
  6
CONTINUOUS
 10
11.4690399228
 20
-22.5751030028
 11
11.4588580424
 21
-22.5661703626
  0
LINE
  5
311
100
AcDbEntity
  8
RACCORDO
100
AcDbLine
 62
7
  6
CONTINUOUS
 10
11.4869128728
 20
-22.5910039619
 11
11.4690399228
 21
-22.5751030028
  0
LINE
  5
312
100
AcDbEntity
  8
RACCORDO
100
AcDbLine
 62
7
  6
CONTINUOUS
 10
2.3609949112
 20
-21.4751410999
 11
2.4255861882
 21
-21.6043334929
  0
LINE
  5
313
100
AcDbEntity
  8
RACCORDO
100
AcDbLine
 62
7
  6
CONTINUOUS
 10
-0.1323967311
 20
-24.9577635793
 11
-0.1518506472
 21
-24.8919937348
  0
LINE
  5
314
100
AcDbEntity
  8
RACCORDO
100
AcDbLine
 62
7
  6
CONTINUOUS
 10
-1.1116219065
 20
-23.6577635793
 11
-1.3993048584
 21
-22.6577635793
  0
LWPOLYLINE
  5
315
100
AcDbEntity
  8
RACCORDO
100
AcDbPolyline
 62
7
  6
CONTINUOUS
 90
16
 70
0
 10
-3.7993684177
 20
-21.7514074375
 10
-3.7981119892
 20
-21.7765522194
 10
-3.7943624556
 20
-21.8014304928
 10
-3.7881678661
 20
-21.8257926538
 10
-3.7796354582
 20
-21.8493160173
 10
-3.7688424956
 20
-21.8718552115
 10
-3.7557563922
 20
-21.8934062407
 10
-3.7404088155
 20
-21.9137678457
 10
-3.7229370559
 20
-21.9326273618
 10
-3.7034266414
 20
-21.9497716713
 10
-3.682101591
 20
-21.9649062325
 10
-3.659087298
 20
-21.9778495445
 10
-3.6343099393
 20
-21.9884776463
 10
-3.607889019
 20
-21.9965132254
 10
-3.5801908182
 20
-22.0016278133
 10
-3.5515406151
 20
-22.0035605963
  0
LINE
  5
316
100
AcDbEntity
  8
RACCORDO
100
AcDbLine
 62
250
  6
CONTINUOUS
 10
-4.4120997398
 20
-21.2619299457
 11
-4.5228471229
 21
-19.0242712408
  0
LINE
  5
317
100
AcDbEntity
  8
RACCORDO
100
AcDbLine
 62
250
  6
CONTINUOUS
 10
-4.1125429377
 20
-20.9577635793
 11
-4.2233836763
 21
-18.7182186191
  0
LINE
  5
318
100
AcDbEntity
  8
RACCORDO
100
AcDbLine
 62
7
  6
CONTINUOUS
 10
-4.4120997398
 20
18.838042957
 11
-4.4120997398
 21
18.3464027872
  0
LINE
  5
319
100
AcDbEntity
  8
RACCORDO
100
AcDbLine
 62
7
  6
CONTINUOUS
 10
-4.4120997398
 20
-21.2619299457
 11
-4.4120997398
 21
-21.7535701156
  0
LINE
  5
31A
100
AcDbEntity
  8
RACCORDO
100
AcDbLine
 62
7
  6
CONTINUOUS
 10
-3.7993684177
 20
-21.7535701156
 11
-3.7993684177
 21
-21.2619299457
  0
LINE
  5
31B
100
AcDbEntity
  8
RACCORDO
100
AcDbLine
 62
7
  6
CONTINUOUS
 10
-3.7993684177
 20
18.3464027872
 11
-3.7993684177
 21
18.838042957
  0
LWPOLYLINE
  5
31C
100
AcDbEntity
  8
RACCORDO
100
AcDbPolyline
 62
7
  6
CONTINUOUS
 90
7
 70
0
 10
-3.7555162779
 20
18.7920281391
 10
-3.755183077
 20
18.8076625619
 10
-3.7537051665
 20
18.8236753161
 10
-3.7510825465
 20
18.8399239719
 10
-3.7473152168
 20
18.8562734107
 10
-3.7424031776
 20
18.8725967151
 10
-3.7363464288
 20
18.8887758734
  0
LWPOLYLINE
  5
31D
100
AcDbEntity
  8
RACCORDO
100
AcDbPolyline
 62
7
  6
CONTINUOUS
 90
7
 70
0
 10
-4.4559518796
 20
-21.7075552977
 10
-4.4562916634
 20
-21.7232220382
 10
-4.4577735236
 20
-21.7392559641
 10
-4.4603974602
 20
-21.7555128438
 10
-4.4641634733
 20
-21.7718563861
 10
-4.4690715628
 20
-21.7881591128
 10
-4.4751217287
 20
-21.8043030319
  0
LINE
  5
31E
100
AcDbEntity
  8
RACCORDO
100
AcDbLine
 62
250
  6
CONTINUOUS
 10
-4.4120997398
 20
18.3464027872
 11
-4.5228471229
 21
16.1087440823
  0
LINE
  5
31F
100
AcDbEntity
  8
RACCORDO
100
AcDbLine
 62
250
  6
CONTINUOUS
 10
-4.1125429377
 20
18.0422364207
 11
-4.2233836763
 21
15.8026914606
  0
LWPOLYLINE
  5
320
100
AcDbEntity
  8
RACCORDO
100
AcDbPolyline
 62
7
  6
CONTINUOUS
 90
16
 70
0
 10
-3.6886210346
 20
16.1087440823
 10
-3.6902800375
 20
16.0764293217
 10
-3.6952520844
 20
16.0445495594
 10
-3.7034671567
 20
16.0134437707
 10
-3.714822479
 20
15.9834226467
 10
-3.7291776325
 20
15.9548191063
 10
-3.7463492684
 20
15.9279813462
 10
-3.7661023783
 20
15.903216021
 10
-3.7882260451
 20
15.8807304944
 10
-3.8125503893
 20
15.8607071892
 10
-3.8388799681
 20
15.8433313074
 10
-3.8668790093
 20
15.8288407538
 10
-3.8961405015
 20
15.8174487329
 10
-3.9263007215
 20
15.8092667375
 10
-3.9570604497
 20
15.8043380383
 10
-3.9880844812
 20
15.8026914606
  0
LWPOLYLINE
  5
321
100
AcDbEntity
  8
RACCORDO
100
AcDbPolyline
 62
7
  6
CONTINUOUS
 90
16
 70
0
 10
-4.5228471229
 20
-19.0242712408
 10
-4.52118812
 20
-18.9919564802
 10
-4.5162160731
 20
-18.960076718
 10
-4.5080010008
 20
-18.9289709292
 10
-4.4966456785
 20
-18.8989498052
 10
-4.4822905249
 20
-18.8703462648
 10
-4.4651188891
 20
-18.8435085047
 10
-4.4453657792
 20
-18.8187431795
 10
-4.4232421123
 20
-18.7962576529
 10
-4.3989177682
 20
-18.7762343477
 10
-4.3725881894
 20
-18.7588584659
 10
-4.3445891482
 20
-18.7443679123
 10
-4.315327656
 20
-18.7329758914
 10
-4.285167436
 20
-18.724793896
 10
-4.2544077078
 20
-18.7198651968
 10
-4.2233836763
 20
-18.7182186191
  0
LWPOLYLINE
  5
322
100
AcDbEntity
  8
RACCORDO
100
AcDbPolyline
 62
7
  6
CONTINUOUS
 90
16
 70
0
 10
-3.7993684177
 20
18.838042957
 10
-3.7978955827
 20
18.8626576806
 10
-3.7940609723
 20
18.8871395648
 10
-3.7878645865
 20
18.9112438572
 10
-3.7792408382
 20
18.9347064544
 10
-3.7682553145
 20
18.9573015922
 10
-3.7551047768
 20
18.9788361036
 10
-3.7397481404
 20
18.9990474184
 10
-3.7222264898
 20
19.017716612
 10
-3.7028598401
 20
19.0346916287
 10
-3.6816442843
 20
19.0496905287
 10
-3.6585837293
 20
19.0625189444
 10
-3.6340099112
 20
19.0730601451
 10
-3.6080334089
 20
19.0810373604
 10
-3.5805436435
 20
19.0861167695
 10
-3.5515406151
 20
19.0880334378
  0
LINE
  5
323
100
AcDbEntity
  8
RACCORDO
100
AcDbLine
 62
7
  6
CONTINUOUS
 10
-1.4085955862
 20
19.683657777
 11
-1.3993048584
 21
19.7422364207
  0
LINE
  5
324
100
AcDbEntity
  8
RACCORDO
100
AcDbLine
 62
7
  6
CONTINUOUS
 10
10.8786082624
 20
18.5596139414
 11
11.0078006554
 21
18.6888063343
  0
LINE
  5
325
100
AcDbEntity
  8
DRAFT
100
AcDbLine
 62
7
  6
CONTINUOUS
 10
25.7773011007
 20
19.4422364207
 11
25.6342346934
 21
19.3780182393
  0
LINE
  5
326
100
AcDbEntity
  8
DRAFT
100
AcDbLine
 62
7
  6
CONTINUOUS
 10
25.7773011007
 20
-22.3577635793
 11
25.6342346934
 21
-22.2935453978
  0
LWPOLYLINE
  5
327
100
AcDbEntity
  8
RACCORDO
100
AcDbPolyline
 62
7
  6
CONTINUOUS
 90
5
 70
0
 10
14.4403824897
 20
-24.8919937348
 10
14.4394807283
 20
-24.8911399169
 10
14.4368758191
 20
-24.8891269529
 10
14.4325677622
 20
-24.8859787698
 10
14.4264586549
 20
-24.881714561
  0
LINE
  5
328
100
AcDbEntity
  8
RACCORDO
100
AcDbLine
 62
7
  6
CONTINUOUS
 10
10.8786082624
 20
-21.4751410999
 11
11.0078006554
 21
-21.6043334929
  0
LINE
  5
329
100
AcDbEntity
  8
RACCORDO
100
AcDbLine
 62
7
  6
CONTINUOUS
 10
-1.4085955862
 20
-22.5991849355
 11
-1.3993048584
 21
-22.6577635793
  0
LWPOLYLINE
  5
32A
100
AcDbEntity
  8
RACCORDO
100
AcDbPolyline
 62
7
  6
CONTINUOUS
 90
16
 70
0
 10
-4.4120997398
 20
18.8358802789
 10
-4.4133561683
 20
18.8610250608
 10
-4.4171057019
 20
18.8859033343
 10
-4.4233002914
 20
18.9102654952
 10
-4.4318326993
 20
18.9337888587
 10
-4.4426256619
 20
18.956328053
 10
-4.4557117653
 20
18.9778790821
 10
-4.471059342
 20
18.9982406871
 10
-4.4885311016
 20
19.0171002032
 10
-4.5080415161
 20
19.0342445128
 10
-4.5293665665
 20
19.0493790739
 10
-4.5523808595
 20
19.0623223859
 10
-4.5771582182
 20
19.0729504878
 10
-4.6035791385
 20
19.0809860669
 10
-4.6312773393
 20
19.0861006548
 10
-4.6599275424
 20
19.0880334378
  0
LINE
  5
32B
100
AcDbEntity
  8
RACCORDO
100
AcDbLine
 62
250
  6
CONTINUOUS
 10
-4.0989252198
 20
18.0422364207
 11
-3.9880844812
 21
15.8026914606
  0
LINE
  5
32C
100
AcDbEntity
  8
RACCORDO
100
AcDbLine
 62
250
  6
CONTINUOUS
 10
-3.7993684177
 20
18.3464027872
 11
-3.6886210346
 21
16.1087440823
  0
LINE
  5
32D
100
AcDbEntity
  8
RACCORDO
100
AcDbLine
 62
250
  6
CONTINUOUS
 10
-1.6024600066
 20
-24.9106958305
 11
-1.6024600066
 21
-24.9107262915
  0
LINE
  5
32E
100
AcDbEntity
  8
RACCORDO
100
AcDbLine
 62
250
  6
CONTINUOUS
 10
-1.6024600066
 20
21.995168672
 11
-1.6024600066
 21
21.995199133
  0
LINE
  5
32F
100
AcDbEntity
  8
RACCORDO
100
AcDbLine
 62
250
  6
CONTINUOUS
 10
-4.0989252198
 20
-20.9577635793
 11
-3.9880844812
 21
-18.7182186191
  0
LINE
  5
330
100
AcDbEntity
  8
RACCORDO
100
AcDbLine
 62
250
  6
CONTINUOUS
 10
-3.7993684177
 20
-21.2619299457
 11
-3.6886210346
 21
-19.0242712408
  0
LWPOLYLINE
  5
331
100
AcDbEntity
  8
RACCORDO
100
AcDbPolyline
 62
7
  6
CONTINUOUS
 90
16
 70
0
 10
-4.4120997398
 20
-21.7535701156
 10
-4.4135725748
 20
-21.7781848391
 10
-4.4174071852
 20
-21.8026667233
 10
-4.423603571
 20
-21.8267710157
 10
-4.4322273193
 20
-21.8502336129
 10
-4.4432128429
 20
-21.8728287507
 10
-4.4563633807
 20
-21.8943632621
 10
-4.4717200171
 20
-21.914574577
 10
-4.4892416677
 20
-21.9332437705
 10
-4.5086083174
 20
-21.9502187872
 10
-4.5298238732
 20
-21.9652176872
 10
-4.5528844282
 20
-21.9780461029
 10
-4.5774582463
 20
-21.9885873037
 10
-4.6034347486
 20
-21.9965645189
 10
-4.630924514
 20
-22.001643928
 10
-4.6599275424
 20
-22.0035605963
  0
LINE
  5
332
100
AcDbEntity
  8
RACCORDO
100
AcDbLine
 62
7
  6
CONTINUOUS
 10
-6.8028725713
 20
-22.5991849355
 11
-6.8121632991
 21
-22.6577635793
  0
LINE
  5
333
100
AcDbEntity
  8
RACCORDO
100
AcDbLine
 62
7
  6
CONTINUOUS
 10
25.3281857496
 20
19.7422364207
 11
25.2652153877
 21
19.7092142325
  0
LINE
  5
334
100
AcDbEntity
  8
RACCORDO
100
AcDbLine
 62
7
  6
CONTINUOUS
 10
25.2652153877
 20
-22.624741391
 11
25.3281857496
 21
-22.6577635793
  0
LINE
  5
335
100
AcDbEntity
  8
RACCORDO
100
AcDbLine
 62
7
  6
CONTINUOUS
 10
-6.8028725713
 20
19.683657777
 11
-6.8121632991
 21
19.7422364207
  0
LINE
  5
336
100
AcDbEntity
  8
DRAFT
100
AcDbLine
 62
7
  6
CONTINUOUS
 10
-1.0057340787
 20
19.7422364207
 11
-1.0265362151
 21
20.7422364207
  0
LINE
  5
337
100
AcDbEntity
  8
RACCORDO
100
AcDbLine
 62
7
  6
CONTINUOUS
 10
-0.1057340787
 20
-22.6577635793
 11
-0.1057340787
 21
-22.5661703626
  0
LINE
  5
338
100
AcDbEntity
  8
RACCORDO
100
AcDbLine
 62
7
  6
CONTINUOUS
 10
-0.1057340787
 20
19.6506432041
 11
-0.1057340787
 21
19.7414279702
  0
LINE
  5
339
100
AcDbEntity
  8
DRAFT
100
AcDbLine
 62
7
  6
CONTINUOUS
 10
-1.0265362151
 20
-23.6577635793
 11
-1.0057340787
 21
-22.6577635793
  0
LINE
  5
33A
100
AcDbEntity
  8
RACCORDO
100
AcDbLine
 62
7
  6
CONTINUOUS
 10
-7.099846251
 20
-23.6577635793
 11
-6.8121632991
 21
-22.6577635793
  0
LINE
  5
33B
100
AcDbEntity
  8
RACCORDO
100
AcDbLine
 62
7
  6
CONTINUOUS
 10
-8.0790714264
 20
-24.9577635793
 11
-8.0596175103
 21
-24.8919937348
  0
LINE
  5
33C
100
AcDbEntity
  8
RACCORDO
100
AcDbLine
 62
7
  6
CONTINUOUS
 10
-10.5724630687
 20
-21.4751410999
 11
-10.6370543456
 21
-21.6043334929
  0
LINE
  5
33D
100
AcDbEntity
  8
RACCORDO
100
AcDbLine
 62
250
  6
CONTINUOUS
 10
17.8400724576
 20
19.0880334378
 11
17.7942754405
 21
19.0422364207
  0
LINE
  5
33E
100
AcDbEntity
  8
RACCORDO
100
AcDbLine
 62
250
  6
CONTINUOUS
 10
18.0440481204
 20
18.7920281391
 11
18.0879002602
 21
18.8358802789
  0
LINE
  5
33F
100
AcDbEntity
  8
RACCORDO
100
AcDbLine
 62
250
  6
CONTINUOUS
 10
17.7942754405
 20
-21.9577635793
 11
17.8400724576
 21
-22.0035605963
  0
LINE
  5
340
100
AcDbEntity
  8
RACCORDO
100
AcDbLine
 62
250
  6
CONTINUOUS
 10
18.0440481204
 20
-21.7075552977
 11
18.0879002602
 21
-21.7514074375
  0
LINE
  5
341
100
AcDbEntity
  8
RACCORDO
100
AcDbLine
 62
7
  6
CONTINUOUS
 10
-10.5724630687
 20
18.5596139414
 11
-10.6370543456
 21
18.6888063343
  0
LINE
  5
342
100
AcDbEntity
  8
RACCORDO
100
AcDbLine
 62
7
  6
CONTINUOUS
 10
-8.0790714264
 20
22.0422364207
 11
-8.0596175103
 21
21.9764665763
  0
LINE
  5
343
100
AcDbEntity
  8
RACCORDO
100
AcDbLine
 62
7
  6
CONTINUOUS
 10
-6.8121632991
 20
19.7422364207
 11
-7.099846251
 21
20.7422364207
  0
LINE
  5
344
100
AcDbEntity
  8
RACCORDO
100
AcDbLine
 62
250
  6
CONTINUOUS
 10
2.5058429109
 20
-20.2619299457
 11
2.35968599
 21
-17.3088190257
  0
LINE
  5
345
100
AcDbEntity
  8
RACCORDO
100
AcDbLine
 62
250
  6
CONTINUOUS
 10
2.805399713
 20
-19.9577635793
 11
2.6591586938
 21
-17.0029534479
  0
LINE
  5
346
100
AcDbEntity
  8
DRAFT
100
AcDbLine
 62
7
  6
CONTINUOUS
 10
3.1342346934
 20
-22.2935453978
 11
3.1202055164
 21
-21.4898143868
  0
LINE
  5
347
100
AcDbEntity
  8
RACCORDO
100
AcDbLine
 62
7
  6
CONTINUOUS
 10
2.5032777756
 20
18.8682226148
 11
2.5058429109
 21
18.5742872283
  0
LINE
  5
348
100
AcDbEntity
  8
RACCORDO
100
AcDbLine
 62
7
  6
CONTINUOUS
 10
2.5058429109
 20
-20.2619299457
 11
2.5058429109
 21
-21.4898143868
  0
LINE
  5
349
100
AcDbEntity
  8
RACCORDO
100
AcDbLine
 62
7
  6
CONTINUOUS
 10
2.5058429109
 20
17.3464027872
 11
2.5058429109
 21
18.5742872283
  0
LINE
  5
34A
100
AcDbEntity
  8
RACCORDO
100
AcDbLine
 62
7
  6
CONTINUOUS
 10
2.5032777756
 20
-21.7837497734
 11
2.5058429109
 21
-21.4898143868
  0
LINE
  5
34B
100
AcDbEntity
  8
DRAFT
100
AcDbLine
 62
7
  6
CONTINUOUS
 10
3.1342346934
 20
19.3780182393
 11
3.1202055164
 21
18.5742872283
  0
LWPOLYLINE
  5
34C
100
AcDbEntity
  8
RACCORDO
100
AcDbPolyline
 62
7
  6
CONTINUOUS
 90
7
 70
0
 10
2.4270832999
 20
-21.7075552977
 10
2.4267435161
 20
-21.7232220382
 10
2.4252616559
 20
-21.7392559641
 10
2.4226377193
 20
-21.7555128438
 10
2.4188717062
 20
-21.7718563861
 10
2.4139636167
 20
-21.7881591128
 10
2.4079134508
 20
-21.8043030319
  0
LINE
  5
34D
100
AcDbEntity
  8
RACCORDO
100
AcDbLine
 62
250
  6
CONTINUOUS
 10
2.35968599
 20
14.3932918672
 11
2.5058429109
 21
17.3464027872
  0
LINE
  5
34E
100
AcDbEntity
  8
RACCORDO
100
AcDbLine
 62
250
  6
CONTINUOUS
 10
2.6591586938
 20
14.0874262894
 11
2.805399713
 21
17.0422364207
  0
LWPOLYLINE
  5
34F
100
AcDbEntity
  8
RACCORDO
100
AcDbPolyline
 62
7
  6
CONTINUOUS
 90
16
 70
0
 10
3.4125418797
 20
14.3928276814
 10
3.4108951091
 20
14.3605701703
 10
3.4059408923
 20
14.3287516538
 10
3.3977498444
 20
14.2977099471
 10
3.3864258592
 20
14.267755583
 10
3.3721089508
 20
14.2392192222
 10
3.3549799916
 20
14.2124450043
 10
3.3352732177
 20
14.1877388471
 10
3.3131988789
 20
14.1653074642
 10
3.2889234903
 20
14.1453301886
 10
3.262641321
 20
14.1279925083
 10
3.2346868449
 20
14.1135325089
 10
3.2054628081
 20
14.1021615964
 10
3.175330555
 20
14.0939921509
 10
3.1445892716
 20
14.0890701288
 10
3.113573445
 20
14.0874262894
  0
LWPOLYLINE
  5
350
100
AcDbEntity
  8
RACCORDO
100
AcDbPolyline
 62
7
  6
CONTINUOUS
 90
9
 70
0
 10
11.5233164548
 20
-22.624741391
 10
11.5230662325
 20
-22.6242299235
 10
11.5218613535
 20
-22.6229099401
 10
11.5197018177
 20
-22.6207747663
 10
11.516579623
 20
-22.6178196823
 10
11.5125027716
 20
-22.6140457895
 10
11.5074952702
 20
-22.6094636281
 10
11.5015316612
 20
-22.6040800237
 10
11.4869128728
 20
-22.5910039619
  0
LINE
  5
351
100
AcDbEntity
  8
RACCORDO
100
AcDbLine
 62
250
  6
CONTINUOUS
 10
2.82106913
 20
17.0422364207
 11
3.113573445
 21
14.0874262894
  0
LINE
  5
352
100
AcDbEntity
  8
RACCORDO
100
AcDbLine
 62
250
  6
CONTINUOUS
 10
3.1202055164
 20
17.3459412053
 11
3.4125418797
 21
14.3928276814
  0
LINE
  5
353
100
AcDbEntity
  8
RACCORDO
100
AcDbLine
 62
7
  6
CONTINUOUS
 10
3.1202055164
 20
-20.2614683638
 11
3.1202055164
 21
-21.4898143868
  0
LINE
  5
354
100
AcDbEntity
  8
RACCORDO
100
AcDbLine
 62
7
  6
CONTINUOUS
 10
3.1202055164
 20
17.3459412053
 11
3.1202055164
 21
18.5742872283
  0
LINE
  5
355
100
AcDbEntity
  8
RACCORDO
100
AcDbLine
 62
7
  6
CONTINUOUS
 10
3.2773011007
 20
19.4422364207
 11
3.2773011007
 21
18.8887758734
  0
LINE
  5
356
100
AcDbEntity
  8
RACCORDO
100
AcDbLine
 62
7
  6
CONTINUOUS
 10
3.2773011007
 20
-22.3577635793
 11
3.2773011007
 21
-21.8043030319
  0
LWPOLYLINE
  5
357
100
AcDbEntity
  8
RACCORDO
100
AcDbPolyline
 62
7
  6
CONTINUOUS
 90
16
 70
0
 10
2.35968599
 20
-17.3088190257
 10
2.3613449589
 20
-17.2765342861
 10
2.3663152527
 20
-17.2446818666
 10
2.3745274353
 20
-17.2136005653
 10
2.3858794189
 20
-17.183600995
 10
2.4002313052
 20
-17.1550161682
 10
2.4173998751
 20
-17.1281944408
 10
2.4371502948
 20
-17.103442731
 10
2.4592720611
 20
-17.0809684529
 10
2.4835955596
 20
-17.0609538722
 10
2.5099254012
 20
-17.0435845385
 10
2.5379260989
 20
-17.0290986248
 10
2.5671912492
 20
-17.0177092772
 10
2.5973573575
 20
-17.0095284114
 10
2.6281249667
 20
-17.0046000126
 10
2.6591586938
 20
-17.0029534479
  0
LINE
  5
358
100
AcDbEntity
  8
RACCORDO
100
AcDbLine
 62
250
  6
CONTINUOUS
 10
3.113573445
 20
-17.0029534479
 11
2.82106913
 21
-19.9577635793
  0
LINE
  5
359
100
AcDbEntity
  8
RACCORDO
100
AcDbLine
 62
250
  6
CONTINUOUS
 10
3.4125418797
 20
-17.3083548399
 11
3.1202055164
 21
-20.2614683638
  0
LINE
  5
35A
100
AcDbEntity
  8
RACCORDO
100
AcDbLine
 62
250
  6
CONTINUOUS
 10
24.7511245351
 20
19.1160503358
 11
24.67731062
 21
19.0422364207
  0
LINE
  5
35B
100
AcDbEntity
  8
RACCORDO
100
AcDbLine
 62
250
  6
CONTINUOUS
 10
24.67731062
 20
-21.9577635793
 11
24.7511245351
 21
-22.0315774944
  0
LWPOLYLINE
  5
35C
100
AcDbEntity
  8
RACCORDO
100
AcDbPolyline
 62
7
  6
CONTINUOUS
 90
7
 70
0
 10
11.8806183917
 20
-21.8043030319
 10
11.8745746146
 20
-21.7881932643
 10
11.8696703584
 20
-21.7719104821
 10
11.8659056231
 20
-21.7555726565
 10
11.8632804087
 20
-21.7393078072
 10
11.8617947152
 20
-21.7232533607
 10
11.8614485426
 20
-21.7075552977
  0
LWPOLYLINE
  5
35D
100
AcDbEntity
  8
RACCORDO
100
AcDbPolyline
 62
7
  6
CONTINUOUS
 90
7
 70
0
 10
-4.4751217287
 20
18.8887758734
 10
-4.469073241
 20
18.8726409296
 10
-4.4641661584
 20
18.8563434443
 10
-4.4604004809
 20
18.8400014042
 10
-4.4577762087
 20
18.82374243
 10
-4.4562933415
 20
18.8077031113
 10
-4.4559518796
 20
18.7920281391
  0
LINE
  5
35E
100
AcDbEntity
  8
RACCORDO
100
AcDbLine
 62
7
  6
CONTINUOUS
 10
-3.6894278892
 20
-21.4751410999
 11
-3.7540191662
 21
-21.6043334929
  0
LINE
  5
35F
100
AcDbEntity
  8
RACCORDO
100
AcDbLine
 62
7
  6
CONTINUOUS
 10
-13.7523039923
 20
-21.6043334929
 11
-13.7535261484
 21
-21.6055923854
  0
LWPOLYLINE
  5
360
100
AcDbEntity
  8
RACCORDO
100
AcDbPolyline
 62
7
  6
CONTINUOUS
 90
7
 70
0
 10
-13.8156447657
 20
-21.6676048855
 10
-13.8484889066
 20
-21.7005590919
 10
-13.8670067608
 20
-21.7189614086
 10
-13.8866701773
 20
-21.7386996778
 10
-13.9073923996
 20
-21.7596923658
 10
-13.9292601843
 20
-21.7816429043
 10
-13.9522735314
 20
-21.8043030319
  0
LWPOLYLINE
  5
361
100
AcDbEntity
  8
RACCORDO
100
AcDbPolyline
 62
7
  6
CONTINUOUS
 90
3
 70
0
 10
-13.7779449108
 20
-21.6298933534
 10
-13.801318479
 20
-21.6533609727
 10
-13.8156447657
 20
-21.6676048855
  0
LINE
  5
362
100
AcDbEntity
  8
RACCORDO
100
AcDbLine
 62
250
  6
CONTINUOUS
 10
24.9270832999
 20
18.7920281391
 11
25.0032777756
 21
18.8682226148
  0
LINE
  5
363
100
AcDbEntity
  8
RACCORDO
100
AcDbLine
 62
7
  6
CONTINUOUS
 10
-13.6231115994
 20
-21.4751410999
 11
-13.7523039923
 21
-21.6043334929
  0
LINE
  5
364
100
AcDbEntity
  8
RACCORDO
100
AcDbLine
 62
7
  6
CONTINUOUS
 10
-13.7535261484
 20
-21.6055923854
 11
-13.7779449108
 21
-21.6298933534
  0
LINE
  5
365
100
AcDbEntity
  8
RACCORDO
100
AcDbLine
 62
7
  6
CONTINUOUS
 10
-13.7523039923
 20
18.6888063343
 11
-13.7535628849
 21
18.6900284904
  0
LINE
  5
366
100
AcDbEntity
  8
RACCORDO
100
AcDbLine
 62
7
  6
CONTINUOUS
 10
28.0408358348
 20
-21.6043334929
 11
28.0420947274
 21
-21.605555649
  0
LWPOLYLINE
  5
367
100
AcDbEntity
  8
RACCORDO
100
AcDbPolyline
 62
7
  6
CONTINUOUS
 90
7
 70
0
 10
-13.815575385
 20
18.7521471077
 10
-13.8485295914
 20
18.7849912486
 10
-13.8669319081
 20
18.8035091027
 10
-13.8866701773
 20
18.8231725193
 10
-13.9076628652
 20
18.8438947416
 10
-13.9296134038
 20
18.8657625263
 10
-13.9522735314
 20
18.8887758734
  0
LWPOLYLINE
  5
368
100
AcDbEntity
  8
RACCORDO
100
AcDbPolyline
 62
7
  6
CONTINUOUS
 90
3
 70
0
 10
-13.7778638529
 20
18.7144472528
 10
-13.8013314721
 20
18.737820821
 10
-13.815575385
 20
18.7521471077
  0
LINE
  5
369
100
AcDbEntity
  8
RACCORDO
100
AcDbLine
 62
250
  6
CONTINUOUS
 10
24.9270832999
 20
-21.7075552977
 11
25.0032777756
 21
-21.7837497734
  0
LINE
  5
36A
100
AcDbEntity
  8
RACCORDO
100
AcDbLine
 62
7
  6
CONTINUOUS
 10
-13.6231115994
 20
18.5596139414
 11
-13.7523039923
 21
18.6888063343
  0
LINE
  5
36B
100
AcDbEntity
  8
RACCORDO
100
AcDbLine
 62
7
  6
CONTINUOUS
 10
-13.7535628849
 20
18.6900284904
 11
-13.7778638529
 21
18.7144472528
  0
LINE
  5
36C
100
AcDbEntity
  8
RACCORDO
100
AcDbLine
 62
7
  6
CONTINUOUS
 10
-3.6894278892
 20
18.5596139414
 11
-3.7540191662
 21
18.6888063343
  0
LINE
  5
36D
100
AcDbEntity
  8
RACCORDO
100
AcDbLine
 62
250
  6
CONTINUOUS
 10
11.1683263261
 20
-20.2614683638
 11
10.8759899628
 21
-17.3083548399
  0
LINE
  5
36E
100
AcDbEntity
  8
RACCORDO
100
AcDbLine
 62
250
  6
CONTINUOUS
 10
10.8759899628
 20
14.3928276814
 11
11.1683263261
 21
17.3459412053
  0
LINE
  5
36F
100
AcDbEntity
  8
RACCORDO
100
AcDbLine
 62
7
  6
CONTINUOUS
 10
17.9779597317
 20
18.5596139414
 11
18.0425510087
 21
18.6888063343
  0
LINE
  5
370
100
AcDbEntity
  8
RACCORDO
100
AcDbLine
 62
7
  6
CONTINUOUS
 10
28.0408358348
 20
18.6888063343
 11
28.0420579909
 21
18.6900652269
  0
LWPOLYLINE
  5
371
100
AcDbEntity
  8
RACCORDO
100
AcDbPolyline
 62
7
  6
CONTINUOUS
 90
7
 70
0
 10
28.1041766082
 20
18.7520777269
 10
28.1370207491
 20
18.7850319334
 10
28.1555386033
 20
18.8034342501
 10
28.1752020198
 20
18.8231725193
 10
28.1959242421
 20
18.8441652072
 10
28.2177920268
 20
18.8661157458
 10
28.2408053739
 20
18.8887758734
  0
LWPOLYLINE
  5
372
100
AcDbEntity
  8
RACCORDO
100
AcDbPolyline
 62
7
  6
CONTINUOUS
 90
3
 70
0
 10
28.0664767533
 20
18.7143661949
 10
28.0898503215
 20
18.7378338141
 10
28.1041766082
 20
18.7520777269
  0
LINE
  5
373
100
AcDbEntity
  8
RACCORDO
100
AcDbLine
 62
7
  6
CONTINUOUS
 10
27.9116434419
 20
18.5596139414
 11
28.0408358348
 21
18.6888063343
  0
LINE
  5
374
100
AcDbEntity
  8
RACCORDO
100
AcDbLine
 62
250
  6
CONTINUOUS
 10
-10.6385514574
 20
-21.7075552977
 11
-10.7147459331
 21
-21.7837497734
  0
LINE
  5
375
100
AcDbEntity
  8
RACCORDO
100
AcDbLine
 62
250
  6
CONTINUOUS
 10
-10.4625926926
 20
-22.0315774944
 11
-10.3887787775
 21
-21.9577635793
  0
LINE
  5
376
100
AcDbEntity
  8
RACCORDO
100
AcDbLine
 62
7
  6
CONTINUOUS
 10
28.0420579909
 20
18.6900652269
 11
28.0664767533
 21
18.7143661949
  0
LWPOLYLINE
  5
377
100
AcDbEntity
  8
RACCORDO
100
AcDbPolyline
 62
7
  6
CONTINUOUS
 90
7
 70
0
 10
28.1041072275
 20
-21.6676742662
 10
28.1370614339
 20
-21.7005184071
 10
28.1554637506
 20
-21.7190362613
 10
28.1752020198
 20
-21.7386996778
 10
28.1961947078
 20
-21.7594219002
 10
28.2181452463
 20
-21.7812896848
 10
28.2408053739
 20
-21.8043030319
  0
LWPOLYLINE
  5
378
100
AcDbEntity
  8
RACCORDO
100
AcDbPolyline
 62
7
  6
CONTINUOUS
 90
3
 70
0
 10
28.0663956954
 20
-21.6299744113
 10
28.0898633147
 20
-21.6533479795
 10
28.1041072275
 20
-21.6676742662
  0
LINE
  5
379
100
AcDbEntity
  8
RACCORDO
100
AcDbLine
 62
7
  6
CONTINUOUS
 10
27.9116434419
 20
-21.4751410999
 11
28.0408358348
 21
-21.6043334929
  0
LINE
  5
37A
100
AcDbEntity
  8
RACCORDO
100
AcDbLine
 62
250
  6
CONTINUOUS
 10
-10.6385514574
 20
18.7920281391
 11
-10.7147459331
 21
18.8682226148
  0
LINE
  5
37B
100
AcDbEntity
  8
RACCORDO
100
AcDbLine
 62
250
  6
CONTINUOUS
 10
-10.3887787775
 20
19.0422364207
 11
-10.4625926926
 21
19.1160503358
  0
LINE
  5
37C
100
AcDbEntity
  8
RACCORDO
100
AcDbLine
 62
7
  6
CONTINUOUS
 10
28.0420947274
 20
-21.605555649
 11
28.0663956954
 21
-21.6299744113
  0
LINE
  5
37D
100
AcDbEntity
  8
RACCORDO
100
AcDbLine
 62
7
  6
CONTINUOUS
 10
17.9779597317
 20
-21.4751410999
 11
18.0425510087
 21
-21.6043334929
  0
LINE
  5
37E
100
AcDbEntity
  8
RACCORDO
100
AcDbLine
 62
250
  6
CONTINUOUS
 10
11.4674627125
 20
-19.9577635793
 11
11.1749583976
 21
-17.0029534479
  0
LINE
  5
37F
100
AcDbEntity
  8
DRAFT
100
AcDbLine
 62
7
  6
CONTINUOUS
 10
11.1542971491
 20
19.3780182393
 11
11.1683263261
 21
18.5742872283
  0
LINE
  5
380
100
AcDbEntity
  8
RACCORDO
100
AcDbLine
 62
7
  6
CONTINUOUS
 10
11.7852540669
 20
-21.7837497734
 11
11.7826889316
 21
-21.4898143868
  0
LINE
  5
381
100
AcDbEntity
  8
RACCORDO
100
AcDbLine
 62
7
  6
CONTINUOUS
 10
11.0112307418
 20
19.4422364207
 11
11.0112307418
 21
18.8887758734
  0
LINE
  5
382
100
AcDbEntity
  8
RACCORDO
100
AcDbLine
 62
7
  6
CONTINUOUS
 10
11.0112307418
 20
-22.3577635793
 11
11.0112307418
 21
-21.8043030319
  0
LINE
  5
383
100
AcDbEntity
  8
RACCORDO
100
AcDbLine
 62
7
  6
CONTINUOUS
 10
11.1683263261
 20
-20.2614683638
 11
11.1683263261
 21
-21.4898143868
  0
LINE
  5
384
100
AcDbEntity
  8
RACCORDO
100
AcDbLine
 62
7
  6
CONTINUOUS
 10
11.1683263261
 20
17.3459412053
 11
11.1683263261
 21
18.5742872283
  0
LINE
  5
385
100
AcDbEntity
  8
RACCORDO
100
AcDbLine
 62
7
  6
CONTINUOUS
 10
11.7852540669
 20
18.8682226148
 11
11.7826889316
 21
18.5742872283
  0
LINE
  5
386
100
AcDbEntity
  8
DRAFT
100
AcDbLine
 62
7
  6
CONTINUOUS
 10
11.1542971491
 20
-22.2935453978
 11
11.1683263261
 21
-21.4898143868
  0
LWPOLYLINE
  5
387
100
AcDbEntity
  8
RACCORDO
100
AcDbPolyline
 62
7
  6
CONTINUOUS
 90
7
 70
0
 10
11.8614485426
 20
18.7920281391
 10
11.8617817435
 20
18.8076625619
 10
11.863259654
 20
18.8236753161
 10
11.865882274
 20
18.8399239719
 10
11.8696496037
 20
18.8562734107
 10
11.8745616429
 20
18.8725967151
 10
11.8806183917
 20
18.8887758734
  0
LWPOLYLINE
  5
388
100
AcDbEntity
  8
RACCORDO
100
AcDbPolyline
 62
7
  6
CONTINUOUS
 90
16
 70
0
 10
10.8759899628
 20
-17.3083548399
 10
10.8776367334
 20
-17.2760973288
 10
10.8825909502
 20
-17.2442788123
 10
10.8907819981
 20
-17.2132371057
 10
10.9021059833
 20
-17.1832827415
 10
10.9164228917
 20
-17.1547463807
 10
10.9335518509
 20
-17.1279721629
 10
10.9532586248
 20
-17.1032660056
 10
10.9753329637
 20
-17.0808346228
 10
10.9996083522
 20
-17.0608573472
 10
11.0258905216
 20
-17.0435196668
 10
11.0538449976
 20
-17.0290596674
 10
11.0830690344
 20
-17.017688755
 10
11.1132012875
 20
-17.0095193094
 10
11.1439425709
 20
-17.0045972873
 10
11.1749583976
 20
-17.0029534479
  0
LWPOLYLINE
  5
389
100
AcDbEntity
  8
RACCORDO
100
AcDbPolyline
 62
7
  6
CONTINUOUS
 90
16
 70
0
 10
11.9288458525
 20
14.3932918672
 10
11.9271868836
 20
14.3610071276
 10
11.9222165898
 20
14.329154708
 10
11.9140044072
 20
14.2980734068
 10
11.9026524236
 20
14.2680738365
 10
11.8883005373
 20
14.2394890097
 10
11.8711319674
 20
14.2126672822
 10
11.8513815478
 20
14.1879155725
 10
11.8292597814
 20
14.1654412943
 10
11.8049362829
 20
14.1454267136
 10
11.7786064413
 20
14.1280573799
 10
11.7506057436
 20
14.1135714662
 10
11.7213405933
 20
14.1021821187
 10
11.691174485
 20
14.0940012529
 10
11.6604068758
 20
14.089072854
 10
11.6293731487
 20
14.0874262894
  0
LINE
  5
38A
100
AcDbEntity
  8
RACCORDO
100
AcDbLine
 62
250
  6
CONTINUOUS
 10
11.1749583976
 20
14.0874262894
 11
11.4674627125
 21
17.0422364207
  0
LWPOLYLINE
  5
38B
100
AcDbEntity
  8
RACCORDO
100
AcDbPolyline
 62
7
  6
CONTINUOUS
 90
7
 70
0
 10
18.7636535712
 20
-21.8043030319
 10
18.7576097941
 20
-21.7881932643
 10
18.7527055379
 20
-21.7719104821
 10
18.7489408025
 20
-21.7555726565
 10
18.7463155881
 20
-21.7393078072
 10
18.7448298947
 20
-21.7232533607
 10
18.7444837221
 20
-21.7075552977
  0
LWPOLYLINE
  5
38C
100
AcDbEntity
  8
RACCORDO
100
AcDbPolyline
 62
7
  6
CONTINUOUS
 90
7
 70
0
 10
2.4079134508
 20
18.8887758734
 10
2.4139619385
 20
18.8726409296
 10
2.4188690211
 20
18.8563434443
 10
2.4226346986
 20
18.8400014042
 10
2.4252589708
 20
18.82374243
 10
2.426741838
 20
18.8077031113
 10
2.4270832999
 20
18.7920281391
  0
LINE
  5
38D
100
AcDbEntity
  8
RACCORDO
100
AcDbLine
 62
250
  6
CONTINUOUS
 10
11.4831321295
 20
17.0422364207
 11
11.6293731487
 21
14.0874262894
  0
LINE
  5
38E
100
AcDbEntity
  8
RACCORDO
100
AcDbLine
 62
250
  6
CONTINUOUS
 10
11.7826889316
 20
17.3464027872
 11
11.9288458525
 21
14.3932918672
  0
LINE
  5
38F
100
AcDbEntity
  8
RACCORDO
100
AcDbLine
 62
7
  6
CONTINUOUS
 10
11.7826889316
 20
-20.2619299457
 11
11.7826889316
 21
-21.4898143868
  0
LINE
  5
390
100
AcDbEntity
  8
RACCORDO
100
AcDbLine
 62
7
  6
CONTINUOUS
 10
11.7826889316
 20
17.3464027872
 11
11.7826889316
 21
18.5742872283
  0
LINE
  5
391
100
AcDbEntity
  8
RACCORDO
100
AcDbLine
 62
250
  6
CONTINUOUS
 10
11.6293731487
 20
-17.0029534479
 11
11.4831321295
 21
-19.9577635793
  0
LINE
  5
392
100
AcDbEntity
  8
RACCORDO
100
AcDbLine
 62
250
  6
CONTINUOUS
 10
11.9288458525
 20
-17.3088190257
 11
11.7826889316
 21
-20.2619299457
  0
LINE
  5
393
100
AcDbEntity
  8
RACCORDO
100
AcDbLine
 62
250
  6
CONTINUOUS
 10
-3.7555162779
 20
-21.7075552977
 11
-3.7993684177
 21
-21.7514074375
  0
LINE
  5
394
100
AcDbEntity
  8
RACCORDO
100
AcDbLine
 62
250
  6
CONTINUOUS
 10
-3.7555162779
 20
18.7920281391
 11
-3.7993684177
 21
18.8358802789
  0
LWPOLYLINE
  5
395
100
AcDbEntity
  8
RACCORDO
100
AcDbPolyline
 62
7
  6
CONTINUOUS
 90
9
 70
0
 10
2.7652153877
 20
19.7092142325
 10
2.76546561
 20
19.7087027649
 10
2.766670489
 20
19.7073827816
 10
2.7688300248
 20
19.7052476077
 10
2.7719522195
 20
19.7022925238
 10
2.7760290709
 20
19.698518631
 10
2.7810365723
 20
19.6939364695
 10
2.7870001813
 20
19.6885528652
 10
2.8016189697
 20
19.6754768034
  0
LINE
  5
396
100
AcDbEntity
  8
DRAFT
100
AcDbLine
 62
7
  6
CONTINUOUS
 10
15.3150680576
 20
-23.6577635793
 11
15.2942659213
 21
-22.6577635793
  0
LINE
  5
397
100
AcDbEntity
  8
RACCORDO
100
AcDbLine
 62
7
  6
CONTINUOUS
 10
14.3942659213
 20
19.7422364207
 11
14.3942659213
 21
19.6506432041
  0
LINE
  5
398
100
AcDbEntity
  8
RACCORDO
100
AcDbLine
 62
7
  6
CONTINUOUS
 10
14.3942659213
 20
-22.5661703626
 11
14.3942659213
 21
-22.6569551288
  0
LINE
  5
399
100
AcDbEntity
  8
RACCORDO
100
AcDbLine
 62
250
  6
CONTINUOUS
 10
15.8909918491
 20
-24.9106958305
 11
15.8909918491
 21
-24.9107262915
  0
LINE
  5
39A
100
AcDbEntity
  8
RACCORDO
100
AcDbLine
 62
250
  6
CONTINUOUS
 10
15.8909918491
 20
21.995168672
 11
15.8909918491
 21
21.995199133
  0
LINE
  5
39B
100
AcDbEntity
  8
DRAFT
100
AcDbLine
 62
7
  6
CONTINUOUS
 10
15.2942659213
 20
19.7422364207
 11
15.3150680576
 21
20.7422364207
  0
LINE
  5
39C
100
AcDbEntity
  8
RACCORDO
100
AcDbLine
 62
7
  6
CONTINUOUS
 10
21.1006951416
 20
19.7422364207
 11
21.3883780935
 21
20.7422364207
  0
LINE
  5
39D
100
AcDbEntity
  8
RACCORDO
100
AcDbLine
 62
7
  6
CONTINUOUS
 10
22.3676032689
 20
22.0422364207
 11
22.3481493528
 21
21.9764665763
  0
LINE
  5
39E
100
AcDbEntity
  8
RACCORDO
100
AcDbLine
 62
7
  6
CONTINUOUS
 10
24.8609949112
 20
18.5596139414
 11
24.9255861882
 21
18.6888063343
  0
LINE
  5
39F
100
AcDbEntity
  8
RACCORDO
100
AcDbLine
 62
250
  6
CONTINUOUS
 10
-3.5515406151
 20
-22.0035605963
 11
-3.505743598
 21
-21.9577635793
  0
LINE
  5
3A0
100
AcDbEntity
  8
RACCORDO
100
AcDbLine
 62
250
  6
CONTINUOUS
 10
-3.505743598
 20
19.0422364207
 11
-3.5515406151
 21
19.0880334378
  0
LINE
  5
3A1
100
AcDbEntity
  8
RACCORDO
100
AcDbLine
 62
7
  6
CONTINUOUS
 10
24.8609949112
 20
-21.4751410999
 11
24.9255861882
 21
-21.6043334929
  0
LINE
  5
3A2
100
AcDbEntity
  8
RACCORDO
100
AcDbLine
 62
7
  6
CONTINUOUS
 10
22.3676032689
 20
-24.9577635793
 11
22.3481493528
 21
-24.8919937348
  0
LINE
  5
3A3
100
AcDbEntity
  8
RACCORDO
100
AcDbLine
 62
7
  6
CONTINUOUS
 10
21.3883780935
 20
-23.6577635793
 11
21.1006951416
 21
-22.6577635793
  0
LWPOLYLINE
  5
3A4
100
AcDbEntity
  8
RACCORDO
100
AcDbPolyline
 62
7
  6
CONTINUOUS
 90
16
 70
0
 10
18.7006315823
 20
-21.7514074375
 10
18.7018880108
 20
-21.7765522194
 10
18.7056375444
 20
-21.8014304928
 10
18.7118321339
 20
-21.8257926538
 10
18.7203645418
 20
-21.8493160173
 10
18.7311575044
 20
-21.8718552115
 10
18.7442436078
 20
-21.8934062407
 10
18.7595911845
 20
-21.9137678457
 10
18.7770629441
 20
-21.9326273618
 10
18.7965733586
 20
-21.9497716713
 10
18.817898409
 20
-21.9649062325
 10
18.840912702
 20
-21.9778495445
 10
18.8656900607
 20
-21.9884776463
 10
18.892110981
 20
-21.9965132254
 10
18.9198091818
 20
-22.0016278133
 10
18.9484593849
 20
-22.0035605963
  0
LINE
  5
3A5
100
AcDbEntity
  8
RACCORDO
100
AcDbLine
 62
250
  6
CONTINUOUS
 10
18.0879002602
 20
-21.2619299457
 11
17.9771528771
 21
-19.0242712408
  0
LINE
  5
3A6
100
AcDbEntity
  8
RACCORDO
100
AcDbLine
 62
250
  6
CONTINUOUS
 10
18.3874570623
 20
-20.9577635793
 11
18.2766163237
 21
-18.7182186191
  0
LINE
  5
3A7
100
AcDbEntity
  8
RACCORDO
100
AcDbLine
 62
7
  6
CONTINUOUS
 10
18.0879002602
 20
18.838042957
 11
18.0879002602
 21
18.3464027872
  0
LINE
  5
3A8
100
AcDbEntity
  8
RACCORDO
100
AcDbLine
 62
7
  6
CONTINUOUS
 10
18.0879002602
 20
-21.2619299457
 11
18.0879002602
 21
-21.7535701156
  0
LINE
  5
3A9
100
AcDbEntity
  8
RACCORDO
100
AcDbLine
 62
250
  6
CONTINUOUS
 10
18.0879002602
 20
18.3464027872
 11
17.9771528771
 21
16.1087440823
  0
LINE
  5
3AA
100
AcDbEntity
  8
RACCORDO
100
AcDbLine
 62
250
  6
CONTINUOUS
 10
18.3874570623
 20
18.0422364207
 11
18.2766163237
 21
15.8026914606
  0
LWPOLYLINE
  5
3AB
100
AcDbEntity
  8
RACCORDO
100
AcDbPolyline
 62
7
  6
CONTINUOUS
 90
16
 70
0
 10
18.8113789654
 20
16.1087440823
 10
18.8097199625
 20
16.0764293217
 10
18.8047479156
 20
16.0445495594
 10
18.7965328433
 20
16.0134437707
 10
18.785177521
 20
15.9834226467
 10
18.7708223675
 20
15.9548191063
 10
18.7536507316
 20
15.9279813462
 10
18.7338976217
 20
15.903216021
 10
18.7117739549
 20
15.8807304944
 10
18.6874496107
 20
15.8607071892
 10
18.6611200319
 20
15.8433313074
 10
18.6331209907
 20
15.8288407538
 10
18.6038594985
 20
15.8174487329
 10
18.5736992785
 20
15.8092667375
 10
18.5429395503
 20
15.8043380383
 10
18.5119155188
 20
15.8026914606
  0
LWPOLYLINE
  5
3AC
100
AcDbEntity
  8
RACCORDO
100
AcDbPolyline
 62
7
  6
CONTINUOUS
 90
16
 70
0
 10
18.7006315823
 20
18.838042957
 10
18.7021044173
 20
18.8626576806
 10
18.7059390277
 20
18.8871395648
 10
18.7121354135
 20
18.9112438572
 10
18.7207591618
 20
18.9347064544
 10
18.7317446855
 20
18.9573015922
 10
18.7448952232
 20
18.9788361036
 10
18.7602518596
 20
18.9990474184
 10
18.7777735102
 20
19.017716612
 10
18.7971401599
 20
19.0346916287
 10
18.8183557157
 20
19.0496905287
 10
18.8414162707
 20
19.0625189444
 10
18.8659900888
 20
19.0730601451
 10
18.8919665911
 20
19.0810373604
 10
18.9194563565
 20
19.0861167695
 10
18.9484593849
 20
19.0880334378
  0
LINE
  5
3AD
100
AcDbEntity
  8
RACCORDO
100
AcDbLine
 62
7
  6
CONTINUOUS
 10
21.0914044138
 20
19.683657777
 11
21.1006951416
 21
19.7422364207
  0
LINE
  5
3AE
100
AcDbEntity
  8
RACCORDO
100
AcDbLine
 62
7
  6
CONTINUOUS
 10
-11.0396539071
 20
-22.6577635793
 11
-10.9766835452
 21
-22.624741391
  0
LINE
  5
3AF
100
AcDbEntity
  8
RACCORDO
100
AcDbLine
 62
7
  6
CONTINUOUS
 10
-10.9766835452
 20
19.7092142325
 11
-11.0396539071
 21
19.7422364207
  0
LINE
  5
3B0
100
AcDbEntity
  8
RACCORDO
100
AcDbLine
 62
7
  6
CONTINUOUS
 10
21.0914044138
 20
-22.5991849355
 11
21.1006951416
 21
-22.6577635793
  0
LWPOLYLINE
  5
3B1
100
AcDbEntity
  8
RACCORDO
100
AcDbPolyline
 62
7
  6
CONTINUOUS
 90
16
 70
0
 10
18.0879002602
 20
18.8358802789
 10
18.0866438317
 20
18.8610250608
 10
18.0828942981
 20
18.8859033343
 10
18.0766997086
 20
18.9102654952
 10
18.0681673007
 20
18.9337888587
 10
18.0573743381
 20
18.956328053
 10
18.0442882347
 20
18.9778790821
 10
18.028940658
 20
18.9982406871
 10
18.0114688984
 20
19.0171002032
 10
17.9919584839
 20
19.0342445128
 10
17.9706334335
 20
19.0493790739
 10
17.9476191405
 20
19.0623223859
 10
17.9228417818
 20
19.0729504878
 10
17.8964208615
 20
19.0809860669
 10
17.8687226607
 20
19.0861006548
 10
17.8400724576
 20
19.0880334378
  0
LINE
  5
3B2
100
AcDbEntity
  8
RACCORDO
100
AcDbLine
 62
250
  6
CONTINUOUS
 10
18.4010747802
 20
18.0422364207
 11
18.5119155188
 21
15.8026914606
  0
LINE
  5
3B3
100
AcDbEntity
  8
RACCORDO
100
AcDbLine
 62
250
  6
CONTINUOUS
 10
18.7006315823
 20
18.3464027872
 11
18.8113789654
 21
16.1087440823
  0
LINE
  5
3B4
100
AcDbEntity
  8
RACCORDO
100
AcDbLine
 62
7
  6
CONTINUOUS
 10
18.7006315823
 20
-21.7535701156
 11
18.7006315823
 21
-21.2619299457
  0
LINE
  5
3B5
100
AcDbEntity
  8
RACCORDO
100
AcDbLine
 62
7
  6
CONTINUOUS
 10
18.7006315823
 20
18.3464027872
 11
18.7006315823
 21
18.838042957
  0
LWPOLYLINE
  5
3B6
100
AcDbEntity
  8
RACCORDO
100
AcDbPolyline
 62
7
  6
CONTINUOUS
 90
7
 70
0
 10
18.7444837221
 20
18.7920281391
 10
18.744816923
 20
18.8076625619
 10
18.7462948335
 20
18.8236753161
 10
18.7489174535
 20
18.8399239719
 10
18.7526847832
 20
18.8562734107
 10
18.7575968224
 20
18.8725967151
 10
18.7636535712
 20
18.8887758734
  0
LWPOLYLINE
  5
3B7
100
AcDbEntity
  8
RACCORDO
100
AcDbPolyline
 62
7
  6
CONTINUOUS
 90
7
 70
0
 10
18.0440481204
 20
-21.7075552977
 10
18.0437083366
 20
-21.7232220382
 10
18.0422264764
 20
-21.7392559641
 10
18.0396025398
 20
-21.7555128438
 10
18.0358365267
 20
-21.7718563861
 10
18.0309284372
 20
-21.7881591128
 10
18.0248782713
 20
-21.8043030319
  0
LINE
  5
3B8
100
AcDbEntity
  8
RACCORDO
100
AcDbLine
 62
250
  6
CONTINUOUS
 10
18.4010747802
 20
-20.9577635793
 11
18.5119155188
 21
-18.7182186191
  0
LINE
  5
3B9
100
AcDbEntity
  8
RACCORDO
100
AcDbLine
 62
250
  6
CONTINUOUS
 10
18.7006315823
 20
-21.2619299457
 11
18.8113789654
 21
-19.0242712408
  0
LWPOLYLINE
  5
3BA
100
AcDbEntity
  8
RACCORDO
100
AcDbPolyline
 62
7
  6
CONTINUOUS
 90
16
 70
0
 10
17.9771528771
 20
-19.0242712408
 10
17.97881188
 20
-18.9919564802
 10
17.9837839269
 20
-18.960076718
 10
17.9919989992
 20
-18.9289709292
 10
18.0033543215
 20
-18.8989498052
 10
18.0177094751
 20
-18.8703462648
 10
18.0348811109
 20
-18.8435085047
 10
18.0546342208
 20
-18.8187431795
 10
18.0767578877
 20
-18.7962576529
 10
18.1010822318
 20
-18.7762343477
 10
18.1274118106
 20
-18.7588584659
 10
18.1554108518
 20
-18.7443679123
 10
18.184672344
 20
-18.7329758914
 10
18.214832564
 20
-18.724793896
 10
18.2455922922
 20
-18.7198651968
 10
18.2766163237
 20
-18.7182186191
  0
LWPOLYLINE
  5
3BB
100
AcDbEntity
  8
RACCORDO
100
AcDbPolyline
 62
7
  6
CONTINUOUS
 90
16
 70
0
 10
18.0879002602
 20
-21.7535701156
 10
18.0864274252
 20
-21.7781848391
 10
18.0825928148
 20
-21.8026667233
 10
18.076396429
 20
-21.8267710157
 10
18.0677726807
 20
-21.8502336129
 10
18.0567871571
 20
-21.8728287507
 10
18.0436366193
 20
-21.8943632621
 10
18.0282799829
 20
-21.914574577
 10
18.0107583323
 20
-21.9332437705
 10
17.9913916826
 20
-21.9502187872
 10
17.9701761268
 20
-21.9652176872
 10
17.9471155718
 20
-21.9780461029
 10
17.9225417537
 20
-21.9885873037
 10
17.8965652514
 20
-21.9965645189
 10
17.869075486
 20
-22.001643928
 10
17.8400724576
 20
-22.0035605963
  0
LINE
  5
3BC
100
AcDbEntity
  8
RACCORDO
100
AcDbLine
 62
7
  6
CONTINUOUS
 10
15.6971274287
 20
-22.5991849355
 11
15.6878367009
 21
-22.6577635793
  0
LINE
  5
3BD
100
AcDbEntity
  8
RACCORDO
100
AcDbLine
 62
7
  6
CONTINUOUS
 10
11.9275369313
 20
-21.4751410999
 11
11.8629456544
 21
-21.6043334929
  0
LINE
  5
3BE
100
AcDbEntity
  8
RACCORDO
100
AcDbLine
 62
7
  6
CONTINUOUS
 10
3.4099235801
 20
-21.4751410999
 11
3.2807311871
 21
-21.6043334929
  0
LWPOLYLINE
  5
3BF
100
AcDbEntity
  8
RACCORDO
100
AcDbPolyline
 62
7
  6
CONTINUOUS
 90
8
 70
0
 10
2.7869960713
 20
-22.6040829395
 10
2.78103076
 20
-22.6094689041
 10
2.7760199391
 20
-22.6140566487
 10
2.7719392596
 20
-22.6178349551
 10
2.7688157607
 20
-22.6207885488
 10
2.7666584557
 20
-22.6229180878
 10
2.7654583313
 20
-22.6242325916
 10
2.7652153877
 20
-22.624741391
  0
LWPOLYLINE
  5
3C0
100
AcDbEntity
  8
RACCORDO
100
AcDbPolyline
 62
7
  6
CONTINUOUS
 90
4
 70
0
 10
2.8296738002
 20
-22.5661703626
 10
2.8194914889
 20
-22.5751031309
 10
2.8101392328
 20
-22.5833932967
 10
2.7869960713
 20
-22.6040829395
  0
LINE
  5
3C1
100
AcDbEntity
  8
DRAFT
100
AcDbLine
 62
7
  6
CONTINUOUS
 10
-11.4887692582
 20
-22.3577635793
 11
-11.3457028509
 21
-22.2935453978
  0
LINE
  5
3C2
100
AcDbEntity
  8
DRAFT
100
AcDbLine
 62
7
  6
CONTINUOUS
 10
-11.4887692582
 20
19.4422364207
 11
-11.3457028509
 21
19.3780182393
  0
LINE
  5
3C3
100
AcDbEntity
  8
RACCORDO
100
AcDbLine
 62
7
  6
CONTINUOUS
 10
2.8194919197
 20
19.6595758443
 11
2.8296738002
 21
19.6506432041
  0
LINE
  5
3C4
100
AcDbEntity
  8
RACCORDO
100
AcDbLine
 62
7
  6
CONTINUOUS
 10
2.8016189697
 20
19.6754768034
 11
2.8194919197
 21
19.6595758443
  0
LWPOLYLINE
  5
3C5
100
AcDbEntity
  8
RACCORDO
100
AcDbPolyline
 62
7
  6
CONTINUOUS
 90
5
 70
0
 10
-0.1518506472
 20
21.9764665763
 10
-0.1509488858
 20
21.9756127584
 10
-0.1483439766
 20
21.9735997944
 10
-0.1440359197
 20
21.9704516113
 10
-0.1379268123
 20
21.9661874025
  0
LINE
  5
3C6
100
AcDbEntity
  8
RACCORDO
100
AcDbLine
 62
7
  6
CONTINUOUS
 10
3.4099235801
 20
18.5596139414
 11
3.2807311871
 21
18.6888063343
  0
LINE
  5
3C7
100
AcDbEntity
  8
RACCORDO
100
AcDbLine
 62
7
  6
CONTINUOUS
 10
11.9275369313
 20
18.5596139414
 11
11.8629456544
 21
18.6888063343
  0
LINE
  5
3C8
100
AcDbEntity
  8
RACCORDO
100
AcDbLine
 62
7
  6
CONTINUOUS
 10
15.6971274287
 20
19.683657777
 11
15.6878367009
 21
19.7422364207
  0
LINE
  5
3C9
100
AcDbEntity
  8
DRAFT
100
AcDbLine
 62
7
  6
CONTINUOUS
 10
21.4942659213
 20
19.7422364207
 11
21.4734637849
 21
20.7422364207
  0
LINE
  5
3CA
100
AcDbEntity
  8
RACCORDO
100
AcDbLine
 62
250
  6
CONTINUOUS
 10
20.8975399934
 20
-24.9106958305
 11
20.8975399934
 21
-24.9107262915
  0
LINE
  5
3CB
100
AcDbEntity
  8
RACCORDO
100
AcDbLine
 62
250
  6
CONTINUOUS
 10
20.8975399934
 20
21.995168672
 11
20.8975399934
 21
21.995199133
  0
LINE
  5
3CC
100
AcDbEntity
  8
RACCORDO
100
AcDbLine
 62
7
  6
CONTINUOUS
 10
22.3942659213
 20
-22.6577635793
 11
22.3942659213
 21
-22.5661703626
  0
LINE
  5
3CD
100
AcDbEntity
  8
RACCORDO
100
AcDbLine
 62
7
  6
CONTINUOUS
 10
22.3942659213
 20
19.6506432041
 11
22.3942659213
 21
19.7414279702
  0
LINE
  5
3CE
100
AcDbEntity
  8
DRAFT
100
AcDbLine
 62
7
  6
CONTINUOUS
 10
21.4734637849
 20
-23.6577635793
 11
21.4942659213
 21
-22.6577635793
  0
LINE
  5
3CF
100
AcDbEntity
  8
RACCORDO
100
AcDbLine
 62
7
  6
CONTINUOUS
 10
15.400153749
 20
-23.6577635793
 11
15.6878367009
 21
-22.6577635793
  0
LINE
  5
3D0
100
AcDbEntity
  8
RACCORDO
100
AcDbLine
 62
7
  6
CONTINUOUS
 10
14.4209285736
 20
-24.9577635793
 11
14.4403824897
 21
-24.8919937348
  0
LWPOLYLINE
  5
3D1
100
AcDbEntity
  8
RACCORDO
100
AcDbPolyline
 62
7
  6
CONTINUOUS
 90
6
 70
0
 10
-0.1208862819
 20
-24.870049944
 10
-0.1379289146
 20
-24.8817172923
 10
-0.1440410406
 20
-24.8859823947
 10
-0.1483492597
 20
-24.8891293768
 10
-0.1509524619
 20
-24.8911407943
 10
-0.1518506472
 20
-24.8919937348
  0
LWPOLYLINE
  5
3D2
100
AcDbEntity
  8
RACCORDO
100
AcDbPolyline
 62
7
  6
CONTINUOUS
 90
3
 70
0
 10
-0.0709616088
 20
-24.8364676078
 10
-0.1102288838
 20
-24.86282314
 10
-0.1208862819
 20
-24.870049944
  0
LWPOLYLINE
  5
3D3
100
AcDbEntity
  8
RACCORDO
100
AcDbPolyline
 62
7
  6
CONTINUOUS
 90
3
 70
0
 10
-0.0231331591
 20
-24.8045681421
 10
-0.0558258233
 20
-24.8264089246
 10
-0.0709616088
 20
-24.8364676078
  0
LWPOLYLINE
  5
3D4
100
AcDbEntity
  8
RACCORDO
100
AcDbPolyline
 62
7
  6
CONTINUOUS
 90
16
 70
0
 10
-11.3250416024
 20
14.0874262894
 10
-11.3560574291
 20
14.0890701288
 10
-11.3867987125
 20
14.0939921509
 10
-11.4169309656
 20
14.1021615964
 10
-11.4461550024
 20
14.1135325089
 10
-11.4741094784
 20
14.1279925083
 10
-11.5003916478
 20
14.1453301886
 10
-11.5246670363
 20
14.1653074642
 10
-11.5467413752
 20
14.1877388471
 10
-11.5664481491
 20
14.2124450043
 10
-11.5835771083
 20
14.2392192222
 10
-11.5978940167
 20
14.267755583
 10
-11.6092180019
 20
14.2977099471
 10
-11.6174090498
 20
14.3287516538
 10
-11.6223632666
 20
14.3605701703
 10
-11.6240100372
 20
14.3928276814
  0
LWPOLYLINE
  5
3D5
100
AcDbEntity
  8
RACCORDO
100
AcDbPolyline
 62
7
  6
CONTINUOUS
 90
16
 70
0
 10
2.6591586938
 20
14.0874262894
 10
2.6281249667
 20
14.089072854
 10
2.5973573575
 20
14.0940012529
 10
2.5671912492
 20
14.1021821187
 10
2.5379260989
 20
14.1135714662
 10
2.5099254012
 20
14.1280573799
 10
2.4835955596
 20
14.1454267136
 10
2.4592720611
 20
14.1654412943
 10
2.4371502948
 20
14.1879155725
 10
2.4173998751
 20
14.2126672822
 10
2.4002313052
 20
14.2394890097
 10
2.3858794189
 20
14.2680738365
 10
2.3745274353
 20
14.2980734068
 10
2.3663152527
 20
14.329154708
 10
2.3613449589
 20
14.3610071276
 10
2.35968599
 20
14.3932918672
  0
LINE
  5
3D6
100
AcDbEntity
  8
RACCORDO
100
AcDbLine
 62
7
  6
CONTINUOUS
 10
-0.0558029699
 20
21.9108667841
 11
-0.0230496466
 21
21.8889859572
  0
LINE
  5
3D7
100
AcDbEntity
  8
RACCORDO
100
AcDbLine
 62
7
  6
CONTINUOUS
 10
-0.1102389678
 20
21.9473028356
 11
-0.0709576344
 21
21.9209383804
  0
LWPOLYLINE
  5
3D8
100
AcDbEntity
  8
RACCORDO
100
AcDbPolyline
 62
7
  6
CONTINUOUS
 90
3
 70
0
 10
-0.1379268123
 20
21.9661874025
 10
-0.1208928624
 20
21.9545272491
 10
-0.1102389678
 20
21.9473028356
  0
LINE
  5
3D9
100
AcDbEntity
  8
RACCORDO
100
AcDbLine
 62
7
  6
CONTINUOUS
 10
14.4209285736
 20
22.0422364207
 11
14.4403824897
 21
21.9764665763
  0
LINE
  5
3DA
100
AcDbEntity
  8
RACCORDO
100
AcDbLine
 62
7
  6
CONTINUOUS
 10
15.6878367009
 20
19.7422364207
 11
15.400153749
 21
20.7422364207
  0
LINE
  5
3DB
100
AcDbEntity
  8
RACCORDO
100
AcDbLine
 62
250
  6
CONTINUOUS
 10
25.0058429109
 20
-20.2619299457
 11
24.85968599
 21
-17.3088190257
  0
LINE
  5
3DC
100
AcDbEntity
  8
RACCORDO
100
AcDbLine
 62
250
  6
CONTINUOUS
 10
25.305399713
 20
-19.9577635793
 11
25.1591586938
 21
-17.0029534479
  0
LINE
  5
3DD
100
AcDbEntity
  8
RACCORDO
100
AcDbLine
 62
250
  6
CONTINUOUS
 10
24.85968599
 20
14.3932918672
 11
25.0058429109
 21
17.3464027872
  0
LINE
  5
3DE
100
AcDbEntity
  8
RACCORDO
100
AcDbLine
 62
250
  6
CONTINUOUS
 10
25.1591586938
 20
14.0874262894
 11
25.305399713
 21
17.0422364207
  0
LINE
  5
3DF
100
AcDbEntity
  8
RACCORDO
100
AcDbLine
 62
7
  6
CONTINUOUS
 10
0.0731974992
 20
-24.7404495406
 11
-0.0231331591
 21
-24.8045681421
  0
LWPOLYLINE
  5
3E0
100
AcDbEntity
  8
RACCORDO
100
AcDbPolyline
 62
7
  6
CONTINUOUS
 90
3
 70
0
 10
0.1406056865
 20
-24.6955146771
 10
0.1173536356
 20
-24.7109066805
 10
0.0731974992
 20
-24.7404495406
  0
LINE
  5
3E1
100
AcDbEntity
  8
RACCORDO
100
AcDbLine
 62
7
  6
CONTINUOUS
 10
-11.3250416024
 20
14.0874262894
 11
-10.8706268513
 21
14.0874262894
  0
LINE
  5
3E2
100
AcDbEntity
  8
RACCORDO
100
AcDbLine
 62
7
  6
CONTINUOUS
 10
2.6591586938
 20
14.0874262894
 11
3.113573445
 21
14.0874262894
  0
LINE
  5
3E3
100
AcDbEntity
  8
RACCORDO
100
AcDbLine
 62
7
  6
CONTINUOUS
 10
11.1749583976
 20
14.0874262894
 11
11.6293731487
 21
14.0874262894
  0
LINE
  5
3E4
100
AcDbEntity
  8
RACCORDO
100
AcDbLine
 62
7
  6
CONTINUOUS
 10
25.1591586938
 20
14.0874262894
 11
25.613573445
 21
14.0874262894
  0
LINE
  5
3E5
100
AcDbEntity
  8
RACCORDO
100
AcDbLine
 62
7
  6
CONTINUOUS
 10
-4.2233836763
 20
15.8026914606
 11
-3.9880844812
 21
15.8026914606
  0
LINE
  5
3E6
100
AcDbEntity
  8
RACCORDO
100
AcDbLine
 62
7
  6
CONTINUOUS
 10
18.2766163237
 20
15.8026914606
 11
18.5119155188
 21
15.8026914606
  0
LWPOLYLINE
  5
3E7
100
AcDbEntity
  8
RACCORDO
100
AcDbPolyline
 62
7
  6
CONTINUOUS
 90
16
 70
0
 10
11.1749583976
 20
14.0874262894
 10
11.1439425709
 20
14.0890701288
 10
11.1132012875
 20
14.0939921509
 10
11.0830690344
 20
14.1021615964
 10
11.0538449976
 20
14.1135325089
 10
11.0258905216
 20
14.1279925083
 10
10.9996083522
 20
14.1453301886
 10
10.9753329637
 20
14.1653074642
 10
10.9532586248
 20
14.1877388471
 10
10.9335518509
 20
14.2124450043
 10
10.9164228917
 20
14.2392192222
 10
10.9021059833
 20
14.267755583
 10
10.8907819981
 20
14.2977099471
 10
10.8825909502
 20
14.3287516538
 10
10.8776367334
 20
14.3605701703
 10
10.8759899628
 20
14.3928276814
  0
LWPOLYLINE
  5
3E8
100
AcDbEntity
  8
RACCORDO
100
AcDbPolyline
 62
7
  6
CONTINUOUS
 90
16
 70
0
 10
25.1591586938
 20
14.0874262894
 10
25.1281249667
 20
14.089072854
 10
25.0973573575
 20
14.0940012529
 10
25.0671912492
 20
14.1021821187
 10
25.0379260989
 20
14.1135714662
 10
25.0099254012
 20
14.1280573799
 10
24.9835955596
 20
14.1454267136
 10
24.9592720611
 20
14.1654412943
 10
24.9371502948
 20
14.1879155725
 10
24.9173998751
 20
14.2126672822
 10
24.9002313052
 20
14.2394890097
 10
24.8858794189
 20
14.2680738365
 10
24.8745274353
 20
14.2980734068
 10
24.8663152527
 20
14.329154708
 10
24.8613449589
 20
14.3610071276
 10
24.85968599
 20
14.3932918672
  0
LWPOLYLINE
  5
3E9
100
AcDbEntity
  8
RACCORDO
100
AcDbPolyline
 62
7
  6
CONTINUOUS
 90
16
 70
0
 10
-4.2233836763
 20
15.8026914606
 10
-4.2544063416
 20
15.80433827
 10
-4.2851437465
 20
15.8092619399
 10
-4.3152624495
 20
15.8174272737
 10
-4.3444521109
 20
15.8287785262
 10
-4.3723690711
 20
15.8432025052
 10
-4.3986500593
 20
15.860509654
 10
-4.4229662357
 20
15.8804784325
 10
-4.4451071899
 20
15.9029246379
 10
-4.4649030844
 20
15.9276802212
 10
-4.4821447384
 20
15.9545634099
 10
-4.4965720039
 20
15.9832551036
 10
-4.5079728341
 20
16.0133558231
 10
-4.5162077311
 20
16.0445094972
 10
-4.5211871094
 20
16.0764192326
 10
-4.5228471229
 20
16.1087440823
  0
LINE
  5
3EA
100
AcDbEntity
  8
RACCORDO
100
AcDbLine
 62
7
  6
CONTINUOUS
 10
0.1174461655
 20
21.7953172671
 11
0.1406056865
 21
21.7799875185
  0
LINE
  5
3EB
100
AcDbEntity
  8
RACCORDO
100
AcDbLine
 62
7
  6
CONTINUOUS
 10
-0.0709576344
 20
21.9209383804
 11
-0.0558029699
 21
21.9108667841
  0
LWPOLYLINE
  5
3EC
100
AcDbEntity
  8
RACCORDO
100
AcDbPolyline
 62
7
  6
CONTINUOUS
 90
3
 70
0
 10
-0.0230496466
 20
21.8889859572
 10
0.0733958686
 20
21.8247902362
 10
0.1174461655
 20
21.7953172671
  0
LWPOLYLINE
  5
3ED
100
AcDbEntity
  8
RACCORDO
100
AcDbPolyline
 62
7
  6
CONTINUOUS
 90
7
 70
0
 10
18.0248782713
 20
18.8887758734
 10
18.030926759
 20
18.8726409296
 10
18.0358338416
 20
18.8563434443
 10
18.0395995191
 20
18.8400014042
 10
18.0422237913
 20
18.82374243
 10
18.0437066585
 20
18.8077031113
 10
18.0440481204
 20
18.7920281391
  0
LINE
  5
3EE
100
AcDbEntity
  8
DRAFT
100
AcDbLine
 62
7
  6
CONTINUOUS
 10
25.6342346934
 20
-22.2935453978
 11
25.6202055164
 21
-21.4898143868
  0
LINE
  5
3EF
100
AcDbEntity
  8
RACCORDO
100
AcDbLine
 62
7
  6
CONTINUOUS
 10
25.0032777756
 20
18.8682226148
 11
25.0058429109
 21
18.5742872283
  0
LINE
  5
3F0
100
AcDbEntity
  8
RACCORDO
100
AcDbLine
 62
7
  6
CONTINUOUS
 10
25.0058429109
 20
-20.2619299457
 11
25.0058429109
 21
-21.4898143868
  0
LINE
  5
3F1
100
AcDbEntity
  8
RACCORDO
100
AcDbLine
 62
7
  6
CONTINUOUS
 10
25.0058429109
 20
17.3464027872
 11
25.0058429109
 21
18.5742872283
  0
LINE
  5
3F2
100
AcDbEntity
  8
RACCORDO
100
AcDbLine
 62
7
  6
CONTINUOUS
 10
25.6202055164
 20
-20.2614683638
 11
25.6202055164
 21
-21.4898143868
  0
LINE
  5
3F3
100
AcDbEntity
  8
RACCORDO
100
AcDbLine
 62
7
  6
CONTINUOUS
 10
25.6202055164
 20
17.3459412053
 11
25.6202055164
 21
18.5742872283
  0
LINE
  5
3F4
100
AcDbEntity
  8
RACCORDO
100
AcDbLine
 62
7
  6
CONTINUOUS
 10
25.7773011007
 20
19.4422364207
 11
25.7773011007
 21
18.8887758734
  0
LINE
  5
3F5
100
AcDbEntity
  8
RACCORDO
100
AcDbLine
 62
7
  6
CONTINUOUS
 10
25.7773011007
 20
-22.3577635793
 11
25.7773011007
 21
-21.8043030319
  0
LINE
  5
3F6
100
AcDbEntity
  8
RACCORDO
100
AcDbLine
 62
7
  6
CONTINUOUS
 10
25.0032777756
 20
-21.7837497734
 11
25.0058429109
 21
-21.4898143868
  0
LINE
  5
3F7
100
AcDbEntity
  8
DRAFT
100
AcDbLine
 62
7
  6
CONTINUOUS
 10
25.6342346934
 20
19.3780182393
 11
25.6202055164
 21
18.5742872283
  0
LWPOLYLINE
  5
3F8
100
AcDbEntity
  8
RACCORDO
100
AcDbPolyline
 62
7
  6
CONTINUOUS
 90
7
 70
0
 10
24.9270832999
 20
-21.7075552977
 10
24.9267435161
 20
-21.7232220382
 10
24.9252616559
 20
-21.7392559641
 10
24.9226377193
 20
-21.7555128438
 10
24.9188717062
 20
-21.7718563861
 10
24.9139636167
 20
-21.7881591128
 10
24.9079134508
 20
-21.8043030319
  0
LWPOLYLINE
  5
3F9
100
AcDbEntity
  8
RACCORDO
100
AcDbPolyline
 62
7
  6
CONTINUOUS
 90
16
 70
0
 10
25.9125418797
 20
14.3928276814
 10
25.9108951091
 20
14.3605701703
 10
25.9059408923
 20
14.3287516538
 10
25.8977498444
 20
14.2977099471
 10
25.8864258592
 20
14.267755583
 10
25.8721089508
 20
14.2392192222
 10
25.8549799916
 20
14.2124450043
 10
25.8352732177
 20
14.1877388471
 10
25.8131988789
 20
14.1653074642
 10
25.7889234903
 20
14.1453301886
 10
25.762641321
 20
14.1279925083
 10
25.7346868449
 20
14.1135325089
 10
25.7054628081
 20
14.1021615964
 10
25.675330555
 20
14.0939921509
 10
25.6445892716
 20
14.0890701288
 10
25.613573445
 20
14.0874262894
  0
LWPOLYLINE
  5
3FA
100
AcDbEntity
  8
RACCORDO
100
AcDbPolyline
 62
7
  6
CONTINUOUS
 90
16
 70
0
 10
24.85968599
 20
-17.3088190257
 10
24.8613449589
 20
-17.2765342861
 10
24.8663152527
 20
-17.2446818666
 10
24.8745274353
 20
-17.2136005653
 10
24.8858794189
 20
-17.183600995
 10
24.9002313052
 20
-17.1550161682
 10
24.9173998751
 20
-17.1281944408
 10
24.9371502948
 20
-17.103442731
 10
24.9592720611
 20
-17.0809684529
 10
24.9835955596
 20
-17.0609538722
 10
25.0099254012
 20
-17.0435845385
 10
25.0379260989
 20
-17.0290986248
 10
25.0671912492
 20
-17.0177092772
 10
25.0973573575
 20
-17.0095284114
 10
25.1281249667
 20
-17.0046000126
 10
25.1591586938
 20
-17.0029534479
  0
LINE
  5
3FB
100
AcDbEntity
  8
RACCORDO
100
AcDbLine
 62
7
  6
CONTINUOUS
 10
18.8105721108
 20
-21.4751410999
 11
18.7459808338
 21
-21.6043334929
  0
LINE
  5
3FC
100
AcDbEntity
  8
RACCORDO
100
AcDbLine
 62
250
  6
CONTINUOUS
 10
11.8614485426
 20
-21.7075552977
 11
11.7852540669
 21
-21.7837497734
  0
LINE
  5
3FD
100
AcDbEntity
  8
RACCORDO
100
AcDbLine
 62
250
  6
CONTINUOUS
 10
12.0374073074
 20
-22.0315774944
 11
12.1112212225
 21
-21.9577635793
  0
LINE
  5
3FE
100
AcDbEntity
  8
RACCORDO
100
AcDbLine
 62
7
  6
CONTINUOUS
 10
-11.0325372875
 20
17.0422364207
 11
-11.0168678705
 21
17.0422364207
  0
LINE
  5
3FF
100
AcDbEntity
  8
RACCORDO
100
AcDbLine
 62
7
  6
CONTINUOUS
 10
2.805399713
 20
17.0422364207
 11
2.82106913
 21
17.0422364207
  0
LINE
  5
400
100
AcDbEntity
  8
RACCORDO
100
AcDbLine
 62
7
  6
CONTINUOUS
 10
11.4674627125
 20
17.0422364207
 11
11.4831321295
 21
17.0422364207
  0
LINE
  5
401
100
AcDbEntity
  8
RACCORDO
100
AcDbLine
 62
7
  6
CONTINUOUS
 10
25.305399713
 20
17.0422364207
 11
25.32106913
 21
17.0422364207
  0
LINE
  5
402
100
AcDbEntity
  8
RACCORDO
100
AcDbLine
 62
7
  6
CONTINUOUS
 10
-4.1125429377
 20
18.0422364207
 11
-4.0989252198
 21
18.0422364207
  0
LINE
  5
403
100
AcDbEntity
  8
RACCORDO
100
AcDbLine
 62
7
  6
CONTINUOUS
 10
18.3874570623
 20
18.0422364207
 11
18.4010747802
 21
18.0422364207
  0
LWPOLYLINE
  5
404
100
AcDbEntity
  8
RACCORDO
100
AcDbPolyline
 62
7
  6
CONTINUOUS
 90
16
 70
0
 10
18.2766163237
 20
15.8026914606
 10
18.2455936584
 20
15.80433827
 10
18.2148562535
 20
15.8092619399
 10
18.1847375505
 20
15.8174272737
 10
18.1555478891
 20
15.8287785262
 10
18.1276309289
 20
15.8432025052
 10
18.1013499407
 20
15.860509654
 10
18.0770337643
 20
15.8804784325
 10
18.0548928101
 20
15.9029246379
 10
18.0350969156
 20
15.9276802212
 10
18.0178552616
 20
15.9545634099
 10
18.0034279961
 20
15.9832551036
 10
17.9920271659
 20
16.0133558231
 10
17.9837922689
 20
16.0445094972
 10
17.9788128906
 20
16.0764192326
 10
17.9771528771
 20
16.1087440823
  0
LINE
  5
405
100
AcDbEntity
  8
RACCORDO
100
AcDbLine
 62
250
  6
CONTINUOUS
 10
11.8614485426
 20
18.7920281391
 11
11.7852540669
 21
18.8682226148
  0
LINE
  5
406
100
AcDbEntity
  8
RACCORDO
100
AcDbLine
 62
250
  6
CONTINUOUS
 10
12.1112212225
 20
19.0422364207
 11
12.0374073074
 21
19.1160503358
  0
LINE
  5
407
100
AcDbEntity
  8
RACCORDO
100
AcDbLine
 62
7
  6
CONTINUOUS
 10
18.8105721108
 20
18.5596139414
 11
18.7459808338
 21
18.6888063343
  0
LINE
  5
408
100
AcDbEntity
  8
RACCORDO
100
AcDbLine
 62
250
  6
CONTINUOUS
 10
25.32106913
 20
17.0422364207
 11
25.613573445
 21
14.0874262894
  0
LINE
  5
409
100
AcDbEntity
  8
RACCORDO
100
AcDbLine
 62
250
  6
CONTINUOUS
 10
25.6202055164
 20
17.3459412053
 11
25.9125418797
 21
14.3928276814
  0
LINE
  5
40A
100
AcDbEntity
  8
RACCORDO
100
AcDbLine
 62
250
  6
CONTINUOUS
 10
28.0408358348
 20
18.6888063343
 11
28.0408358348
 21
-21.6043334929
  0
LINE
  5
40B
100
AcDbEntity
  8
RACCORDO
100
AcDbLine
 62
250
  6
CONTINUOUS
 10
28.2408053739
 20
18.8887758734
 11
28.2408053739
 21
-21.8043030319
  0
LINE
  5
40C
100
AcDbEntity
  8
RACCORDO
100
AcDbLine
 62
250
  6
CONTINUOUS
 10
25.613573445
 20
-17.0029534479
 11
25.32106913
 21
-19.9577635793
  0
LINE
  5
40D
100
AcDbEntity
  8
RACCORDO
100
AcDbLine
 62
250
  6
CONTINUOUS
 10
25.9125418797
 20
-17.3083548399
 11
25.6202055164
 21
-20.2614683638
  0
LINE
  5
40E
100
AcDbEntity
  8
RACCORDO
100
AcDbLine
 62
7
  6
CONTINUOUS
 10
11.4603460929
 20
-22.6577635793
 11
11.5233164548
 21
-22.624741391
  0
LINE
  5
40F
100
AcDbEntity
  8
DRAFT
100
AcDbLine
 62
7
  6
CONTINUOUS
 10
11.0112307418
 20
-22.3577635793
 11
11.1542971491
 21
-22.2935453978
  0
LINE
  5
410
100
AcDbEntity
  8
RACCORDO
100
AcDbLine
 62
250
  6
CONTINUOUS
 10
21.5915558944
 20
22.0422364207
 11
21.3955620559
 21
22.0031332382
  0
LINE
  5
411
100
AcDbEntity
  8
RACCORDO
100
AcDbLine
 62
7
  6
CONTINUOUS
 10
21.552119269
 20
22.0383404637
 11
21.3655761624
 21
22.0011228185
  0
LWPOLYLINE
  5
412
100
AcDbEntity
  8
RACCORDO
100
AcDbPolyline
 62
250
  6
CONTINUOUS
 90
5
 70
0
 10
21.3955620559
 20
22.0031332382
 10
21.3900080026
 20
22.0023961595
 10
21.3810857459
 20
22.0016788401
 10
21.3687952857
 20
22.0009812798
 10
21.3558882853
 20
22.0006239179
  0
LINE
  5
413
100
AcDbEntity
  8
DRAFT
100
AcDbLine
 62
7
  6
CONTINUOUS
 10
-13.6231115994
 20
18.5596139414
 11
-11.6213917376
 21
18.5596139414
  0
LINE
  5
414
100
AcDbEntity
  8
DRAFT
100
AcDbLine
 62
7
  6
CONTINUOUS
 10
-10.5724630687
 20
18.5596139414
 11
-4.5220402683
 21
18.5596139414
  0
LINE
  5
415
100
AcDbEntity
  8
DRAFT
100
AcDbLine
 62
7
  6
CONTINUOUS
 10
-3.6894278892
 20
18.5596139414
 11
2.3609949112
 21
18.5596139414
  0
LINE
  5
416
100
AcDbEntity
  8
DRAFT
100
AcDbLine
 62
7
  6
CONTINUOUS
 10
3.4099235801
 20
18.5596139414
 11
10.8786082624
 21
18.5596139414
  0
LINE
  5
417
100
AcDbEntity
  8
DRAFT
100
AcDbLine
 62
7
  6
CONTINUOUS
 10
11.9275369313
 20
18.5596139414
 11
17.9779597317
 21
18.5596139414
  0
LINE
  5
418
100
AcDbEntity
  8
DRAFT
100
AcDbLine
 62
7
  6
CONTINUOUS
 10
18.8105721108
 20
18.5596139414
 11
24.8609949112
 21
18.5596139414
  0
LINE
  5
419
100
AcDbEntity
  8
DRAFT
100
AcDbLine
 62
7
  6
CONTINUOUS
 10
25.9099235801
 20
18.5596139414
 11
27.9116434419
 21
18.5596139414
  0
LINE
  5
41A
100
AcDbEntity
  8
DRAFT
100
AcDbLine
 62
7
  6
CONTINUOUS
 10
-11.3316736739
 20
18.5742872283
 11
-10.7173110684
 21
18.5742872283
  0
LINE
  5
41B
100
AcDbEntity
  8
DRAFT
100
AcDbLine
 62
7
  6
CONTINUOUS
 10
2.5058429109
 20
18.5742872283
 11
3.1202055164
 21
18.5742872283
  0
LINE
  5
41C
100
AcDbEntity
  8
DRAFT
100
AcDbLine
 62
7
  6
CONTINUOUS
 10
11.1683263261
 20
18.5742872283
 11
11.7826889316
 21
18.5742872283
  0
LINE
  5
41D
100
AcDbEntity
  8
DRAFT
100
AcDbLine
 62
7
  6
CONTINUOUS
 10
25.0058429109
 20
18.5742872283
 11
25.6202055164
 21
18.5742872283
  0
LINE
  5
41E
100
AcDbEntity
  8
RACCORDO
100
AcDbLine
 62
250
  6
CONTINUOUS
 10
28.0408358348
 20
18.6888063343
 11
25.7807311871
 21
18.6888063343
  0
LINE
  5
41F
100
AcDbEntity
  8
RACCORDO
100
AcDbLine
 62
250
  6
CONTINUOUS
 10
24.9255861882
 20
18.6888063343
 11
18.7459808338
 21
18.6888063343
  0
LINE
  5
420
100
AcDbEntity
  8
RACCORDO
100
AcDbLine
 62
250
  6
CONTINUOUS
 10
18.0425510087
 20
18.6888063343
 11
11.8629456544
 21
18.6888063343
  0
LINE
  5
421
100
AcDbEntity
  8
RACCORDO
100
AcDbLine
 62
250
  6
CONTINUOUS
 10
11.0078006554
 20
18.6888063343
 11
3.2807311871
 21
18.6888063343
  0
LINE
  5
422
100
AcDbEntity
  8
RACCORDO
100
AcDbLine
 62
250
  6
CONTINUOUS
 10
2.4255861882
 20
18.6888063343
 11
-3.7540191662
 21
18.6888063343
  0
LINE
  5
423
100
AcDbEntity
  8
RACCORDO
100
AcDbLine
 62
250
  6
CONTINUOUS
 10
-4.4574489913
 20
18.6888063343
 11
-10.6370543456
 21
18.6888063343
  0
LINE
  5
424
100
AcDbEntity
  8
RACCORDO
100
AcDbLine
 62
250
  6
CONTINUOUS
 10
-11.4921993446
 20
18.6888063343
 11
-13.7523039923
 21
18.6888063343
  0
LINE
  5
425
100
AcDbEntity
  8
RACCORDO
100
AcDbLine
 62
250
  6
CONTINUOUS
 10
18.7006315823
 20
18.838042957
 11
18.0879002602
 21
18.838042957
  0
LINE
  5
426
100
AcDbEntity
  8
RACCORDO
100
AcDbLine
 62
250
  6
CONTINUOUS
 10
-3.7993684177
 20
18.838042957
 11
-4.4120997398
 21
18.838042957
  0
LINE
  5
427
100
AcDbEntity
  8
RACCORDO
100
AcDbLine
 62
250
  6
CONTINUOUS
 10
28.2408053739
 20
18.8887758734
 11
25.7773011007
 21
18.8887758734
  0
LINE
  5
428
100
AcDbEntity
  8
RACCORDO
100
AcDbLine
 62
250
  6
CONTINUOUS
 10
24.9079134508
 20
18.8887758734
 11
18.7636535712
 21
18.8887758734
  0
LINE
  5
429
100
AcDbEntity
  8
RACCORDO
100
AcDbLine
 62
250
  6
CONTINUOUS
 10
18.0248782713
 20
18.8887758734
 11
11.8806183917
 21
18.8887758734
  0
LINE
  5
42A
100
AcDbEntity
  8
RACCORDO
100
AcDbLine
 62
250
  6
CONTINUOUS
 10
11.0112307418
 20
18.8887758734
 11
3.2773011007
 21
18.8887758734
  0
LINE
  5
42B
100
AcDbEntity
  8
RACCORDO
100
AcDbLine
 62
250
  6
CONTINUOUS
 10
2.4079134508
 20
18.8887758734
 11
-3.7363464288
 21
18.8887758734
  0
LINE
  5
42C
100
AcDbEntity
  8
RACCORDO
100
AcDbLine
 62
250
  6
CONTINUOUS
 10
-4.4751217287
 20
18.8887758734
 11
-10.6193816083
 21
18.8887758734
  0
LINE
  5
42D
100
AcDbEntity
  8
RACCORDO
100
AcDbLine
 62
250
  6
CONTINUOUS
 10
-11.4887692582
 20
18.8887758734
 11
-13.9522735314
 21
18.8887758734
  0
LINE
  5
42E
100
AcDbEntity
  8
RACCORDO
100
AcDbLine
 62
7
  6
CONTINUOUS
 10
-10.3887787775
 20
19.0422364207
 11
-4.7057245595
 21
19.0422364207
  0
LINE
  5
42F
100
AcDbEntity
  8
RACCORDO
100
AcDbLine
 62
7
  6
CONTINUOUS
 10
-3.505743598
 20
19.0422364207
 11
2.17731062
 21
19.0422364207
  0
LINE
  5
430
100
AcDbEntity
  8
RACCORDO
100
AcDbLine
 62
7
  6
CONTINUOUS
 10
12.1112212225
 20
19.0422364207
 11
17.7942754405
 21
19.0422364207
  0
LINE
  5
431
100
AcDbEntity
  8
RACCORDO
100
AcDbLine
 62
7
  6
CONTINUOUS
 10
18.994256402
 20
19.0422364207
 11
24.67731062
 21
19.0422364207
  0
LINE
  5
432
100
AcDbEntity
  8
RACCORDO
100
AcDbLine
 62
7
  6
CONTINUOUS
 10
18.9484593849
 20
19.0880334378
 11
17.8400724576
 21
19.0880334378
  0
LINE
  5
433
100
AcDbEntity
  8
RACCORDO
100
AcDbLine
 62
7
  6
CONTINUOUS
 10
-3.5515406151
 20
19.0880334378
 11
-4.6599275424
 21
19.0880334378
  0
LINE
  5
434
100
AcDbEntity
  8
RACCORDO
100
AcDbLine
 62
7
  6
CONTINUOUS
 10
-10.4625926926
 20
19.1160503358
 11
2.2511245351
 21
19.1160503358
  0
LINE
  5
435
100
AcDbEntity
  8
RACCORDO
100
AcDbLine
 62
7
  6
CONTINUOUS
 10
12.0374073074
 20
19.1160503358
 11
24.7511245351
 21
19.1160503358
  0
LINE
  5
436
100
AcDbEntity
  8
RACCORDO
100
AcDbLine
 62
250
  6
CONTINUOUS
 10
25.3296738002
 20
19.6506432041
 11
22.3942659213
 21
19.6506432041
  0
LINE
  5
437
100
AcDbEntity
  8
RACCORDO
100
AcDbLine
 62
250
  6
CONTINUOUS
 10
14.3942659213
 20
19.6506432041
 11
11.4588580424
 21
19.6506432041
  0
LINE
  5
438
100
AcDbEntity
  8
RACCORDO
100
AcDbLine
 62
250
  6
CONTINUOUS
 10
2.8296738002
 20
19.6506432041
 11
-0.1057340787
 21
19.6506432041
  0
LINE
  5
439
100
AcDbEntity
  8
RACCORDO
100
AcDbLine
 62
250
  6
CONTINUOUS
 10
-8.1057340787
 20
19.6506432041
 11
-11.0411419576
 21
19.6506432041
  0
LINE
  5
43A
100
AcDbEntity
  8
RACCORDO
100
AcDbLine
 62
250
  6
CONTINUOUS
 10
-8.1057340787
 20
19.683657777
 11
-6.8028725713
 21
19.683657777
  0
LINE
  5
43B
100
AcDbEntity
  8
RACCORDO
100
AcDbLine
 62
250
  6
CONTINUOUS
 10
-1.4085955862
 20
19.683657777
 11
-0.1057340787
 21
19.683657777
  0
LINE
  5
43C
100
AcDbEntity
  8
RACCORDO
100
AcDbLine
 62
250
  6
CONTINUOUS
 10
14.3942659213
 20
19.683657777
 11
15.6971274287
 21
19.683657777
  0
LINE
  5
43D
100
AcDbEntity
  8
RACCORDO
100
AcDbLine
 62
250
  6
CONTINUOUS
 10
21.0914044138
 20
19.683657777
 11
22.3942659213
 21
19.683657777
  0
LINE
  5
43E
100
AcDbEntity
  8
RACCORDO
100
AcDbLine
 62
7
  6
CONTINUOUS
 10
25.2652153877
 20
19.7092142325
 11
22.3942659213
 21
19.7092142325
  0
LINE
  5
43F
100
AcDbEntity
  8
RACCORDO
100
AcDbLine
 62
7
  6
CONTINUOUS
 10
14.3942659213
 20
19.7092142325
 11
11.5233164548
 21
19.7092142325
  0
LINE
  5
440
100
AcDbEntity
  8
RACCORDO
100
AcDbLine
 62
7
  6
CONTINUOUS
 10
2.7652153877
 20
19.7092142325
 11
-0.1057340787
 21
19.7092142325
  0
LINE
  5
441
100
AcDbEntity
  8
RACCORDO
100
AcDbLine
 62
7
  6
CONTINUOUS
 10
-8.1057340787
 20
19.7092142325
 11
-10.9766835452
 21
19.7092142325
  0
LINE
  5
442
100
AcDbEntity
  8
DRAFT
100
AcDbLine
 62
7
  6
CONTINUOUS
 10
25.3281857496
 20
19.7422364207
 11
22.3942659213
 21
19.7422364207
  0
LINE
  5
443
100
AcDbEntity
  8
DRAFT
100
AcDbLine
 62
7
  6
CONTINUOUS
 10
14.3942659213
 20
19.7422364207
 11
11.4603460929
 21
19.7422364207
  0
LINE
  5
444
100
AcDbEntity
  8
DRAFT
100
AcDbLine
 62
7
  6
CONTINUOUS
 10
-11.0396539071
 20
19.7422364207
 11
-8.1057340787
 21
19.7422364207
  0
LINE
  5
445
100
AcDbEntity
  8
RACCORDO
100
AcDbLine
 62
7
  6
CONTINUOUS
 10
-8.1057340787
 20
19.7422364207
 11
-6.8267707044
 21
19.7422364207
  0
LINE
  5
446
100
AcDbEntity
  8
RACCORDO
100
AcDbLine
 62
7
  6
CONTINUOUS
 10
-6.8121632991
 20
19.7422364207
 11
-1.3993048584
 21
19.7422364207
  0
LINE
  5
447
100
AcDbEntity
  8
RACCORDO
100
AcDbLine
 62
7
  6
CONTINUOUS
 10
-1.3846974531
 20
19.7422364207
 11
-0.1057340787
 21
19.7422364207
  0
LINE
  5
448
100
AcDbEntity
  8
DRAFT
100
AcDbLine
 62
7
  6
CONTINUOUS
 10
-0.1057340787
 20
19.7422364207
 11
2.8281857496
 21
19.7422364207
  0
LINE
  5
449
100
AcDbEntity
  8
RACCORDO
100
AcDbLine
 62
7
  6
CONTINUOUS
 10
14.3942659213
 20
19.7422364207
 11
15.6732292956
 21
19.7422364207
  0
LINE
  5
44A
100
AcDbEntity
  8
RACCORDO
100
AcDbLine
 62
7
  6
CONTINUOUS
 10
15.6878367009
 20
19.7422364207
 11
21.1006951416
 21
19.7422364207
  0
LINE
  5
44B
100
AcDbEntity
  8
RACCORDO
100
AcDbLine
 62
7
  6
CONTINUOUS
 10
21.1153025469
 20
19.7422364207
 11
22.3942659213
 21
19.7422364207
  0
LINE
  5
44C
100
AcDbEntity
  8
RACCORDO
100
AcDbLine
 62
250
  6
CONTINUOUS
 10
-7.1009092971
 20
22.002377227
 11
-7.1070302134
 21
22.0031332382
  0
LINE
  5
44D
100
AcDbEntity
  8
RACCORDO
100
AcDbLine
 62
250
  6
CONTINUOUS
 10
-7.1070302134
 20
22.0031332382
 11
-7.3030240519
 21
22.0422364207
  0
LINE
  5
44E
100
AcDbEntity
  8
RACCORDO
100
AcDbLine
 62
7
  6
CONTINUOUS
 10
-7.077045101
 20
22.0011229743
 11
-7.2635874265
 21
22.0383404637
  0
LINE
  5
44F
100
AcDbEntity
  8
DRAFT
100
AcDbLine
 62
7
  6
CONTINUOUS
 10
11.0112307418
 20
19.4422364207
 11
11.1542971491
 21
19.3780182393
  0
LINE
  5
450
100
AcDbEntity
  8
RACCORDO
100
AcDbLine
 62
7
  6
CONTINUOUS
 10
11.5233164548
 20
19.7092142325
 11
11.4603460929
 21
19.7422364207
  0
LINE
  5
451
100
AcDbEntity
  8
ASSI
100
AcDbLine
 62
7
  6
CONTINUOUS
 10
29.5442659213
 20
-23.3575347272
 11
29.5442659213
 21
20.4420075687
  0
LINE
  5
452
100
AcDbEntity
  8
RACCORDO
100
AcDbLine
 62
250
  6
CONTINUOUS
 10
18.7444837221
 20
-21.7075552977
 11
18.7006315823
 21
-21.7514074375
  0
LINE
  5
453
100
AcDbEntity
  8
RACCORDO
100
AcDbLine
 62
250
  6
CONTINUOUS
 10
18.9484593849
 20
-22.0035605963
 11
18.994256402
 21
-21.9577635793
  0
LWPOLYLINE
  5
454
100
AcDbEntity
  8
RACCORDO
100
AcDbPolyline
 62
7
  6
CONTINUOUS
 90
6
 70
0
 10
21.3702532522
 20
22.0014382666
 10
21.370155438
 20
22.0014301257
 10
21.3693978428
 20
22.0013712894
 10
21.3678333119
 20
22.0012627499
 10
21.3656868621
 20
22.0011290746
 10
21.3629781903
 20
22.0009759956
  0
LWPOLYLINE
  5
455
100
AcDbEntity
  8
RACCORDO
100
AcDbPolyline
 62
7
  6
CONTINUOUS
 90
6
 70
0
 10
-1.1297467478
 20
22.0014382666
 10
-1.129844562
 20
22.0014301257
 10
-1.1306021572
 20
22.0013712894
 10
-1.1321666881
 20
22.0012627499
 10
-1.1343131379
 20
22.0011290746
 10
-1.1370218097
 20
22.0009759956
  0
LINE
  5
456
100
AcDbEntity
  8
RACCORDO
100
AcDbLine
 62
250
  6
CONTINUOUS
 10
21.3955620559
 20
22.0031332382
 11
21.3698426499
 21
22.0014993835
  0
LINE
  5
457
100
AcDbEntity
  8
RACCORDO
100
AcDbLine
 62
250
  6
CONTINUOUS
 10
-1.1044379441
 20
22.0031332382
 11
-1.1301573501
 21
22.0014993835
  0
LINE
  5
458
100
AcDbEntity
  8
RACCORDO
100
AcDbLine
 62
7
  6
CONTINUOUS
 10
21.3629781903
 20
22.0009759956
 11
21.3558882853
 21
22.0006239179
  0
LINE
  5
459
100
AcDbEntity
  8
RACCORDO
100
AcDbLine
 62
7
  6
CONTINUOUS
 10
-1.1370218097
 20
22.0009759956
 11
-1.1441117147
 21
22.0006239179
  0
LINE
  5
45A
100
AcDbEntity
  8
RACCORDO
100
AcDbLine
 62
7
  6
CONTINUOUS
 10
21.3558882853
 20
22.0006239179
 11
21.346977651
 21
22.0002435053
  0
LINE
  5
45B
100
AcDbEntity
  8
RACCORDO
100
AcDbLine
 62
7
  6
CONTINUOUS
 10
-1.1441117147
 20
22.0006239179
 11
-1.153022349
 21
22.0002435053
  0
LINE
  5
45C
100
AcDbEntity
  8
RACCORDO
100
AcDbLine
 62
7
  6
CONTINUOUS
 10
21.346977651
 20
22.0002435053
 11
21.3362872575
 21
21.9998493996
  0
LINE
  5
45D
100
AcDbEntity
  8
RACCORDO
100
AcDbLine
 62
7
  6
CONTINUOUS
 10
-1.153022349
 20
22.0002435053
 11
-1.1637127425
 21
21.9998493996
  0
LINE
  5
45E
100
AcDbEntity
  8
RACCORDO
100
AcDbLine
 62
250
  6
CONTINUOUS
 10
21.3528936854
 20
22.0002968044
 11
21.346977651
 21
22.0002435053
  0
LWPOLYLINE
  5
45F
100
AcDbEntity
  8
RACCORDO
100
AcDbPolyline
 62
250
  6
CONTINUOUS
 90
3
 70
0
 10
21.3362872575
 20
21.9998493996
 10
21.3336238817
 20
21.9996320881
 10
21.3169490913
 20
21.9992510812
  0
LINE
  5
460
100
AcDbEntity
  8
RACCORDO
100
AcDbLine
 62
250
  6
CONTINUOUS
 10
-1.1471063146
 20
22.0002968044
 11
-1.153022349
 21
22.0002435053
  0
LWPOLYLINE
  5
461
100
AcDbEntity
  8
RACCORDO
100
AcDbPolyline
 62
250
  6
CONTINUOUS
 90
3
 70
0
 10
-1.1637127425
 20
21.9998493996
 10
-1.1663761183
 20
21.9996320881
 10
-1.1830509087
 20
21.9992510812
  0
LINE
  5
462
100
AcDbEntity
  8
RACCORDO
100
AcDbLine
 62
7
  6
CONTINUOUS
 10
21.3362872575
 20
21.9998493996
 11
21.3169490913
 21
21.9992510812
  0
LINE
  5
463
100
AcDbEntity
  8
RACCORDO
100
AcDbLine
 62
7
  6
CONTINUOUS
 10
-1.1637127425
 20
21.9998493996
 11
-1.1830509087
 21
21.9992510812
  0
LINE
  5
464
100
AcDbEntity
  8
RACCORDO
100
AcDbLine
 62
7
  6
CONTINUOUS
 10
21.3169490913
 20
21.9992510812
 11
21.2850872249
 21
21.9984558196
  0
LINE
  5
465
100
AcDbEntity
  8
RACCORDO
100
AcDbLine
 62
7
  6
CONTINUOUS
 10
-1.1830509087
 20
21.9992510812
 11
-1.2149127751
 21
21.9984558196
  0
LINE
  5
466
100
AcDbEntity
  8
RACCORDO
100
AcDbLine
 62
250
  6
CONTINUOUS
 10
21.2870923866
 20
21.9984256761
 11
21.2850872249
 21
21.9984558196
  0
LWPOLYLINE
  5
467
100
AcDbEntity
  8
RACCORDO
100
AcDbPolyline
 62
250
  6
CONTINUOUS
 90
3
 70
0
 10
21.2666451369
 20
21.9980720253
 10
21.2598306953
 20
21.9978839804
 10
21.2465427504
 20
21.9977042257
  0
LINE
  5
468
100
AcDbEntity
  8
RACCORDO
100
AcDbLine
 62
250
  6
CONTINUOUS
 10
-1.2129076134
 20
21.9984256761
 11
-1.2149127751
 21
21.9984558196
  0
LWPOLYLINE
  5
469
100
AcDbEntity
  8
RACCORDO
100
AcDbPolyline
 62
250
  6
CONTINUOUS
 90
3
 70
0
 10
-1.2333548631
 20
21.9980720253
 10
-1.2401693047
 20
21.9978839804
 10
-1.2534572496
 20
21.9977042257
  0
LINE
  5
46A
100
AcDbEntity
  8
RACCORDO
100
AcDbLine
 62
7
  6
CONTINUOUS
 10
21.2850872249
 20
21.9984558196
 11
21.2465427504
 21
21.9977042257
  0
LINE
  5
46B
100
AcDbEntity
  8
RACCORDO
100
AcDbLine
 62
7
  6
CONTINUOUS
 10
-1.2149127751
 20
21.9984558196
 11
-1.2534572496
 21
21.9977042257
  0
LINE
  5
46C
100
AcDbEntity
  8
RACCORDO
100
AcDbLine
 62
250
  6
CONTINUOUS
 10
21.2358668378
 20
21.9975260803
 11
21.2308795449
 21
21.9973910725
  0
LINE
  5
46D
100
AcDbEntity
  8
RACCORDO
100
AcDbLine
 62
250
  6
CONTINUOUS
 10
-1.2641331622
 20
21.9975260803
 11
-1.2691204551
 21
21.9973910725
  0
LINE
  5
46E
100
AcDbEntity
  8
RACCORDO
100
AcDbLine
 62
7
  6
CONTINUOUS
 10
21.2465427504
 20
21.9977042257
 11
21.1892239526
 21
21.9968504977
  0
LINE
  5
46F
100
AcDbEntity
  8
RACCORDO
100
AcDbLine
 62
7
  6
CONTINUOUS
 10
-1.2534572496
 20
21.9977042257
 11
-1.3107760474
 21
21.9968504977
  0
LINE
  5
470
100
AcDbEntity
  8
RACCORDO
100
AcDbLine
 62
250
  6
CONTINUOUS
 10
21.2005539816
 20
21.9969508971
 11
21.1892239526
 21
21.9968504977
  0
LINE
  5
471
100
AcDbEntity
  8
RACCORDO
100
AcDbLine
 62
250
  6
CONTINUOUS
 10
21.1766252702
 20
21.9966953655
 11
21.1685389591
 21
21.9965595096
  0
LINE
  5
472
100
AcDbEntity
  8
RACCORDO
100
AcDbLine
 62
250
  6
CONTINUOUS
 10
-1.2994460184
 20
21.9969508971
 11
-1.3107760474
 21
21.9968504977
  0
LINE
  5
473
100
AcDbEntity
  8
RACCORDO
100
AcDbLine
 62
250
  6
CONTINUOUS
 10
-1.3233747298
 20
21.9966953655
 11
-1.3314610409
 21
21.9965595096
  0
LINE
  5
474
100
AcDbEntity
  8
RACCORDO
100
AcDbLine
 62
7
  6
CONTINUOUS
 10
21.1892239526
 20
21.9968504977
 11
21.1084401483
 21
21.9960200458
  0
LINE
  5
475
100
AcDbEntity
  8
RACCORDO
100
AcDbLine
 62
7
  6
CONTINUOUS
 10
-1.3107760474
 20
21.9968504977
 11
-1.3915598517
 21
21.9960200458
  0
LINE
  5
476
100
AcDbEntity
  8
RACCORDO
100
AcDbLine
 62
7
  6
CONTINUOUS
 10
21.1084401483
 20
21.9960200458
 11
20.9841746905
 21
21.9953242284
  0
LINE
  5
477
100
AcDbEntity
  8
RACCORDO
100
AcDbLine
 62
7
  6
CONTINUOUS
 10
-1.3915598517
 20
21.9960200458
 11
-1.5158253095
 21
21.9953242284
  0
LINE
  5
478
100
AcDbEntity
  8
DRAFT
100
AcDbLine
 62
7
  6
CONTINUOUS
 10
-1.0265362151
 20
20.7422364207
 11
-7.1849319424
 21
20.7422364207
  0
LINE
  5
479
100
AcDbEntity
  8
DRAFT
100
AcDbLine
 62
7
  6
CONTINUOUS
 10
15.3150680576
 20
20.7422364207
 11
21.4734637849
 21
20.7422364207
  0
LINE
  5
47A
100
AcDbEntity
  8
DRAFT
100
AcDbLine
 62
7
  6
CONTINUOUS
 10
29.044646521
 20
20.9422364207
 11
23.9442659213
 21
20.9422364207
  0
LINE
  5
47B
100
AcDbEntity
  8
DRAFT
100
AcDbLine
 62
7
  6
CONTINUOUS
 10
12.8442659213
 20
20.9422364207
 11
1.4442659213
 21
20.9422364207
  0
LINE
  5
47C
100
AcDbEntity
  8
DRAFT
100
AcDbLine
 62
7
  6
CONTINUOUS
 10
-9.6557340787
 20
20.9422364207
 11
-14.7561146785
 21
20.9422364207
  0
LINE
  5
47D
100
AcDbEntity
  8
RACCORDO
100
AcDbLine
 62
250
  6
CONTINUOUS
 10
-8.352073844
 20
21.7799875185
 11
0.1406056865
 21
21.7799875185
  0
LINE
  5
47E
100
AcDbEntity
  8
RACCORDO
100
AcDbLine
 62
250
  6
CONTINUOUS
 10
14.147926156
 20
21.7799875185
 11
22.6406056865
 21
21.7799875185
  0
LINE
  5
47F
100
AcDbEntity
  8
RACCORDO
100
AcDbLine
 62
250
  6
CONTINUOUS
 10
-8.0596175103
 20
21.9764665763
 11
-0.1518506472
 21
21.9764665763
  0
LINE
  5
480
100
AcDbEntity
  8
RACCORDO
100
AcDbLine
 62
250
  6
CONTINUOUS
 10
14.4403824897
 20
21.9764665763
 11
22.3481493528
 21
21.9764665763
  0
LINE
  5
481
100
AcDbEntity
  8
RACCORDO
100
AcDbLine
 62
7
  6
CONTINUOUS
 10
22.3676032689
 20
22.0422364207
 11
21.5915558944
 21
22.0422364207
  0
LINE
  5
482
100
AcDbEntity
  8
RACCORDO
100
AcDbLine
 62
7
  6
CONTINUOUS
 10
15.1969759481
 20
22.0422364207
 11
14.4209285736
 21
22.0422364207
  0
LINE
  5
483
100
AcDbEntity
  8
RACCORDO
100
AcDbLine
 62
7
  6
CONTINUOUS
 10
-0.1323967311
 20
22.0422364207
 11
-0.9084441056
 21
22.0422364207
  0
LINE
  5
484
100
AcDbEntity
  8
RACCORDO
100
AcDbLine
 62
7
  6
CONTINUOUS
 10
-7.3030240519
 20
22.0422364207
 11
-8.0790714264
 21
22.0422364207
  0
LINE
  5
485
100
AcDbEntity
  8
RACCORDO
100
AcDbLine
 62
7
  6
CONTINUOUS
 10
20.9841746905
 20
21.9953242284
 11
15.8775867456
 21
21.9952009061
  0
LINE
  5
486
100
AcDbEntity
  8
RACCORDO
100
AcDbLine
 62
250
  6
CONTINUOUS
 10
15.8909918491
 20
21.995168672
 11
15.8775867456
 21
21.9952009061
  0
LINE
  5
487
100
AcDbEntity
  8
RACCORDO
100
AcDbLine
 62
7
  6
CONTINUOUS
 10
-1.5158253095
 20
21.9953242284
 11
-6.7222649617
 21
21.9954259294
  0
LINE
  5
488
100
AcDbEntity
  8
RACCORDO
100
AcDbLine
 62
7
  6
CONTINUOUS
 10
15.8775867456
 20
21.9952009061
 11
15.7585232896
 21
21.9955137928
  0
LINE
  5
489
100
AcDbEntity
  8
RACCORDO
100
AcDbLine
 62
250
  6
CONTINUOUS
 10
15.7658239348
 20
21.9954465126
 11
15.7585232896
 21
21.9955137928
  0
LINE
  5
48A
100
AcDbEntity
  8
RACCORDO
100
AcDbLine
 62
7
  6
CONTINUOUS
 10
-6.7222649617
 20
21.9954259294
 11
-6.83198338
 21
21.9961222668
  0
LINE
  5
48B
100
AcDbEntity
  8
RACCORDO
100
AcDbLine
 62
7
  6
CONTINUOUS
 10
15.7585232896
 20
21.9955137928
 11
15.6512051603
 21
21.9962773499
  0
LINE
  5
48C
100
AcDbEntity
  8
RACCORDO
100
AcDbLine
 62
7
  6
CONTINUOUS
 10
-6.83198338
 20
21.9961222668
 11
-6.9110281264
 21
21.9969845124
  0
LINE
  5
48D
100
AcDbEntity
  8
RACCORDO
100
AcDbLine
 62
7
  6
CONTINUOUS
 10
15.6512051603
 20
21.9962773499
 11
15.5747550476
 21
21.9971843245
  0
LINE
  5
48E
100
AcDbEntity
  8
RACCORDO
100
AcDbLine
 62
250
  6
CONTINUOUS
 10
15.5795327215
 20
21.9970710616
 11
15.5747550476
 21
21.9971843245
  0
LINE
  5
48F
100
AcDbEntity
  8
RACCORDO
100
AcDbLine
 62
250
  6
CONTINUOUS
 10
15.5611098419
 20
21.9973912449
 11
15.5488744401
 21
21.9975314514
  0
LINE
  5
490
100
AcDbEntity
  8
RACCORDO
100
AcDbLine
 62
7
  6
CONTINUOUS
 10
-6.9110281264
 20
21.9969845124
 11
-6.9644458823
 21
21.9978188586
  0
LINE
  5
491
100
AcDbEntity
  8
RACCORDO
100
AcDbLine
 62
7
  6
CONTINUOUS
 10
15.5747550476
 20
21.9971843245
 11
15.5236787723
 21
21.9980389643
  0
LINE
  5
492
100
AcDbEntity
  8
RACCORDO
100
AcDbLine
 62
7
  6
CONTINUOUS
 10
-6.9644458823
 20
21.9978188586
 11
-6.9982225599
 21
21.9984931426
  0
LINE
  5
493
100
AcDbEntity
  8
RACCORDO
100
AcDbLine
 62
7
  6
CONTINUOUS
 10
15.5236787723
 20
21.9980389643
 11
15.491747121
 21
21.9987262002
  0
LINE
  5
494
100
AcDbEntity
  8
RACCORDO
100
AcDbLine
 62
250
  6
CONTINUOUS
 10
15.4959756221
 20
21.9985428408
 11
15.491747121
 21
21.9987262002
  0
LINE
  5
495
100
AcDbEntity
  8
RACCORDO
100
AcDbLine
 62
250
  6
CONTINUOUS
 10
15.4823168712
 20
21.9989618566
 11
15.4733215557
 21
21.9990986441
  0
LINE
  5
496
100
AcDbEntity
  8
RACCORDO
100
AcDbLine
 62
7
  6
CONTINUOUS
 10
-6.9982225599
 20
21.9984931426
 11
-7.0265063718
 21
21.9991981381
  0
LINE
  5
497
100
AcDbEntity
  8
RACCORDO
100
AcDbLine
 62
7
  6
CONTINUOUS
 10
15.491747121
 20
21.9987262002
 11
15.4653067655
 21
21.9994334193
  0
LINE
  5
498
100
AcDbEntity
  8
RACCORDO
100
AcDbLine
 62
250
  6
CONTINUOUS
 10
-7.0422488347
 20
21.9996676039
 11
-7.0470535515
 21
21.999687588
  0
LINE
  5
499
100
AcDbEntity
  8
RACCORDO
100
AcDbLine
 62
250
  6
CONTINUOUS
 10
15.4577511653
 20
21.9996676039
 11
15.4529464485
 21
21.999687588
  0
LINE
  5
49A
100
AcDbEntity
  8
RACCORDO
100
AcDbLine
 62
7
  6
CONTINUOUS
 10
-7.0265063718
 20
21.9991981381
 11
-7.0422488347
 21
21.9996676039
  0
LINE
  5
49B
100
AcDbEntity
  8
RACCORDO
100
AcDbLine
 62
7
  6
CONTINUOUS
 10
15.4653067655
 20
21.9994334193
 11
15.4508150622
 21
21.9999003383
  0
LINE
  5
49C
100
AcDbEntity
  8
RACCORDO
100
AcDbLine
 62
250
  6
CONTINUOUS
 10
-7.0554862151
 20
22.0001298249
 11
-7.06495209
 21
22.0003098278
  0
LINE
  5
49D
100
AcDbEntity
  8
RACCORDO
100
AcDbLine
 62
250
  6
CONTINUOUS
 10
15.4445137849
 20
22.0001298249
 11
15.43504791
 21
22.0003098278
  0
LINE
  5
49E
100
AcDbEntity
  8
RACCORDO
100
AcDbLine
 62
7
  6
CONTINUOUS
 10
-7.0422488347
 20
21.9996676039
 11
-7.0554862151
 21
22.0001298249
  0
LINE
  5
49F
100
AcDbEntity
  8
RACCORDO
100
AcDbLine
 62
7
  6
CONTINUOUS
 10
15.4508150622
 20
21.9999003383
 11
15.4388077107
 21
22.0003558059
  0
LINE
  5
4A0
100
AcDbEntity
  8
RACCORDO
100
AcDbLine
 62
7
  6
CONTINUOUS
 10
-7.0554862151
 20
22.0001298249
 11
-7.0662896284
 21
22.000575667
  0
LWPOLYLINE
  5
4A1
100
AcDbEntity
  8
RACCORDO
100
AcDbPolyline
 62
250
  6
CONTINUOUS
 90
4
 70
0
 10
-7.0706866122
 20
22.0007823006
 10
-7.0799422103
 20
22.0009654991
 10
-7.0918799628
 20
22.0016546473
 10
-7.1009092971
 20
22.002377227
  0
LWPOLYLINE
  5
4A2
100
AcDbEntity
  8
RACCORDO
100
AcDbPolyline
 62
250
  6
CONTINUOUS
 90
4
 70
0
 10
15.4293133878
 20
22.0007823006
 10
15.4200577897
 20
22.0009654991
 10
15.4081200372
 20
22.0016546473
 10
15.3990907029
 20
22.002377227
  0
LWPOLYLINE
  5
4A3
100
AcDbEntity
  8
RACCORDO
100
AcDbPolyline
 62
7
  6
CONTINUOUS
 90
5
 70
0
 10
15.4388077107
 20
22.0003558059
 10
15.4293133878
 20
22.0007823006
 10
15.425563249
 20
22.0009748266
 10
15.4224786404
 20
22.0011500246
 10
15.4202542072
 20
22.0012913392
  0
LWPOLYLINE
  5
4A4
100
AcDbEntity
  8
RACCORDO
100
AcDbPolyline
 62
7
  6
CONTINUOUS
 90
4
 70
0
 10
-7.0662896284
 20
22.000575667
 10
-7.074436751
 20
22.0009748266
 10
-7.0775213596
 20
22.0011500246
 10
-7.0797457928
 20
22.0012913392
  0
LWPOLYLINE
  5
4A5
100
AcDbEntity
  8
RACCORDO
100
AcDbPolyline
 62
250
  6
CONTINUOUS
 90
3
 70
0
 10
-7.1070302134
 20
22.0031332382
 10
-7.081311613
 20
22.0014994876
 10
-7.0807349418
 20
22.0014048444
  0
LWPOLYLINE
  5
4A6
100
AcDbEntity
  8
RACCORDO
100
AcDbPolyline
 62
250
  6
CONTINUOUS
 90
3
 70
0
 10
15.3929697866
 20
22.0031332382
 10
15.418688387
 20
22.0014994876
 10
15.4192650582
 20
22.0014048444
  0
LINE
  5
4A7
100
AcDbEntity
  8
RACCORDO
100
AcDbLine
 62
7
  6
CONTINUOUS
 10
-7.0797457928
 20
22.0012913392
 11
-7.0807421009
 21
22.0013612233
  0
LINE
  5
4A8
100
AcDbEntity
  8
RACCORDO
100
AcDbLine
 62
7
  6
CONTINUOUS
 10
15.4202542072
 20
22.0012913392
 11
15.4192578991
 21
22.0013612233
  0
LINE
  5
4A9
100
AcDbEntity
  8
RACCORDO
100
AcDbLine
 62
250
  6
CONTINUOUS
 10
18.7444837221
 20
18.7920281391
 11
18.7006315823
 21
18.8358802789
  0
LINE
  5
4AA
100
AcDbEntity
  8
RACCORDO
100
AcDbLine
 62
250
  6
CONTINUOUS
 10
18.994256402
 20
19.0422364207
 11
18.9484593849
 21
19.0880334378
  0
LWPOLYLINE
  5
4AB
100
AcDbEntity
  8
RACCORDO
100
AcDbPolyline
 62
7
  6
CONTINUOUS
 90
7
 70
0
 10
24.9079134508
 20
18.8887758734
 10
24.9139619385
 20
18.8726409296
 10
24.9188690211
 20
18.8563434443
 10
24.9226346986
 20
18.8400014042
 10
24.9252589708
 20
18.82374243
 10
24.926741838
 20
18.8077031113
 10
24.9270832999
 20
18.7920281391
  0
LINE
  5
4AC
100
AcDbEntity
  8
RACCORDO
100
AcDbLine
 62
250
  6
CONTINUOUS
 10
-0.9084441056
 20
22.0422364207
 11
-1.1044379441
 21
22.0031332382
  0
LINE
  5
4AD
100
AcDbEntity
  8
RACCORDO
100
AcDbLine
 62
7
  6
CONTINUOUS
 10
-0.947880731
 20
22.0383404637
 11
-1.1344238376
 21
22.0011228185
  0
LWPOLYLINE
  5
4AE
100
AcDbEntity
  8
RACCORDO
100
AcDbPolyline
 62
250
  6
CONTINUOUS
 90
5
 70
0
 10
-1.1044379441
 20
22.0031332382
 10
-1.1099919974
 20
22.0023961595
 10
-1.1189142541
 20
22.0016788401
 10
-1.1312047143
 20
22.0009812798
 10
-1.1441117147
 20
22.0006239179
  0
LINE
  5
4AF
100
AcDbEntity
  8
RACCORDO
100
AcDbLine
 62
250
  6
CONTINUOUS
 10
15.3990907029
 20
22.002377227
 11
15.3929697866
 21
22.0031332382
  0
LINE
  5
4B0
100
AcDbEntity
  8
RACCORDO
100
AcDbLine
 62
250
  6
CONTINUOUS
 10
15.3929697866
 20
22.0031332382
 11
15.1969759481
 21
22.0422364207
  0
LINE
  5
4B1
100
AcDbEntity
  8
RACCORDO
100
AcDbLine
 62
7
  6
CONTINUOUS
 10
15.422954899
 20
22.0011229743
 11
15.2364125735
 21
22.0383404637
  0
LWPOLYLINE
  5
4B2
100
AcDbEntity
  8
RACCORDO
100
AcDbPolyline
 62
7
  6
CONTINUOUS
 90
9
 70
0
 10
25.2652153877
 20
19.7092142325
 10
25.26546561
 20
19.7087027649
 10
25.266670489
 20
19.7073827816
 10
25.2688300248
 20
19.7052476077
 10
25.2719522195
 20
19.7022925238
 10
25.2760290709
 20
19.698518631
 10
25.2810365723
 20
19.6939364695
 10
25.2870001813
 20
19.6885528652
 10
25.3016189697
 20
19.6754768034
  0
LINE
  5
4B3
100
AcDbEntity
  8
RACCORDO
100
AcDbLine
 62
7
  6
CONTINUOUS
 10
25.9099235801
 20
-21.4751410999
 11
25.7807311871
 21
-21.6043334929
  0
LWPOLYLINE
  5
4B4
100
AcDbEntity
  8
RACCORDO
100
AcDbPolyline
 62
7
  6
CONTINUOUS
 90
8
 70
0
 10
25.2869960713
 20
-22.6040829395
 10
25.28103076
 20
-22.6094689041
 10
25.2760199391
 20
-22.6140566487
 10
25.2719392596
 20
-22.6178349551
 10
25.2688157607
 20
-22.6207885488
 10
25.2666584557
 20
-22.6229180878
 10
25.2654583313
 20
-22.6242325916
 10
25.2652153877
 20
-22.624741391
  0
LWPOLYLINE
  5
4B5
100
AcDbEntity
  8
RACCORDO
100
AcDbPolyline
 62
7
  6
CONTINUOUS
 90
4
 70
0
 10
25.3296738002
 20
-22.5661703626
 10
25.3194914889
 20
-22.5751031309
 10
25.3101392328
 20
-22.5833932967
 10
25.2869960713
 20
-22.6040829395
  0
LWPOLYLINE
  5
4B6
100
AcDbEntity
  8
RACCORDO
100
AcDbPolyline
 62
7
  6
CONTINUOUS
 90
6
 70
0
 10
22.3791137181
 20
-24.870049944
 10
22.3620710854
 20
-24.8817172923
 10
22.3559589594
 20
-24.8859823947
 10
22.3516507403
 20
-24.8891293768
 10
22.3490475381
 20
-24.8911407943
 10
22.3481493528
 20
-24.8919937348
  0
LWPOLYLINE
  5
4B7
100
AcDbEntity
  8
RACCORDO
100
AcDbPolyline
 62
7
  6
CONTINUOUS
 90
3
 70
0
 10
22.4290383912
 20
-24.8364676078
 10
22.3897711162
 20
-24.86282314
 10
22.3791137181
 20
-24.870049944
  0
LINE
  5
4B8
100
AcDbEntity
  8
RACCORDO
100
AcDbLine
 62
7
  6
CONTINUOUS
 10
22.6173536356
 20
-24.7109066805
 11
22.5522700955
 21
-24.7544133379
  0
LINE
  5
4B9
100
AcDbEntity
  8
RACCORDO
100
AcDbLine
 62
7
  6
CONTINUOUS
 10
22.5522700955
 20
-24.7544133379
 11
22.4290383912
 21
-24.8364676078
  0
LINE
  5
4BA
100
AcDbEntity
  8
RACCORDO
100
AcDbLine
 62
7
  6
CONTINUOUS
 10
22.6406056865
 20
-24.6955146771
 11
22.6173536356
 21
-24.7109066805
  0
LWPOLYLINE
  5
4BB
100
AcDbEntity
  8
RACCORDO
100
AcDbPolyline
 62
7
  6
CONTINUOUS
 90
3
 70
0
 10
22.4290423656
 20
21.9209383804
 10
22.5950428928
 20
21.8102773092
 10
22.6406056865
 20
21.7799875185
  0
LINE
  5
4BC
100
AcDbEntity
  8
RACCORDO
100
AcDbLine
 62
7
  6
CONTINUOUS
 10
22.3897610322
 20
21.9473028356
 11
22.4290423656
 21
21.9209383804
  0
LWPOLYLINE
  5
4BD
100
AcDbEntity
  8
RACCORDO
100
AcDbPolyline
 62
7
  6
CONTINUOUS
 90
3
 70
0
 10
22.3620731877
 20
21.9661874025
 10
22.3791071376
 20
21.9545272491
 10
22.3897610322
 20
21.9473028356
  0
LINE
  5
4BE
100
AcDbEntity
  8
RACCORDO
100
AcDbLine
 62
7
  6
CONTINUOUS
 10
25.3194919197
 20
19.6595758443
 11
25.3296738002
 21
19.6506432041
  0
LINE
  5
4BF
100
AcDbEntity
  8
RACCORDO
100
AcDbLine
 62
7
  6
CONTINUOUS
 10
25.3016189697
 20
19.6754768034
 11
25.3194919197
 21
19.6595758443
  0
LWPOLYLINE
  5
4C0
100
AcDbEntity
  8
RACCORDO
100
AcDbPolyline
 62
7
  6
CONTINUOUS
 90
5
 70
0
 10
22.3481493528
 20
21.9764665763
 10
22.3490511142
 20
21.9756127584
 10
22.3516560234
 20
21.9735997944
 10
22.3559640803
 20
21.9704516113
 10
22.3620731877
 20
21.9661874025
  0
LINE
  5
4C1
100
AcDbEntity
  8
RACCORDO
100
AcDbLine
 62
7
  6
CONTINUOUS
 10
25.9099235801
 20
18.5596139414
 11
25.7807311871
 21
18.6888063343
  0
ARC
  5
4C2
100
AcDbEntity
  8
DRAFT
100
AcDbCircle
 62
7
  6
CONTINUOUS
 10
-9.0557340787
 20
-24.5577635793
 40
0.5
100
AcDbArc
 50
350.8037184209
 51
119.112422776
  0
ARC
  5
4C3
100
AcDbEntity
  8
DRAFT
100
AcDbCircle
 62
7
  6
CONTINUOUS
 10
0.8442659213
 20
-24.5577635793
 40
0.5
100
AcDbArc
 50
60.887577224
 51
189.196281579
  0
ARC
  5
4C4
100
AcDbEntity
  8
DRAFT
100
AcDbCircle
 62
7
  6
CONTINUOUS
 10
-15.3557340787
 20
-1.4577635793
 40
28.0
100
AcDbArc
 50
55.8789063483
 51
57.0647695028
  0
ARC
  5
4C5
100
AcDbEntity
  8
DRAFT
100
AcDbCircle
 62
7
  6
CONTINUOUS
 10
-15.3557340787
 20
-1.4577635793
 40
28.0
100
AcDbArc
 50
302.9352304972
 51
304.1210936517
  0
ARC
  5
4C6
100
AcDbEntity
  8
DRAFT
100
AcDbCircle
 62
7
  6
CONTINUOUS
 10
-15.3557340787
 20
-1.4577635793
 40
28.0
100
AcDbArc
 50
48.2819495688
 51
54.0372348486
  0
ARC
  5
4C7
100
AcDbEntity
  8
DRAFT
100
AcDbCircle
 62
7
  6
CONTINUOUS
 10
-15.3557340787
 20
-1.4577635793
 40
28.0
100
AcDbArc
 50
305.9627651514
 51
311.7180504312
  0
ARC
  5
4C8
100
AcDbEntity
  8
DRAFT
100
AcDbCircle
 62
7
  6
CONTINUOUS
 10
0.8442659213
 20
21.6422364207
 40
0.5
100
AcDbArc
 50
170.8037184209
 51
299.112422776
  0
ARC
  5
4C9
100
AcDbEntity
  8
DRAFT
100
AcDbCircle
 62
7
  6
CONTINUOUS
 10
-9.0557340787
 20
21.6422364207
 40
0.5
100
AcDbArc
 50
240.887577224
 51
9.1962815791
  0
ARC
  5
4CA
100
AcDbEntity
  8
DRAFT
100
AcDbCircle
 62
7
  6
CONTINUOUS
 10
13.4442659213
 20
-24.5577635793
 40
0.5
100
AcDbArc
 50
350.803718421
 51
119.112422776
  0
ARC
  5
4CB
100
AcDbEntity
  8
DRAFT
100
AcDbCircle
 62
7
  6
CONTINUOUS
 10
23.3442659213
 20
-24.5577635793
 40
0.5
100
AcDbArc
 50
60.887577224
 51
189.196281579
  0
ARC
  5
4CC
100
AcDbEntity
  8
DRAFT
100
AcDbCircle
 62
7
  6
CONTINUOUS
 10
7.1442659213
 20
-1.4577635793
 40
28.0
100
AcDbArc
 50
122.9352304972
 51
124.1210936517
  0
ARC
  5
4CD
100
AcDbEntity
  8
DRAFT
100
AcDbCircle
 62
7
  6
CONTINUOUS
 10
29.6442659213
 20
-1.4577635793
 40
28.0
100
AcDbArc
 50
122.9352304972
 51
124.1210936517
  0
ARC
  5
4CE
100
AcDbEntity
  8
DRAFT
100
AcDbCircle
 62
7
  6
CONTINUOUS
 10
7.1442659213
 20
-1.4577635793
 40
28.0
100
AcDbArc
 50
55.8789063483
 51
57.0647695028
  0
ARC
  5
4CF
100
AcDbEntity
  8
DRAFT
100
AcDbCircle
 62
7
  6
CONTINUOUS
 10
7.1442659213
 20
-1.4577635793
 40
28.0
100
AcDbArc
 50
302.9352304972
 51
304.1210936517
  0
ARC
  5
4D0
100
AcDbEntity
  8
DRAFT
100
AcDbCircle
 62
7
  6
CONTINUOUS
 10
29.6442659213
 20
-1.4577635793
 40
28.0
100
AcDbArc
 50
235.8789063483
 51
237.0647695028
  0
ARC
  5
4D1
100
AcDbEntity
  8
DRAFT
100
AcDbCircle
 62
7
  6
CONTINUOUS
 10
7.1442659213
 20
-1.4577635793
 40
28.0
100
AcDbArc
 50
235.8789063483
 51
237.0647695028
  0
ARC
  5
4D2
100
AcDbEntity
  8
DRAFT
100
AcDbCircle
 62
7
  6
CONTINUOUS
 10
29.6442659213
 20
-1.4577635793
 40
28.0
100
AcDbArc
 50
125.9627651514
 51
131.7180504312
  0
ARC
  5
4D3
100
AcDbEntity
  8
DRAFT
100
AcDbCircle
 62
7
  6
CONTINUOUS
 10
7.1442659213
 20
-1.4577635793
 40
28.0
100
AcDbArc
 50
228.2819495688
 51
234.0372348486
  0
ARC
  5
4D4
100
AcDbEntity
  8
DRAFT
100
AcDbCircle
 62
7
  6
CONTINUOUS
 10
7.1442659213
 20
-1.4577635793
 40
28.0
100
AcDbArc
 50
125.9627651514
 51
131.7180504312
  0
ARC
  5
4D5
100
AcDbEntity
  8
DRAFT
100
AcDbCircle
 62
7
  6
CONTINUOUS
 10
29.6442659213
 20
-1.4577635793
 40
28.0
100
AcDbArc
 50
228.2819495688
 51
234.0372348486
  0
ARC
  5
4D6
100
AcDbEntity
  8
DRAFT
100
AcDbCircle
 62
7
  6
CONTINUOUS
 10
7.1442659213
 20
-1.4577635793
 40
28.0
100
AcDbArc
 50
48.2819495688
 51
54.0372348486
  0
ARC
  5
4D7
100
AcDbEntity
  8
DRAFT
100
AcDbCircle
 62
7
  6
CONTINUOUS
 10
7.1442659213
 20
-1.4577635793
 40
28.0
100
AcDbArc
 50
305.9627651514
 51
311.7180504312
  0
ARC
  5
4D8
100
AcDbEntity
  8
DRAFT
100
AcDbCircle
 62
7
  6
CONTINUOUS
 10
23.3442659213
 20
21.6422364207
 40
0.5
100
AcDbArc
 50
170.803718421
 51
299.112422776
  0
ARC
  5
4D9
100
AcDbEntity
  8
DRAFT
100
AcDbCircle
 62
7
  6
CONTINUOUS
 10
13.4442659213
 20
21.6422364207
 40
0.5
100
AcDbArc
 50
240.887577224
 51
9.1962815791
  0
ELLIPSE
  5
4DA
100
AcDbEntity
  8
RACCORDO
100
AcDbEllipse
 62
7
  6
CONTINUOUS
 10
-7.3027186744
 20
-24.7577331137
 30
0.0
 11
0.1969134736
 21
0.039286661
 31
0.0
 40
0.9960441251
 41
-1.7684848362
 42
-1.5707943803
  0
ELLIPSE
  5
4DB
100
AcDbEntity
  8
RACCORDO
100
AcDbEllipse
 62
7
  6
CONTINUOUS
 10
15.1972813256
 20
-24.7577331137
 30
0.0
 11
0.1969134736
 21
0.039286661
 31
0.0
 40
0.9960441251
 41
-1.7684848362
 42
-1.5707943803
  0
ELLIPSE
  5
4DC
100
AcDbEntity
  8
RACCORDO
100
AcDbEllipse
 62
7
  6
CONTINUOUS
 10
21.5912505169
 20
21.8422059551
 30
0.0
 11
0.1969134736
 21
0.039286661
 31
0.0
 40
0.9960441251
 41
1.3731078174
 42
1.5707982732
  0
ELLIPSE
  5
4DD
100
AcDbEntity
  8
RACCORDO
100
AcDbEllipse
 62
7
  6
CONTINUOUS
 10
-0.9087494831
 20
21.8422059551
 30
0.0
 11
0.1969134736
 21
0.039286661
 31
0.0
 40
0.9960441251
 41
1.3731078174
 42
1.5707982732
  0
ELLIPSE
  5
4DE
100
AcDbEntity
  8
ASSI
100
AcDbEllipse
 62
7
  6
CONTINUOUS
 10
29.0441897572
 20
20.4415502477
 30
0.0
 11
0.1582391023
 21
0.4751033573
 31
0.0
 40
0.9984778551
 41
-1.2488325878
 42
0.3210503505
  0
ELLIPSE
  5
4DF
100
AcDbEntity
  8
ASSI
100
AcDbEllipse
 62
7
  6
CONTINUOUS
 10
29.0441897572
 20
-23.3570774063
 30
0.0
 11
-0.1582391023
 21
0.4751033573
 31
0.0
 40
0.9984778551
 41
2.8205423031
 42
4.3904252414
  0
ELLIPSE
  5
4E0
100
AcDbEntity
  8
ASSI
100
AcDbEllipse
 62
7
  6
CONTINUOUS
 10
-14.7556579147
 20
20.4415502477
 30
0.0
 11
-0.1582391023
 21
0.4751033573
 31
0.0
 40
0.9984778551
 41
-0.3210503505
 42
1.2488325878
  0
ELLIPSE
  5
4E1
100
AcDbEntity
  8
ASSI
100
AcDbEllipse
 62
7
  6
CONTINUOUS
 10
-14.7556579147
 20
-23.3570774063
 30
0.0
 11
0.1582391023
 21
0.4751033573
 31
0.0
 40
0.9984778551
 41
1.8927600658
 42
3.4626430041
  0
ELLIPSE
  5
4E2
100
AcDbEntity
  8
RACCORDO
100
AcDbEllipse
 62
7
  6
CONTINUOUS
 10
-7.3027186744
 20
21.8422059551
 30
0.0
 11
0.1969134736
 21
-0.039286661
 31
0.0
 40
0.9960441251
 41
1.5707943803
 42
1.7684848362
  0
ELLIPSE
  5
4E3
100
AcDbEntity
  8
RACCORDO
100
AcDbEllipse
 62
7
  6
CONTINUOUS
 10
15.1972813256
 20
21.8422059551
 30
0.0
 11
0.1969134736
 21
-0.039286661
 31
0.0
 40
0.9960441251
 41
1.5707943803
 42
1.7684848362
  0
ELLIPSE
  5
4E4
100
AcDbEntity
  8
RACCORDO
100
AcDbEllipse
 62
7
  6
CONTINUOUS
 10
21.5912505169
 20
-24.7577331137
 30
0.0
 11
0.1969134736
 21
-0.039286661
 31
0.0
 40
0.9960441251
 41
-1.5707982732
 42
-1.3731078174
  0
ELLIPSE
  5
4E5
100
AcDbEntity
  8
RACCORDO
100
AcDbEllipse
 62
7
  6
CONTINUOUS
 10
-0.9087494831
 20
-24.7577331137
 30
0.0
 11
0.1969134736
 21
-0.039286661
 31
0.0
 40
0.9960441251
 41
-1.5707982732
 42
-1.3731078174
  0
ELLIPSE
  5
4E6
100
AcDbEntity
  8
RACCORDO
100
AcDbEllipse
 62
7
  6
CONTINUOUS
 10
2.4255557272
 20
18.8887758734
 30
0.0
 11
0.0
 21
0.2
 31
0.0
 40
0.0087268678
 41
-3.1241393611
 42
-2.0757177507
  0
ELLIPSE
  5
4E7
100
AcDbEntity
  8
RACCORDO
100
AcDbEllipse
 62
7
  6
CONTINUOUS
 10
-3.5057245592
 20
18.7922269011
 30
0.0
 11
0.1767901578
 21
-0.1767901578
 31
0.0
 40
0.9999238505
 41
8.6394178736
 42
9.8137261976
  0
ELLIPSE
  5
4E8
100
AcDbEntity
  8
RACCORDO
100
AcDbEllipse
 62
7
  6
CONTINUOUS
 10
2.1772915811
 20
18.7922269011
 30
0.0
 11
0.1767901578
 21
0.1767901578
 31
0.0
 40
0.9999238505
 41
-0.3889482369
 42
0.7853600872
  0
ELLIPSE
  5
4E9
100
AcDbEntity
  8
RACCORDO
100
AcDbEllipse
 62
7
  6
CONTINUOUS
 10
-10.6370238847
 20
18.8887758734
 30
0.0
 11
0.0
 21
0.2
 31
0.0
 40
0.0087268678
 41
-4.2074675564
 42
-3.1590459461
  0
ELLIPSE
  5
4EA
100
AcDbEntity
  8
RACCORDO
100
AcDbEllipse
 62
7
  6
CONTINUOUS
 10
-4.4574794523
 20
18.8887758734
 30
0.0
 11
0.0
 21
0.2
 31
0.0
 40
0.0087268678
 41
-3.1241393611
 42
-2.0757177507
  0
ELLIPSE
  5
4EB
100
AcDbEntity
  8
RACCORDO
100
AcDbEllipse
 62
7
  6
CONTINUOUS
 10
25.7807921137
 20
-21.8043030319
 30
0.0
 11
-0.0
 21
0.2
 31
0.0
 40
0.0174550649
 41
0.0174532925
 42
1.5707963268
  0
ELLIPSE
  5
4EC
100
AcDbEntity
  8
RACCORDO
100
AcDbEllipse
 62
7
  6
CONTINUOUS
 10
12.1112402614
 20
18.7922269011
 30
0.0
 11
0.1767901578
 21
-0.1767901578
 31
0.0
 40
0.9999238505
 41
2.3562325664
 42
3.5305408904
  0
ELLIPSE
  5
4ED
100
AcDbEntity
  8
RACCORDO
100
AcDbEllipse
 62
7
  6
CONTINUOUS
 10
17.7942564017
 20
18.7922269011
 30
0.0
 11
0.1767901578
 21
0.1767901578
 31
0.0
 40
0.9999238505
 41
5.8942370703
 42
7.0685453944
  0
ELLIPSE
  5
4EE
100
AcDbEntity
  8
RACCORDO
100
AcDbEllipse
 62
7
  6
CONTINUOUS
 10
18.9942754408
 20
18.7922269011
 30
0.0
 11
0.1767901578
 21
-0.1767901578
 31
0.0
 40
0.9999238505
 41
8.6394178736
 42
9.8137261976
  0
ELLIPSE
  5
4EF
100
AcDbEntity
  8
RACCORDO
100
AcDbEllipse
 62
7
  6
CONTINUOUS
 10
24.7532684207
 20
-21.7837308992
 30
0.0
 11
0.2318044578
 21
0.0948337075
 31
0.0
 40
0.9878404209
 41
-1.9634382942
 42
-0.3927181198
  0
ELLIPSE
  5
4F0
100
AcDbEntity
  8
RACCORDO
100
AcDbEllipse
 62
7
  6
CONTINUOUS
 10
24.6772915811
 20
18.7922269011
 30
0.0
 11
0.1767901578
 21
0.1767901578
 31
0.0
 40
0.9999238505
 41
-0.3889482369
 42
0.7853600872
  0
ELLIPSE
  5
4F1
100
AcDbEntity
  8
RACCORDO
100
AcDbEllipse
 62
7
  6
CONTINUOUS
 10
25.7807921137
 20
18.8887758734
 30
0.0
 11
0.0
 21
0.2
 31
0.0
 40
0.0174550649
 41
-4.7123889804
 42
-3.1590459461
  0
ELLIPSE
  5
4F2
100
AcDbEntity
  8
RACCORDO
100
AcDbEllipse
 62
7
  6
CONTINUOUS
 10
-4.7057435983
 20
-21.7077540597
 30
0.0
 11
-0.1767901578
 21
0.1767901578
 31
0.0
 40
0.9999238505
 41
8.6394178736
 42
9.8137261976
  0
ELLIPSE
  5
4F3
100
AcDbEntity
  8
RACCORDO
100
AcDbEllipse
 62
7
  6
CONTINUOUS
 10
-10.3887597386
 20
-21.7077540597
 30
0.0
 11
-0.1767901578
 21
-0.1767901578
 31
0.0
 40
0.9999238505
 41
-0.3889482369
 42
0.7853600872
  0
ELLIPSE
  5
4F4
100
AcDbEntity
  8
RACCORDO
100
AcDbEllipse
 62
7
  6
CONTINUOUS
 10
2.1772915811
 20
-21.7077540597
 30
0.0
 11
-0.1767901578
 21
0.1767901578
 31
0.0
 40
0.9999238505
 41
2.3562325664
 42
3.5305408904
  0
ELLIPSE
  5
4F5
100
AcDbEntity
  8
RACCORDO
100
AcDbEllipse
 62
7
  6
CONTINUOUS
 10
12.0352634218
 20
-21.7837308992
 30
0.0
 11
0.2318044578
 21
-0.0948337075
 31
0.0
 40
0.9878404209
 41
-2.7488745338
 42
-1.1781543594
  0
ELLIPSE
  5
4F6
100
AcDbEntity
  8
RACCORDO
100
AcDbEllipse
 62
7
  6
CONTINUOUS
 10
-3.5057245592
 20
-21.7077540597
 30
0.0
 11
-0.1767901578
 21
-0.1767901578
 31
0.0
 40
0.9999238505
 41
5.8942370703
 42
7.0685453944
  0
ELLIPSE
  5
4F7
100
AcDbEntity
  8
RACCORDO
100
AcDbEllipse
 62
7
  6
CONTINUOUS
 10
18.7460112948
 20
-21.8043030319
 30
0.0
 11
-0.0
 21
0.2
 31
0.0
 40
0.0087268678
 41
0.0174532925
 42
1.0658749029
  0
ELLIPSE
  5
4F8
100
AcDbEntity
  8
RACCORDO
100
AcDbEllipse
 62
7
  6
CONTINUOUS
 10
-10.4647365782
 20
-21.7837308992
 30
0.0
 11
0.2318044578
 21
-0.0948337075
 31
0.0
 40
0.9878404209
 41
-2.7488745338
 42
-1.1781543594
  0
ELLIPSE
  5
4F9
100
AcDbEntity
  8
RACCORDO
100
AcDbEllipse
 62
7
  6
CONTINUOUS
 10
2.2532684207
 20
-21.7837308992
 30
0.0
 11
0.2318044578
 21
0.0948337075
 31
0.0
 40
0.9878404209
 41
-1.9634382942
 42
-0.3927181198
  0
ELLIPSE
  5
4FA
100
AcDbEntity
  8
RACCORDO
100
AcDbEllipse
 62
7
  6
CONTINUOUS
 10
24.7532684207
 20
18.8682037407
 30
0.0
 11
0.2318044578
 21
-0.0948337075
 31
0.0
 40
0.9878404209
 41
0.3927181198
 42
1.9634382942
  0
ELLIPSE
  5
4FB
100
AcDbEntity
  8
RACCORDO
100
AcDbEllipse
 62
7
  6
CONTINUOUS
 10
17.7942564017
 20
-21.7077540597
 30
0.0
 11
-0.1767901578
 21
0.1767901578
 31
0.0
 40
0.9999238505
 41
8.6394178736
 42
9.8137261976
  0
ELLIPSE
  5
4FC
100
AcDbEntity
  8
RACCORDO
100
AcDbEllipse
 62
7
  6
CONTINUOUS
 10
12.0352634218
 20
18.8682037407
 30
0.0
 11
0.2318044578
 21
0.0948337075
 31
0.0
 40
0.9878404209
 41
1.1781543594
 42
2.7488745338
  0
ELLIPSE
  5
4FD
100
AcDbEntity
  8
RACCORDO
100
AcDbEllipse
 62
7
  6
CONTINUOUS
 10
12.1112402614
 20
-21.7077540597
 30
0.0
 11
-0.1767901578
 21
-0.1767901578
 31
0.0
 40
0.9999238505
 41
-0.3889482369
 42
0.7853600872
  0
ELLIPSE
  5
4FE
100
AcDbEntity
  8
RACCORDO
100
AcDbEllipse
 62
7
  6
CONTINUOUS
 10
2.2532684207
 20
18.8682037407
 30
0.0
 11
0.2318044578
 21
-0.0948337075
 31
0.0
 40
0.9878404209
 41
0.3927181198
 42
1.9634382942
  0
ELLIPSE
  5
4FF
100
AcDbEntity
  8
RACCORDO
100
AcDbEllipse
 62
7
  6
CONTINUOUS
 10
-10.4647365782
 20
18.8682037407
 30
0.0
 11
0.2318044578
 21
0.0948337075
 31
0.0
 40
0.9878404209
 41
1.1781543594
 42
2.7488745338
  0
ELLIPSE
  5
500
100
AcDbEntity
  8
RACCORDO
100
AcDbEllipse
 62
7
  6
CONTINUOUS
 10
24.6772915811
 20
-21.7077540597
 30
0.0
 11
-0.1767901578
 21
0.1767901578
 31
0.0
 40
0.9999238505
 41
2.3562325664
 42
3.5305408904
  0
ELLIPSE
  5
501
100
AcDbEntity
  8
RACCORDO
100
AcDbEllipse
 62
7
  6
CONTINUOUS
 10
21.1188474144
 20
19.5422364207
 30
0.0
 11
-0.0036585613
 21
0.1999989603
 31
0.0
 40
0.1762698288
 41
-0.0032244754
 42
0.782173688
  0
ELLIPSE
  5
502
100
AcDbEntity
  8
RACCORDO
100
AcDbEllipse
 62
7
  6
CONTINUOUS
 10
-1.3811525856
 20
19.5422364207
 30
0.0
 11
-0.0036585613
 21
0.1999989603
 31
0.0
 40
0.1762698288
 41
-0.0032244754
 42
0.782173688
  0
ELLIPSE
  5
503
100
AcDbEntity
  8
RACCORDO
100
AcDbEllipse
 62
7
  6
CONTINUOUS
 10
18.9942754408
 20
-21.7077540597
 30
0.0
 11
-0.1767901578
 21
-0.1767901578
 31
0.0
 40
0.9999238505
 41
5.8942370703
 42
7.0685453944
  0
ELLIPSE
  5
504
100
AcDbEntity
  8
RACCORDO
100
AcDbEllipse
 62
7
  6
CONTINUOUS
 10
-6.8303155719
 20
-22.4577635793
 30
0.0
 11
-0.0036585613
 21
0.1999989603
 31
0.0
 40
0.1762698288
 41
-3.144817129
 42
-2.3594189656
  0
ELLIPSE
  5
505
100
AcDbEntity
  8
RACCORDO
100
AcDbEllipse
 62
7
  6
CONTINUOUS
 10
24.9255557272
 20
-21.8043030319
 30
0.0
 11
0.0
 21
0.2
 31
0.0
 40
0.0087268678
 41
-1.0658749029
 42
-0.0174532925
  0
ELLIPSE
  5
506
100
AcDbEntity
  8
RACCORDO
100
AcDbEllipse
 62
7
  6
CONTINUOUS
 10
-11.0316279755
 20
-20.2623915628
 30
0.0
 11
0.0300136675
 21
-0.3031910442
 31
0.0
 40
0.9846622838
 41
3.0444253421
 42
4.6121910857
  0
ELLIPSE
  5
507
100
AcDbEntity
  8
RACCORDO
100
AcDbEllipse
 62
7
  6
CONTINUOUS
 10
-11.0173224919
 20
-20.2623915628
 30
0.0
 11
0.0150589332
 21
0.3042668091
 31
0.0
 40
0.9847713852
 41
-1.5205806929
 42
0.0487002863
  0
ELLIPSE
  5
508
100
AcDbEntity
  8
RACCORDO
100
AcDbEllipse
 62
7
  6
CONTINUOUS
 10
2.8058543344
 20
-20.2623915628
 30
0.0
 11
0.0150589332
 21
-0.3042668091
 31
0.0
 40
0.9847713852
 41
3.0928923672
 42
4.6621733465
  0
ELLIPSE
  5
509
100
AcDbEntity
  8
RACCORDO
100
AcDbEllipse
 62
7
  6
CONTINUOUS
 10
2.820159818
 20
-20.2623915628
 30
0.0
 11
0.0300136675
 21
0.3031910442
 31
0.0
 40
0.9846622838
 41
-1.4705984321
 42
0.0971673115
  0
ELLIPSE
  5
50A
100
AcDbEntity
  8
RACCORDO
100
AcDbEllipse
 62
7
  6
CONTINUOUS
 10
11.4683720245
 20
-20.2623915628
 30
0.0
 11
0.0300136675
 21
-0.3031910442
 31
0.0
 40
0.9846622838
 41
3.0444253421
 42
4.6121910857
  0
ELLIPSE
  5
50B
100
AcDbEntity
  8
RACCORDO
100
AcDbEllipse
 62
7
  6
CONTINUOUS
 10
11.4826775081
 20
-20.2623915628
 30
0.0
 11
0.0150589332
 21
0.3042668091
 31
0.0
 40
0.9847713852
 41
-1.5205806929
 42
0.0487002863
  0
ELLIPSE
  5
50C
100
AcDbEntity
  8
RACCORDO
100
AcDbEllipse
 62
7
  6
CONTINUOUS
 10
25.320159818
 20
-20.2623915628
 30
0.0
 11
0.0300136675
 21
0.3031910442
 31
0.0
 40
0.9846622838
 41
-1.4705984321
 42
0.0971673115
  0
ELLIPSE
  5
50D
100
AcDbEntity
  8
RACCORDO
100
AcDbEllipse
 62
7
  6
CONTINUOUS
 10
25.3058543344
 20
-20.2623915628
 30
0.0
 11
0.0150589332
 21
-0.3042668091
 31
0.0
 40
0.9847713852
 41
3.0928923672
 42
4.6621733465
  0
ELLIPSE
  5
50E
100
AcDbEntity
  8
RACCORDO
100
AcDbEllipse
 62
7
  6
CONTINUOUS
 10
25.320159818
 20
17.3468644043
 30
0.0
 11
-0.0300136675
 21
0.3031910442
 31
0.0
 40
0.9846622838
 41
3.0444253421
 42
4.6121910857
  0
ELLIPSE
  5
50F
100
AcDbEntity
  8
RACCORDO
100
AcDbEllipse
 62
7
  6
CONTINUOUS
 10
25.3058543344
 20
17.3468644043
 30
0.0
 11
-0.0150589332
 21
-0.3042668091
 31
0.0
 40
0.9847713852
 41
-1.5205806929
 42
0.0487002863
  0
ELLIPSE
  5
510
100
AcDbEntity
  8
RACCORDO
100
AcDbEllipse
 62
7
  6
CONTINUOUS
 10
11.4683720245
 20
17.3468644043
 30
0.0
 11
-0.0300136675
 21
-0.3031910442
 31
0.0
 40
0.9846622838
 41
-1.4705984321
 42
0.0971673115
  0
ELLIPSE
  5
511
100
AcDbEntity
  8
RACCORDO
100
AcDbEllipse
 62
7
  6
CONTINUOUS
 10
11.4826775081
 20
17.3468644043
 30
0.0
 11
-0.0150589332
 21
0.3042668091
 31
0.0
 40
0.9847713852
 41
3.0928923672
 42
4.6621733465
  0
ELLIPSE
  5
512
100
AcDbEntity
  8
RACCORDO
100
AcDbEllipse
 62
7
  6
CONTINUOUS
 10
2.820159818
 20
17.3468644043
 30
0.0
 11
-0.0300136675
 21
0.3031910442
 31
0.0
 40
0.9846622838
 41
3.0444253421
 42
4.6121910857
  0
ELLIPSE
  5
513
100
AcDbEntity
  8
RACCORDO
100
AcDbEllipse
 62
7
  6
CONTINUOUS
 10
2.8058543344
 20
17.3468644043
 30
0.0
 11
-0.0150589332
 21
-0.3042668091
 31
0.0
 40
0.9847713852
 41
-1.5205806929
 42
0.0487002863
  0
ELLIPSE
  5
514
100
AcDbEntity
  8
RACCORDO
100
AcDbEllipse
 62
7
  6
CONTINUOUS
 10
-11.0316279755
 20
17.3468644043
 30
0.0
 11
-0.0300136675
 21
-0.3031910442
 31
0.0
 40
0.9846622838
 41
-1.4705984321
 42
0.0971673115
  0
ELLIPSE
  5
515
100
AcDbEntity
  8
RACCORDO
100
AcDbEllipse
 62
7
  6
CONTINUOUS
 10
-11.0173224919
 20
17.3468644043
 30
0.0
 11
-0.0150589332
 21
0.3042668091
 31
0.0
 40
0.9847713852
 41
3.0928923672
 42
4.6621733465
  0
ELLIPSE
  5
516
100
AcDbEntity
  8
RACCORDO
100
AcDbEllipse
 62
7
  6
CONTINUOUS
 10
-8.0362627301
 20
-1.4577635793
 30
0.0
 11
0.0
 21
498.5
 31
0.0
 40
0.0087268678
 41
-1.6109623467
 42
-1.6060423554
  0
ELLIPSE
  5
517
100
AcDbEntity
  8
RACCORDO
100
AcDbEllipse
 62
7
  6
CONTINUOUS
 10
-0.1752054274
 20
-1.4577635793
 30
0.0
 11
0.0
 21
498.5
 31
0.0
 40
0.0087268678
 41
-4.6771429517
 42
-4.6722229605
  0
ELLIPSE
  5
518
100
AcDbEntity
  8
RACCORDO
100
AcDbEllipse
 62
7
  6
CONTINUOUS
 10
15.6696844281
 20
-22.4577635793
 30
0.0
 11
-0.0036585613
 21
0.1999989603
 31
0.0
 40
0.1762698288
 41
-3.144817129
 42
-2.3594189656
  0
ELLIPSE
  5
519
100
AcDbEntity
  8
RACCORDO
100
AcDbEllipse
 62
7
  6
CONTINUOUS
 10
-0.1752054274
 20
-1.4577635793
 30
0.0
 11
0.0
 21
498.5
 31
0.0
 40
0.0087268678
 41
1.5306303069
 42
1.5355502981
  0
ELLIPSE
  5
51A
100
AcDbEntity
  8
RACCORDO
100
AcDbEllipse
 62
7
  6
CONTINUOUS
 10
-8.0362627301
 20
-1.4577635793
 30
0.0
 11
0.0
 21
498.5
 31
0.0
 40
0.0087268678
 41
-1.5355502981
 42
-1.5306303069
  0
ELLIPSE
  5
51B
100
AcDbEntity
  8
RACCORDO
100
AcDbEllipse
 62
7
  6
CONTINUOUS
 10
-4.0993798412
 20
18.3468644043
 30
0.0
 11
0.0150589332
 21
-0.3042668091
 31
0.0
 40
0.9847713852
 41
-0.0487002863
 42
1.5205806929
  0
ELLIPSE
  5
51C
100
AcDbEntity
  8
RACCORDO
100
AcDbEllipse
 62
7
  6
CONTINUOUS
 10
-4.1120883163
 20
18.3468644043
 30
0.0
 11
-0.0150589332
 21
-0.3042668091
 31
0.0
 40
0.9847713852
 41
-1.5205806929
 42
0.0487002863
  0
ELLIPSE
  5
51D
100
AcDbEntity
  8
RACCORDO
100
AcDbEllipse
 62
7
  6
CONTINUOUS
 10
-4.1120883163
 20
-21.2623915628
 30
0.0
 11
-0.0150589332
 21
0.3042668091
 31
0.0
 40
0.9847713852
 41
-0.0487002863
 42
1.5205806929
  0
ELLIPSE
  5
51E
100
AcDbEntity
  8
RACCORDO
100
AcDbEllipse
 62
7
  6
CONTINUOUS
 10
-4.0993798412
 20
-21.2623915628
 30
0.0
 11
0.0150589332
 21
0.3042668091
 31
0.0
 40
0.9847713852
 41
-1.5205806929
 42
0.0487002863
  0
ELLIPSE
  5
51F
100
AcDbEntity
  8
RACCORDO
100
AcDbEllipse
 62
7
  6
CONTINUOUS
 10
18.4006201588
 20
18.3468644043
 30
0.0
 11
0.0150589332
 21
-0.3042668091
 31
0.0
 40
0.9847713852
 41
-0.0487002863
 42
1.5205806929
  0
ELLIPSE
  5
520
100
AcDbEntity
  8
RACCORDO
100
AcDbEllipse
 62
7
  6
CONTINUOUS
 10
18.3879116837
 20
18.3468644043
 30
0.0
 11
-0.0150589332
 21
-0.3042668091
 31
0.0
 40
0.9847713852
 41
-1.5205806929
 42
0.0487002863
  0
ELLIPSE
  5
521
100
AcDbEntity
  8
RACCORDO
100
AcDbEllipse
 62
7
  6
CONTINUOUS
 10
18.3879116837
 20
-21.2623915628
 30
0.0
 11
-0.0150589332
 21
0.3042668091
 31
0.0
 40
0.9847713852
 41
-0.0487002863
 42
1.5205806929
  0
ELLIPSE
  5
522
100
AcDbEntity
  8
RACCORDO
100
AcDbEllipse
 62
7
  6
CONTINUOUS
 10
18.4006201588
 20
-21.2623915628
 30
0.0
 11
0.0150589332
 21
0.3042668091
 31
0.0
 40
0.9847713852
 41
-1.5205806929
 42
0.0487002863
  0
ELLIPSE
  5
523
100
AcDbEntity
  8
DRAFT
100
AcDbEllipse
 62
7
  6
CONTINUOUS
 10
36.6059752685
 20
-1.4577635793
 30
0.0
 11
0.0
 21
498.5
 31
0.0
 40
0.0174550649
 41
1.5306303069
 42
1.6109623467
  0
ELLIPSE
  5
524
100
AcDbEntity
  8
DRAFT
100
AcDbEllipse
 62
7
  6
CONTINUOUS
 10
-22.317443426
 20
-1.4577635793
 30
0.0
 11
0.0
 21
498.5
 31
0.0
 40
0.0174550649
 41
-1.6109623467
 42
-1.5306303069
  0
ELLIPSE
  5
525
100
AcDbEntity
  8
RACCORDO
100
AcDbEllipse
 62
7
  6
CONTINUOUS
 10
-15.3557340787
 20
-1.4492557991
 30
0.0
 11
0.0
 21
27.9237231315
 31
0.0
 40
0.9999999536
 41
-0.597099215
 42
-0.5883058881
  0
ELLIPSE
  5
526
100
AcDbEntity
  8
DRAFT
100
AcDbEllipse
 62
7
  6
CONTINUOUS
 10
-15.3557340787
 20
-1.4492557991
 30
0.0
 11
0.0
 21
27.9237231315
 31
0.0
 40
0.9999999536
 41
5.5740210874
 42
5.6567440305
  0
ELLIPSE
  5
527
100
AcDbEntity
  8
RACCORDO
100
AcDbEllipse
 62
7
  6
CONTINUOUS
 10
-15.3557340787
 20
-0.9777209669
 30
0.0
 11
0.0
 21
27.5016228431
 31
0.0
 40
0.9998476487
 41
-0.7374805923
 42
-0.7226162099
  0
ELLIPSE
  5
528
100
AcDbEntity
  8
RACCORDO
100
AcDbEllipse
 62
7
  6
CONTINUOUS
 10
7.1442659213
 20
-1.4492557991
 30
0.0
 11
0.0
 21
27.9237231315
 31
0.0
 40
0.9999999536
 41
0.5883058881
 42
0.597099215
  0
ELLIPSE
  5
529
100
AcDbEntity
  8
RACCORDO
100
AcDbEllipse
 62
7
  6
CONTINUOUS
 10
7.1442659213
 20
-0.9777209669
 30
0.0
 11
0.0
 21
27.5016228431
 31
0.0
 40
0.9998476487
 41
0.7226162099
 42
0.7374805923
  0
ELLIPSE
  5
52A
100
AcDbEntity
  8
DRAFT
100
AcDbEllipse
 62
7
  6
CONTINUOUS
 10
7.1442659213
 20
-1.4492557991
 30
0.0
 11
0.0
 21
27.9237231315
 31
0.0
 40
0.9999999536
 41
6.9096265839
 42
6.9923495269
  0
ELLIPSE
  5
52B
100
AcDbEntity
  8
RACCORDO
100
AcDbEllipse
 62
7
  6
CONTINUOUS
 10
22.3247945726
 20
-1.4577635793
 30
0.0
 11
0.0
 21
498.5
 31
0.0
 40
0.0087268678
 41
1.5306303069
 42
1.5355502981
  0
ELLIPSE
  5
52C
100
AcDbEntity
  8
RACCORDO
100
AcDbEllipse
 62
7
  6
CONTINUOUS
 10
7.1442659213
 20
-1.4492557991
 30
0.0
 11
0.0
 21
27.9237231315
 31
0.0
 40
0.9999999536
 41
-0.597099215
 42
-0.5883058881
  0
ELLIPSE
  5
52D
100
AcDbEntity
  8
DRAFT
100
AcDbEllipse
 62
7
  6
CONTINUOUS
 10
7.1442659213
 20
-1.4492557991
 30
0.0
 11
0.0
 21
27.9237231315
 31
0.0
 40
0.9999999536
 41
5.5740210874
 42
5.6567440305
  0
ELLIPSE
  5
52E
100
AcDbEntity
  8
RACCORDO
100
AcDbEllipse
 62
7
  6
CONTINUOUS
 10
7.1442659213
 20
-0.9777209669
 30
0.0
 11
-0.0
 21
27.5016228431
 31
0.0
 40
0.9998476487
 41
-0.7374805923
 42
-0.7226162099
  0
ELLIPSE
  5
52F
100
AcDbEntity
  8
RACCORDO
100
AcDbEllipse
 62
7
  6
CONTINUOUS
 10
14.4637372699
 20
-1.4577635793
 30
0.0
 11
0.0
 21
498.5
 31
0.0
 40
0.0087268678
 41
-1.5355502981
 42
-1.5306303069
  0
ELLIPSE
  5
530
100
AcDbEntity
  8
RACCORDO
100
AcDbEllipse
 62
7
  6
CONTINUOUS
 10
29.6442659213
 20
-1.4492557991
 30
0.0
 11
-0.0
 21
27.9237231315
 31
0.0
 40
0.9999999536
 41
0.5883058881
 42
0.597099215
  0
ELLIPSE
  5
531
100
AcDbEntity
  8
RACCORDO
100
AcDbEllipse
 62
7
  6
CONTINUOUS
 10
29.6442659213
 20
-0.9777209669
 30
0.0
 11
0.0
 21
27.5016228431
 31
0.0
 40
0.9998476487
 41
0.7226162099
 42
0.7374805923
  0
ELLIPSE
  5
532
100
AcDbEntity
  8
DRAFT
100
AcDbEllipse
 62
7
  6
CONTINUOUS
 10
29.6442659213
 20
-1.4492557991
 30
0.0
 11
0.0
 21
27.9237231315
 31
0.0
 40
0.9999999536
 41
6.9096265839
 42
6.9923495269
  0
ELLIPSE
  5
533
100
AcDbEntity
  8
RACCORDO
100
AcDbEllipse
 62
7
  6
CONTINUOUS
 10
7.1442659213
 20
-1.4662713595
 30
0.0
 11
-0.0
 21
27.9237231315
 31
0.0
 40
0.9999999536
 41
-3.7386918686
 42
-3.7298985417
  0
ELLIPSE
  5
534
100
AcDbEntity
  8
DRAFT
100
AcDbEllipse
 62
7
  6
CONTINUOUS
 10
7.1442659213
 20
-1.4662713595
 30
0.0
 11
-0.0
 21
27.9237231315
 31
0.0
 40
0.9999999536
 41
2.4324284338
 42
2.5151513769
  0
ELLIPSE
  5
535
100
AcDbEntity
  8
RACCORDO
100
AcDbEllipse
 62
7
  6
CONTINUOUS
 10
7.1442659213
 20
-1.9378061916
 30
0.0
 11
-0.0
 21
27.5016228431
 31
0.0
 40
0.9998476487
 41
-3.8790732458
 42
-3.8642088635
  0
ELLIPSE
  5
536
100
AcDbEntity
  8
RACCORDO
100
AcDbEllipse
 62
7
  6
CONTINUOUS
 10
-15.3557340787
 20
-1.4662713595
 30
0.0
 11
0.0
 21
27.9237231315
 31
0.0
 40
0.9999999536
 41
-2.5532867654
 42
-2.5444934386
  0
ELLIPSE
  5
537
100
AcDbEntity
  8
RACCORDO
100
AcDbEllipse
 62
7
  6
CONTINUOUS
 10
-15.3557340787
 20
-1.9378061916
 30
0.0
 11
0.0
 21
27.5016228431
 31
0.0
 40
0.9998476487
 41
-2.4189764437
 42
-2.4041120613
  0
ELLIPSE
  5
538
100
AcDbEntity
  8
RACCORDO
100
AcDbEllipse
 62
7
  6
CONTINUOUS
 10
14.4637372699
 20
-1.4577635793
 30
0.0
 11
0.0
 21
498.5
 31
0.0
 40
0.0087268678
 41
-1.6109623467
 42
-1.6060423554
  0
ELLIPSE
  5
539
100
AcDbEntity
  8
DRAFT
100
AcDbEllipse
 62
7
  6
CONTINUOUS
 10
-15.3557340787
 20
-1.4662713595
 30
0.0
 11
0.0
 21
27.9237231315
 31
0.0
 40
0.9999999536
 41
3.7680339303
 42
3.8507568734
  0
ELLIPSE
  5
53A
100
AcDbEntity
  8
RACCORDO
100
AcDbEllipse
 62
7
  6
CONTINUOUS
 10
29.6442659213
 20
-1.4662713595
 30
0.0
 11
0.0
 21
27.9237231315
 31
0.0
 40
0.9999999536
 41
-3.7386918686
 42
-3.7298985417
  0
ELLIPSE
  5
53B
100
AcDbEntity
  8
DRAFT
100
AcDbEllipse
 62
7
  6
CONTINUOUS
 10
29.6442659213
 20
-1.4662713595
 30
0.0
 11
0.0
 21
27.9237231315
 31
0.0
 40
0.9999999536
 41
2.4324284338
 42
2.5151513769
  0
ELLIPSE
  5
53C
100
AcDbEntity
  8
RACCORDO
100
AcDbEllipse
 62
7
  6
CONTINUOUS
 10
22.3247945726
 20
-1.4577635793
 30
0.0
 11
0.0
 21
498.5
 31
0.0
 40
0.0087268678
 41
-4.6771429517
 42
-4.6722229605
  0
ELLIPSE
  5
53D
100
AcDbEntity
  8
RACCORDO
100
AcDbEllipse
 62
7
  6
CONTINUOUS
 10
29.6442659213
 20
-1.9378061916
 30
0.0
 11
0.0
 21
27.5016228431
 31
0.0
 40
0.9998476487
 41
-3.8790732458
 42
-3.8642088635
  0
ELLIPSE
  5
53E
100
AcDbEntity
  8
RACCORDO
100
AcDbEllipse
 62
7
  6
CONTINUOUS
 10
7.1442659213
 20
-1.4662713595
 30
0.0
 11
0.0
 21
27.9237231315
 31
0.0
 40
0.9999999536
 41
-2.5532867654
 42
-2.5444934386
  0
ELLIPSE
  5
53F
100
AcDbEntity
  8
RACCORDO
100
AcDbEllipse
 62
7
  6
CONTINUOUS
 10
7.1442659213
 20
-1.9378061916
 30
0.0
 11
0.0
 21
27.5016228431
 31
0.0
 40
0.9998476487
 41
-2.4189764437
 42
-2.4041120613
  0
ELLIPSE
  5
540
100
AcDbEntity
  8
DRAFT
100
AcDbEllipse
 62
7
  6
CONTINUOUS
 10
7.1442659213
 20
-1.4662713595
 30
0.0
 11
0.0
 21
27.9237231315
 31
0.0
 40
0.9999999536
 41
3.7680339303
 42
3.8507568734
  0
ELLIPSE
  5
541
100
AcDbEntity
  8
RACCORDO
100
AcDbEllipse
 62
7
  6
CONTINUOUS
 10
-2.9270599109
 20
-1.4577635793
 30
0.0
 11
0.0
 21
498.5
 31
0.0
 40
0.0174550649
 41
1.5306303069
 42
1.5389943943
  0
ELLIPSE
  5
542
100
AcDbEntity
  8
RACCORDO
100
AcDbEllipse
 62
7
  6
CONTINUOUS
 10
-5.2844082466
 20
-1.4577635793
 30
0.0
 11
0.0
 21
498.5
 31
0.0
 40
0.0174550649
 41
-1.5389943943
 42
-1.5306303069
  0
ELLIPSE
  5
543
100
AcDbEntity
  8
RACCORDO
100
AcDbEllipse
 62
7
  6
CONTINUOUS
 10
19.5729400891
 20
-1.4577635793
 30
0.0
 11
0.0
 21
498.5
 31
0.0
 40
0.0174550649
 41
1.5306303069
 42
1.5389943943
  0
ELLIPSE
  5
544
100
AcDbEntity
  8
RACCORDO
100
AcDbEllipse
 62
7
  6
CONTINUOUS
 10
17.2155917534
 20
-1.4577635793
 30
0.0
 11
0.0
 21
498.5
 31
0.0
 40
0.0174550649
 41
-1.5389943943
 42
-1.5306303069
  0
ELLIPSE
  5
545
100
AcDbEntity
  8
RACCORDO
100
AcDbEllipse
 62
7
  6
CONTINUOUS
 10
-5.2844082466
 20
-1.4577635793
 30
0.0
 11
0.0
 21
498.5
 31
0.0
 40
0.0174550649
 41
-1.6109623467
 42
-1.6025982593
  0
ELLIPSE
  5
546
100
AcDbEntity
  8
RACCORDO
100
AcDbEllipse
 62
7
  6
CONTINUOUS
 10
-2.9270599109
 20
-1.4577635793
 30
0.0
 11
0.0
 21
498.5
 31
0.0
 40
0.0174550649
 41
-4.6805870479
 42
-4.6722229605
  0
ELLIPSE
  5
547
100
AcDbEntity
  8
RACCORDO
100
AcDbEllipse
 62
7
  6
CONTINUOUS
 10
17.2155917534
 20
-1.4577635793
 30
0.0
 11
0.0
 21
498.5
 31
0.0
 40
0.0174550649
 41
-1.6109623467
 42
-1.6025982593
  0
ELLIPSE
  5
548
100
AcDbEntity
  8
RACCORDO
100
AcDbEllipse
 62
7
  6
CONTINUOUS
 10
19.5729400891
 20
-1.4577635793
 30
0.0
 11
-0.0
 21
498.5
 31
0.0
 40
0.0174550649
 41
-4.6805870479
 42
-4.6722229605
  0
ELLIPSE
  5
549
100
AcDbEntity
  8
RACCORDO
100
AcDbEllipse
 62
7
  6
CONTINUOUS
 10
11.8629761153
 20
-21.8043030319
 30
0.0
 11
-0.0
 21
0.2
 31
0.0
 40
0.0087268678
 41
0.0174532925
 42
1.0658749029
  0
ELLIPSE
  5
54A
100
AcDbEntity
  8
RACCORDO
100
AcDbEllipse
 62
7
  6
CONTINUOUS
 10
6.7078297521
 20
-1.4577635793
 30
0.0
 11
0.0
 21
498.5
 31
0.0
 40
0.0087268678
 41
-4.6805861162
 42
-4.6722229605
  0
ELLIPSE
  5
54B
100
AcDbEntity
  8
RACCORDO
100
AcDbEllipse
 62
7
  6
CONTINUOUS
 10
-14.9192979096
 20
-1.4577635793
 30
0.0
 11
-0.0
 21
498.5
 31
0.0
 40
0.0087268678
 41
-1.6109623467
 42
-1.6025991909
  0
ELLIPSE
  5
54C
100
AcDbEntity
  8
RACCORDO
100
AcDbEllipse
 62
7
  6
CONTINUOUS
 10
6.7078297521
 20
-1.4577635793
 30
0.0
 11
0.0
 21
498.5
 31
0.0
 40
0.0087268678
 41
1.5306303069
 42
1.5389934626
  0
ELLIPSE
  5
54D
100
AcDbEntity
  8
RACCORDO
100
AcDbEllipse
 62
7
  6
CONTINUOUS
 10
-14.9192979096
 20
-1.4577635793
 30
0.0
 11
0.0
 21
498.5
 31
0.0
 40
0.0087268678
 41
-1.5389934626
 42
-1.5306303069
  0
ELLIPSE
  5
54E
100
AcDbEntity
  8
RACCORDO
100
AcDbEllipse
 62
7
  6
CONTINUOUS
 10
7.5807020904
 20
-1.4577635793
 30
0.0
 11
0.0
 21
498.5
 31
0.0
 40
0.0087268678
 41
-1.6109623467
 42
-1.6025991909
  0
ELLIPSE
  5
54F
100
AcDbEntity
  8
RACCORDO
100
AcDbEllipse
 62
7
  6
CONTINUOUS
 10
29.2078297521
 20
-1.4577635793
 30
0.0
 11
0.0
 21
498.5
 31
0.0
 40
0.0087268678
 41
-4.6805861162
 42
-4.6722229605
  0
ELLIPSE
  5
550
100
AcDbEntity
  8
RACCORDO
100
AcDbEllipse
 62
7
  6
CONTINUOUS
 10
7.5807020904
 20
-1.4577635793
 30
0.0
 11
0.0
 21
498.5
 31
0.0
 40
0.0087268678
 41
-1.5389934626
 42
-1.5306303069
  0
ELLIPSE
  5
551
100
AcDbEntity
  8
RACCORDO
100
AcDbEllipse
 62
7
  6
CONTINUOUS
 10
29.2078297521
 20
-1.4577635793
 30
0.0
 11
0.0
 21
498.5
 31
0.0
 40
0.0087268678
 41
1.5306303069
 42
1.5389934626
  0
ELLIPSE
  5
552
100
AcDbEntity
  8
RACCORDO
100
AcDbEllipse
 62
7
  6
CONTINUOUS
 10
18.0425205477
 20
-21.8043030319
 30
0.0
 11
-0.0
 21
0.2
 31
0.0
 40
0.0087268678
 41
-1.0658749029
 42
-0.0174532925
  0
ELLIPSE
  5
553
100
AcDbEntity
  8
RACCORDO
100
AcDbEllipse
 62
7
  6
CONTINUOUS
 10
3.2807921137
 20
-21.8043030319
 30
0.0
 11
-0.0
 21
0.2
 31
0.0
 40
0.0174550649
 41
0.0174532925
 42
1.5707963268
  0
ELLIPSE
  5
554
100
AcDbEntity
  8
RACCORDO
100
AcDbEllipse
 62
7
  6
CONTINUOUS
 10
11.0077397288
 20
-21.8043030319
 30
0.0
 11
-0.0
 21
0.2
 31
0.0
 40
0.0174550649
 41
-1.5707963268
 42
-0.0174532925
  0
ELLIPSE
  5
555
100
AcDbEntity
  8
RACCORDO
100
AcDbEllipse
 62
7
  6
CONTINUOUS
 10
-3.7539887052
 20
-21.8043030319
 30
0.0
 11
-0.0
 21
0.2
 31
0.0
 40
0.0087268678
 41
0.0174532925
 42
1.0658749029
  0
ELLIPSE
  5
556
100
AcDbEntity
  8
RACCORDO
100
AcDbEllipse
 62
7
  6
CONTINUOUS
 10
2.4255557272
 20
-21.8043030319
 30
0.0
 11
0.0
 21
0.2
 31
0.0
 40
0.0087268678
 41
-1.0658749029
 42
-0.0174532925
  0
ELLIPSE
  5
557
100
AcDbEntity
  8
RACCORDO
100
AcDbEllipse
 62
7
  6
CONTINUOUS
 10
-10.6370238847
 20
-21.8043030319
 30
0.0
 11
-0.0
 21
0.2
 31
0.0
 40
0.0087268678
 41
0.0174532925
 42
1.0658749029
  0
ELLIPSE
  5
558
100
AcDbEntity
  8
RACCORDO
100
AcDbEllipse
 62
7
  6
CONTINUOUS
 10
-4.4574794523
 20
-21.8043030319
 30
0.0
 11
-0.0
 21
0.2
 31
0.0
 40
0.0087268678
 41
-1.0658749029
 42
-0.0174532925
  0
ELLIPSE
  5
559
100
AcDbEntity
  8
RACCORDO
100
AcDbEllipse
 62
7
  6
CONTINUOUS
 10
-11.4922602712
 20
18.8887758734
 30
0.0
 11
0.0
 21
0.2
 31
0.0
 40
0.0174550649
 41
-3.1241393611
 42
-1.5707963268
  0
ELLIPSE
  5
55A
100
AcDbEntity
  8
RACCORDO
100
AcDbEllipse
 62
7
  6
CONTINUOUS
 10
-10.3887597386
 20
18.7922269011
 30
0.0
 11
0.1767901578
 21
-0.1767901578
 31
0.0
 40
0.9999238505
 41
2.3562325664
 42
3.5305408904
  0
ELLIPSE
  5
55B
100
AcDbEntity
  8
RACCORDO
100
AcDbEllipse
 62
7
  6
CONTINUOUS
 10
-11.4922602712
 20
-21.8043030319
 30
0.0
 11
0.0
 21
0.2
 31
0.0
 40
0.0174550649
 41
-1.5707963268
 42
-0.0174532925
  0
ELLIPSE
  5
55C
100
AcDbEntity
  8
RACCORDO
100
AcDbEllipse
 62
7
  6
CONTINUOUS
 10
18.7460112948
 20
18.8887758734
 30
0.0
 11
0.0
 21
0.2
 31
0.0
 40
0.0087268678
 41
-4.2074675564
 42
-3.1590459461
  0
ELLIPSE
  5
55D
100
AcDbEntity
  8
RACCORDO
100
AcDbEllipse
 62
7
  6
CONTINUOUS
 10
-4.7057435983
 20
18.7922269011
 30
0.0
 11
0.1767901578
 21
0.1767901578
 31
0.0
 40
0.9999238505
 41
5.8942370703
 42
7.0685453944
  0
ELLIPSE
  5
55E
100
AcDbEntity
  8
RACCORDO
100
AcDbEllipse
 62
7
  6
CONTINUOUS
 10
24.9255557272
 20
18.8887758734
 30
0.0
 11
-0.0
 21
0.2
 31
0.0
 40
0.0087268678
 41
-3.1241393611
 42
-2.0757177507
  0
ELLIPSE
  5
55F
100
AcDbEntity
  8
RACCORDO
100
AcDbEllipse
 62
7
  6
CONTINUOUS
 10
11.8629761153
 20
18.8887758734
 30
0.0
 11
0.0
 21
0.2
 31
0.0
 40
0.0087268678
 41
-4.2074675564
 42
-3.1590459461
  0
ELLIPSE
  5
560
100
AcDbEntity
  8
RACCORDO
100
AcDbEllipse
 62
7
  6
CONTINUOUS
 10
18.0425205477
 20
18.8887758734
 30
0.0
 11
-0.0
 21
0.2
 31
0.0
 40
0.0087268678
 41
-3.1241393611
 42
-2.0757177507
  0
ELLIPSE
  5
561
100
AcDbEntity
  8
RACCORDO
100
AcDbEllipse
 62
7
  6
CONTINUOUS
 10
3.2807921137
 20
18.8887758734
 30
0.0
 11
-0.0
 21
0.2
 31
0.0
 40
0.0174550649
 41
-4.7123889804
 42
-3.1590459461
  0
ELLIPSE
  5
562
100
AcDbEntity
  8
RACCORDO
100
AcDbEllipse
 62
7
  6
CONTINUOUS
 10
11.0077397288
 20
18.8887758734
 30
0.0
 11
0.0
 21
0.2
 31
0.0
 40
0.0174550649
 41
-3.1241393611
 42
-1.5707963268
  0
ELLIPSE
  5
563
100
AcDbEntity
  8
RACCORDO
100
AcDbEllipse
 62
7
  6
CONTINUOUS
 10
-3.7539887052
 20
18.8887758734
 30
0.0
 11
0.0
 21
0.2
 31
0.0
 40
0.0087268678
 41
-4.2074675564
 42
-3.1590459461
  0
ENDSEC
  0
SECTION
  2
OBJECTS
  0
DICTIONARY
  5
C
100
AcDbDictionary
280
0
281
1
  3
ACAD_GROUP
350
D
  3
ACAD_MLINESTYLE
350
17
  3
ACAD_LAYOUT
350
1A
  3
ACAD_PLOTSETTINGS
350
19
  3
ACAD_PLOTSTYLENAME
350
E
  0
DICTIONARY
  5
D
102
{ACAD_REACTORS
330
C
102
}
100
AcDbDictionary
280
0
281
1
  0
ACDBDICTIONARYWDFLT
  5
E
102
{ACAD_REACTORS
330
C
102
}
100
AcDbDictionary
281
1
  3
Normal
350
F
100
AcDbDictionaryWithDefault
340
F
  0
DICTIONARY
  5
17
102
{ACAD_REACTORS
330
C
102
}
100
AcDbDictionary
280
0
281
1
  3
Standard
350
18
  0
DICTIONARY
  5
19
102
{ACAD_REACTORS
330
C
102
}
100
AcDbDictionary
281
1
  0
DICTIONARY
  5
1A
102
{ACAD_REACTORS
330
C
102
}
100
AcDbDictionary
281
1
  3
Model
350
564
  3
Layout1
350
565
  0
ACDBPLACEHOLDER
  5
F
102
{ACAD_REACTORS
330
E
102
}
  0
MLINESTYLE
  5
18
102
{ACAD_REACTORS
330
17
102
}
100
AcDbMlineStyle
  2
STANDARD
 70
0
  3

 62
256
 51
90.0
 52
90.0
 71
2
 49
0.5
 62
256
  6
BYLAYER
 49
-0.5
 62
256
  6
BYLAYER
  0
LAYOUT
  5
564
102
{ACAD_REACTORS
330
1A
102
}
100
AcDbPlotSettings
  1

  2
none_device
  4
ISO_A4_(297.00_x_210.00_MM)
  6

 40
0.0
 41
0.0
 42
0.0
 43
0.0
 44
297.0
 45
210.0
 46
0.0
 47
0.0
 48
0.0
 49
0.0
140
0.0
141
0.0
142
1.0
143
1.0
 70
1024
 72
1
 73
0
 74
0
  7

 75
0
147
1.0
148
0.0
149
0.0
100
AcDbLayout
  1
Model
 70
0
 71
0
 10
0.0
 20
0.0
 11
297.0
 21
210.0
 12
0.0
 22
0.0
 32
0.0
 14
0.0
 24
0.0
 34
0.0
 15
0.0
 25
0.0
 35
0.0
146
0.0
 13
0.0
 23
0.0
 33
0.0
 16
1.0
 26
0.0
 36
0.0
 17
0.0
 27
1.0
 37
0.0
 76
0
330
212
345
0
346
0
  0
LAYOUT
  5
565
102
{ACAD_REACTORS
330
1A
102
}
100
AcDbPlotSettings
  1

  2
none_device
  4
ISO_A4_(297.00_x_210.00_MM)
  6

 40
0.0
 41
0.0
 42
0.0
 43
0.0
 44
297.0
 45
210.0
 46
0.0
 47
0.0
 48
0.0
 49
0.0
140
0.0
141
0.0
142
1.0
143
1.0
 70
0
 72
1
 73
0
 74
0
  7

 75
0
147
1.0
148
0.0
149
0.0
100
AcDbLayout
  1
Layout1
 70
0
 71
1
 10
0.0
 20
0.0
 11
297.0
 21
210.0
 12
0.0
 22
0.0
 32
0.0
 14
0.0
 24
0.0
 34
0.0
 15
0.0
 25
0.0
 35
0.0
146
0.0
 13
0.0
 23
0.0
 33
0.0
 16
1.0
 26
0.0
 36
0.0
 17
0.0
 27
1.0
 37
0.0
 76
0
330
213
345
0
346
0
  0
ENDSEC
  0
EOF
