  0
SECTION
  2
HEADER
  9
$ACADVER
  1
AC1024
  9
$DWGCODEPAGE
  3
ANSI_1252
  9
$EXTMAX
 10
297.0
 20
210.0
 30
0.0
  9
$EXTMIN
 10
0.0
 20
0.0
 30
0.0
  9
$LIMMIN
 10
0.0
 20
0.0
  9
$LIMMAX
 10
297.0
 20
210.0
  9
$VIEWCTR
 10
148.5
 20
105.0
  9
$VIEWSIZE
 40
210.0
  9
$CLAYER
  8
0
  9
$LTSCALE
 40
16.335
  9
$CELTYPE
  6
BYLAYER
  9
$DIMSCALE
 40
1.0
  9
$DIMASZ
 40
3.0
  9
$DIMEXO
 40
0.5
  9
$DIMDLI
 40
11.286
  9
$DIMEXE
 40
1.5
  9
$DIMCEN
 40
2.673
  9
$DIMLFAC
 40
1.0
  9
$DIMBLK
  1
_FILLED
  9
$DIMALT
 70
0
  9
$DIMALTF
 40
0.0393700787
  9
$DIMTXT
 40
3.0
  9
$DIMTOL
 70
1
  9
$DIMLIM
 70
0
  9
$DIMTFAC
 40
1.0
  9
$DIMTP
 40
0.01
  9
$DIMTM
 40
0.01
  9
$DIMGAP
 40
0.625
  9
$DIMDSEP
 70
44
  9
$AUNITS
 70
0
  9
$PDMODE
 70
3
  9
$PDSIZE
 40
3.0
  9
$HANDSEED
  5
3BF
  9
$TILEMODE
 70
1
  9
$MEASUREMENT
 70
1
  9
$INSUNITS
 70
4
  0
ENDSEC
  0
SECTION
  2
CLASSES
  0
CLASS
  1
ACDBDICTIONARYWDFLT
  2
AcDbDictionaryWithDefault
  3
AutoCAD 2000
 90
0
 91
1
280
0
281
0
  0
CLASS
  1
ACDBPLACEHOLDER
  2
AcDbPlaceHolder
  3
AutoCAD 2000
 90
0
 91
1
280
0
281
0
  0
CLASS
  1
LAYOUT
  2
AcDbLayout
  3
AutoCAD 2000
 90
0
 91
0
280
0
281
0
  0
ENDSEC
  0
SECTION
  2
TABLES
  0
TABLE
  2
VPORT
  5
8
100
AcDbSymbolTable
 70
2
  0
VPORT
  5
1F4
100
AcDbSymbolTableRecord
100
AcDbViewportTableRecord
  2
*ACTIVE
 70
0
 10
0.0
 20
0.0
 11
1.0
 21
1.0
 12
148.5
 22
105.0
 13
0.0
 23
0.0
 14
1.0
 24
1.0
 15
0.0
 25
0.0
 16
0.0
 26
0.0
 36
1.0
 17
0.0
 27
0.0
 37
0.0
 40
210.0
 41
1.4142857143
 42
50.0
 43
0.0
 44
0.0
 50
0.0
 51
0.0
 71
0
 72
100
 73
1
 74
1
 75
0
 76
0
 77
0
 78
0
  0
ENDTAB
  0
TABLE
  2
LTYPE
  5
5
100
AcDbSymbolTable
 70
6
  0
LTYPE
  5
14
100
AcDbSymbolTableRecord
100
AcDbLinetypeTableRecord
  2
BYBLOCK
 70
0
  3

 72
65
 73
0
 40
0.0
  0
LTYPE
  5
15
100
AcDbSymbolTableRecord
100
AcDbLinetypeTableRecord
  2
BYLAYER
 70
0
  3

 72
65
 73
0
 40
0.0
  0
LTYPE
  5
16
100
AcDbSymbolTableRecord
100
AcDbLinetypeTableRecord
  2
CONTINUOUS
 70
64
  3
Solid line
 72
65
 73
0
 40
0.0
  0
LTYPE
  5
1F5
100
AcDbSymbolTableRecord
100
AcDbLinetypeTableRecord
  2
CENTER
 70
64
  3
____ _ ____ _ ____ _ ____ _ ____ _ ____ _ ____
 72
65
 73
4
 40
0.6
 49
0.375
 74
0
 49
-0.075
 74
0
 49
0.075
 74
0
 49
-0.075
 74
0
  0
LTYPE
  5
1F6
100
AcDbSymbolTableRecord
100
AcDbLinetypeTableRecord
  2
HIDDEN
 70
64
  3
- - - - - - - - - - - - - - - - - - - -
 72
65
 73
2
 40
0.2
 49
0.1
 74
0
 49
-0.1
 74
0
  0
LTYPE
  5
1F7
100
AcDbSymbolTableRecord
100
AcDbLinetypeTableRecord
  2
PHANTOM
 70
64
  3
_____ _ _ _____ _ _ _____ _ _ _____
 72
65
 73
6
 40
0.8
 49
0.45
 74
0
 49
-0.05
 74
0
 49
0.1
 74
0
 49
-0.05
 74
0
 49
0.1
 74
0
 49
-0.05
 74
0
  0
LTYPE
  5
1F8
100
AcDbSymbolTableRecord
100
AcDbLinetypeTableRecord
  2
DOT
 70
64
  3
. . . . . . . . . . . . . . . . . . . .
 72
65
 73
2
 40
0.2
 49
0.1
 74
0
 49
-0.1
 74
0
  0
LTYPE
  5
1F9
100
AcDbSymbolTableRecord
100
AcDbLinetypeTableRecord
  2
DASHED
 70
64
  3
- - - - - - - - - - - - - - - - - - - -
 72
65
 73
2
 40
0.2
 49
0.1
 74
0
 49
-0.1
 74
0
  0
ENDTAB
  0
TABLE
  2
LAYER
  5
2
100
AcDbSymbolTable
 70
36
  0
LAYER
  5
10
100
AcDbSymbolTableRecord
100
AcDbLayerTableRecord
  2
0
 70
0
 62
7
  6
CONTINUOUS
370
-3
390
F
  0
LAYER
  5
1FA
100
AcDbSymbolTableRecord
100
AcDbLayerTableRecord
  2
DEFAULT_1
 70
0
 62
7
  6
CENTER
370
-3
390
F
  0
LAYER
  5
1FB
100
AcDbSymbolTableRecord
100
AcDbLayerTableRecord
  2
DEFAULT_2
 70
0
 62
7
  6
HIDDEN
370
-3
390
F
  0
LAYER
  5
1FC
100
AcDbSymbolTableRecord
100
AcDbLayerTableRecord
  2
DEFAULT_3
 70
0
 62
7
  6
PHANTOM
370
-3
390
F
  0
LAYER
  5
1FD
100
AcDbSymbolTableRecord
100
AcDbLayerTableRecord
  2
ASSI
 70
0
 62
7
  6
CONTINUOUS
370
-3
390
F
  0
LAYER
  5
1FE
100
AcDbSymbolTableRecord
100
AcDbLayerTableRecord
  2
COORDINATE
 70
0
 62
7
  6
CONTINUOUS
370
-3
390
F
  0
LAYER
  5
1FF
100
AcDbSymbolTableRecord
100
AcDbLayerTableRecord
  2
COORD_ORIGINE
 70
0
 62
7
  6
CONTINUOUS
370
-3
390
F
  0
LAYER
  5
200
100
AcDbSymbolTableRecord
100
AcDbLayerTableRecord
  2
COSMETICI
 70
0
 62
7
  6
CONTINUOUS
370
-3
390
F
  0
LAYER
  5
201
100
AcDbSymbolTableRecord
100
AcDbLayerTableRecord
  2
CURVE
 70
0
 62
7
  6
CONTINUOUS
370
-3
390
F
  0
LAYER
  5
202
100
AcDbSymbolTableRecord
100
AcDbLayerTableRecord
  2
DRAFT
 70
0
 62
7
  6
CONTINUOUS
370
-3
390
F
  0
LAYER
  5
203
100
AcDbSymbolTableRecord
100
AcDbLayerTableRecord
  2
IMPORT_FEATURES
 70
0
 62
7
  6
CONTINUOUS
370
-3
390
F
  0
LAYER
  5
204
100
AcDbSymbolTableRecord
100
AcDbLayerTableRecord
  2
INTF_1
 70
0
 62
7
  6
CONTINUOUS
370
-3
390
F
  0
LAYER
  5
205
100
AcDbSymbolTableRecord
100
AcDbLayerTableRecord
  2
INTF_9
 70
0
 62
7
  6
CONTINUOUS
370
-3
390
F
  0
LAYER
  5
206
100
AcDbSymbolTableRecord
100
AcDbLayerTableRecord
  2
NOTE
 70
0
 62
7
  6
CONTINUOUS
370
-3
390
F
  0
LAYER
  5
207
100
AcDbSymbolTableRecord
100
AcDbLayerTableRecord
  2
PIANI
 70
0
 62
7
  6
CONTINUOUS
370
-3
390
F
  0
LAYER
  5
208
100
AcDbSymbolTableRecord
100
AcDbLayerTableRecord
  2
PIANI_ORIGINE
 70
0
 62
7
  6
CONTINUOUS
370
-3
390
F
  0
LAYER
  5
209
100
AcDbSymbolTableRecord
100
AcDbLayerTableRecord
  2
PUNTI
 70
0
 62
7
  6
CONTINUOUS
370
-3
390
F
  0
LAYER
  5
20A
100
AcDbSymbolTableRecord
100
AcDbLayerTableRecord
  2
RACCORDO
 70
0
 62
7
  6
CONTINUOUS
370
-3
390
F
  0
LAYER
  5
20B
100
AcDbSymbolTableRecord
100
AcDbLayerTableRecord
  2
RGB____0____0____0__
 70
0
 62
7
  6
CONTINUOUS
370
-3
390
F
  0
LAYER
  5
20C
100
AcDbSymbolTableRecord
100
AcDbLayerTableRecord
  2
SIMBOLI
 70
0
 62
7
  6
CONTINUOUS
370
-3
390
F
  0
LAYER
  5
20D
100
AcDbSymbolTableRecord
100
AcDbLayerTableRecord
  2
SNAPLINE
 70
0
 62
7
  6
CONTINUOUS
370
-3
390
F
  0
LAYER
  5
20E
100
AcDbSymbolTableRecord
100
AcDbLayerTableRecord
  2
SUPERFICI
 70
0
 62
7
  6
CONTINUOUS
370
-3
390
F
  0
LAYER
  5
20F
100
AcDbSymbolTableRecord
100
AcDbLayerTableRecord
  2
TRASH
 70
0
 62
7
  6
CONTINUOUS
370
-3
390
F
  0
LAYER
  5
210
100
AcDbSymbolTableRecord
100
AcDbLayerTableRecord
  2
XSEC_DATUMS
 70
0
 62
7
  6
CONTINUOUS
370
-3
390
F
  0
ENDTAB
  0
TABLE
  2
STYLE
  5
3
100
AcDbSymbolTable
 70
1
  0
STYLE
  5
11
100
AcDbSymbolTableRecord
100
AcDbTextStyleTableRecord
  2
STANDARD
 70
0
 40
0.0
 41
0.8
 50
0.0
 71
0
 42
0.2
  3
txt
  4

  0
STYLE
  5
211
100
AcDbSymbolTableRecord
100
AcDbTextStyleTableRecord
  2
TEXTSTYLE_1
 70
0
 40
0.0
 41
0.8
 50
0.0
 71
0
 42
0.2
  3
gdt
  4

  0
ENDTAB
  0
TABLE
  2
VIEW
  5
6
100
AcDbSymbolTable
 70
0
  0
ENDTAB
  0
TABLE
  2
UCS
  5
7
100
AcDbSymbolTable
 70
0
  0
ENDTAB
  0
TABLE
  2
APPID
  5
9
100
AcDbSymbolTable
 70
1
  0
APPID
  5
212
100
AcDbSymbolTableRecord
100
AcDbRegAppTableRecord
  2
ACAD
 70
0
  0
ENDTAB
  0
TABLE
  2
BLOCK_RECORD
  5
1
100
AcDbSymbolTable
 70
0
  0
BLOCK_RECORD
  5
213
100
AcDbSymbolTableRecord
100
AcDbBlockTableRecord
  2
*Model_Space
  0
BLOCK_RECORD
  5
214
100
AcDbSymbolTableRecord
100
AcDbBlockTableRecord
  2
*Paper_Space
  0
BLOCK_RECORD
  5
215
100
AcDbSymbolTableRecord
100
AcDbBlockTableRecord
  2
_FILLED
  0
ENDTAB
  0
TABLE
  2
DIMSTYLE
  5
A
100
AcDbSymbolTable
 70
1
100
AcDbDimStyleTable
 71
0
  0
DIMSTYLE
105
216
100
AcDbSymbolTableRecord
100
AcDbDimStyleTableRecord
  2
STANDARD
 70
0
  3

  4

 40
1.0
 41
3.0
 42
0.5
 43
0.38
 44
1.5
 45
0.0
 46
0.0
 47
0.01
 48
0.01
140
3.0
141
0.09
142
0.0
143
25.4
144
1.0
145
0.0
146
1.0
147
0.625
 71
1
 72
0
 73
0
 74
0
 75
0
 76
0
 77
1
 78
8
 79
2
170
0
171
1
172
0
173
0
174
0
175
0
176
0
177
0
178
0
270
2
179
2
271
2
272
2
273
2
274
2
275
0
280
0
281
0
282
0
283
1
284
8
285
0
286
0
287
3
288
0
340
11
278
44
341
215
342
215
343
215
344
215
  0
ENDTAB
  0
ENDSEC
  0
SECTION
  2
BLOCKS
  0
BLOCK
  5
20
100
AcDbEntity
  8
0
100
AcDbBlockBegin
  2
*Model_Space
 70
0
 10
0.0
 20
0.0
 30
0.0
  3
*Model_Space
  1

  0
ENDBLK
  5
21
100
AcDbEntity
  8
0
100
AcDbBlockEnd
  0
BLOCK
  5
1C
100
AcDbEntity
  8
0
100
AcDbBlockBegin
  2
*Paper_Space
 70
0
 10
0.0
 20
0.0
 30
0.0
  3
*Paper_Space
  1

  0
ENDBLK
  5
1D
100
AcDbEntity
  8
0
100
AcDbBlockEnd
  0
BLOCK
  5
217
100
AcDbEntity
  8
0
100
AcDbBlockBegin
  2
_FILLED
 70
64
 10
0.0
 20
0.0
  3
_FILLED
  1

  0
SOLID
  5
218
100
AcDbEntity
  8
0
  6
BYBLOCK
 62
0
100
AcDbTrace
 10
0.0
 20
0.0
 11
-1.0
 21
0.3166666667
 12
-1.0
 22
-0.3166666667
 13
-1.0
 23
-0.3166666667
  0
ENDBLK
  5
219
100
AcDbEntity
  8
0
  6
BYBLOCK
 62
0
100
AcDbBlockEnd
  0
ENDSEC
  0
SECTION
  2
ENTITIES
  0
LINE
  5
21A
100
AcDbEntity
  8
0
100
AcDbLine
 62
250
  6
CONTINUOUS
 10
-43.7580164057
 20
6.5338293154
 11
-43.5664803249
 21
6.5912901396
  0
LINE
  5
21B
100
AcDbEntity
  8
0
100
AcDbLine
 62
7
  6
CONTINUOUS
 10
-41.9192811227
 20
-41.026238344
 11
-41.9213466327
 21
-41.026564875
  0
LINE
  5
21C
100
AcDbEntity
  8
0
100
AcDbLine
 62
7
  6
CONTINUOUS
 10
-42.0934141763
 20
-41.0516943015
 11
-42.1192506618
 21
-41.0555876405
  0
LINE
  5
21D
100
AcDbEntity
  8
0
100
AcDbLine
 62
7
  6
CONTINUOUS
 10
-41.9192811227
 20
-41.026238344
 11
-41.9052561442
 21
-41.0241799142
  0
LINE
  5
21E
100
AcDbEntity
  8
0
100
AcDbLine
 62
7
  6
CONTINUOUS
 10
-41.9213466327
 20
-41.026564875
 11
-42.0934141763
 21
-41.0516943015
  0
LWPOLYLINE
  5
21F
100
AcDbEntity
  8
0
100
AcDbPolyline
 62
250
  6
CONTINUOUS
 90
13
 70
0
 10
-42.1192506618
 20
-41.5101549357
 10
-42.0931544306
 20
-41.5084368825
 10
-42.0675045404
 20
-41.503328005
 10
-42.0427396977
 20
-41.4949156836
 10
-42.019283472
 20
-41.4833437999
 10
-41.9975370502
 20
-41.4688102753
 10
-41.9778723754
 20
-41.4515636858
 10
-41.9606257853
 20
-41.431899011
 10
-41.9460922597
 20
-41.4101525886
 10
-41.9345203754
 20
-41.3866963621
 10
-41.9261080537
 20
-41.361931519
 10
-41.920999176
 20
-41.3362816282
 10
-41.9192811227
 20
-41.3101853966
  0
LWPOLYLINE
  5
220
100
AcDbEntity
  8
0
100
AcDbPolyline
 62
7
  6
CONTINUOUS
 90
13
 70
0
 10
-42.1052866098
 20
-41.5241596012
 10
-42.0788938394
 20
-41.5224264666
 10
-42.053071136
 20
-41.5172548531
 10
-42.0282572605
 20
-41.5087769825
 10
-42.0048970205
 20
-41.4971971252
 10
-41.9833321354
 20
-41.4827416396
 10
-41.963822172
 20
-41.4656138864
 10
-41.9466944189
 20
-41.446103923
 10
-41.9322389332
 20
-41.4245390379
 10
-41.9206590759
 20
-41.401178798
 10
-41.9121812053
 20
-41.3763649224
 10
-41.9070095918
 20
-41.350542219
 10
-41.9052764572
 20
-41.3241494486
  0
LINE
  5
221
100
AcDbEntity
  8
0
100
AcDbLine
 62
7
  6
CONTINUOUS
 10
-42.1052663246
 20
-41.5241799142
 11
-43.7052459638
 21
-41.5241799142
  0
LINE
  5
222
100
AcDbEntity
  8
0
100
AcDbLine
 62
250
  6
CONTINUOUS
 10
-43.6912616267
 20
-41.5101549357
 11
-42.1192506618
 21
-41.5101549357
  0
LINE
  5
223
100
AcDbEntity
  8
0
100
AcDbLine
 62
250
  6
CONTINUOUS
 10
-41.9192811227
 20
-41.3101853966
 11
-43.8912311657
 21
-41.3101853966
  0
LINE
  5
224
100
AcDbEntity
  8
0
100
AcDbLine
 62
250
  6
CONTINUOUS
 10
-42.2440319635
 20
-40.639649968
 11
-43.5664803249
 21
-40.639649968
  0
LINE
  5
225
100
AcDbEntity
  8
0
100
AcDbLine
 62
7
  6
CONTINUOUS
 10
-34.2744061072
 20
-40.5241799142
 11
-37.8785934919
 21
-40.5241799142
  0
LINE
  5
226
100
AcDbEntity
  8
0
100
AcDbLine
 62
250
  6
CONTINUOUS
 10
-42.2440319635
 20
-40.4664448873
 11
-43.5664803249
 21
-40.4664448873
  0
LINE
  5
227
100
AcDbEntity
  8
0
100
AcDbLine
 62
250
  6
CONTINUOUS
 10
-34.0488938065
 20
-40.3241799142
 11
-34.0744365774
 21
-40.3241799142
  0
LWPOLYLINE
  5
228
100
AcDbEntity
  8
0
100
AcDbPolyline
 62
250
  6
CONTINUOUS
 90
13
 70
0
 10
-43.5664803249
 20
-40.4664448873
 10
-43.5879098773
 20
-40.4660219113
 10
-43.6091195403
 20
-40.4676380923
 10
-43.6298582745
 20
-40.4712834972
 10
-43.6498681005
 20
-40.476920484
 10
-43.6689202194
 20
-40.484492601
 10
-43.6868119592
 20
-40.49393529
 10
-43.7033526259
 20
-40.5051794675
 10
-43.7182871553
 20
-40.518086193
 10
-43.7313573598
 20
-40.5324375033
 10
-43.7423996988
 20
-40.548024707
 10
-43.7513173222
 20
-40.5646768337
 10
-43.7580164057
 20
-40.5821891438
  0
LINE
  5
229
100
AcDbEntity
  8
0
100
AcDbLine
 62
7
  6
CONTINUOUS
 10
-43.8912311657
 20
-41.026238344
 11
-43.8891589379
 21
-41.0265191039
  0
LINE
  5
22A
100
AcDbEntity
  8
0
100
AcDbLine
 62
7
  6
CONTINUOUS
 10
-43.7171272343
 20
-41.0518927235
 11
-43.6912616267
 21
-41.0555876405
  0
LINE
  5
22B
100
AcDbEntity
  8
0
100
AcDbLine
 62
7
  6
CONTINUOUS
 10
-43.8912311657
 20
-41.026238344
 11
-43.9052561442
 21
-41.0241799142
  0
LINE
  5
22C
100
AcDbEntity
  8
0
100
AcDbLine
 62
7
  6
CONTINUOUS
 10
-43.8891589379
 20
-41.0265191039
 11
-43.7171272343
 21
-41.0518927235
  0
LINE
  5
22D
100
AcDbEntity
  8
0
100
AcDbLine
 62
250
  6
CONTINUOUS
 10
-43.5664803249
 20
-40.639649968
 11
-43.7580164057
 21
-40.5821891438
  0
LINE
  5
22E
100
AcDbEntity
  8
0
100
AcDbLine
 62
7
  6
CONTINUOUS
 10
-40.9343977686
 20
5.367158633
 11
-41.0524415006
 21
5.3320737593
  0
LINE
  5
22F
100
AcDbEntity
  8
0
100
AcDbLine
 62
7
  6
CONTINUOUS
 10
-37.0021792828
 20
-39.2238753277
 11
-36.9140684483
 21
-39.2151530078
  0
LINE
  5
230
100
AcDbEntity
  8
0
100
AcDbLine
 62
7
  6
CONTINUOUS
 10
-41.0524415006
 20
-39.33888733
 11
-40.9343977686
 21
-39.3272018749
  0
LINE
  5
231
100
AcDbEntity
  8
0
100
AcDbLine
 62
7
  6
CONTINUOUS
 10
-42.3835152757
 20
-39.946829645
 11
-43.4269970128
 21
-39.946829645
  0
LINE
  5
232
100
AcDbEntity
  8
0
100
AcDbLine
 62
7
  6
CONTINUOUS
 10
-40.737436218
 20
-39.4241799142
 11
-39.4552561442
 21
-39.4241799142
  0
LINE
  5
233
100
AcDbEntity
  8
0
100
AcDbLine
 62
7
  6
CONTINUOUS
 10
-44.538181679
 20
-39.3717721349
 11
-43.5812561442
 21
-39.3717721349
  0
LINE
  5
234
100
AcDbEntity
  8
0
100
AcDbLine
 62
7
  6
CONTINUOUS
 10
-42.2292561442
 20
-39.3717721349
 11
-41.2494030512
 21
-39.3717721349
  0
LINE
  5
235
100
AcDbEntity
  8
0
100
AcDbLine
 62
7
  6
CONTINUOUS
 10
-44.5078772317
 20
-39.3417721349
 11
-41.2494030512
 21
-39.3417721349
  0
LINE
  5
236
100
AcDbEntity
  8
0
100
AcDbLine
 62
7
  6
CONTINUOUS
 10
-44.4904221668
 20
-39.32431707
 11
-40.737436218
 21
-39.32431707
  0
LINE
  5
237
100
AcDbEntity
  8
0
100
AcDbLine
 62
7
  6
CONTINUOUS
 10
-34.1033090943
 20
-39.2238753277
 11
-37.0021792828
 21
-39.2238753277
  0
LINE
  5
238
100
AcDbEntity
  8
0
100
AcDbLine
 62
7
  6
CONTINUOUS
 10
-34.1120314142
 20
-39.2151530078
 11
-36.9140684483
 21
-39.2151530078
  0
LINE
  5
239
100
AcDbEntity
  8
0
100
AcDbLine
 62
250
  6
CONTINUOUS
 10
-34.0488938065
 20
-38.6904160219
 11
-33.9616184819
 21
-38.6904160219
  0
LINE
  5
23A
100
AcDbEntity
  8
0
100
AcDbLine
 62
7
  6
CONTINUOUS
 10
-40.9343977686
 20
-39.4155184614
 11
-41.0524415006
 21
-39.3804335877
  0
LINE
  5
23B
100
AcDbEntity
  8
0
100
AcDbLine
 62
7
  6
CONTINUOUS
 10
-41.2882913237
 20
3.9117924845
 11
-41.2175731824
 21
3.9386535339
  0
LWPOLYLINE
  5
23C
100
AcDbEntity
  8
0
100
AcDbPolyline
 62
7
  6
CONTINUOUS
 90
13
 70
0
 10
-35.5085736894
 20
-37.4580213055
 10
-35.4821636282
 20
-37.4561956334
 10
-35.456931141
 20
-37.4512336143
 10
-35.4328762279
 20
-37.4431352443
 10
-35.4096037441
 20
-37.4316756841
 10
-35.3875088343
 20
-37.4170797575
 10
-35.3677769333
 20
-37.4000219541
 10
-35.3505338155
 20
-37.3803332653
 10
-35.3356537065
 20
-37.358182677
 10
-35.3239447173
 20
-37.3347516775
 10
-35.3156762185
 20
-37.310434094
 10
-35.3105788396
 20
-37.2848360859
 10
-35.3086525806
 20
-37.2579576452
  0
LINE
  5
23D
100
AcDbEntity
  8
0
100
AcDbLine
 62
250
  6
CONTINUOUS
 10
-36.6009120542
 20
-38.2804171318
 11
-34.1430315775
 21
-38.2804171318
  0
LINE
  5
23E
100
AcDbEntity
  8
0
100
AcDbLine
 62
7
  6
CONTINUOUS
 10
-40.8927559769
 20
-38.2241799142
 11
-36.6173367867
 21
-38.2241799142
  0
LINE
  5
23F
100
AcDbEntity
  8
0
100
AcDbLine
 62
7
  6
CONTINUOUS
 10
-34.1030045078
 20
-38.2241799142
 11
-34.0750764039
 21
-38.2241799142
  0
LINE
  5
240
100
AcDbEntity
  8
0
100
AcDbLine
 62
250
  6
CONTINUOUS
 10
-34.0561208222
 20
-38.1978613589
 11
-33.9543914662
 21
-38.1978613589
  0
LINE
  5
241
100
AcDbEntity
  8
0
100
AcDbLine
 62
250
  6
CONTINUOUS
 10
-36.5820713905
 20
-38.1034334873
 11
-34.1448966636
 21
-38.1034334873
  0
LINE
  5
242
100
AcDbEntity
  8
0
100
AcDbLine
 62
250
  6
CONTINUOUS
 10
-41.0697948937
 20
-38.0241799142
 11
-36.5820713905
 21
-38.0241799142
  0
LINE
  5
243
100
AcDbEntity
  8
0
100
AcDbLine
 62
7
  6
CONTINUOUS
 10
-43.3181010154
 20
-37.9870133623
 11
-41.2175731824
 21
-37.9870133623
  0
LINE
  5
244
100
AcDbEntity
  8
0
100
AcDbLine
 62
7
  6
CONTINUOUS
 10
-43.252110052
 20
-37.9210223989
 11
-41.2882913237
 21
-37.9210223989
  0
LINE
  5
245
100
AcDbEntity
  8
0
100
AcDbLine
 62
7
  6
CONTINUOUS
 10
-34.1064955208
 20
-37.6941799142
 11
-33.9040167676
 21
-37.6941799142
  0
LINE
  5
246
100
AcDbEntity
  8
0
100
AcDbLine
 62
7
  6
CONTINUOUS
 10
-35.3726001384
 20
-37.5939948565
 11
-40.3581138814
 21
-37.5939948565
  0
LINE
  5
247
100
AcDbEntity
  8
0
100
AcDbLine
 62
7
  6
CONTINUOUS
 10
-40.2221403304
 20
-37.4580213055
 11
-35.5085736894
 21
-37.4580213055
  0
LINE
  5
248
100
AcDbEntity
  8
0
100
AcDbLine
 62
7
  6
CONTINUOUS
 10
-33.8552561442
 20
-37.4241799142
 11
-34.1552561442
 21
-37.4241799142
  0
LINE
  5
249
100
AcDbEntity
  8
0
100
AcDbLine
 62
250
  6
CONTINUOUS
 10
-40.558106266
 20
-37.1742836833
 11
-41.2882913237
 21
-37.1742836833
  0
LINE
  5
24A
100
AcDbEntity
  8
0
100
AcDbLine
 62
7
  6
CONTINUOUS
 10
-41.2175731824
 20
-37.9870133623
 11
-41.2882913237
 21
-37.9601523129
  0
LINE
  5
24B
100
AcDbEntity
  8
0
100
AcDbLine
 62
250
  6
CONTINUOUS
 10
-42.1052663483
 20
7.4758200858
 11
-42.1192506618
 21
7.4617951073
  0
LINE
  5
24C
100
AcDbEntity
  8
0
100
AcDbLine
 62
250
  6
CONTINUOUS
 10
-41.9052561442
 20
7.2758098817
 11
-41.9192811227
 21
7.2618255682
  0
LINE
  5
24D
100
AcDbEntity
  8
0
100
AcDbLine
 62
250
  6
CONTINUOUS
 10
-45.0378010793
 20
-36.7619998404
 11
-45.0078010793
 21
-36.7619998404
  0
LINE
  5
24E
100
AcDbEntity
  8
0
100
AcDbLine
 62
250
  6
CONTINUOUS
 10
-40.5552352144
 20
-36.7044373729
 11
-41.2882913237
 21
-36.7044373729
  0
LINE
  5
24F
100
AcDbEntity
  8
0
100
AcDbLine
 62
7
  6
CONTINUOUS
 10
-33.8552561442
 20
-36.6241799142
 11
-34.3414361163
 21
-36.6241799142
  0
LINE
  5
250
100
AcDbEntity
  8
0
100
AcDbLine
 62
250
  6
CONTINUOUS
 10
-45.0406858842
 20
-36.5650382898
 11
-45.0049162743
 21
-36.5650382898
  0
LINE
  5
251
100
AcDbEntity
  8
0
100
AcDbLine
 62
250
  6
CONTINUOUS
 10
-45.0523713393
 20
-36.4469945579
 11
-44.9932308193
 21
-36.4469945579
  0
LINE
  5
252
100
AcDbEntity
  8
0
100
AcDbLine
 62
250
  6
CONTINUOUS
 10
-45.0552561442
 20
-36.2500330073
 11
-44.9903460144
 21
-36.2500330073
  0
LINE
  5
253
100
AcDbEntity
  8
0
100
AcDbLine
 62
250
  6
CONTINUOUS
 10
-34.1414665772
 20
-36.1742836833
 11
-35.1726077538
 21
-36.1742836833
  0
LINE
  5
254
100
AcDbEntity
  8
0
100
AcDbLine
 62
250
  6
CONTINUOUS
 10
-33.9040167676
 20
-36.1716824973
 11
-34.1064955208
 21
-36.1716824973
  0
LINE
  5
255
100
AcDbEntity
  8
0
100
AcDbLine
 62
250
  6
CONTINUOUS
 10
-34.3379905919
 20
-35.7044373729
 11
-35.1754788054
 21
-35.7044373729
  0
LINE
  5
256
100
AcDbEntity
  8
0
100
AcDbLine
 62
250
  6
CONTINUOUS
 10
-33.9097593082
 20
-35.7018361869
 11
-34.1007529802
 21
-35.7018361869
  0
LWPOLYLINE
  5
257
100
AcDbEntity
  8
0
100
AcDbPolyline
 62
7
  6
CONTINUOUS
 90
10
 70
0
 10
-39.2343849192
 20
-39.5450622882
 10
-39.2159256535
 20
-39.5570654189
 10
-39.1967589601
 20
-39.5668621327
 10
-39.1768848389
 20
-39.5744524296
 10
-39.1560578293
 20
-39.5798735262
 10
-39.134523392
 20
-39.5830882059
 10
-39.1130179094
 20
-39.5839848185
 10
-39.0917868424
 20
-39.582526147
 10
-39.0705847302
 20
-39.5787494084
 10
-39.0494115727
 20
-39.5726546026
  0
LINE
  5
258
100
AcDbEntity
  8
0
100
AcDbLine
 62
250
  6
CONTINUOUS
 10
-41.9052561442
 20
-41.3241697101
 11
-41.9192811227
 21
-41.3101853966
  0
LINE
  5
259
100
AcDbEntity
  8
0
100
AcDbLine
 62
250
  6
CONTINUOUS
 10
-42.1052663483
 20
-41.5241799142
 11
-42.1192506618
 21
-41.5101549357
  0
LWPOLYLINE
  5
25A
100
AcDbEntity
  8
0
100
AcDbPolyline
 62
7
  6
CONTINUOUS
 90
6
 70
0
 10
-40.8711680675
 20
4.14950534
 10
-40.8546784155
 20
4.1640616454
 10
-40.8488862966
 20
4.1692081115
 10
-40.8448502314
 20
4.1728840382
 10
-40.842509762
 20
4.1750876456
 10
-40.8418648884
 20
4.1758200858
  0
LINE
  5
25B
100
AcDbEntity
  8
0
100
AcDbLine
 62
7
  6
CONTINUOUS
 10
-41.0483851529
 20
3.9943726963
 11
-40.9887732549
 21
4.0467877417
  0
LINE
  5
25C
100
AcDbEntity
  8
0
100
AcDbLine
 62
7
  6
CONTINUOUS
 10
-40.8938577046
 20
4.1296932127
 11
-40.8711680675
 21
4.14950534
  0
LWPOLYLINE
  5
25D
100
AcDbEntity
  8
0
100
AcDbPolyline
 62
7
  6
CONTINUOUS
 90
3
 70
0
 10
-40.9887732549
 20
4.0467877417
 10
-40.9213278944
 20
4.1055853876
 10
-40.8938577046
 20
4.1296932127
  0
LINE
  5
25E
100
AcDbEntity
  8
0
100
AcDbLine
 62
7
  6
CONTINUOUS
 10
-41.0697948937
 20
3.9758200858
 11
-41.0483851529
 21
3.9943726963
  0
LWPOLYLINE
  5
25F
100
AcDbEntity
  8
0
100
AcDbPolyline
 62
7
  6
CONTINUOUS
 90
10
 70
0
 10
-38.1817384492
 20
6.2350610826
 10
-38.1993099801
 20
6.2217912093
 10
-38.2150478444
 20
6.2071036777
 10
-38.2289520419
 20
6.190998488
 10
-38.2411414222
 20
6.1732561399
 10
-38.2514971357
 20
6.1540961335
 10
-38.2596626339
 20
6.1341769693
 10
-38.2655190671
 20
6.1137181472
 10
-38.269185285
 20
6.0925001671
 10
-38.2706612874
 20
6.0705230292
  0
LINE
  5
260
100
AcDbEntity
  8
0
100
AcDbLine
 62
250
  6
CONTINUOUS
 10
-40.4890143149
 20
-33.9425717297
 11
-41.2882913237
 21
-33.9425717297
  0
LINE
  5
261
100
AcDbEntity
  8
0
100
AcDbLine
 62
7
  6
CONTINUOUS
 10
-40.4209736002
 20
-33.9124180401
 11
-41.2882913237
 21
-33.9124180401
  0
LINE
  5
262
100
AcDbEntity
  8
0
100
AcDbLine
 62
7
  6
CONTINUOUS
 10
-41.0483584836
 20
-38.0427557142
 11
-41.0697948937
 21
-38.0241799142
  0
LINE
  5
263
100
AcDbEntity
  8
0
100
AcDbLine
 62
7
  6
CONTINUOUS
 10
-40.9212612397
 20
-38.1540034793
 11
-40.9886993647
 21
-38.0952123047
  0
LINE
  5
264
100
AcDbEntity
  8
0
100
AcDbLine
 62
7
  6
CONTINUOUS
 10
-40.8938095995
 20
-38.1780955218
 11
-40.9212612397
 21
-38.1540034793
  0
LINE
  5
265
100
AcDbEntity
  8
0
100
AcDbLine
 62
7
  6
CONTINUOUS
 10
-40.9886993647
 20
-38.0952123047
 11
-41.0483584836
 21
-38.0427557142
  0
LWPOLYLINE
  5
266
100
AcDbEntity
  8
0
100
AcDbPolyline
 62
7
  6
CONTINUOUS
 90
3
 70
0
 10
-40.8546771585
 20
-38.2124192647
 10
-40.8711409449
 20
-38.1978889824
 10
-40.8938095995
 20
-38.1780955218
  0
LINE
  5
267
100
AcDbEntity
  8
0
100
AcDbLine
 62
7
  6
CONTINUOUS
 10
-35.2424226961
 20
-32.9124180401
 11
-34.2040926131
 21
-32.9124180401
  0
LWPOLYLINE
  5
268
100
AcDbEntity
  8
0
100
AcDbPolyline
 62
7
  6
CONTINUOUS
 90
5
 70
0
 10
-40.8418648884
 20
-38.2241799142
 10
-40.8425168166
 20
-38.2234458007
 10
-40.8448597106
 20
-38.221239069
 10
-40.8488935705
 20
-38.2175614109
 10
-40.8546771585
 20
-38.2124192647
  0
LINE
  5
269
100
AcDbEntity
  8
0
100
AcDbLine
 62
7
  6
CONTINUOUS
 10
-34.1033090943
 20
5.1755154993
 11
-34.1120314142
 21
5.1667931794
  0
LINE
  5
26A
100
AcDbEntity
  8
0
100
AcDbLine
 62
250
  6
CONTINUOUS
 10
-35.5085736894
 20
3.4096614771
 11
-35.391381943
 21
3.5268532235
  0
LINE
  5
26B
100
AcDbEntity
  8
0
100
AcDbLine
 62
7
  6
CONTINUOUS
 10
-34.1033090943
 20
-39.2238753277
 11
-34.1120314142
 21
-39.2151530078
  0
LINE
  5
26C
100
AcDbEntity
  8
0
100
AcDbLine
 62
250
  6
CONTINUOUS
 10
-35.3726001384
 20
-37.5939948565
 11
-35.5085736894
 21
-37.4580213055
  0
LINE
  5
26D
100
AcDbEntity
  8
0
100
AcDbLine
 62
250
  6
CONTINUOUS
 10
-35.3086525806
 20
3.2095978168
 11
-35.1935118573
 21
3.3247385401
  0
LINE
  5
26E
100
AcDbEntity
  8
0
100
AcDbLine
 62
250
  6
CONTINUOUS
 10
-35.1726077538
 20
-37.3940024719
 11
-35.3086525806
 21
-37.2579576452
  0
LWPOLYLINE
  5
26F
100
AcDbEntity
  8
0
100
AcDbPolyline
 62
250
  6
CONTINUOUS
 90
13
 70
0
 10
-42.0524958828
 20
-40.5821891438
 10
-42.0591949662
 20
-40.5646768337
 10
-42.0681125896
 20
-40.548024707
 10
-42.0791549286
 20
-40.5324375033
 10
-42.0922251331
 20
-40.518086193
 10
-42.1071596626
 20
-40.5051794675
 10
-42.1237003293
 20
-40.49393529
 10
-42.1415920691
 20
-40.484492601
 10
-42.1606441879
 20
-40.476920484
 10
-42.1806540139
 20
-40.4712834972
 10
-42.2013927482
 20
-40.4676380923
 10
-42.2226024112
 20
-40.4660219113
 10
-42.2440319635
 20
-40.4664448873
  0
LINE
  5
270
100
AcDbEntity
  8
0
100
AcDbLine
 62
250
  6
CONTINUOUS
 10
-42.3835152757
 20
5.8984698166
 11
-42.2440319635
 21
6.4180850589
  0
LINE
  5
271
100
AcDbEntity
  8
0
100
AcDbLine
 62
250
  6
CONTINUOUS
 10
-42.177022009
 20
6.0699338698
 11
-42.0524958828
 21
6.5338293154
  0
LINE
  5
272
100
AcDbEntity
  8
0
100
AcDbLine
 62
250
  6
CONTINUOUS
 10
-42.2440319635
 20
6.5912901396
 11
-42.1192506618
 21
7.0072278121
  0
LINE
  5
273
100
AcDbEntity
  8
0
100
AcDbLine
 62
250
  6
CONTINUOUS
 10
-42.0524958828
 20
6.5338293154
 11
-41.9192811227
 21
6.9778785156
  0
LINE
  5
274
100
AcDbEntity
  8
0
100
AcDbLine
 62
7
  6
CONTINUOUS
 10
-41.9052561442
 20
6.9758200858
 11
-42.228527073
 21
5.8982495167
  0
LINE
  5
275
100
AcDbEntity
  8
0
100
AcDbLine
 62
250
  6
CONTINUOUS
 10
-42.2440319635
 20
-40.639649968
 11
-42.1192506618
 21
-41.0555876405
  0
LINE
  5
276
100
AcDbEntity
  8
0
100
AcDbLine
 62
250
  6
CONTINUOUS
 10
-42.0524958828
 20
-40.5821891438
 11
-41.9192811227
 21
-41.026238344
  0
LINE
  5
277
100
AcDbEntity
  8
0
100
AcDbLine
 62
7
  6
CONTINUOUS
 10
-42.2060641339
 20
-40.0214866153
 11
-41.9052561442
 21
-41.0241799142
  0
LINE
  5
278
100
AcDbEntity
  8
0
100
AcDbLine
 62
250
  6
CONTINUOUS
 10
-42.3835152757
 20
-39.946829645
 11
-42.2440319635
 21
-40.4664448873
  0
LINE
  5
279
100
AcDbEntity
  8
0
100
AcDbLine
 62
250
  6
CONTINUOUS
 10
-42.177022009
 20
-40.1182936982
 11
-42.0524958828
 21
-40.5821891438
  0
LINE
  5
27A
100
AcDbEntity
  8
0
100
AcDbLine
 62
7
  6
CONTINUOUS
 10
-45.0523713393
 20
-36.4469945579
 11
-45.0406858842
 21
-36.5650382898
  0
LINE
  5
27B
100
AcDbEntity
  8
0
100
AcDbLine
 62
7
  6
CONTINUOUS
 10
-45.0523713393
 20
2.3986347295
 11
-45.0406858842
 21
2.5166784614
  0
LWPOLYLINE
  5
27C
100
AcDbEntity
  8
0
100
AcDbPolyline
 62
250
  6
CONTINUOUS
 90
13
 70
0
 10
-43.8912311657
 20
-41.3101853966
 10
-43.8895131125
 20
-41.3362816278
 10
-43.884404235
 20
-41.3619315181
 10
-43.8759919137
 20
-41.3866963607
 10
-43.8644200299
 20
-41.4101525864
 10
-43.8498865053
 20
-41.4318990082
 10
-43.8326399158
 20
-41.451563683
 10
-43.812975241
 20
-41.4688102731
 10
-43.7912288186
 20
-41.4833437987
 10
-43.7677725922
 20
-41.494915683
 10
-43.743007749
 20
-41.5033280047
 10
-43.7173578582
 20
-41.5084368824
 10
-43.6912616267
 20
-41.5101549357
  0
LWPOLYLINE
  5
27D
100
AcDbEntity
  8
0
100
AcDbPolyline
 62
7
  6
CONTINUOUS
 90
13
 70
0
 10
-43.9052358312
 20
-41.3241494486
 10
-43.9035026967
 20
-41.350542219
 10
-43.8983310831
 20
-41.3763649224
 10
-43.8898532126
 20
-41.401178798
 10
-43.8782733552
 20
-41.4245390379
 10
-43.8638178696
 20
-41.446103923
 10
-43.8466901164
 20
-41.4656138864
 10
-43.827180153
 20
-41.4827416396
 10
-43.805615268
 20
-41.4971971252
 10
-43.782255028
 20
-41.5087769825
 10
-43.7574411524
 20
-41.5172548531
 10
-43.731618449
 20
-41.5224264666
 10
-43.7052256786
 20
-41.5241596012
  0
LWPOLYLINE
  5
27E
100
AcDbEntity
  8
0
100
AcDbPolyline
 62
7
  6
CONTINUOUS
 90
16
 70
0
 10
-43.5519895393
 20
-37.6209247324
 10
-43.5501813662
 20
-37.6531211078
 10
-43.5452150993
 20
-37.6842891828
 10
-43.5370907388
 20
-37.7144289653
 10
-43.5256257997
 20
-37.743870236
 10
-43.511002767
 20
-37.7722832276
 10
-43.4937690955
 20
-37.7986786324
 10
-43.4738480702
 20
-37.8229485833
 10
-43.4513164062
 20
-37.8452009734
 10
-43.4269517041
 20
-37.8647701435
 10
-43.4007063062
 20
-37.8815632704
 10
-43.3726278702
 20
-37.8956732022
 10
-43.3436369695
 20
-37.9067127894
 10
-43.3140404617
 20
-37.9145529877
 10
-43.2835314892
 20
-37.9193228563
 10
-43.252110052
 20
-37.9210223989
  0
LINE
  5
27F
100
AcDbEntity
  8
0
100
AcDbLine
 62
7
  6
CONTINUOUS
 10
-45.0552561442
 20
2.2016731789
 11
-45.0552561442
 21
-36.2500330073
  0
LINE
  5
280
100
AcDbEntity
  8
0
100
AcDbLine
 62
7
  6
CONTINUOUS
 10
-45.0378010793
 20
-38.8715432828
 11
-45.0378010793
 21
-36.7619998404
  0
LINE
  5
281
100
AcDbEntity
  8
0
100
AcDbLine
 62
7
  6
CONTINUOUS
 10
-45.0378010793
 20
2.713640012
 11
-45.0378010793
 21
4.8231834545
  0
LINE
  5
282
100
AcDbEntity
  8
0
100
AcDbLine
 62
7
  6
CONTINUOUS
 10
-45.0078010793
 20
4.7934884589
 11
-45.0078010793
 21
2.713640012
  0
LINE
  5
283
100
AcDbEntity
  8
0
100
AcDbLine
 62
7
  6
CONTINUOUS
 10
-45.0078010793
 20
-36.7619998404
 11
-45.0078010793
 21
-38.8418482873
  0
LINE
  5
284
100
AcDbEntity
  8
0
100
AcDbLine
 62
7
  6
CONTINUOUS
 10
-44.9903460144
 20
4.776033394
 11
-44.9903460144
 21
2.2016731789
  0
LINE
  5
285
100
AcDbEntity
  8
0
100
AcDbLine
 62
7
  6
CONTINUOUS
 10
-44.9903460144
 20
-36.2500330073
 11
-44.9903460144
 21
-38.8243932224
  0
LWPOLYLINE
  5
286
100
AcDbEntity
  8
0
100
AcDbPolyline
 62
7
  6
CONTINUOUS
 90
13
 70
0
 10
-43.9052358312
 20
7.2757896202
 10
-43.9035026967
 20
7.3021823906
 10
-43.8983310831
 20
7.328005094
 10
-43.8898532126
 20
7.3528189696
 10
-43.8782733552
 20
7.3761792095
 10
-43.8638178696
 20
7.3977440946
 10
-43.8466901164
 20
7.417254058
 10
-43.827180153
 20
7.4343818112
 10
-43.805615268
 20
7.4488372968
 10
-43.782255028
 20
7.4604171541
 10
-43.7574411524
 20
7.4688950247
 10
-43.731618449
 20
7.4740666382
 10
-43.7052256786
 20
7.4757997728
  0
LINE
  5
287
100
AcDbEntity
  8
0
100
AcDbLine
 62
7
  6
CONTINUOUS
 10
-44.9938047446
 20
2.4044323885
 11
-45.0049162743
 21
2.5166784614
  0
LINE
  5
288
100
AcDbEntity
  8
0
100
AcDbLine
 62
7
  6
CONTINUOUS
 10
-43.9052561442
 20
-41.3241697338
 11
-43.9052561442
 21
-41.0241799142
  0
LINE
  5
289
100
AcDbEntity
  8
0
100
AcDbLine
 62
7
  6
CONTINUOUS
 10
-43.9052561442
 20
6.9758200858
 11
-43.9052561442
 21
7.2758099054
  0
LINE
  5
28A
100
AcDbEntity
  8
0
100
AcDbLine
 62
250
  6
CONTINUOUS
 10
-43.8912311657
 20
7.2618255682
 11
-43.8912311657
 21
6.9778785156
  0
LINE
  5
28B
100
AcDbEntity
  8
0
100
AcDbLine
 62
250
  6
CONTINUOUS
 10
-43.8912311657
 20
-41.026238344
 11
-43.8912311657
 21
-41.3101853966
  0
LINE
  5
28C
100
AcDbEntity
  8
0
100
AcDbLine
 62
250
  6
CONTINUOUS
 10
-43.6912616267
 20
-41.0555876405
 11
-43.6912616267
 21
-41.5101549357
  0
LINE
  5
28D
100
AcDbEntity
  8
0
100
AcDbLine
 62
250
  6
CONTINUOUS
 10
-43.6912616267
 20
7.0072278121
 11
-43.6912616267
 21
7.4617951073
  0
LINE
  5
28E
100
AcDbEntity
  8
0
100
AcDbLine
 62
7
  6
CONTINUOUS
 10
-43.6180895923
 20
3.638664957
 11
-43.6180895923
 21
-37.6870247854
  0
LINE
  5
28F
100
AcDbEntity
  8
0
100
AcDbLine
 62
7
  6
CONTINUOUS
 10
-43.5812561442
 20
-39.8634693487
 11
-43.5812561442
 21
-39.3717721349
  0
LINE
  5
290
100
AcDbEntity
  8
0
100
AcDbLine
 62
7
  6
CONTINUOUS
 10
-43.5812561442
 20
5.3234123065
 11
-43.5812561442
 21
5.8984698166
  0
LINE
  5
291
100
AcDbEntity
  8
0
100
AcDbLine
 62
250
  6
CONTINUOUS
 10
-43.5664803249
 20
-40.4664448873
 11
-43.5664803249
 21
-40.639649968
  0
LINE
  5
292
100
AcDbEntity
  8
0
100
AcDbLine
 62
250
  6
CONTINUOUS
 10
-43.5664803249
 20
6.4180850589
 11
-43.5664803249
 21
6.5912901396
  0
LINE
  5
293
100
AcDbEntity
  8
0
100
AcDbLine
 62
7
  6
CONTINUOUS
 10
-44.9938047446
 20
-36.4527922169
 11
-45.0049162743
 21
-36.5650382898
  0
LWPOLYLINE
  5
294
100
AcDbEntity
  8
0
100
AcDbPolyline
 62
7
  6
CONTINUOUS
 90
13
 70
0
 10
-40.4220614393
 20
-37.2579576452
 10
-40.420107634
 20
-37.2849418715
 10
-40.4149769382
 20
-37.3106199808
 10
-40.4066693519
 20
-37.3349919812
 10
-40.3949046689
 20
-37.3584502616
 10
-40.3799630954
 20
-37.3806024467
 10
-40.3626852498
 20
-37.4002714044
 10
-40.3429623519
 20
-37.4172781891
 10
-40.320903182
 20
-37.4318017692
 10
-40.297674699
 20
-37.4432018897
 10
-40.2736658892
 20
-37.451265138
 10
-40.2484877664
 20
-37.456204942
 10
-40.2221403304
 20
-37.4580213055
  0
LINE
  5
295
100
AcDbEntity
  8
0
100
AcDbLine
 62
250
  6
CONTINUOUS
 10
-42.2440319635
 20
-40.4664448873
 11
-42.2440319635
 21
-40.639649968
  0
LINE
  5
296
100
AcDbEntity
  8
0
100
AcDbLine
 62
250
  6
CONTINUOUS
 10
-42.2440319635
 20
6.4180850589
 11
-42.2440319635
 21
6.5912901396
  0
LINE
  5
297
100
AcDbEntity
  8
0
100
AcDbLine
 62
7
  6
CONTINUOUS
 10
-42.2292561442
 20
5.8984698166
 11
-42.2292561442
 21
5.3234123065
  0
LINE
  5
298
100
AcDbEntity
  8
0
100
AcDbLine
 62
7
  6
CONTINUOUS
 10
-42.2292561442
 20
-39.3717721349
 11
-42.2292561442
 21
-39.8634693487
  0
LINE
  5
299
100
AcDbEntity
  8
0
100
AcDbLine
 62
250
  6
CONTINUOUS
 10
-42.1192506618
 20
-41.0555876405
 11
-42.1192506618
 21
-41.5101549357
  0
LINE
  5
29A
100
AcDbEntity
  8
0
100
AcDbLine
 62
250
  6
CONTINUOUS
 10
-42.1192506618
 20
7.0072278121
 11
-42.1192506618
 21
7.4617951073
  0
LINE
  5
29B
100
AcDbEntity
  8
0
100
AcDbLine
 62
250
  6
CONTINUOUS
 10
-41.9192811227
 20
-41.3101853966
 11
-41.9192811227
 21
-41.026238344
  0
LINE
  5
29C
100
AcDbEntity
  8
0
100
AcDbLine
 62
250
  6
CONTINUOUS
 10
-41.9192811227
 20
6.9778785156
 11
-41.9192811227
 21
7.2618255682
  0
LINE
  5
29D
100
AcDbEntity
  8
0
100
AcDbLine
 62
7
  6
CONTINUOUS
 10
-41.9052561442
 20
7.2758099054
 11
-41.9052561442
 21
6.9758200858
  0
LINE
  5
29E
100
AcDbEntity
  8
0
100
AcDbLine
 62
7
  6
CONTINUOUS
 10
-41.9052561442
 20
-41.0241799142
 11
-41.9052561442
 21
-41.3241697338
  0
LINE
  5
29F
100
AcDbEntity
  8
0
100
AcDbLine
 62
7
  6
CONTINUOUS
 10
-41.2882913237
 20
-33.9124180401
 11
-41.2882913237
 21
-37.9601523129
  0
LINE
  5
2A0
100
AcDbEntity
  8
0
100
AcDbLine
 62
7
  6
CONTINUOUS
 10
-41.2882913237
 20
-0.1359417883
 11
-41.2882913237
 21
3.9117924845
  0
LINE
  5
2A1
100
AcDbEntity
  8
0
100
AcDbLine
 62
250
  6
CONTINUOUS
 10
-41.2494030512
 20
-39.3717721349
 11
-41.2494030512
 21
-39.3417721349
  0
LINE
  5
2A2
100
AcDbEntity
  8
0
100
AcDbLine
 62
250
  6
CONTINUOUS
 10
-41.2494030512
 20
5.2934123065
 11
-41.2494030512
 21
5.3234123065
  0
LINE
  5
2A3
100
AcDbEntity
  8
0
100
AcDbLine
 62
250
  6
CONTINUOUS
 10
-41.0524415006
 20
-39.3804335877
 11
-41.0524415006
 21
-39.33888733
  0
LINE
  5
2A4
100
AcDbEntity
  8
0
100
AcDbLine
 62
250
  6
CONTINUOUS
 10
-41.0524415006
 20
5.2905275016
 11
-41.0524415006
 21
5.3320737593
  0
LINE
  5
2A5
100
AcDbEntity
  8
0
100
AcDbLine
 62
250
  6
CONTINUOUS
 10
-40.9343977686
 20
5.367158633
 11
-40.9343977686
 21
5.2788420465
  0
LINE
  5
2A6
100
AcDbEntity
  8
0
100
AcDbLine
 62
250
  6
CONTINUOUS
 10
-40.9343977686
 20
-39.3272018749
 11
-40.9343977686
 21
-39.4155184614
  0
LWPOLYLINE
  5
2A7
100
AcDbEntity
  8
0
100
AcDbPolyline
 62
7
  6
CONTINUOUS
 90
10
 70
0
 10
-38.2706612873
 20
-40.1188828757
 10
-38.2691852859
 20
-40.1408600079
 10
-38.2655190695
 20
-40.1620779825
 10
-38.2596626382
 20
-40.1825367995
 10
-38.2514971423
 20
-40.2024559587
 10
-38.2411414314
 20
-40.2216159604
 10
-38.2289520543
 20
-40.2393583044
 10
-38.2150478605
 20
-40.2554634909
 10
-38.1993100005
 20
-40.2701510197
 10
-38.1817384742
 20
-40.283420891
  0
LWPOLYLINE
  5
2A8
100
AcDbEntity
  8
0
100
AcDbPolyline
 62
250
  6
CONTINUOUS
 90
13
 70
0
 10
-41.9192811227
 20
7.2618255682
 10
-41.9209991759
 20
7.2879217994
 10
-41.9261080534
 20
7.3135716897
 10
-41.9345203748
 20
7.3383365323
 10
-41.9460922585
 20
7.361792758
 10
-41.9606257832
 20
7.3835391798
 10
-41.9778723726
 20
7.4032038546
 10
-41.9975370475
 20
7.4204504448
 10
-42.0192834698
 20
7.4349839703
 10
-42.0427396963
 20
7.4465558547
 10
-42.0675045395
 20
7.4549681763
 10
-42.0931544302
 20
7.460077054
 10
-42.1192506618
 20
7.4617951073
  0
LWPOLYLINE
  5
2A9
100
AcDbEntity
  8
0
100
AcDbPolyline
 62
7
  6
CONTINUOUS
 90
13
 70
0
 10
-41.9052764572
 20
7.2757896202
 10
-41.9070095918
 20
7.3021823906
 10
-41.9121812053
 20
7.328005094
 10
-41.9206590759
 20
7.3528189696
 10
-41.9322389332
 20
7.3761792095
 10
-41.9466944189
 20
7.3977440946
 10
-41.963822172
 20
7.417254058
 10
-41.9833321354
 20
7.4343818112
 10
-42.0048970205
 20
7.4488372968
 10
-42.0282572605
 20
7.4604171541
 10
-42.053071136
 20
7.4688950247
 10
-42.0788938394
 20
7.4740666382
 10
-42.1052866098
 20
7.4757997728
  0
LWPOLYLINE
  5
2AA
100
AcDbEntity
  8
0
100
AcDbPolyline
 62
7
  6
CONTINUOUS
 90
10
 70
0
 10
-38.305324363
 20
-40.1325136885
 10
-38.3044358077
 20
-40.1546279568
 10
-38.301108524
 20
-40.1765108709
 10
-38.2953824391
 20
-40.1978942776
 10
-38.2873261083
 20
-40.2185177079
 10
-38.2770378724
 20
-40.2381262381
 10
-38.264646534
 20
-40.2564745719
 10
-38.2503061069
 20
-40.2733370404
 10
-38.2341920666
 20
-40.2885093607
 10
-38.2165024479
 20
-40.3018064628
  0
LINE
  5
2AB
100
AcDbEntity
  8
0
100
AcDbLine
 62
7
  6
CONTINUOUS
 10
-40.5552352144
 20
2.6560775445
 11
-40.4882913237
 21
-0.1359417883
  0
LINE
  5
2AC
100
AcDbEntity
  8
0
100
AcDbLine
 62
250
  6
CONTINUOUS
 10
-40.737436218
 20
5.3758200858
 11
-40.737436218
 21
5.2759572416
  0
LINE
  5
2AD
100
AcDbEntity
  8
0
100
AcDbLine
 62
250
  6
CONTINUOUS
 10
-40.737436218
 20
-39.32431707
 11
-40.737436218
 21
-39.4241799142
  0
LINE
  5
2AE
100
AcDbEntity
  8
0
100
AcDbLine
 62
7
  6
CONTINUOUS
 10
-40.558106266
 20
3.3456426435
 11
-40.558106266
 21
3.1259238549
  0
LINE
  5
2AF
100
AcDbEntity
  8
0
100
AcDbLine
 62
7
  6
CONTINUOUS
 10
-40.558106266
 20
-37.1742836833
 11
-40.558106266
 21
-37.3940024719
  0
LINE
  5
2B0
100
AcDbEntity
  8
0
100
AcDbLine
 62
7
  6
CONTINUOUS
 10
-40.4890143149
 20
-33.9425717297
 11
-40.5552352144
 21
-36.7044373729
  0
LWPOLYLINE
  5
2B1
100
AcDbEntity
  8
0
100
AcDbPolyline
 62
7
  6
CONTINUOUS
 90
10
 70
0
 10
-38.3053141488
 20
6.084149963
 10
-38.3044234859
 20
6.1062661657
 10
-38.3010942186
 20
6.1281495751
 10
-38.2953668043
 20
6.1495320722
 10
-38.2873107674
 20
6.170152327
 10
-38.2770246725
 20
6.1897567971
 10
-38.2646356938
 20
6.2081032293
 10
-38.2502965384
 20
6.2249665192
 10
-38.2341828054
 20
6.2401410517
 10
-38.216492176
 20
6.2534412877
  0
LINE
  5
2B2
100
AcDbEntity
  8
0
100
AcDbLine
 62
250
  6
CONTINUOUS
 10
-39.0497603956
 20
5.5343565976
 11
-39.0494115904
 21
5.5242947804
  0
LINE
  5
2B3
100
AcDbEntity
  8
0
100
AcDbLine
 62
250
  6
CONTINUOUS
 10
-39.0501266267
 20
5.547400437
 11
-39.0497603956
 21
5.5343565976
  0
LINE
  5
2B4
100
AcDbEntity
  8
0
100
AcDbLine
 62
250
  6
CONTINUOUS
 10
-39.0502927773
 20
5.5549233694
 11
-39.0501266267
 21
5.547400437
  0
LINE
  5
2B5
100
AcDbEntity
  8
0
100
AcDbLine
 62
250
  6
CONTINUOUS
 10
-39.0504142907
 20
5.56160875
 11
-39.0502927773
 21
5.5549233694
  0
LINE
  5
2B6
100
AcDbEntity
  8
0
100
AcDbLine
 62
250
  6
CONTINUOUS
 10
-39.0501903409
 20
-39.5984379187
 11
-39.050414288
 21
-39.6099685774
  0
LINE
  5
2B7
100
AcDbEntity
  8
0
100
AcDbLine
 62
250
  6
CONTINUOUS
 10
-39.0499751238
 20
-39.5899961361
 11
-39.0501903409
 21
-39.5984379187
  0
LINE
  5
2B8
100
AcDbEntity
  8
0
100
AcDbLine
 62
250
  6
CONTINUOUS
 10
-39.0497141371
 20
-39.5813657132
 11
-39.0499751238
 21
-39.5899961361
  0
LINE
  5
2B9
100
AcDbEntity
  8
0
100
AcDbLine
 62
250
  6
CONTINUOUS
 10
-39.0494115727
 20
-39.5726546026
 11
-39.0497141371
 21
-39.5813657132
  0
LINE
  5
2BA
100
AcDbEntity
  8
0
100
AcDbLine
 62
7
  6
CONTINUOUS
 10
-34.0561208222
 20
-38.1978613589
 11
-34.1064955208
 21
-37.6941799142
  0
LINE
  5
2BB
100
AcDbEntity
  8
0
100
AcDbLine
 62
7
  6
CONTINUOUS
 10
-37.0052561442
 20
-38.2241799142
 11
-37.0021792828
 21
-39.2238753277
  0
LINE
  5
2BC
100
AcDbEntity
  8
0
100
AcDbLine
 62
7
  6
CONTINUOUS
 10
-36.5820713905
 20
-38.0241799142
 11
-36.5820713905
 21
-38.1034334873
  0
LINE
  5
2BD
100
AcDbEntity
  8
0
100
AcDbLine
 62
7
  6
CONTINUOUS
 10
-36.5820713905
 20
3.9758200858
 11
-36.5820713905
 21
4.0550736589
  0
LINE
  5
2BE
100
AcDbEntity
  8
0
100
AcDbLine
 62
7
  6
CONTINUOUS
 10
-37.0052561442
 20
4.1758200858
 11
-37.0021792828
 21
5.1755154993
  0
LINE
  5
2BF
100
AcDbEntity
  8
0
100
AcDbLine
 62
7
  6
CONTINUOUS
 10
-34.1030045078
 20
3.6807256736
 11
-34.0561208222
 21
4.1495015305
  0
LINE
  5
2C0
100
AcDbEntity
  8
0
100
AcDbLine
 62
250
  6
CONTINUOUS
 10
-39.2369801777
 20
-39.5631889126
 11
-39.2398561947
 21
-39.5841232024
  0
LWPOLYLINE
  5
2C1
100
AcDbEntity
  8
0
100
AcDbPolyline
 62
250
  6
CONTINUOUS
 90
3
 70
0
 10
-39.2343849183
 20
-39.545062287
 10
-39.2350482247
 20
-39.5496257911
 10
-39.2369801777
 20
-39.5631889126
  0
LINE
  5
2C2
100
AcDbEntity
  8
0
100
AcDbLine
 62
250
  6
CONTINUOUS
 10
-43.6334902794
 20
-40.1182936982
 11
-43.7580164057
 21
-40.5821891438
  0
LINE
  5
2C3
100
AcDbEntity
  8
0
100
AcDbLine
 62
250
  6
CONTINUOUS
 10
-43.4269970128
 20
-39.946829645
 11
-43.5664803249
 21
-40.4664448873
  0
LINE
  5
2C4
100
AcDbEntity
  8
0
100
AcDbLine
 62
7
  6
CONTINUOUS
 10
-43.9052561442
 20
-41.0241799142
 11
-43.6044481546
 21
-40.0214866153
  0
LINE
  5
2C5
100
AcDbEntity
  8
0
100
AcDbLine
 62
250
  6
CONTINUOUS
 10
-43.7580164057
 20
-40.5821891438
 11
-43.8912311657
 21
-41.026238344
  0
LINE
  5
2C6
100
AcDbEntity
  8
0
100
AcDbLine
 62
250
  6
CONTINUOUS
 10
-43.5664803249
 20
-40.639649968
 11
-43.6912616267
 21
-41.0555876405
  0
LINE
  5
2C7
100
AcDbEntity
  8
0
100
AcDbLine
 62
7
  6
CONTINUOUS
 10
-43.5819852155
 20
5.8982495167
 11
-43.9052561442
 21
6.9758200858
  0
LINE
  5
2C8
100
AcDbEntity
  8
0
100
AcDbLine
 62
250
  6
CONTINUOUS
 10
-43.7580164057
 20
6.5338293154
 11
-43.8912311657
 21
6.9778785156
  0
LINE
  5
2C9
100
AcDbEntity
  8
0
100
AcDbLine
 62
250
  6
CONTINUOUS
 10
-43.5664803249
 20
6.5912901396
 11
-43.6912616267
 21
7.0072278121
  0
LINE
  5
2CA
100
AcDbEntity
  8
0
100
AcDbLine
 62
250
  6
CONTINUOUS
 10
-43.6334902794
 20
6.0699338698
 11
-43.7580164057
 21
6.5338293154
  0
LINE
  5
2CB
100
AcDbEntity
  8
0
100
AcDbLine
 62
250
  6
CONTINUOUS
 10
-43.4269970128
 20
5.8984698166
 11
-43.5664803249
 21
6.4180850589
  0
LINE
  5
2CC
100
AcDbEntity
  8
0
100
AcDbLine
 62
250
  6
CONTINUOUS
 10
-39.2372287368
 20
5.5165979328
 11
-39.2343848915
 21
5.4967024783
  0
LINE
  5
2CD
100
AcDbEntity
  8
0
100
AcDbLine
 62
250
  6
CONTINUOUS
 10
-39.239856195
 20
5.5357633737
 11
-39.2372287368
 21
5.5165979328
  0
LWPOLYLINE
  5
2CE
100
AcDbEntity
  8
0
100
AcDbPolyline
 62
250
  6
CONTINUOUS
 90
13
 70
0
 10
-34.1380210529
 20
-35.8923758971
 10
-34.1398739043
 20
-35.8679384275
 10
-34.1450906513
 20
-35.8439156506
 10
-34.1535828135
 20
-35.8207154756
 10
-34.1652062959
 20
-35.7987318534
 10
-34.1797638163
 20
-35.7783381191
 10
-34.1970082388
 20
-35.7598806432
 10
-34.2166468142
 20
-35.7436728921
 10
-34.2383461097
 20
-35.7299901555
 10
-34.2617376274
 20
-35.7190648743
 10
-34.2864241495
 20
-35.7110826292
 10
-34.3119864982
 20
-35.7061790117
 10
-34.3379905907
 20
-35.7044373468
  0
LINE
  5
2CF
100
AcDbEntity
  8
0
100
AcDbLine
 62
7
  6
CONTINUOUS
 10
-33.9097593082
 20
-35.7018361869
 11
-34.0052561442
 21
-33.7105513694
  0
LINE
  5
2D0
100
AcDbEntity
  8
0
100
AcDbLine
 62
7
  6
CONTINUOUS
 10
-34.1430315775
 20
-38.2804171318
 11
-34.1120314142
 21
-39.2151530078
  0
LINE
  5
2D1
100
AcDbEntity
  8
0
100
AcDbLine
 62
7
  6
CONTINUOUS
 10
-35.2424226961
 20
-32.9124180401
 11
-35.1754788054
 21
-35.7044373729
  0
LINE
  5
2D2
100
AcDbEntity
  8
0
100
AcDbLine
 62
250
  6
CONTINUOUS
 10
-34.341333652
 20
2.0313799365
 11
-34.3405192402
 21
1.8429123321
  0
LINE
  5
2D3
100
AcDbEntity
  8
0
100
AcDbLine
 62
7
  6
CONTINUOUS
 10
-35.2424226961
 20
-32.9124180401
 11
-35.2424226961
 21
-1.1359417883
  0
LINE
  5
2D4
100
AcDbEntity
  8
0
100
AcDbLine
 62
7
  6
CONTINUOUS
 10
-35.1935522365
 20
3.2768627428
 11
-35.1935522365
 21
2.7258200858
  0
LINE
  5
2D5
100
AcDbEntity
  8
0
100
AcDbLine
 62
7
  6
CONTINUOUS
 10
-35.1726077538
 20
2.4758200858
 11
-35.1726077538
 21
2.1259238549
  0
LINE
  5
2D6
100
AcDbEntity
  8
0
100
AcDbLine
 62
7
  6
CONTINUOUS
 10
-35.1726077538
 20
-36.1742836833
 11
-35.1726077538
 21
-37.3940024719
  0
LINE
  5
2D7
100
AcDbEntity
  8
0
100
AcDbLine
 62
250
  6
CONTINUOUS
 10
-34.3414361163
 20
2.4758200858
 11
-34.341333652
 21
2.0313799365
  0
LINE
  5
2D8
100
AcDbEntity
  8
0
100
AcDbLine
 62
250
  6
CONTINUOUS
 10
-34.3410246113
 20
-35.9796518015
 11
-34.3414361163
 21
-36.6241799142
  0
LINE
  5
2D9
100
AcDbEntity
  8
0
100
AcDbLine
 62
250
  6
CONTINUOUS
 10
-34.3404625323
 20
-35.8837344672
 11
-34.3410246113
 21
-35.9796518015
  0
LINE
  5
2DA
100
AcDbEntity
  8
0
100
AcDbLine
 62
7
  6
CONTINUOUS
 10
-35.1754788054
 20
1.6560775445
 11
-35.2424226961
 21
-1.1359417883
  0
LINE
  5
2DB
100
AcDbEntity
  8
0
100
AcDbLine
 62
7
  6
CONTINUOUS
 10
-34.1120314142
 20
5.1667931794
 11
-34.1430315775
 21
4.2320573034
  0
LINE
  5
2DC
100
AcDbEntity
  8
0
100
AcDbLine
 62
7
  6
CONTINUOUS
 10
-34.0052561442
 20
-0.337808459
 11
-33.9132503212
 21
1.5806823116
  0
LWPOLYLINE
  5
2DD
100
AcDbEntity
  8
0
100
AcDbPolyline
 62
250
  6
CONTINUOUS
 90
13
 70
0
 10
-34.1380210529
 20
1.8440160687
 10
-34.1398740756
 20
1.8195774239
 10
-34.1450912489
 20
1.7955537625
 10
-34.1535839819
 20
1.7723530221
 10
-34.165208062
 20
1.7503691664
 10
-34.1797661049
 20
1.7299754964
 10
-34.1970109053
 20
1.7115183115
 10
-34.2166496351
 20
1.6953110269
 10
-34.2383488157
 20
1.6816288533
 10
-34.2617399806
 20
1.6707041255
 10
-34.2864259324
 20
1.6627223537
 10
-34.3119874869
 20
1.657819073
 10
-34.3379905919
 20
1.6560775445
  0
LWPOLYLINE
  5
2DE
100
AcDbEntity
  8
0
100
AcDbPolyline
 62
250
  6
CONTINUOUS
 90
13
 70
0
 10
-43.7580164057
 20
6.5338293154
 10
-43.7513173222
 20
6.5163170053
 10
-43.7423996988
 20
6.4996648786
 10
-43.7313573598
 20
6.4840776749
 10
-43.7182871553
 20
6.4697263646
 10
-43.7033526259
 20
6.4568196391
 10
-43.6868119591
 20
6.4455754616
 10
-43.6689202193
 20
6.4361327726
 10
-43.6498681005
 20
6.4285606556
 10
-43.6298582745
 20
6.4229236688
 10
-43.6091195403
 20
6.4192782639
 10
-43.5879098773
 20
6.4176620829
 10
-43.5664803249
 20
6.4180850589
  0
LWPOLYLINE
  5
2DF
100
AcDbEntity
  8
0
100
AcDbPolyline
 62
7
  6
CONTINUOUS
 90
13
 70
0
 10
-35.3086525806
 20
3.2095978168
 10
-35.3105788396
 20
3.2364762575
 10
-35.3156762185
 20
3.2620742656
 10
-35.3239447173
 20
3.2863918491
 10
-35.3356537065
 20
3.3098228486
 10
-35.3505338155
 20
3.3319734369
 10
-35.3677769333
 20
3.3516621257
 10
-35.3875088343
 20
3.3687199291
 10
-35.4096037441
 20
3.3833158557
 10
-35.4328762279
 20
3.3947754159
 10
-35.456931141
 20
3.4028737859
 10
-35.4821636282
 20
3.407835805
 10
-35.5085736894
 20
3.4096614771
  0
LINE
  5
2E0
100
AcDbEntity
  8
0
100
AcDbLine
 62
250
  6
CONTINUOUS
 10
-34.3379905919
 20
1.6560775445
 11
-34.2040926131
 21
-1.1359417883
  0
LINE
  5
2E1
100
AcDbEntity
  8
0
100
AcDbLine
 62
250
  6
CONTINUOUS
 10
-34.1380210529
 20
1.8440160687
 11
-34.0052561442
 21
-0.9243766651
  0
LINE
  5
2E2
100
AcDbEntity
  8
0
100
AcDbLine
 62
7
  6
CONTINUOUS
 10
-34.0052561442
 20
-0.337808459
 11
-34.0972619673
 21
1.5806823116
  0
LWPOLYLINE
  5
2E3
100
AcDbEntity
  8
0
100
AcDbPolyline
 62
250
  6
CONTINUOUS
 90
4
 70
0
 10
-34.1391834727
 20
1.878192122
 10
-34.1388270382
 20
1.8657588916
 10
-34.1384395649
 20
1.8543668738
 10
-34.1380210529
 20
1.8440160687
  0
LINE
  5
2E4
100
AcDbEntity
  8
0
100
AcDbLine
 62
250
  6
CONTINUOUS
 10
-34.3384092467
 20
1.6725887467
 11
-34.3379905919
 21
1.6560775445
  0
LINE
  5
2E5
100
AcDbEntity
  8
0
100
AcDbLine
 62
250
  6
CONTINUOUS
 10
-34.1397966065
 20
1.9061279414
 11
-34.1391834727
 21
1.878192122
  0
LINE
  5
2E6
100
AcDbEntity
  8
0
100
AcDbLine
 62
250
  6
CONTINUOUS
 10
-34.3391532465
 20
1.7130376322
 11
-34.3384092467
 21
1.6725887467
  0
LINE
  5
2E7
100
AcDbEntity
  8
0
100
AcDbLine
 62
250
  6
CONTINUOUS
 10
-34.1405496802
 20
1.9560906639
 11
-34.1397966065
 21
1.9061279414
  0
LINE
  5
2E8
100
AcDbEntity
  8
0
100
AcDbLine
 62
250
  6
CONTINUOUS
 10
-34.3400359721
 20
1.7856159117
 11
-34.3391532465
 21
1.7130376322
  0
LINE
  5
2E9
100
AcDbEntity
  8
0
100
AcDbLine
 62
250
  6
CONTINUOUS
 10
-34.3405192402
 20
1.8429123321
 11
-34.3400359721
 21
1.7856159117
  0
LINE
  5
2EA
100
AcDbEntity
  8
0
100
AcDbLine
 62
250
  6
CONTINUOUS
 10
-34.1411244788
 20
2.0188881859
 11
-34.1405496802
 21
1.9560906639
  0
LINE
  5
2EB
100
AcDbEntity
  8
0
100
AcDbLine
 62
250
  6
CONTINUOUS
 10
-34.1414320569
 20
2.0966355623
 11
-34.1411244788
 21
2.0188881859
  0
LINE
  5
2EC
100
AcDbEntity
  8
0
100
AcDbLine
 62
7
  6
CONTINUOUS
 10
-34.1033090943
 20
5.1755154993
 11
-34.1030045078
 21
4.1758200858
  0
LINE
  5
2ED
100
AcDbEntity
  8
0
100
AcDbLine
 62
7
  6
CONTINUOUS
 10
-34.0750764039
 20
-38.2241799142
 11
-34.0744365774
 21
-40.3241799142
  0
LINE
  5
2EE
100
AcDbEntity
  8
0
100
AcDbLine
 62
250
  6
CONTINUOUS
 10
-34.1552561442
 20
-36.6241799142
 11
-34.1552561442
 21
-37.4241799142
  0
LINE
  5
2EF
100
AcDbEntity
  8
0
100
AcDbLine
 62
7
  6
CONTINUOUS
 10
-34.1448966636
 20
-38.1034334873
 11
-34.1448966636
 21
-37.4241799142
  0
LINE
  5
2F0
100
AcDbEntity
  8
0
100
AcDbLine
 62
7
  6
CONTINUOUS
 10
-34.1448966636
 20
3.5456350281
 11
-34.1448966636
 21
4.0550736589
  0
LINE
  5
2F1
100
AcDbEntity
  8
0
100
AcDbLine
 62
250
  6
CONTINUOUS
 10
-34.1414665772
 20
2.4758200858
 11
-34.1414320569
 21
2.0966355623
  0
LINE
  5
2F2
100
AcDbEntity
  8
0
100
AcDbLine
 62
7
  6
CONTINUOUS
 10
-34.1064955208
 20
-37.6941799142
 11
-34.1064955208
 21
-37.4241799142
  0
LINE
  5
2F3
100
AcDbEntity
  8
0
100
AcDbLine
 62
7
  6
CONTINUOUS
 10
-34.1064955208
 20
-36.6241799142
 11
-34.1064955208
 21
-36.1716824973
  0
LINE
  5
2F4
100
AcDbEntity
  8
0
100
AcDbLine
 62
7
  6
CONTINUOUS
 10
-34.1030045078
 20
3.6807256736
 11
-34.1030045078
 21
3.5268532235
  0
LINE
  5
2F5
100
AcDbEntity
  8
0
100
AcDbLine
 62
7
  6
CONTINUOUS
 10
-34.1030045078
 20
2.4758200858
 11
-34.1030045078
 21
2.050528622
  0
LINE
  5
2F6
100
AcDbEntity
  8
0
100
AcDbLine
 62
7
  6
CONTINUOUS
 10
-34.0488938065
 20
-40.3241799142
 11
-34.0488938065
 21
-38.6904160219
  0
LINE
  5
2F7
100
AcDbEntity
  8
0
100
AcDbLine
 62
7
  6
CONTINUOUS
 10
-34.0488938065
 20
4.6420561935
 11
-34.0488938065
 21
6.2758200858
  0
LINE
  5
2F8
100
AcDbEntity
  8
0
100
AcDbLine
 62
7
  6
CONTINUOUS
 10
-34.0052561442
 20
-33.7105513694
 11
-34.0052561442
 21
-0.337808459
  0
LINE
  5
2F9
100
AcDbEntity
  8
0
100
AcDbLine
 62
7
  6
CONTINUOUS
 10
-33.9616184819
 20
5.0066106819
 11
-33.9616184819
 21
4.6420561935
  0
LINE
  5
2FA
100
AcDbEntity
  8
0
100
AcDbLine
 62
7
  6
CONTINUOUS
 10
-33.9616184819
 20
-39.0549705103
 11
-33.9616184819
 21
-38.6904160219
  0
LINE
  5
2FB
100
AcDbEntity
  8
0
100
AcDbLine
 62
7
  6
CONTINUOUS
 10
-33.9075077806
 20
3.6807256736
 11
-33.9075077806
 21
2.050528622
  0
LINE
  5
2FC
100
AcDbEntity
  8
0
100
AcDbLine
 62
7
  6
CONTINUOUS
 10
-33.9040167676
 20
-37.6941799142
 11
-33.9040167676
 21
-37.4241799142
  0
LINE
  5
2FD
100
AcDbEntity
  8
0
100
AcDbLine
 62
7
  6
CONTINUOUS
 10
-33.9040167676
 20
-36.6241799142
 11
-33.9040167676
 21
-36.1716824973
  0
LINE
  5
2FE
100
AcDbEntity
  8
0
100
AcDbLine
 62
7
  6
CONTINUOUS
 10
-33.8552561442
 20
-36.6241799142
 11
-33.8552561442
 21
-37.4241799142
  0
LINE
  5
2FF
100
AcDbEntity
  8
0
100
AcDbLine
 62
7
  6
CONTINUOUS
 10
-34.1030045078
 20
-38.2241799142
 11
-34.1033090943
 21
-39.2238753277
  0
LINE
  5
300
100
AcDbEntity
  8
0
100
AcDbLine
 62
7
  6
CONTINUOUS
 10
-34.0744365774
 20
6.2758200858
 11
-34.0750764039
 21
4.1758200858
  0
LINE
  5
301
100
AcDbEntity
  8
0
100
AcDbLine
 62
250
  6
CONTINUOUS
 10
-34.1413035602
 20
-36.1000117257
 11
-34.1414665772
 21
-36.6241799142
  0
LINE
  5
302
100
AcDbEntity
  8
0
100
AcDbLine
 62
250
  6
CONTINUOUS
 10
-34.140891286
 20
-36.0375767323
 11
-34.1413035602
 21
-36.1000117257
  0
LINE
  5
303
100
AcDbEntity
  8
0
100
AcDbLine
 62
250
  6
CONTINUOUS
 10
-34.3396293526
 20
-35.7964418911
 11
-34.3404625323
 21
-35.8837344672
  0
LINE
  5
304
100
AcDbEntity
  8
0
100
AcDbLine
 62
250
  6
CONTINUOUS
 10
-34.1402483099
 20
-35.9819157505
 11
-34.140891286
 21
-36.0375767323
  0
LWPOLYLINE
  5
305
100
AcDbEntity
  8
0
100
AcDbPolyline
 62
250
  6
CONTINUOUS
 90
4
 70
0
 10
-34.3379905919
 20
-35.7044373729
 10
-34.3384593305
 20
-35.72320515
 10
-34.338889051
 20
-35.7452461568
 10
-34.3396293526
 20
-35.7964418911
  0
LWPOLYLINE
  5
306
100
AcDbEntity
  8
0
100
AcDbPolyline
 62
250
  6
CONTINUOUS
 90
6
 70
0
 10
-34.1380210529
 20
-35.8923758971
 10
-34.1384896143
 20
-35.9042504391
 10
-34.1389192349
 20
-35.9173444878
 10
-34.1393099148
 20
-35.9316580434
 10
-34.1396596151
 20
-35.9473974866
 10
-34.1402483099
 20
-35.9819157505
  0
LINE
  5
307
100
AcDbEntity
  8
0
100
AcDbLine
 62
250
  6
CONTINUOUS
 10
-34.2040926131
 20
-32.9124180401
 11
-34.3379905919
 21
-35.7044373729
  0
LINE
  5
308
100
AcDbEntity
  8
0
100
AcDbLine
 62
250
  6
CONTINUOUS
 10
-34.0052561442
 20
-33.1239831633
 11
-34.1380210529
 21
-35.8923758971
  0
LINE
  5
309
100
AcDbEntity
  8
0
100
AcDbLine
 62
7
  6
CONTINUOUS
 10
-34.1007529802
 20
-35.7018361869
 11
-34.0052561442
 21
-33.7105513694
  0
LINE
  5
30A
100
AcDbEntity
  8
0
100
AcDbLine
 62
7
  6
CONTINUOUS
 10
-33.9075077806
 20
3.6807256736
 11
-33.9543914662
 21
4.1495015305
  0
LINE
  5
30B
100
AcDbEntity
  8
0
100
AcDbLine
 62
7
  6
CONTINUOUS
 10
-33.9543914662
 20
-38.1978613589
 11
-33.9040167676
 21
-37.6941799142
  0
LINE
  5
30C
100
AcDbEntity
  8
0
100
AcDbLine
 62
7
  6
CONTINUOUS
 10
-36.6009120542
 20
-38.2804171318
 11
-36.9140684483
 21
-39.2151530078
  0
LINE
  5
30D
100
AcDbEntity
  8
0
100
AcDbLine
 62
7
  6
CONTINUOUS
 10
-36.9140684483
 20
5.1667931794
 11
-36.6009120542
 21
4.2320573034
  0
LINE
  5
30E
100
AcDbEntity
  8
0
100
AcDbLine
 62
250
  6
CONTINUOUS
 10
-44.9903460144
 20
-38.8243932224
 11
-45.0078010793
 21
-38.8418482873
  0
LINE
  5
30F
100
AcDbEntity
  8
0
100
AcDbLine
 62
250
  6
CONTINUOUS
 10
-43.6180895923
 20
-37.6870247854
 11
-43.5519895393
 21
-37.6209247324
  0
LINE
  5
310
100
AcDbEntity
  8
0
100
AcDbLine
 62
250
  6
CONTINUOUS
 10
-45.0078010793
 20
4.7934884589
 11
-44.9903460144
 21
4.776033394
  0
LINE
  5
311
100
AcDbEntity
  8
0
100
AcDbLine
 62
250
  6
CONTINUOUS
 10
-43.6180895923
 20
3.638664957
 11
-43.5519895393
 21
3.572564904
  0
LINE
  5
312
100
AcDbEntity
  8
0
100
AcDbLine
 62
250
  6
CONTINUOUS
 10
-43.3181010154
 20
-37.9870133623
 11
-43.252110052
 21
-37.9210223989
  0
LINE
  5
313
100
AcDbEntity
  8
0
100
AcDbLine
 62
250
  6
CONTINUOUS
 10
-44.4904221668
 20
-39.32431707
 11
-44.5078772317
 21
-39.3417721349
  0
LINE
  5
314
100
AcDbEntity
  8
0
100
AcDbLine
 62
250
  6
CONTINUOUS
 10
-40.558106266
 20
-37.3940024719
 11
-40.4220614393
 21
-37.2579576452
  0
LINE
  5
315
100
AcDbEntity
  8
0
100
AcDbLine
 62
250
  6
CONTINUOUS
 10
-43.3181010154
 20
3.9386535339
 11
-43.252110052
 21
3.8726625705
  0
LINE
  5
316
100
AcDbEntity
  8
0
100
AcDbLine
 62
250
  6
CONTINUOUS
 10
-44.5078772317
 20
5.2934123065
 11
-44.4904221668
 21
5.2759572416
  0
LINE
  5
317
100
AcDbEntity
  8
0
100
AcDbLine
 62
250
  6
CONTINUOUS
 10
-40.558106266
 20
3.3456426435
 11
-40.4220614393
 21
3.2095978168
  0
LINE
  5
318
100
AcDbEntity
  8
0
100
AcDbLine
 62
250
  6
CONTINUOUS
 10
-43.7052459402
 20
-41.5241799142
 11
-43.6912616267
 21
-41.5101549357
  0
LINE
  5
319
100
AcDbEntity
  8
0
100
AcDbLine
 62
250
  6
CONTINUOUS
 10
-40.3581138814
 20
-37.5939948565
 11
-40.2221403304
 21
-37.4580213055
  0
LINE
  5
31A
100
AcDbEntity
  8
0
100
AcDbLine
 62
250
  6
CONTINUOUS
 10
-43.9052561442
 20
-41.3241697101
 11
-43.8912311657
 21
-41.3101853966
  0
LINE
  5
31B
100
AcDbEntity
  8
0
100
AcDbLine
 62
250
  6
CONTINUOUS
 10
-43.9052561442
 20
7.2758098817
 11
-43.8912311657
 21
7.2618255682
  0
LINE
  5
31C
100
AcDbEntity
  8
0
100
AcDbLine
 62
250
  6
CONTINUOUS
 10
-40.3581138814
 20
3.5456350281
 11
-40.2221403304
 21
3.4096614771
  0
LINE
  5
31D
100
AcDbEntity
  8
0
100
AcDbLine
 62
250
  6
CONTINUOUS
 10
-43.7052459402
 20
7.4758200858
 11
-43.6912616267
 21
7.4617951073
  0
LINE
  5
31E
100
AcDbEntity
  8
0
100
AcDbLine
 62
7
  6
CONTINUOUS
 10
-35.2424226961
 20
-1.1359417883
 11
-34.2040926131
 21
-1.1359417883
  0
LINE
  5
31F
100
AcDbEntity
  8
0
100
AcDbLine
 62
7
  6
CONTINUOUS
 10
-40.4209736002
 20
-0.1359417883
 11
-41.2882913237
 21
-0.1359417883
  0
LINE
  5
320
100
AcDbEntity
  8
0
100
AcDbLine
 62
250
  6
CONTINUOUS
 10
-33.9132503212
 20
1.5806823116
 11
-34.0972619673
 21
1.5806823116
  0
LINE
  5
321
100
AcDbEntity
  8
0
100
AcDbLine
 62
250
  6
CONTINUOUS
 10
-34.3379905919
 20
1.6560775445
 11
-35.1754788054
 21
1.6560775445
  0
LINE
  5
322
100
AcDbEntity
  8
0
100
AcDbLine
 62
250
  6
CONTINUOUS
 10
-33.9075077806
 20
2.050528622
 11
-34.1030045078
 21
2.050528622
  0
LINE
  5
323
100
AcDbEntity
  8
0
100
AcDbLine
 62
250
  6
CONTINUOUS
 10
-34.1414665772
 20
2.1259238549
 11
-35.1726077538
 21
2.1259238549
  0
LINE
  5
324
100
AcDbEntity
  8
0
100
AcDbLine
 62
250
  6
CONTINUOUS
 10
-44.9903460144
 20
2.2016731789
 11
-45.0552561442
 21
2.2016731789
  0
LINE
  5
325
100
AcDbEntity
  8
0
100
AcDbLine
 62
250
  6
CONTINUOUS
 10
-44.9932308193
 20
2.3986347295
 11
-45.0523713393
 21
2.3986347295
  0
LINE
  5
326
100
AcDbEntity
  8
0
100
AcDbLine
 62
7
  6
CONTINUOUS
 10
-34.107368274
 20
2.4758200858
 11
-34.5052561442
 21
2.4758200858
  0
LINE
  5
327
100
AcDbEntity
  8
0
100
AcDbLine
 62
7
  6
CONTINUOUS
 10
-34.9052561442
 20
2.4758200858
 11
-35.1913705196
 21
2.4758200858
  0
LINE
  5
328
100
AcDbEntity
  8
0
100
AcDbLine
 62
250
  6
CONTINUOUS
 10
-45.0406858842
 20
2.5166784614
 11
-45.0049162743
 21
2.5166784614
  0
LINE
  5
329
100
AcDbEntity
  8
0
100
AcDbLine
 62
250
  6
CONTINUOUS
 10
-40.5552352144
 20
2.6560775445
 11
-41.2882913237
 21
2.6560775445
  0
LINE
  5
32A
100
AcDbEntity
  8
0
100
AcDbLine
 62
250
  6
CONTINUOUS
 10
-45.0378010793
 20
2.713640012
 11
-45.0078010793
 21
2.713640012
  0
LINE
  5
32B
100
AcDbEntity
  8
0
100
AcDbLine
 62
250
  6
CONTINUOUS
 10
-35.1935522365
 20
2.7258200858
 11
-34.1030045078
 21
2.7258200858
  0
LINE
  5
32C
100
AcDbEntity
  8
0
100
AcDbLine
 62
250
  6
CONTINUOUS
 10
-40.558106266
 20
3.1259238549
 11
-41.2882913237
 21
3.1259238549
  0
LINE
  5
32D
100
AcDbEntity
  8
0
100
AcDbLine
 62
250
  6
CONTINUOUS
 10
-34.1030045078
 20
3.2768627428
 11
-35.1935522365
 21
3.2768627428
  0
LINE
  5
32E
100
AcDbEntity
  8
0
100
AcDbLine
 62
250
  6
CONTINUOUS
 10
-38.199418356
 20
-40.2928409189
 11
-38.181738475
 21
-40.2834208921
  0
LINE
  5
32F
100
AcDbEntity
  8
0
100
AcDbLine
 62
250
  6
CONTINUOUS
 10
-38.2164871707
 20
-40.3018105698
 11
-38.199418356
 21
-40.2928409189
  0
LINE
  5
330
100
AcDbEntity
  8
0
100
AcDbLine
 62
250
  6
CONTINUOUS
 10
-38.2799802973
 20
-40.1226289501
 11
-38.2706612873
 21
-40.1188828757
  0
LINE
  5
331
100
AcDbEntity
  8
0
100
AcDbLine
 62
250
  6
CONTINUOUS
 10
-38.2920903074
 20
-40.1274048056
 11
-38.2799802973
 21
-40.1226289501
  0
LINE
  5
332
100
AcDbEntity
  8
0
100
AcDbLine
 62
250
  6
CONTINUOUS
 10
-38.2990899326
 20
-40.1301170504
 11
-38.2920903074
 21
-40.1274048056
  0
LINE
  5
333
100
AcDbEntity
  8
0
100
AcDbLine
 62
250
  6
CONTINUOUS
 10
-38.3053191217
 20
-40.1325028527
 11
-38.2990899326
 21
-40.1301170504
  0
LWPOLYLINE
  5
334
100
AcDbEntity
  8
0
100
AcDbPolyline
 62
7
  6
CONTINUOUS
 90
10
 70
0
 10
-39.0504225083
 20
-39.6099662665
 10
-39.071519389
 20
-39.6166626334
 10
-39.0932280962
 20
-39.6209869439
 10
-39.1152827649
 20
-39.6228859023
 10
-39.1374140118
 20
-39.6223358542
 10
-39.1593498825
 20
-39.6193431016
 10
-39.1808192916
 20
-39.6139446904
 10
-39.2015585786
 20
-39.6062075141
 10
-39.2213146092
 20
-39.5962266281
 10
-39.2398456016
 20
-39.5841246877
  0
LINE
  5
335
100
AcDbEntity
  8
0
100
AcDbLine
 62
250
  6
CONTINUOUS
 10
-42.0524958828
 20
-40.5821891438
 11
-42.2440319635
 21
-40.639649968
  0
LWPOLYLINE
  5
336
100
AcDbEntity
  8
0
100
AcDbPolyline
 62
7
  6
CONTINUOUS
 90
13
 70
0
 10
-40.2221403304
 20
3.4096614771
 10
-40.2485503917
 20
3.407835805
 10
-40.2737828788
 20
3.4028737859
 10
-40.2978377919
 20
3.3947754159
 10
-40.3211102758
 20
3.3833158557
 10
-40.3432051855
 20
3.3687199291
 10
-40.3629370866
 20
3.3516621257
 10
-40.3801802044
 20
3.3319734369
 10
-40.3950603134
 20
3.3098228486
 10
-40.4067693025
 20
3.2863918491
 10
-40.4150378013
 20
3.2620742656
 10
-40.4201351803
 20
3.2364762575
 10
-40.4220614393
 20
3.2095978168
  0
LWPOLYLINE
  5
337
100
AcDbEntity
  8
0
100
AcDbPolyline
 62
7
  6
CONTINUOUS
 90
16
 70
0
 10
-43.252110052
 20
3.8726625705
 10
-43.2835993751
 20
3.8709538273
 10
-43.3141680575
 20
3.8661647988
 10
-43.343816099
 20
3.8582954814
 10
-43.3728539555
 20
3.847211552
 10
-43.4009711711
 20
3.8330473187
 10
-43.4272363791
 20
3.8162057223
 10
-43.4515961647
 20
3.7965912778
 10
-43.4741039427
 20
3.7742994453
 10
-43.4939885901
 20
3.7500195859
 10
-43.5111663606
 20
3.7236631503
 10
-43.5257210006
 20
3.6953186623
 10
-43.5371326268
 20
3.6659411011
 10
-43.5452279447
 20
3.6358487914
 10
-43.5501802489
 20
3.604723395
 10
-43.5519895393
 20
3.572564904
  0
LINE
  5
338
100
AcDbEntity
  8
0
100
AcDbLine
 62
7
  6
CONTINUOUS
 10
-35.5085736894
 20
3.4096614771
 11
-40.2221403304
 21
3.4096614771
  0
LINE
  5
339
100
AcDbEntity
  8
0
100
AcDbLine
 62
7
  6
CONTINUOUS
 10
-35.391381943
 20
3.5268532235
 11
-34.9420479442
 21
3.5268532235
  0
LINE
  5
33A
100
AcDbEntity
  8
0
100
AcDbLine
 62
7
  6
CONTINUOUS
 10
-34.1073301935
 20
3.5268532235
 11
-34.4684643443
 21
3.5268532235
  0
LINE
  5
33B
100
AcDbEntity
  8
0
100
AcDbLine
 62
7
  6
CONTINUOUS
 10
-40.3581138814
 20
3.5456350281
 11
-34.9420479442
 21
3.5456350281
  0
LINE
  5
33C
100
AcDbEntity
  8
0
100
AcDbLine
 62
7
  6
CONTINUOUS
 10
-34.4684643443
 20
3.5456350281
 11
-34.1448966636
 21
3.5456350281
  0
LINE
  5
33D
100
AcDbEntity
  8
0
100
AcDbLine
 62
7
  6
CONTINUOUS
 10
-34.1030045078
 20
3.6807256736
 11
-33.9075077806
 21
3.6807256736
  0
LINE
  5
33E
100
AcDbEntity
  8
0
100
AcDbLine
 62
7
  6
CONTINUOUS
 10
-43.252110052
 20
3.8726625705
 11
-41.2882913237
 21
3.8726625705
  0
LINE
  5
33F
100
AcDbEntity
  8
0
100
AcDbLine
 62
7
  6
CONTINUOUS
 10
-41.2175731824
 20
3.9386535339
 11
-43.3181010154
 21
3.9386535339
  0
LINE
  5
340
100
AcDbEntity
  8
0
100
AcDbLine
 62
250
  6
CONTINUOUS
 10
-36.5820713905
 20
3.9758200858
 11
-41.0697948937
 21
3.9758200858
  0
LINE
  5
341
100
AcDbEntity
  8
0
100
AcDbLine
 62
250
  6
CONTINUOUS
 10
-34.1448966636
 20
4.0550736589
 11
-36.5820713905
 21
4.0550736589
  0
LINE
  5
342
100
AcDbEntity
  8
0
100
AcDbLine
 62
250
  6
CONTINUOUS
 10
-34.0561208222
 20
4.1495015305
 11
-33.9543914662
 21
4.1495015305
  0
LINE
  5
343
100
AcDbEntity
  8
0
100
AcDbLine
 62
7
  6
CONTINUOUS
 10
-34.0750764039
 20
4.1758200858
 11
-34.1030045078
 21
4.1758200858
  0
LINE
  5
344
100
AcDbEntity
  8
0
100
AcDbLine
 62
7
  6
CONTINUOUS
 10
-36.6173367867
 20
4.1758200858
 11
-40.8927559769
 21
4.1758200858
  0
LINE
  5
345
100
AcDbEntity
  8
0
100
AcDbLine
 62
250
  6
CONTINUOUS
 10
-34.1430315775
 20
4.2320573034
 11
-36.6009120542
 21
4.2320573034
  0
LINE
  5
346
100
AcDbEntity
  8
0
100
AcDbLine
 62
250
  6
CONTINUOUS
 10
-34.0488938065
 20
4.6420561935
 11
-33.9616184819
 21
4.6420561935
  0
LWPOLYLINE
  5
347
100
AcDbEntity
  8
0
100
AcDbPolyline
 62
7
  6
CONTINUOUS
 90
16
 70
0
 10
-35.391381943
 20
3.5268532235
 10
-35.3683922888
 20
3.5252718179
 10
-35.3463689599
 20
3.5211729924
 10
-35.3255561009
 20
3.5148331061
 10
-35.3063288181
 20
3.5066293533
 10
-35.288619798
 20
3.4968009175
 10
-35.2720233773
 20
3.4852566829
 10
-35.2565992085
 20
3.4720330077
 10
-35.2426142373
 20
3.4573539519
 10
-35.2300825165
 20
3.4412234162
 10
-35.2191000484
 20
3.4236623497
 10
-35.2099110116
 20
3.4049389013
 10
-35.2027152729
 20
3.3854448852
 10
-35.1975807529
 20
3.3654691097
 10
-35.1945103203
 20
3.3451615431
 10
-35.1935118573
 20
3.3247385401
  0
LWPOLYLINE
  5
348
100
AcDbEntity
  8
0
100
AcDbPolyline
 62
7
  6
CONTINUOUS
 90
10
 70
0
 10
-39.0494115903
 20
5.5242947805
 10
-39.0705677387
 20
5.5303880049
 10
-39.0917572405
 20
5.5341645651
 10
-39.1129800957
 20
5.5356244611
 10
-39.1344819621
 20
5.5347318192
 10
-39.1560171819
 20
5.531522513
 10
-39.176848782
 20
5.5261041637
 10
-39.1967311047
 20
5.5185126448
 10
-39.2159098076
 20
5.5087120826
 10
-39.2343848908
 20
5.4967024772
  0
LINE
  5
349
100
AcDbEntity
  8
0
100
AcDbLine
 62
250
  6
CONTINUOUS
 10
-42.2440319635
 20
6.5912901396
 11
-42.0524958828
 21
6.5338293154
  0
LWPOLYLINE
  5
34A
100
AcDbEntity
  8
0
100
AcDbPolyline
 62
7
  6
CONTINUOUS
 90
10
 70
0
 10
-39.050422693
 20
5.5616173689
 10
-39.0715170369
 20
5.5683150585
 10
-39.0932246027
 20
5.5726410652
 10
-39.1152796738
 20
5.5745415832
 10
-39.1374140063
 20
5.5739923406
 10
-39.1593544238
 20
5.5709989581
 10
-39.1808264245
 20
5.5655989761
 10
-39.2015653725
 20
5.5578603244
 10
-39.2213194277
 20
5.5478783959
 10
-39.2398471296
 20
5.5357763382
  0
LINE
  5
34B
100
AcDbEntity
  8
0
100
AcDbLine
 62
250
  6
CONTINUOUS
 10
-38.2945801496
 20
6.0800146415
 11
-38.3053191217
 21
6.0841430215
  0
LINE
  5
34C
100
AcDbEntity
  8
0
100
AcDbLine
 62
250
  6
CONTINUOUS
 10
-38.2867353404
 20
6.0769441796
 11
-38.2945801496
 21
6.0800146415
  0
LWPOLYLINE
  5
34D
100
AcDbEntity
  8
0
100
AcDbPolyline
 62
250
  6
CONTINUOUS
 90
3
 70
0
 10
-38.2706612875
 20
6.0705230292
 10
-38.2747069953
 20
6.0721550305
 10
-38.2867353404
 20
6.0769441796
  0
LINE
  5
34E
100
AcDbEntity
  8
0
100
AcDbLine
 62
7
  6
CONTINUOUS
 10
-34.1448966636
 20
3.5456350281
 11
-34.1073301935
 21
3.5268532235
  0
LINE
  5
34F
100
AcDbEntity
  8
0
100
AcDbLine
 62
250
  6
CONTINUOUS
 10
-38.1978450467
 20
6.2436475841
 11
-38.2164871711
 21
6.2534507412
  0
LINE
  5
350
100
AcDbEntity
  8
0
100
AcDbLine
 62
250
  6
CONTINUOUS
 10
-38.1817384484
 20
6.2350610814
 11
-38.1978450467
 21
6.2436475841
  0
LINE
  5
351
100
AcDbEntity
  8
0
100
AcDbLine
 62
7
  6
CONTINUOUS
 10
-43.8912311657
 20
6.9778785156
 11
-43.8891656557
 21
6.9782050466
  0
LINE
  5
352
100
AcDbEntity
  8
0
100
AcDbLine
 62
7
  6
CONTINUOUS
 10
-43.7170981121
 20
7.0033344731
 11
-43.6912616267
 21
7.0072278121
  0
LINE
  5
353
100
AcDbEntity
  8
0
100
AcDbLine
 62
7
  6
CONTINUOUS
 10
-43.8912311657
 20
6.9778785156
 11
-43.9052561442
 21
6.9758200858
  0
LINE
  5
354
100
AcDbEntity
  8
0
100
AcDbLine
 62
7
  6
CONTINUOUS
 10
-43.8891656557
 20
6.9782050466
 11
-43.7170981121
 21
7.0033344731
  0
LWPOLYLINE
  5
355
100
AcDbEntity
  8
0
100
AcDbPolyline
 62
250
  6
CONTINUOUS
 90
13
 70
0
 10
-43.6912616267
 20
7.4617951073
 10
-43.7173578578
 20
7.4600770541
 10
-43.7430077481
 20
7.4549681766
 10
-43.7677725907
 20
7.4465558552
 10
-43.7912288165
 20
7.4349839715
 10
-43.8129752382
 20
7.4204504469
 10
-43.832639913
 20
7.4032038574
 10
-43.8498865032
 20
7.3835391826
 10
-43.8644200287
 20
7.3617927602
 10
-43.8759919131
 20
7.3383365337
 10
-43.8844042348
 20
7.3135716906
 10
-43.8895131124
 20
7.2879217998
 10
-43.8912311657
 20
7.2618255682
  0
LINE
  5
356
100
AcDbEntity
  8
0
100
AcDbLine
 62
7
  6
CONTINUOUS
 10
-34.1120314142
 20
5.1667931794
 11
-36.9140684483
 21
5.1667931794
  0
LINE
  5
357
100
AcDbEntity
  8
0
100
AcDbLine
 62
7
  6
CONTINUOUS
 10
-34.1033090943
 20
5.1755154993
 11
-37.0021792828
 21
5.1755154993
  0
LINE
  5
358
100
AcDbEntity
  8
0
100
AcDbLine
 62
7
  6
CONTINUOUS
 10
-40.737436218
 20
5.2759572416
 11
-44.4904221668
 21
5.2759572416
  0
LINE
  5
359
100
AcDbEntity
  8
0
100
AcDbLine
 62
7
  6
CONTINUOUS
 10
-44.5078772317
 20
5.2934123065
 11
-41.2494030512
 21
5.2934123065
  0
LINE
  5
35A
100
AcDbEntity
  8
0
100
AcDbLine
 62
7
  6
CONTINUOUS
 10
-44.538181679
 20
5.3234123065
 11
-43.5812561442
 21
5.3234123065
  0
LINE
  5
35B
100
AcDbEntity
  8
0
100
AcDbLine
 62
7
  6
CONTINUOUS
 10
-42.2292561442
 20
5.3234123065
 11
-41.2494030512
 21
5.3234123065
  0
LINE
  5
35C
100
AcDbEntity
  8
0
100
AcDbLine
 62
7
  6
CONTINUOUS
 10
-39.4552561442
 20
5.3758200858
 11
-40.737436218
 21
5.3758200858
  0
LINE
  5
35D
100
AcDbEntity
  8
0
100
AcDbLine
 62
7
  6
CONTINUOUS
 10
-42.3835152757
 20
5.8984698166
 11
-43.4269970128
 21
5.8984698166
  0
LINE
  5
35E
100
AcDbEntity
  8
0
100
AcDbLine
 62
250
  6
CONTINUOUS
 10
-34.0744365774
 20
6.2758200858
 11
-34.0488938065
 21
6.2758200858
  0
LINE
  5
35F
100
AcDbEntity
  8
0
100
AcDbLine
 62
250
  6
CONTINUOUS
 10
-43.5664803249
 20
6.4180850589
 11
-42.2440319635
 21
6.4180850589
  0
LINE
  5
360
100
AcDbEntity
  8
0
100
AcDbLine
 62
7
  6
CONTINUOUS
 10
-34.2744061072
 20
6.4758200858
 11
-37.8785934919
 21
6.4758200858
  0
LINE
  5
361
100
AcDbEntity
  8
0
100
AcDbLine
 62
250
  6
CONTINUOUS
 10
-43.5664803249
 20
6.5912901396
 11
-42.2440319635
 21
6.5912901396
  0
LINE
  5
362
100
AcDbEntity
  8
0
100
AcDbLine
 62
250
  6
CONTINUOUS
 10
-41.9192811227
 20
7.2618255682
 11
-43.8912311657
 21
7.2618255682
  0
LINE
  5
363
100
AcDbEntity
  8
0
100
AcDbLine
 62
250
  6
CONTINUOUS
 10
-42.1192506618
 20
7.4617951073
 11
-43.6912616267
 21
7.4617951073
  0
LINE
  5
364
100
AcDbEntity
  8
0
100
AcDbLine
 62
7
  6
CONTINUOUS
 10
-43.7052459638
 20
7.4758200858
 11
-42.1052663246
 21
7.4758200858
  0
LWPOLYLINE
  5
365
100
AcDbEntity
  8
0
100
AcDbPolyline
 62
250
  6
CONTINUOUS
 90
13
 70
0
 10
-42.2440319635
 20
6.4180850589
 10
-42.2226024112
 20
6.4176620829
 10
-42.2013927481
 20
6.4192782639
 10
-42.1806540139
 20
6.4229236688
 10
-42.1606441879
 20
6.4285606556
 10
-42.1415920691
 20
6.4361327726
 10
-42.1237003293
 20
6.4455754616
 10
-42.1071596625
 20
6.4568196391
 10
-42.0922251331
 20
6.4697263646
 10
-42.0791549286
 20
6.4840776749
 10
-42.0681125896
 20
6.4996648786
 10
-42.0591949662
 20
6.5163170053
 10
-42.0524958828
 20
6.5338293154
  0
LINE
  5
366
100
AcDbEntity
  8
0
100
AcDbLine
 62
7
  6
CONTINUOUS
 10
-40.9343977686
 20
5.2788420465
 11
-41.0524415006
 21
5.2905275016
  0
LINE
  5
367
100
AcDbEntity
  8
0
100
AcDbLine
 62
7
  6
CONTINUOUS
 10
-37.0021792828
 20
5.1755154993
 11
-36.9140684483
 21
5.1667931794
  0
LINE
  5
368
100
AcDbEntity
  8
0
100
AcDbLine
 62
7
  6
CONTINUOUS
 10
-41.9192811227
 20
6.9778785156
 11
-41.9213533505
 21
6.9781592755
  0
LINE
  5
369
100
AcDbEntity
  8
0
100
AcDbLine
 62
7
  6
CONTINUOUS
 10
-42.0933850542
 20
7.0035328951
 11
-42.1192506618
 21
7.0072278121
  0
LINE
  5
36A
100
AcDbEntity
  8
0
100
AcDbLine
 62
7
  6
CONTINUOUS
 10
-41.9192811227
 20
6.9778785156
 11
-41.9052561442
 21
6.9758200858
  0
LINE
  5
36B
100
AcDbEntity
  8
0
100
AcDbLine
 62
7
  6
CONTINUOUS
 10
-41.9213533505
 20
6.9781592755
 11
-42.0933850542
 21
7.0035328951
  0
ARC
  5
36C
100
AcDbEntity
  8
0
100
AcDbCircle
 62
7
  6
CONTINUOUS
 10
-22.6552561442
 20
-17.0241799142
 40
28.0
100
AcDbArc
 50
236.2370179589
 51
237.0647695028
  0
ARC
  5
36D
100
AcDbEntity
  8
0
100
AcDbCircle
 62
7
  6
CONTINUOUS
 10
-22.6552561442
 20
-17.0241799142
 40
28.0
100
AcDbArc
 50
122.9352304972
 51
123.7629820515
  0
ARC
  5
36E
100
AcDbEntity
  8
0
100
AcDbCircle
 62
7
  6
CONTINUOUS
 10
-22.6552561442
 20
-17.0241799142
 40
28.0
100
AcDbArc
 50
228.4755268708
 51
233.6791232484
  0
ARC
  5
36F
100
AcDbEntity
  8
0
100
AcDbCircle
 62
7
  6
CONTINUOUS
 10
-22.6552561442
 20
-17.0241799142
 40
28.0
100
AcDbArc
 50
126.320876762
 51
131.5244731292
  0
ARC
  5
370
100
AcDbEntity
  8
0
100
AcDbCircle
 62
7
  6
CONTINUOUS
 10
-22.6552561442
 20
-17.0241799142
 40
27.9301850577
100
AcDbArc
 50
131.2469663001
 51
131.8458610533
  0
ARC
  5
371
100
AcDbEntity
  8
0
100
AcDbCircle
 62
7
  6
CONTINUOUS
 10
-22.6552561442
 20
-17.0241799142
 40
27.9301850577
100
AcDbArc
 50
228.1541389467
 51
228.7530336999
  0
ARC
  5
372
100
AcDbEntity
  8
0
100
AcDbCircle
 62
7
  6
CONTINUOUS
 10
-38.8552561442
 20
6.0758200858
 40
0.55
100
AcDbArc
 50
249.2158681227
 51
0.8679917125
  0
ARC
  5
373
100
AcDbEntity
  8
0
100
AcDbCircle
 62
7
  6
CONTINUOUS
 10
-38.8552561442
 20
-40.1241799142
 40
0.55
100
AcDbArc
 50
359.1320093196
 51
110.7841329094
  0
ARC
  5
374
100
AcDbEntity
  8
0
100
AcDbCircle
 62
7
  6
CONTINUOUS
 10
-34.7052561442
 20
3.6258200858
 40
0.25
100
AcDbArc
 50
198.7076967989
 51
341.2923032011
  0
ARC
  5
375
100
AcDbEntity
  8
0
100
AcDbCircle
 62
7
  6
CONTINUOUS
 10
-34.7052561442
 20
2.3258200858
 40
0.25
100
AcDbArc
 50
36.8698976458
 51
143.1301023542
  0
ELLIPSE
  5
376
100
AcDbEntity
  8
0
100
AcDbEllipse
 62
7
  6
CONTINUOUS
 10
-44.5377249153
 20
4.8227261335
 30
0.0
 11
-0.1582391023
 21
0.4751033573
 31
0.0
 40
0.9984778551
 41
-0.3210503505
 42
1.2488325878
  0
ELLIPSE
  5
377
100
AcDbEntity
  8
0
100
AcDbEllipse
 62
7
  6
CONTINUOUS
 10
-44.5377249153
 20
-38.8710859619
 30
0.0
 11
0.1582391023
 21
0.4751033573
 31
0.0
 40
0.9984778551
 41
-4.3904252414
 42
-2.8205423031
  0
ELLIPSE
  5
378
100
AcDbEntity
  8
0
100
AcDbEllipse
 62
7
  6
CONTINUOUS
 10
-40.737436218
 20
-39.4136983583
 30
0.0
 11
0.2
 21
0.0
 31
0.0
 40
0.0524077793
 41
-2.9670597284
 42
-1.5707963268
  0
ELLIPSE
  5
379
100
AcDbEntity
  8
0
100
AcDbEllipse
 62
7
  6
CONTINUOUS
 10
-40.737436218
 20
5.3653385299
 30
0.0
 11
0.2
 21
0.0
 31
0.0
 40
0.0524077793
 41
1.5707963268
 42
2.9670597284
  0
ELLIPSE
  5
37A
100
AcDbEntity
  8
0
100
AcDbEllipse
 62
7
  6
CONTINUOUS
 10
-45.0517651312
 20
2.2016731789
 30
0.0
 11
-0.0
 21
0.2
 31
0.0
 40
0.0174550649
 41
0.1745329252
 42
1.5707963268
  0
ELLIPSE
  5
37B
100
AcDbEntity
  8
0
100
AcDbEllipse
 62
7
  6
CONTINUOUS
 10
-45.0517651312
 20
-36.2500330073
 30
0.0
 11
0.0
 21
0.2
 31
0.0
 40
0.0174550649
 41
-4.7123889804
 42
-3.3161255788
  0
ELLIPSE
  5
37C
100
AcDbEntity
  8
0
100
AcDbEllipse
 62
7
  6
CONTINUOUS
 10
-34.2489242721
 20
-40.3241799142
 30
0.0
 11
0.2000304656
 21
0.0
 31
0.0
 40
0.9998476952
 41
-1.5707963268
 42
0.0
  0
ELLIPSE
  5
37D
100
AcDbEntity
  8
0
100
AcDbEllipse
 62
7
  6
CONTINUOUS
 10
-34.2489242721
 20
6.2758200858
 30
0.0
 11
0.2000304656
 21
0.0
 31
0.0
 40
0.9998476952
 41
0.0
 42
1.4362479685
  0
ELLIPSE
  5
37E
100
AcDbEntity
  8
0
100
AcDbEllipse
 62
7
  6
CONTINUOUS
 10
-45.0412920923
 20
2.713640012
 30
0.0
 11
-0.0
 21
0.2
 31
0.0
 40
0.0174550649
 41
-2.9670597284
 42
-1.5707963268
  0
ELLIPSE
  5
37F
100
AcDbEntity
  8
0
100
AcDbEllipse
 62
7
  6
CONTINUOUS
 10
-41.2494030512
 20
5.3338938624
 30
0.0
 11
0.2
 21
0.0
 31
0.0
 40
0.0524077793
 41
-1.5707963268
 42
-0.1745329252
  0
ELLIPSE
  5
380
100
AcDbEntity
  8
0
100
AcDbEllipse
 62
7
  6
CONTINUOUS
 10
-41.2494030512
 20
-39.3822536908
 30
0.0
 11
0.2
 21
0.0
 31
0.0
 40
0.0524077793
 41
0.1745329252
 42
1.5707963268
  0
ELLIPSE
  5
381
100
AcDbEntity
  8
0
100
AcDbEllipse
 62
7
  6
CONTINUOUS
 10
-45.0412920923
 20
-36.7619998404
 30
0.0
 11
0.0
 21
0.2
 31
0.0
 40
0.0174550649
 41
-1.5707963268
 42
-0.1745329252
  0
ELLIPSE
  5
382
100
AcDbEntity
  8
0
100
AcDbEllipse
 62
7
  6
CONTINUOUS
 10
-33.9528909494
 20
4.6420561935
 30
0.0
 11
-0.0
 21
0.5
 31
0.0
 40
0.0174550649
 41
-4.7123889804
 42
-3.3143802495
  0
ELLIPSE
  5
383
100
AcDbEntity
  8
0
100
AcDbEllipse
 62
7
  6
CONTINUOUS
 10
-33.9528909494
 20
-38.6904160219
 30
0.0
 11
0.0
 21
0.5
 31
0.0
 40
0.0174550649
 41
0.1727875959
 42
1.5707963268
  0
ELLIPSE
  5
384
100
AcDbEntity
  8
0
100
AcDbEllipse
 62
7
  6
CONTINUOUS
 10
-34.4616946459
 20
5.006153361
 30
0.0
 11
-0.1582391023
 21
-0.4751033573
 31
0.0
 40
0.9984778551
 41
1.8927600658
 42
2.4925115082
  0
ELLIPSE
  5
385
100
AcDbEntity
  8
0
100
AcDbEllipse
 62
7
  6
CONTINUOUS
 10
-34.4616946459
 20
-39.0545131894
 30
0.0
 11
0.1582391023
 21
-0.4751033573
 31
0.0
 40
0.9984778551
 41
0.6490811454
 42
1.2488325878
  0
ELLIPSE
  5
386
100
AcDbEntity
  8
0
100
AcDbEllipse
 62
7
  6
CONTINUOUS
 10
-33.9127443001
 20
-36.1716824973
 30
0.0
 11
-0.0
 21
0.5
 31
0.0
 40
0.0174550649
 41
-1.5707963268
 42
-0.3490658504
  0
ELLIPSE
  5
387
100
AcDbEntity
  8
0
100
AcDbEllipse
 62
7
  6
CONTINUOUS
 10
-33.9162353131
 20
2.050528622
 30
0.0
 11
0.0
 21
0.5
 31
0.0
 40
0.0174550649
 41
-2.7925268032
 42
-1.5707963268
  0
ELLIPSE
  5
388
100
AcDbEntity
  8
0
100
AcDbEllipse
 62
7
  6
CONTINUOUS
 10
-41.6791723638
 20
-39.8634447579
 30
0.0
 11
0.5442548954
 21
0.0798796576
 31
0.0
 40
0.9998444151
 41
2.9958866099
 42
3.2872986973
  0
ELLIPSE
  5
389
100
AcDbEntity
  8
0
100
AcDbEllipse
 62
7
  6
CONTINUOUS
 10
-44.1313399246
 20
-39.8634447579
 30
0.0
 11
0.5442548954
 21
-0.0798796576
 31
0.0
 40
0.9998444151
 41
-0.1457060437
 42
0.1457060437
  0
ELLIPSE
  5
38A
100
AcDbEntity
  8
0
100
AcDbEllipse
 62
7
  6
CONTINUOUS
 10
-36.6173367867
 20
-38.1034334873
 30
0.0
 11
0.0
 21
0.2
 31
0.0
 40
0.1763269807
 41
-2.6571147246
 42
-1.5707963268
  0
ELLIPSE
  5
38B
100
AcDbEntity
  8
0
100
AcDbEllipse
 62
7
  6
CONTINUOUS
 10
-35.1913705196
 20
2.7258200858
 30
0.0
 11
-0.0
 21
0.25
 31
0.0
 40
0.0087268678
 41
-4.7123889804
 42
-3.7968586687
  0
ELLIPSE
  5
38C
100
AcDbEntity
  8
0
100
AcDbEllipse
 62
7
  6
CONTINUOUS
 10
-36.6173367867
 20
4.0550736589
 30
0.0
 11
-0.0
 21
0.2
 31
0.0
 40
0.1763269807
 41
-1.5707963268
 42
-0.484477929
  0
ELLIPSE
  5
38D
100
AcDbEntity
  8
0
100
AcDbEllipse
 62
7
  6
CONTINUOUS
 10
-34.0942769754
 20
2.050528622
 30
0.0
 11
0.0
 21
0.5
 31
0.0
 40
0.0174550649
 41
1.5707963268
 42
2.7925268032
  0
ELLIPSE
  5
38E
100
AcDbEntity
  8
0
100
AcDbEllipse
 62
7
  6
CONTINUOUS
 10
-34.0977679883
 20
-36.1716824973
 30
0.0
 11
-0.0
 21
0.5
 31
0.0
 40
0.0174550649
 41
0.3490658504
 42
1.5707963268
  0
ELLIPSE
  5
38F
100
AcDbEntity
  8
0
100
AcDbEllipse
 62
7
  6
CONTINUOUS
 10
-34.274467043
 20
6.2758200858
 30
0.0
 11
0.1701785058
 21
0.1051617712
 31
0.0
 40
0.9996594473
 41
-0.5536657548
 42
1.017130572
  0
ELLIPSE
  5
390
100
AcDbEntity
  8
0
100
AcDbEllipse
 62
7
  6
CONTINUOUS
 10
-35.1769711877
 20
-36.1742836833
 30
0.0
 11
-0.0
 21
0.5
 31
0.0
 40
0.0087268678
 41
-1.5707963268
 42
-0.3490658504
  0
ELLIPSE
  5
391
100
AcDbEntity
  8
0
100
AcDbEllipse
 62
7
  6
CONTINUOUS
 10
-41.2494030512
 20
5.2899212935
 30
0.0
 11
0.2
 21
0.0
 31
0.0
 40
0.0174550649
 41
1.1059352424
 42
1.5707963268
  0
ELLIPSE
  5
392
100
AcDbEntity
  8
0
100
AcDbEllipse
 62
7
  6
CONTINUOUS
 10
-41.2494030512
 20
-39.3382811219
 30
0.0
 11
0.2
 21
0.0
 31
0.0
 40
0.0174550649
 41
-0.2377608495
 42
-0.1745329252
  0
ELLIPSE
  5
393
100
AcDbEntity
  8
0
100
AcDbEllipse
 62
7
  6
CONTINUOUS
 10
-45.0043100663
 20
-36.7619998404
 30
0.0
 11
0.0
 21
0.2
 31
0.0
 40
0.0174550649
 41
1.1059351774
 42
1.5707963268
  0
ELLIPSE
  5
394
100
AcDbEntity
  8
0
100
AcDbEllipse
 62
7
  6
CONTINUOUS
 10
-45.0043100663
 20
2.713640012
 30
0.0
 11
0.0
 21
0.2
 31
0.0
 40
0.0174550649
 41
-3.3705506778
 42
-3.3161255788
  0
ELLIPSE
  5
395
100
AcDbEntity
  8
0
100
AcDbEllipse
 62
7
  6
CONTINUOUS
 10
-44.9938370273
 20
2.2016731789
 30
0.0
 11
0.0
 21
0.2
 31
0.0
 40
0.0174550649
 41
-1.5707963268
 42
-1.1059351774
  0
ELLIPSE
  5
396
100
AcDbEntity
  8
0
100
AcDbEllipse
 62
7
  6
CONTINUOUS
 10
-44.9938370273
 20
-36.2500330073
 30
0.0
 11
0.0
 21
0.2
 31
0.0
 40
0.0174550649
 41
-2.0356574762
 42
-1.5707963268
  0
ELLIPSE
  5
397
100
AcDbEntity
  8
0
100
AcDbEllipse
 62
7
  6
CONTINUOUS
 10
-35.1769711877
 20
2.1259238549
 30
0.0
 11
0.0
 21
0.5
 31
0.0
 40
0.0087268678
 41
-2.7925268032
 42
-1.5707963268
  0
ELLIPSE
  5
398
100
AcDbEntity
  8
0
100
AcDbEllipse
 62
7
  6
CONTINUOUS
 10
-44.5077249153
 20
-38.8416959709
 30
0.0
 11
0.3536610946
 21
0.3536610946
 31
0.0
 40
0.9996954599
 41
2.3563467834
 42
3.9268385237
  0
ELLIPSE
  5
399
100
AcDbEntity
  8
0
100
AcDbEllipse
 62
7
  6
CONTINUOUS
 10
-44.5077249153
 20
4.7933361425
 30
0.0
 11
0.3536610946
 21
-0.3536610946
 31
0.0
 40
0.9996954599
 41
2.3563467834
 42
3.9268385237
  0
ELLIPSE
  5
39A
100
AcDbEntity
  8
0
100
AcDbEllipse
 62
7
  6
CONTINUOUS
 10
-22.6552561442
 20
-17.0284392902
 30
0.0
 11
0.0
 21
27.9618638231
 31
0.0
 40
0.9999999884
 41
-3.7302844632
 42
-3.7145930873
  0
ELLIPSE
  5
39B
100
AcDbEntity
  8
0
100
AcDbEllipse
 62
7
  6
CONTINUOUS
 10
-34.274467043
 20
-40.3241799142
 30
0.0
 11
0.1701785058
 21
-0.1051617712
 31
0.0
 40
0.9996594473
 41
-1.017130572
 42
0.5536657548
  0
ELLIPSE
  5
39C
100
AcDbEntity
  8
0
100
AcDbEllipse
 62
7
  6
CONTINUOUS
 10
-22.6552561442
 20
-17.0284392902
 30
0.0
 11
0.0
 21
27.9618638231
 31
0.0
 40
0.9999999884
 41
2.4310731887
 42
2.5069133396
  0
ELLIPSE
  5
39D
100
AcDbEntity
  8
0
100
AcDbEllipse
 62
7
  6
CONTINUOUS
 10
-47.8986182437
 20
-17.0241799142
 30
0.0
 11
0.0
 21
498.5
 31
0.0
 40
0.0087268678
 41
-1.6121255335
 42
-1.5294671201
  0
ELLIPSE
  5
39E
100
AcDbEntity
  8
0
100
AcDbEllipse
 62
7
  6
CONTINUOUS
 10
-40.5537428321
 20
3.1259238549
 30
0.0
 11
-0.0
 21
0.5
 31
0.0
 40
0.0087268678
 41
-4.7123889804
 42
-3.490658504
  0
ELLIPSE
  5
39F
100
AcDbEntity
  8
0
100
AcDbEllipse
 62
7
  6
CONTINUOUS
 10
-34.2052866098
 20
-33.1252535946
 30
0.0
 11
0.0101966931
 21
0.2126198201
 31
0.0
 40
0.9395662395
 41
-1.5197985237
 42
0.0450286931
  0
ELLIPSE
  5
3A0
100
AcDbEntity
  8
0
100
AcDbEllipse
 62
7
  6
CONTINUOUS
 10
-34.2052866098
 20
-0.9231062338
 30
0.0
 11
-0.0101966931
 21
0.2126198201
 31
0.0
 40
0.9395662395
 41
-3.1866213467
 42
-1.6217941299
  0
ELLIPSE
  5
3A1
100
AcDbEntity
  8
0
100
AcDbEllipse
 62
7
  6
CONTINUOUS
 10
-40.4875219326
 20
-34.4124180401
 30
0.0
 11
0.0
 21
0.5
 31
0.0
 40
0.0087268678
 41
-0.0
 42
0.3490658504
  0
ELLIPSE
  5
3A2
100
AcDbEntity
  8
0
100
AcDbEllipse
 62
7
  6
CONTINUOUS
 10
-40.5537428321
 20
-37.1742836833
 30
0.0
 11
0.0
 21
0.5
 31
0.0
 40
0.0087268678
 41
0.3490658504
 42
1.5707963268
  0
ELLIPSE
  5
3A3
100
AcDbEntity
  8
0
100
AcDbEllipse
 62
7
  6
CONTINUOUS
 10
-36.6173367867
 20
3.9758200858
 30
0.0
 11
-0.0
 21
0.2
 31
0.0
 40
0.1763269807
 41
-1.5707963268
 42
-0.0
  0
ELLIPSE
  5
3A4
100
AcDbEntity
  8
0
100
AcDbEllipse
 62
7
  6
CONTINUOUS
 10
-44.4902698503
 20
-38.824240906
 30
0.0
 11
0.3536610946
 21
0.3536610946
 31
0.0
 40
0.9996954599
 41
2.3563467834
 42
3.9268385237
  0
ELLIPSE
  5
3A5
100
AcDbEntity
  8
0
100
AcDbEllipse
 62
7
  6
CONTINUOUS
 10
-42.3680171299
 20
-40.1777697527
 30
0.0
 11
-0.0604098296
 21
0.2250438977
 31
0.0
 40
0.8583287562
 41
-1.5367761185
 42
-0.2264540803
  0
ELLIPSE
  5
3A6
100
AcDbEntity
  8
0
100
AcDbEllipse
 62
7
  6
CONTINUOUS
 10
-43.4424951586
 20
-40.1777697527
 30
0.0
 11
0.0604098296
 21
0.2250438977
 31
0.0
 40
0.8583287562
 41
0.2264540803
 42
1.5367761185
  0
ELLIPSE
  5
3A7
100
AcDbEntity
  8
0
100
AcDbEllipse
 62
7
  6
CONTINUOUS
 10
-43.4424951586
 20
6.1294099243
 30
0.0
 11
-0.0604098296
 21
0.2250438977
 31
0.0
 40
0.8583287562
 41
-4.6783687721
 42
-3.3680467339
  0
ELLIPSE
  5
3A8
100
AcDbEntity
  8
0
100
AcDbEllipse
 62
7
  6
CONTINUOUS
 10
-42.3680171299
 20
6.1294099243
 30
0.0
 11
0.0604098296
 21
0.2250438977
 31
0.0
 40
0.8583287562
 41
-2.9151385733
 42
-1.6048165351
  0
ELLIPSE
  5
3A9
100
AcDbEntity
  8
0
100
AcDbEllipse
 62
7
  6
CONTINUOUS
 10
-44.4902698503
 20
4.7758810776
 30
0.0
 11
-0.3536610946
 21
0.3536610946
 31
0.0
 40
0.9996954599
 41
-0.7852458701
 42
0.7852458701
  0
ELLIPSE
  5
3AA
100
AcDbEntity
  8
0
100
AcDbEllipse
 62
7
  6
CONTINUOUS
 10
-43.3180781688
 20
-37.6870019388
 30
0.0
 11
0.2121481893
 21
0.2121481893
 31
0.0
 40
0.9999238505
 41
-3.9269527408
 42
-2.3562325664
  0
ELLIPSE
  5
3AB
100
AcDbEntity
  8
0
100
AcDbEllipse
 62
7
  6
CONTINUOUS
 10
-43.3180781688
 20
3.6386421104
 30
0.0
 11
0.2121481893
 21
-0.2121481893
 31
0.0
 40
0.9999238505
 41
2.3562325664
 42
3.9269527408
  0
ELLIPSE
  5
3AC
100
AcDbEntity
  8
0
100
AcDbEllipse
 62
7
  6
CONTINUOUS
 10
-35.3726153695
 20
-37.3939872408
 30
0.0
 11
0.1414321262
 21
-0.1414321262
 31
0.0
 40
0.9999238505
 41
-0.7853600872
 42
0.7853600872
  0
ELLIPSE
  5
3AD
100
AcDbEntity
  8
0
100
AcDbEllipse
 62
7
  6
CONTINUOUS
 10
-40.3580986504
 20
3.3456274124
 30
0.0
 11
-0.1414321262
 21
0.1414321262
 31
0.0
 40
0.9999238505
 41
-0.7853600872
 42
0.7853600872
  0
ELLIPSE
  5
3AE
100
AcDbEntity
  8
0
100
AcDbEllipse
 62
7
  6
CONTINUOUS
 10
-40.3580986504
 20
-37.3939872408
 30
0.0
 11
0.1414321262
 21
0.1414321262
 31
0.0
 40
0.9999238505
 41
-3.9269527408
 42
-2.3562325664
  0
ELLIPSE
  5
3AF
100
AcDbEntity
  8
0
100
AcDbEllipse
 62
7
  6
CONTINUOUS
 10
-34.107368274
 20
3.2768627428
 30
0.0
 11
-0.0
 21
0.25
 31
0.0
 40
0.0174550649
 41
-1.5707963268
 42
-0.0087266463
  0
ELLIPSE
  5
3B0
100
AcDbEntity
  8
0
100
AcDbEllipse
 62
7
  6
CONTINUOUS
 10
-34.1414056507
 20
-38.1034334873
 30
0.0
 11
-0.0
 21
0.2
 31
0.0
 40
0.0174550649
 41
-4.7123889804
 42
-3.6260705826
  0
ELLIPSE
  5
3B1
100
AcDbEntity
  8
0
100
AcDbEllipse
 62
7
  6
CONTINUOUS
 10
-34.057621339
 20
-38.6904160219
 30
0.0
 11
-0.0
 21
0.5
 31
0.0
 40
0.0174550649
 41
-1.5707963268
 42
-0.1727875959
  0
ELLIPSE
  5
3B2
100
AcDbEntity
  8
0
100
AcDbEllipse
 62
7
  6
CONTINUOUS
 10
-44.7688199751
 20
-17.0241799142
 30
0.0
 11
0.0
 21
498.5
 31
0.0
 40
0.0087268678
 41
-1.5369117324
 42
-1.53019585
  0
ELLIPSE
  5
3B3
100
AcDbEntity
  8
0
100
AcDbEllipse
 62
7
  6
CONTINUOUS
 10
-34.1414056507
 20
4.0550736589
 30
0.0
 11
-0.0
 21
0.2
 31
0.0
 40
0.0174550649
 41
0.484477929
 42
1.5707963268
  0
ELLIPSE
  5
3B4
100
AcDbEntity
  8
0
100
AcDbEllipse
 62
7
  6
CONTINUOUS
 10
-38.8552561442
 20
6.0757310321
 30
0.0
 11
-0.0
 21
0.5846180614
 31
0.0
 40
0.9999999884
 41
-3.4801285908
 42
-1.5797048299
  0
ELLIPSE
  5
3B5
100
AcDbEntity
  8
0
100
AcDbEllipse
 62
7
  6
CONTINUOUS
 10
-30.9618940448
 20
-17.0241799142
 30
0.0
 11
0.0
 21
498.5
 31
0.0
 40
0.0087268678
 41
1.53019585
 42
1.6113968036
  0
ELLIPSE
  5
3B6
100
AcDbEntity
  8
0
100
AcDbEllipse
 62
7
  6
CONTINUOUS
 10
-34.057621339
 20
4.6420561935
 30
0.0
 11
0.0
 21
0.5
 31
0.0
 40
0.0174550649
 41
-2.9688050576
 42
-1.5707963268
  0
ELLIPSE
  5
3B7
100
AcDbEntity
  8
0
100
AcDbEllipse
 62
7
  6
CONTINUOUS
 10
-38.8552561442
 20
-40.1240908605
 30
0.0
 11
0.0
 21
0.5846180614
 31
0.0
 40
0.9999999884
 41
-1.5618878548
 42
0.3385359052
  0
ELLIPSE
  5
3B8
100
AcDbEntity
  8
0
100
AcDbEllipse
 62
7
  6
CONTINUOUS
 10
-44.7688199751
 20
-17.0241799142
 30
0.0
 11
0.0
 21
498.5
 31
0.0
 40
0.0087268678
 41
-1.6113968036
 42
-1.6046809212
  0
ELLIPSE
  5
3B9
100
AcDbEntity
  8
0
100
AcDbEllipse
 62
7
  6
CONTINUOUS
 10
-22.6552561442
 20
-17.0199205382
 30
0.0
 11
-0.0
 21
27.9618638231
 31
0.0
 40
0.9999999884
 41
0.5730004337
 42
0.5886918085
  0
ELLIPSE
  5
3BA
100
AcDbEntity
  8
0
100
AcDbEllipse
 62
7
  6
CONTINUOUS
 10
-22.6552561442
 20
-17.0199205382
 30
0.0
 11
0.0
 21
27.9618638231
 31
0.0
 40
0.9999999884
 41
6.91786462
 42
6.9937047721
  0
ELLIPSE
  5
3BB
100
AcDbEntity
  8
0
100
AcDbEllipse
 62
7
  6
CONTINUOUS
 10
-35.1913705196
 20
3.2768627428
 30
0.0
 11
-0.0
 21
0.25
 31
0.0
 40
0.0087268678
 41
1.3781028737
 42
1.5707963268
  0
ELLIPSE
  5
3BC
100
AcDbEntity
  8
0
100
AcDbEllipse
 62
7
  6
CONTINUOUS
 10
-34.107368274
 20
2.7258200858
 30
0.0
 11
0.0
 21
0.25
 31
0.0
 40
0.0174550649
 41
-3.1415926536
 42
-1.5707963268
  0
ENDSEC
  0
SECTION
  2
OBJECTS
  0
DICTIONARY
  5
C
100
AcDbDictionary
280
0
281
1
  3
ACAD_GROUP
350
D
  3
ACAD_MLINESTYLE
350
17
  3
ACAD_LAYOUT
350
1A
  3
ACAD_PLOTSETTINGS
350
19
  3
ACAD_PLOTSTYLENAME
350
E
  0
DICTIONARY
  5
D
102
{ACAD_REACTORS
330
C
102
}
100
AcDbDictionary
280
0
281
1
  0
ACDBDICTIONARYWDFLT
  5
E
102
{ACAD_REACTORS
330
C
102
}
100
AcDbDictionary
281
1
  3
Normal
350
F
100
AcDbDictionaryWithDefault
340
F
  0
DICTIONARY
  5
17
102
{ACAD_REACTORS
330
C
102
}
100
AcDbDictionary
280
0
281
1
  3
Standard
350
18
  0
DICTIONARY
  5
19
102
{ACAD_REACTORS
330
C
102
}
100
AcDbDictionary
281
1
  0
DICTIONARY
  5
1A
102
{ACAD_REACTORS
330
C
102
}
100
AcDbDictionary
281
1
  3
Model
350
3BD
  3
Layout1
350
3BE
  0
ACDBPLACEHOLDER
  5
F
102
{ACAD_REACTORS
330
E
102
}
  0
MLINESTYLE
  5
18
102
{ACAD_REACTORS
330
17
102
}
100
AcDbMlineStyle
  2
STANDARD
 70
0
  3

 62
256
 51
90.0
 52
90.0
 71
2
 49
0.5
 62
256
  6
BYLAYER
 49
-0.5
 62
256
  6
BYLAYER
  0
LAYOUT
  5
3BD
102
{ACAD_REACTORS
330
1A
102
}
100
AcDbPlotSettings
  1

  2
none_device
  4
ISO_A4_(297.00_x_210.00_MM)
  6

 40
0.0
 41
0.0
 42
0.0
 43
0.0
 44
297.0
 45
210.0
 46
0.0
 47
0.0
 48
0.0
 49
0.0
140
0.0
141
0.0
142
1.0
143
1.0
 70
1024
 72
1
 73
0
 74
0
  7

 75
0
147
1.0
148
0.0
149
0.0
100
AcDbLayout
  1
Model
 70
0
 71
0
 10
0.0
 20
0.0
 11
297.0
 21
210.0
 12
0.0
 22
0.0
 32
0.0
 14
0.0
 24
0.0
 34
0.0
 15
0.0
 25
0.0
 35
0.0
146
0.0
 13
0.0
 23
0.0
 33
0.0
 16
1.0
 26
0.0
 36
0.0
 17
0.0
 27
1.0
 37
0.0
 76
0
330
213
345
0
346
0
  0
LAYOUT
  5
3BE
102
{ACAD_REACTORS
330
1A
102
}
100
AcDbPlotSettings
  1

  2
none_device
  4
ISO_A4_(297.00_x_210.00_MM)
  6

 40
0.0
 41
0.0
 42
0.0
 43
0.0
 44
297.0
 45
210.0
 46
0.0
 47
0.0
 48
0.0
 49
0.0
140
0.0
141
0.0
142
1.0
143
1.0
 70
0
 72
1
 73
0
 74
0
  7

 75
0
147
1.0
148
0.0
149
0.0
100
AcDbLayout
  1
Layout1
 70
0
 71
1
 10
0.0
 20
0.0
 11
297.0
 21
210.0
 12
0.0
 22
0.0
 32
0.0
 14
0.0
 24
0.0
 34
0.0
 15
0.0
 25
0.0
 35
0.0
146
0.0
 13
0.0
 23
0.0
 33
0.0
 16
1.0
 26
0.0
 36
0.0
 17
0.0
 27
1.0
 37
0.0
 76
0
330
214
345
0
346
0
  0
ENDSEC
  0
EOF
