0
SECTION
2
HEADER
9
$ACADVER
1
AC1015
9
$DWGCODEPAGE
3
ANSI_1252
9
$EXTMAX
10
431.8000000000
20
558.8000000000
30
0.0000000000
9
$EXTMIN
10
0.0000000000
20
0.0000000000
30
0.0000000000
9
$LIMMIN
10
0.0000000000
20
0.0000000000
9
$LIMMAX
10
431.8000000000
20
558.8000000000
9
$VIEWCTR
10
215.9000000000
20
279.4000000000
9
$VIEWSIZE
40
558.8000000000
9
$CLAYER
8
0
9
$LTSCALE
40
36.4254814815
9
$CELTYPE
6
BYLAYER
9
$DIMSCALE
40
1
9
$DIMASZ
40
3.0000000000
9
$DIMEXO
40
4.1392592593
9
$DIMDLI
40
25.1666962963
9
$DIMEXE
40
11.9210666667
9
$DIMCEN
40
5.9605333333
9
$DIMLFAC
40
1.0000000000
9
$DIMBLK
1
_FILLED
9
$DIMTXT
40
3.0000000000
9
$DIMTOL
70
1
9
$DIMLIM
70
0
9
$DIMTFAC
40
1.0000000000
9
$DIMTP
40
0.0100000000
9
$DIMTM
40
0.0100000000
9
$PDMODE
70
3
9
$PDSIZE
40
3.0000000000
9
$HANDSEED
5
56D
9
$MEASUREMENT
70
1
9
$INSUNITS
70
4
0
ENDSEC
0
SECTION
2
CLASSES
0
CLASS
1
ACDBDICTIONARYWDFLT
2
AcDbDictionaryWithDefault
3
AutoCAD 2000
90
0
280
0
281
0
0
CLASS
1
ACDBPLACEHOLDER
2
AcDbPlaceHolder
3
AutoCAD 2000
90
0
280
0
281
0
0
CLASS
1
LAYOUT
2
AcDbLayout
3
AutoCAD 2000
90
0
280
0
281
0
0
ENDSEC
0
SECTION
2
TABLES
0
TABLE
2
VPORT
5
8
100
AcDbSymbolTable
70
2
0
VPORT
5
1F4
100
AcDbSymbolTableRecord
100
AcDbViewportTableRecord
2
*ACTIVE
70
0
10
0.0
20
0.0
11
1.0
21
1.0
12
215.9000000000
22
279.4000000000
13
0.0
23
0.0
14
1.0
24
1.0
15
0.0
25
0.0
16
0.0
26
0.0
36
1.0
17
0.0
27
0.0
37
0.0
40
558.8000000000
41
0.7727272727
42
50.0
43
0.0
44
0.0
50
0.0
51
0.0
71
0
72
100
73
1
74
1
75
0
76
0
77
0
78
0
0
ENDTAB
0
TABLE
2
LTYPE
5
5
100
AcDbSymbolTable
70
6
0
LTYPE
5
14
100
AcDbSymbolTableRecord
100
AcDbLinetypeTableRecord
2
BYBLOCK
70
0
3

72
65
73
0
40
0.0
0
LTYPE
5
15
100
AcDbSymbolTableRecord
100
AcDbLinetypeTableRecord
2
BYLAYER
70
0
3

72
65
73
0
40
0.0
0
LTYPE
5
16
100
AcDbSymbolTableRecord
100
AcDbLinetypeTableRecord
2
CONTINUOUS
70
64
3
Solid line
72
65
73
0
40
0
0
LTYPE
5
1F5
100
AcDbSymbolTableRecord
100
AcDbLinetypeTableRecord
2
CENTER
70
64
3
____ _ ____ _ ____ _ ____ _ ____ _ ____ _ ____
72
65
73
4
40
0.6
49
0.375
74
0
49
-0.075
74
0
49
0.075
74
0
49
-0.075
74
0
0
LTYPE
5
1F6
100
AcDbSymbolTableRecord
100
AcDbLinetypeTableRecord
2
HIDDEN
70
64
3
- - - - - - - - - - - - - - - - - - - -
72
65
73
2
40
0.2
49
0.1
74
0
49
-0.1
74
0
0
LTYPE
5
1F7
100
AcDbSymbolTableRecord
100
AcDbLinetypeTableRecord
2
PHANTOM
70
64
3
_____ _ _ _____ _ _ _____ _ _ _____
72
65
73
6
40
0.8
49
0.45
74
0
49
-0.05
74
0
49
0.1
74
0
49
-0.05
74
0
49
0.1
74
0
49
-0.05
74
0
0
LTYPE
5
1F8
100
AcDbSymbolTableRecord
100
AcDbLinetypeTableRecord
2
DOT
70
64
3
. . . . . . . . . . . . . . . . . . . .
72
65
73
2
40
0.2
49
0.1
74
0
49
-0.1
74
0
0
LTYPE
5
1F9
100
AcDbSymbolTableRecord
100
AcDbLinetypeTableRecord
2
DASHED
70
64
3
- - - - - - - - - - - - - - - - - - - -
72
65
73
2
40
0.2
49
0.1
74
0
49
-0.1
74
0
0
ENDTAB
0
TABLE
2
LAYER
5
2
100
AcDbSymbolTable
70
36
0
LAYER
5
10
100
AcDbSymbolTableRecord
100
AcDbLayerTableRecord
2
0
70
0
62
7
6
CONTINUOUS
370
-3
390
F
0
LAYER
5
1FA
100
AcDbSymbolTableRecord
100
AcDbLayerTableRecord
2
DEFAULT_1
70
0
62
7
6
CENTER
370
-3
390
F
0
LAYER
5
1FB
100
AcDbSymbolTableRecord
100
AcDbLayerTableRecord
2
DEFAULT_2
70
0
62
8
6
HIDDEN
370
-3
390
F
0
LAYER
5
1FC
100
AcDbSymbolTableRecord
100
AcDbLayerTableRecord
2
DEFAULT_3
70
0
62
7
6
PHANTOM
370
-3
390
F
0
LAYER
5
1FD
100
AcDbSymbolTableRecord
100
AcDbLayerTableRecord
2
_2D_DELETED_OBJS
70
0
62
7
6
CONTINUOUS
370
-3
390
F
0
LAYER
5
1FE
100
AcDbSymbolTableRecord
100
AcDbLayerTableRecord
2
_BLACK_HOLE
70
0
62
7
6
CONTINUOUS
370
-3
390
F
0
LAYER
5
1FF
100
AcDbSymbolTableRecord
100
AcDbLayerTableRecord
2
ASSI
70
0
62
7
6
CONTINUOUS
370
-3
390
F
0
LAYER
5
200
100
AcDbSymbolTableRecord
100
AcDbLayerTableRecord
2
COORDINATE
70
0
62
7
6
CONTINUOUS
370
-3
390
F
0
LAYER
5
201
100
AcDbSymbolTableRecord
100
AcDbLayerTableRecord
2
COORD_ORIGINE
70
0
62
7
6
CONTINUOUS
370
-3
390
F
0
LAYER
5
202
100
AcDbSymbolTableRecord
100
AcDbLayerTableRecord
2
COSMETICI
70
0
62
7
6
CONTINUOUS
370
-3
390
F
0
LAYER
5
203
100
AcDbSymbolTableRecord
100
AcDbLayerTableRecord
2
CURVE
70
0
62
7
6
CONTINUOUS
370
-3
390
F
0
LAYER
5
204
100
AcDbSymbolTableRecord
100
AcDbLayerTableRecord
2
DRAFT
70
0
62
7
6
CONTINUOUS
370
-3
390
F
0
LAYER
5
205
100
AcDbSymbolTableRecord
100
AcDbLayerTableRecord
2
IGES
70
0
62
7
6
CONTINUOUS
370
-3
390
F
0
LAYER
5
206
100
AcDbSymbolTableRecord
100
AcDbLayerTableRecord
2
INC_LASER
70
0
62
7
6
CONTINUOUS
370
-3
390
F
0
LAYER
5
207
100
AcDbSymbolTableRecord
100
AcDbLayerTableRecord
2
NOTE
70
0
62
7
6
CONTINUOUS
370
-3
390
F
0
LAYER
5
208
100
AcDbSymbolTableRecord
100
AcDbLayerTableRecord
2
PIANI
70
0
62
7
6
CONTINUOUS
370
-3
390
F
0
LAYER
5
209
100
AcDbSymbolTableRecord
100
AcDbLayerTableRecord
2
PIANI_AUSILIARI
70
0
62
7
6
CONTINUOUS
370
-3
390
F
0
LAYER
5
20A
100
AcDbSymbolTableRecord
100
AcDbLayerTableRecord
2
PIANI_ORIGINE
70
0
62
7
6
CONTINUOUS
370
-3
390
F
0
LAYER
5
20B
100
AcDbSymbolTableRecord
100
AcDbLayerTableRecord
2
PUNTI
70
0
62
7
6
CONTINUOUS
370
-3
390
F
0
LAYER
5
20C
100
AcDbSymbolTableRecord
100
AcDbLayerTableRecord
2
RACCORDO
70
0
62
7
6
CONTINUOUS
370
-3
390
F
0
LAYER
5
20D
100
AcDbSymbolTableRecord
100
AcDbLayerTableRecord
2
SMUSSO
70
0
62
7
6
CONTINUOUS
370
-3
390
F
0
LAYER
5
20E
100
AcDbSymbolTableRecord
100
AcDbLayerTableRecord
2
SNAPLINE
70
0
62
7
6
CONTINUOUS
370
-3
390
F
0
LAYER
5
20F
100
AcDbSymbolTableRecord
100
AcDbLayerTableRecord
2
SUPERFICI
70
0
62
7
6
CONTINUOUS
370
-3
390
F
0
LAYER
5
210
100
AcDbSymbolTableRecord
100
AcDbLayerTableRecord
2
TRASH
70
0
62
7
6
CONTINUOUS
370
-3
390
F
0
LAYER
5
211
100
AcDbSymbolTableRecord
100
AcDbLayerTableRecord
2
XSEC_DATUMS
70
0
62
7
6
CONTINUOUS
370
-3
390
F
0
LAYER
5
212
100
AcDbSymbolTableRecord
100
AcDbLayerTableRecord
2
Z030080
70
0
62
7
6
CONTINUOUS
370
-3
390
F
0
LAYER
5
213
100
AcDbSymbolTableRecord
100
AcDbLayerTableRecord
2
Z030090
70
0
62
7
6
CONTINUOUS
370
-3
390
F
0
LAYER
5
214
100
AcDbSymbolTableRecord
100
AcDbLayerTableRecord
2
Z030100
70
0
62
7
6
CONTINUOUS
370
-3
390
F
0
LAYER
5
215
100
AcDbSymbolTableRecord
100
AcDbLayerTableRecord
2
Z030110
70
0
62
7
6
CONTINUOUS
370
-3
390
F
0
ENDTAB
0
TABLE
2
STYLE
5
3
100
AcDbSymbolTable
70
1
0
STYLE
5
11
100
AcDbSymbolTableRecord
100
AcDbTextStyleTableRecord
2
STANDARD
70
0
40
0.0
41
0.8000000000
50
0.0
71
0
42
0.2
3
txt
4

0
ENDTAB
0
TABLE
2
VIEW
5
6
100
AcDbSymbolTable
70
0
0
ENDTAB
0
TABLE
2
UCS
5
7
100
AcDbSymbolTable
70
0
0
ENDTAB
0
TABLE
2
APPID
5
9
100
AcDbSymbolTable
70
1
0
APPID
5
216
100
AcDbSymbolTableRecord
100
AcDbRegAppTableRecord
2
ACAD
70
0
0
ENDTAB
0
TABLE
2
BLOCK_RECORD
5
1
100
AcDbSymbolTable
70
0
0
BLOCK_RECORD
5
1F
100
AcDbSymbolTableRecord
100
AcDbBlockTableRecord
2
*MODEL_SPACE
0
BLOCK_RECORD
5
1B
100
AcDbSymbolTableRecord
100
AcDbBlockTableRecord
2
*PAPER_SPACE
0
ENDTAB
0
TABLE
2
DIMSTYLE
5
A
100
AcDbSymbolTable
70
1
100
AcDbDimStyleTable
71
0
0
DIMSTYLE
105
217
100
AcDbSymbolTableRecord
100
AcDbDimStyleTableRecord
2
STANDARD
70
0
3

4

40
1.0
41
3.0000000000
42
0.0625
43
0.38
44
0.18
45
0.0
46
0.0
47
0.0100000000
48
0.0100000000
140
3.0000000000
141
0.09
142
0.0
143
25.4
144
1.0000000000
145
0.0
146
1.0000000000
147
0.09
71
1
72
0
73
0
74
0
75
0
76
0
77
1
78
8
170
0
171
2
172
0
173
0
174
0
175
0
176
0
177
0
178
0
270
2
271
2
272
2
273
2
274
2
275
0
280
0
281
0
282
0
283
1
284
8
285
0
286
0
287
3
288
0
340
11
0
ENDTAB
0
ENDSEC
0
SECTION
2
BLOCKS
0
BLOCK
5
20
100
AcDbEntity
8
0
100
AcDbBlockBegin
2
*MODEL_SPACE
70
0
10
0.0
20
0.0
30
0.0
3
*MODEL_SPACE
1

0
ENDBLK
5
21
100
AcDbEntity
8
0
100
AcDbBlockEnd
0
BLOCK
5
1C
100
AcDbEntity
8
0
100
AcDbBlockBegin
2
*PAPER_SPACE
70
0
10
0.0
20
0.0
30
0.0
3
*PAPER_SPACE
1

0
ENDBLK
5
1D
100
AcDbEntity
8
0
100
AcDbBlockEnd
0
ENDSEC
0
SECTION
2
ENTITIES
0
LINE
5
218
100
AcDbEntity
8
0
100
AcDbLine
62
7
6
CONTINUOUS
10
18.2327650255
20
-17.3213345515
11
6.2327650255
21
-17.3213345515
0
LINE
5
219
100
AcDbEntity
8
0
100
AcDbLine
62
9
6
CONTINUOUS
10
18.2327650255
20
-17.2870741129
11
6.2327650255
21
-17.2870741129
0
LINE
5
21A
100
AcDbEntity
8
0
100
AcDbLine
62
7
6
CONTINUOUS
10
16.5327650255
20
-17.1995000928
11
13.6327650255
21
-17.1995000928
0
LINE
5
21B
100
AcDbEntity
8
0
100
AcDbLine
62
7
6
CONTINUOUS
10
10.8327650255
20
-17.1995000928
11
7.9327650255
21
-17.1995000928
0
LINE
5
21C
100
AcDbEntity
8
0
100
AcDbLine
62
3
6
CONTINUOUS
10
16.5327650255
20
-16.8190774863
11
13.6327650255
21
-16.8190774863
0
LINE
5
21D
100
AcDbEntity
8
0
100
AcDbLine
62
3
6
CONTINUOUS
10
10.8327650255
20
-16.8190774863
11
7.9327650255
21
-16.8190774863
0
LINE
5
21E
100
AcDbEntity
8
0
100
AcDbLine
62
9
6
CONTINUOUS
10
16.7327650255
20
-16.6213345515
11
13.4327650255
21
-16.6213345515
0
LINE
5
21F
100
AcDbEntity
8
0
100
AcDbLine
62
9
6
CONTINUOUS
10
11.0327650255
20
-16.6213345515
11
7.7327650255
21
-16.6213345515
0
LINE
5
220
100
AcDbEntity
8
0
100
AcDbLine
62
7
6
CONTINUOUS
10
1.5827707370
20
-16.3368679976
11
0.0827726429
21
-16.3368679976
0
LINE
5
221
100
AcDbEntity
8
0
100
AcDbLine
62
7
6
CONTINUOUS
10
22.8827593140
20
-16.3368679976
11
24.3827574081
21
-16.3368679976
0
LINE
5
222
100
AcDbEntity
8
0
100
AcDbLine
62
3
6
CONTINUOUS
10
16.7327650255
20
-16.3213345515
11
16.1660312603
21
-16.3213345515
0
LINE
5
223
100
AcDbEntity
8
0
100
AcDbLine
62
3
6
CONTINUOUS
10
8.2994987907
20
-16.3213345515
11
7.7327650255
21
-16.3213345515
0
LINE
5
224
100
AcDbEntity
8
0
100
AcDbLine
62
7
6
CONTINUOUS
10
24.2256618237
20
-16.2740351237
11
22.8042479661
21
-16.2740351237
0
LINE
5
225
100
AcDbEntity
8
0
100
AcDbLine
62
7
6
CONTINUOUS
10
1.6612820849
20
-16.2740351237
11
0.2398682273
21
-16.2740351237
0
LINE
5
226
100
AcDbEntity
8
0
100
AcDbLine
62
7
6
CONTINUOUS
10
7.9327650255
20
-16.1797440114
11
10.8327650255
21
-16.1797440114
0
LINE
5
227
100
AcDbEntity
8
0
100
AcDbLine
62
7
6
CONTINUOUS
10
13.6327650255
20
-16.1797440114
11
16.5327650255
21
-16.1797440114
0
LINE
5
228
100
AcDbEntity
8
0
100
AcDbLine
62
7
6
CONTINUOUS
10
6.0327650255
20
-15.5868679976
11
8.2572002553
21
-15.5868679976
0
LINE
5
229
100
AcDbEntity
8
0
100
AcDbLine
62
7
6
CONTINUOUS
10
16.2083297957
20
-15.5868679976
11
18.4327650255
21
-15.5868679976
0
LINE
5
22A
100
AcDbEntity
8
0
100
AcDbLine
62
7
6
CONTINUOUS
10
16.2074571089
20
-15.1525060065
11
16.1827650255
21
-15.1525060065
0
LINE
5
22B
100
AcDbEntity
8
0
100
AcDbLine
62
7
6
CONTINUOUS
10
8.2580729421
20
-15.1525060065
11
8.2827650255
21
-15.1525060065
0
LINE
5
22C
100
AcDbEntity
8
0
100
AcDbLine
62
7
6
CONTINUOUS
10
4.8322497020
20
28.6294547833
11
4.7327650255
21
28.5631320024
0
LINE
5
22D
100
AcDbEntity
8
0
100
AcDbLine
62
7
6
CONTINUOUS
10
6.0300449994
20
28.0309722195
11
6.0301217646
21
28.0310160838
0
LINE
5
22E
100
AcDbEntity
8
0
100
AcDbLine
62
7
6
CONTINUOUS
10
17.3270410821
20
-12.6869585879
11
17.2327650255
21
-12.7118679976
0
LINE
5
22F
100
AcDbEntity
8
0
100
AcDbLine
62
7
6
CONTINUOUS
10
18.4354082864
20
-12.7047520791
11
18.2344960660
21
-12.7334524259
0
LINE
5
230
100
AcDbEntity
8
0
100
AcDbLine
62
7
6
CONTINUOUS
10
17.6639531636
20
-13.2689839117
11
16.3537250872
21
-13.3607638740
0
LINE
5
231
100
AcDbEntity
8
0
100
AcDbLine
62
7
6
CONTINUOUS
10
16.2332404223
20
-13.3504815796
11
16.1350241062
21
-13.3573495335
0
LINE
5
232
100
AcDbEntity
8
0
100
AcDbLine
62
7
6
CONTINUOUS
10
16.2327650255
20
-13.3368679976
11
17.6628316512
21
-13.2368679976
0
LINE
5
233
100
AcDbEntity
8
0
100
AcDbLine
62
9
6
CONTINUOUS
10
7.2414538149
20
-13.8676909537
11
5.4300897776
21
-13.8689830023
0
LINE
5
234
100
AcDbEntity
8
0
100
AcDbLine
62
7
6
CONTINUOUS
10
1.9113068356
20
-14.8368679976
11
6.0327650255
21
-14.8368679976
0
LINE
5
235
100
AcDbEntity
8
0
100
AcDbLine
62
7
6
CONTINUOUS
10
18.4327650255
20
-14.8368679976
11
22.5542232154
21
-14.8368679976
0
LINE
5
236
100
AcDbEntity
8
0
100
AcDbLine
62
7
6
CONTINUOUS
10
1.9113068356
20
-14.8064981585
11
6.0327650255
21
-14.8064981585
0
LINE
5
237
100
AcDbEntity
8
0
100
AcDbLine
62
7
6
CONTINUOUS
10
18.4327650255
20
-14.8064981585
11
22.5542232154
21
-14.8064981585
0
LINE
5
238
100
AcDbEntity
8
0
100
AcDbLine
62
9
6
CONTINUOUS
10
6.0327650255
20
-14.7593394077
11
8.1221852018
21
-14.7593394077
0
LINE
5
239
100
AcDbEntity
8
0
100
AcDbLine
62
9
6
CONTINUOUS
10
16.3433448492
20
-14.7593394077
11
18.4327650255
21
-14.7593394077
0
LINE
5
23A
100
AcDbEntity
8
0
100
AcDbLine
62
7
6
CONTINUOUS
10
16.1350241062
20
-14.7499474235
11
16.0295303696
21
-14.7499474235
0
LINE
5
23B
100
AcDbEntity
8
0
100
AcDbLine
62
7
6
CONTINUOUS
10
8.4359996814
20
-14.7499474235
11
8.3305059448
21
-14.7499474235
0
LINE
5
23C
100
AcDbEntity
8
0
100
AcDbLine
62
9
6
CONTINUOUS
10
15.9827650255
20
-14.4772854162
11
8.4827650255
21
-14.4772854162
0
LINE
5
23D
100
AcDbEntity
8
0
100
AcDbLine
62
9
6
CONTINUOUS
10
6.0327650255
20
-14.0075853111
11
7.2414538149
21
-14.0075853111
0
LINE
5
23E
100
AcDbEntity
8
0
100
AcDbLine
62
9
6
CONTINUOUS
10
17.2240762361
20
-14.0075853111
11
18.4327650255
21
-14.0075853111
0
LINE
5
23F
100
AcDbEntity
8
0
100
AcDbLine
62
7
6
CONTINUOUS
10
16.2332404223
20
-13.3504815796
11
15.9827650255
21
-13.3504815796
0
LINE
5
240
100
AcDbEntity
8
0
100
AcDbLine
62
7
6
CONTINUOUS
10
8.4827650255
20
-13.3504815796
11
8.2322896287
21
-13.3504815796
0
LINE
5
241
100
AcDbEntity
8
0
100
AcDbLine
62
7
6
CONTINUOUS
10
8.2327650255
20
-13.3368679976
11
8.4827650255
21
-13.3368679976
0
LINE
5
242
100
AcDbEntity
8
0
100
AcDbLine
62
7
6
CONTINUOUS
10
15.9827650255
20
-13.3368679976
11
16.2327650255
21
-13.3368679976
0
LINE
5
243
100
AcDbEntity
8
0
100
AcDbLine
62
7
6
CONTINUOUS
10
23.8798893460
20
-13.3031907786
11
19.6332803490
21
-13.3031907786
0
LINE
5
244
100
AcDbEntity
8
0
100
AcDbLine
62
7
6
CONTINUOUS
10
4.8322497020
20
-13.3031907786
11
0.5856407051
21
-13.3031907786
0
LINE
5
245
100
AcDbEntity
8
0
100
AcDbLine
62
7
6
CONTINUOUS
10
23.8327650255
20
-13.2717747244
11
23.1327650255
21
-13.2717747244
0
LINE
5
246
100
AcDbEntity
8
0
100
AcDbLine
62
7
6
CONTINUOUS
10
1.3327650255
20
-13.2717747244
11
0.6327650255
21
-13.2717747244
0
LINE
5
247
100
AcDbEntity
8
0
100
AcDbLine
62
7
6
CONTINUOUS
10
18.4354082864
20
-13.2689839162
11
17.6639531638
21
-13.2689839162
0
LINE
5
248
100
AcDbEntity
8
0
100
AcDbLine
62
7
6
CONTINUOUS
10
6.8015768872
20
-13.2689839162
11
6.0301217646
21
-13.2689839162
0
LINE
5
249
100
AcDbEntity
8
0
100
AcDbLine
62
7
6
CONTINUOUS
10
1.4200337034
20
-13.2368679976
11
4.7327650255
21
-13.2368679976
0
LINE
5
24A
100
AcDbEntity
8
0
100
AcDbLine
62
7
6
CONTINUOUS
10
6.2549441521
20
-13.2368679976
11
6.8026983998
21
-13.2368679976
0
LINE
5
24B
100
AcDbEntity
8
0
100
AcDbLine
62
7
6
CONTINUOUS
10
17.6628316512
20
-13.2368679976
11
18.2105858989
21
-13.2368679976
0
LINE
5
24C
100
AcDbEntity
8
0
100
AcDbLine
62
7
6
CONTINUOUS
10
19.7327650255
20
-13.2368679976
11
23.0454963476
21
-13.2368679976
0
LINE
5
24D
100
AcDbEntity
8
0
100
AcDbLine
62
3
6
CONTINUOUS
10
18.2327650255
20
-13.1213345515
11
16.9766079962
21
-13.1213345515
0
LINE
5
24E
100
AcDbEntity
8
0
100
AcDbLine
62
3
6
CONTINUOUS
10
16.9652845318
20
-13.1213345515
11
16.1827650255
21
-13.1213345515
0
LINE
5
24F
100
AcDbEntity
8
0
100
AcDbLine
62
3
6
CONTINUOUS
10
6.2327650255
20
-13.1213345515
11
7.4889220548
21
-13.1213345515
0
LINE
5
250
100
AcDbEntity
8
0
100
AcDbLine
62
3
6
CONTINUOUS
10
7.5002455192
20
-13.1213345515
11
8.2827650255
21
-13.1213345515
0
LINE
5
251
100
AcDbEntity
8
0
100
AcDbLine
62
7
6
CONTINUOUS
10
24.4756694411
20
-13.1126001060
11
23.8798893460
21
-13.1126001060
0
LINE
5
252
100
AcDbEntity
8
0
100
AcDbLine
62
7
6
CONTINUOUS
10
0.5856407051
20
-13.1126001060
11
-0.0101393901
21
-13.1126001060
0
LINE
5
253
100
AcDbEntity
8
0
100
AcDbLine
62
9
6
CONTINUOUS
10
19.0354402734
20
-13.8689830023
11
17.2240762361
21
-13.8676909537
0
LINE
5
254
100
AcDbEntity
8
0
100
AcDbLine
62
7
6
CONTINUOUS
10
8.2322896287
20
-13.3504815796
11
8.3305059448
21
-13.3573495335
0
LINE
5
255
100
AcDbEntity
8
0
100
AcDbLine
62
7
6
CONTINUOUS
10
6.8026983998
20
-13.2368679976
11
8.2327650255
21
-13.3368679976
0
LINE
5
256
100
AcDbEntity
8
0
100
AcDbLine
62
7
6
CONTINUOUS
10
8.1118049638
20
-13.3607638740
11
6.8015768874
21
-13.2689839117
0
LINE
5
257
100
AcDbEntity
8
0
100
AcDbLine
62
7
6
CONTINUOUS
10
6.0301217646
20
-12.7047520791
11
6.2310339850
21
-12.7334524259
0
LINE
5
258
100
AcDbEntity
8
0
100
AcDbLine
62
7
6
CONTINUOUS
10
7.1384889689
20
-12.6869585879
11
7.2327650255
21
-12.7118679976
0
LINE
5
259
100
AcDbEntity
8
0
100
AcDbLine
62
7
6
CONTINUOUS
10
6.0300449994
20
-12.7047082147
11
6.0301217646
21
-12.7047520791
0
LINE
5
25A
100
AcDbEntity
8
0
100
AcDbLine
62
7
6
CONTINUOUS
10
4.8322497020
20
-13.3031907786
11
4.7327650255
21
-13.2368679976
0
LINE
5
25B
100
AcDbEntity
8
0
100
AcDbLine
62
9
6
CONTINUOUS
10
4.8322497020
20
27.3126125666
11
4.7374774575
21
27.2178403221
0
LINE
5
25C
100
AcDbEntity
8
0
100
AcDbLine
62
9
6
CONTINUOUS
10
5.1322455897
20
27.0126166789
11
5.0374733452
21
26.9178444344
0
LINE
5
25D
100
AcDbEntity
8
0
100
AcDbLine
62
7
6
CONTINUOUS
10
6.0301217646
20
-13.2689839162
11
6.2549441521
21
-13.2368679976
0
LINE
5
25E
100
AcDbEntity
8
0
100
AcDbLine
62
7
6
CONTINUOUS
10
8.2414157380
20
-13.3689808552
11
8.3305059448
21
-13.3573495335
0
LINE
5
25F
100
AcDbEntity
8
0
100
AcDbLine
62
7
6
CONTINUOUS
10
7.2327650255
20
-12.7118679976
11
7.1406810729
21
-12.7183071348
0
LINE
5
260
100
AcDbEntity
8
0
100
AcDbLine
62
7
6
CONTINUOUS
10
6.8741268565
20
-12.7047520791
11
7.0545600688
21
-12.6921349597
0
LINE
5
261
100
AcDbEntity
8
0
100
AcDbLine
62
7
6
CONTINUOUS
10
6.2327650255
20
-12.7213345515
11
18.2327650255
21
-12.7213345515
0
LINE
5
262
100
AcDbEntity
8
0
100
AcDbLine
62
7
6
CONTINUOUS
10
6.0301217646
20
-12.7047520791
11
6.8741268565
21
-12.7047520791
0
LINE
5
263
100
AcDbEntity
8
0
100
AcDbLine
62
7
6
CONTINUOUS
10
17.5914031945
20
-12.7047520791
11
18.4354082864
21
-12.7047520791
0
LINE
5
264
100
AcDbEntity
8
0
100
AcDbLine
62
7
6
CONTINUOUS
10
8.8152219469
20
-12.3213345515
11
15.6503081041
21
-12.3213345515
0
LINE
5
265
100
AcDbEntity
8
0
100
AcDbLine
62
9
6
CONTINUOUS
10
5.4300897776
20
-12.1047529929
11
6.1385026767
21
-12.1047529929
0
LINE
5
266
100
AcDbEntity
8
0
100
AcDbLine
62
9
6
CONTINUOUS
10
18.3270273743
20
-12.1047529929
11
19.0354402734
21
-12.1047529929
0
LINE
5
267
100
AcDbEntity
8
0
100
AcDbLine
62
9
6
CONTINUOUS
10
12.0327650255
20
-12.0868679976
11
11.7327650255
21
-12.0868679976
0
LINE
5
268
100
AcDbEntity
8
0
100
AcDbLine
62
9
6
CONTINUOUS
10
12.4327650255
20
-12.0868679976
11
12.7327650255
21
-12.0868679976
0
LINE
5
269
100
AcDbEntity
8
0
100
AcDbLine
62
7
6
CONTINUOUS
10
5.1322455897
20
-11.6863526741
11
6.1385026767
21
-11.6863526741
0
LINE
5
26A
100
AcDbEntity
8
0
100
AcDbLine
62
7
6
CONTINUOUS
10
18.3270273743
20
-11.6863526741
11
19.3332844613
21
-11.6863526741
0
LINE
5
26B
100
AcDbEntity
8
0
100
AcDbLine
62
7
6
CONTINUOUS
10
5.0327609132
20
-11.5868679976
11
7.2327650255
21
-11.5868679976
0
LINE
5
26C
100
AcDbEntity
8
0
100
AcDbLine
62
7
6
CONTINUOUS
10
17.2327650255
20
-11.5868679976
11
19.4327691378
21
-11.5868679976
0
LINE
5
26D
100
AcDbEntity
8
0
100
AcDbLine
62
7
6
CONTINUOUS
10
17.3681430532
20
-12.7213345515
11
17.2327650255
21
-12.7118679976
0
LINE
5
26E
100
AcDbEntity
8
0
100
AcDbLine
62
7
6
CONTINUOUS
10
17.4109699822
20
-12.6921349597
11
17.5914031945
21
-12.7047520791
0
LINE
5
26F
100
AcDbEntity
8
0
100
AcDbLine
62
7
6
CONTINUOUS
10
16.2241143130
20
-13.3689808552
11
16.1350241062
21
-13.3573495335
0
LINE
5
270
100
AcDbEntity
8
0
100
AcDbLine
62
7
6
CONTINUOUS
10
18.4354082864
20
-13.2689839162
11
18.2105858989
21
-13.2368679976
0
LINE
5
271
100
AcDbEntity
8
0
100
AcDbLine
62
9
6
CONTINUOUS
10
4.7327650255
20
-11.8868638853
11
4.8322497020
21
-11.9863485618
0
LINE
5
272
100
AcDbEntity
8
0
100
AcDbLine
62
9
6
CONTINUOUS
10
5.0327609132
20
-11.5868679976
11
5.1322455897
21
-11.6863526741
0
LINE
5
273
100
AcDbEntity
8
0
100
AcDbLine
62
9
6
CONTINUOUS
10
24.3827574081
20
31.6631320024
11
24.2256618237
21
31.6002991285
0
LINE
5
274
100
AcDbEntity
8
0
100
AcDbLine
62
9
6
CONTINUOUS
10
24.6327650255
20
31.4131563706
11
24.4756694411
21
31.3503234967
0
LINE
5
275
100
AcDbEntity
8
0
100
AcDbLine
62
7
6
CONTINUOUS
10
24.6327650255
20
-9.8368679976
11
23.8327650255
21
-9.8368679976
0
LINE
5
276
100
AcDbEntity
8
0
100
AcDbLine
62
7
6
CONTINUOUS
10
-0.1672349745
20
-9.8368679976
11
0.6327650255
21
-9.8368679976
0
LINE
5
277
100
AcDbEntity
8
0
100
AcDbLine
62
9
6
CONTINUOUS
10
24.3827574081
20
-16.3368679976
11
24.2256618237
21
-16.2740351237
0
LINE
5
278
100
AcDbEntity
8
0
100
AcDbLine
62
9
6
CONTINUOUS
10
24.6327650255
20
-16.0868923658
11
24.4756694411
21
-16.0240594920
0
LINE
5
279
100
AcDbEntity
8
0
100
AcDbLine
62
9
6
CONTINUOUS
10
5.1252378554
20
-7.6491439375
11
5.2326612939
21
-7.7368679976
0
LINE
5
27A
100
AcDbEntity
8
0
100
AcDbLine
62
7
6
CONTINUOUS
10
1.3327650255
20
-5.7495993197
11
1.4200337034
21
-5.8368679976
0
LINE
5
27B
100
AcDbEntity
8
0
100
AcDbLine
62
9
6
CONTINUOUS
10
2.2327650255
20
18.8631129639
11
2.2406192065
21
18.8709671449
0
LINE
5
27C
100
AcDbEntity
8
0
100
AcDbLine
62
9
6
CONTINUOUS
10
2.7327459870
20
18.3631320024
11
2.7406001680
21
18.3709861834
0
LINE
5
27D
100
AcDbEntity
8
0
100
AcDbLine
62
7
6
CONTINUOUS
10
18.4354850516
20
28.5952917853
11
18.4354082864
21
28.5952479209
0
LINE
5
27E
100
AcDbEntity
8
0
100
AcDbLine
62
7
6
CONTINUOUS
10
23.1327650255
20
28.5980387292
11
23.0454963476
21
28.5631320024
0
LINE
5
27F
100
AcDbEntity
8
0
100
AcDbLine
62
7
6
CONTINUOUS
10
5.2326612939
20
-7.7368679976
11
19.2328687571
21
-7.7368679976
0
LINE
5
280
100
AcDbEntity
8
0
100
AcDbLine
62
7
6
CONTINUOUS
10
18.9827650255
20
-7.6557081272
11
5.4827650255
21
-7.6557081272
0
LINE
5
281
100
AcDbEntity
8
0
100
AcDbLine
62
7
6
CONTINUOUS
10
5.1252378554
20
-7.6491439375
11
5.4827650255
21
-7.6491439375
0
LINE
5
282
100
AcDbEntity
8
0
100
AcDbLine
62
7
6
CONTINUOUS
10
18.9827650255
20
-7.6491439375
11
19.3402921956
21
-7.6491439375
0
LINE
5
283
100
AcDbEntity
8
0
100
AcDbLine
62
9
6
CONTINUOUS
10
5.1252378554
20
-7.3991534567
11
5.7327650255
21
-7.3991534567
0
LINE
5
284
100
AcDbEntity
8
0
100
AcDbLine
62
9
6
CONTINUOUS
10
18.7327650255
20
-7.3991534567
11
19.3402921956
21
-7.3991534567
0
LINE
5
285
100
AcDbEntity
8
0
100
AcDbLine
62
9
6
CONTINUOUS
10
5.0704795664
20
-7.3443951677
11
4.8204890856
21
-7.3443951710
0
LINE
5
286
100
AcDbEntity
8
0
100
AcDbLine
62
9
6
CONTINUOUS
10
19.3950504846
20
-7.3443951677
11
19.6450409654
21
-7.3443951677
0
LINE
5
287
100
AcDbEntity
8
0
100
AcDbLine
62
7
6
CONTINUOUS
10
23.1327650255
20
-13.2717747244
11
23.0454963476
21
-13.2368679976
0
LINE
5
288
100
AcDbEntity
8
0
100
AcDbLine
62
7
6
CONTINUOUS
10
18.4354850516
20
-13.2690277805
11
18.4354082864
21
-13.2689839162
0
LINE
5
289
100
AcDbEntity
8
0
100
AcDbLine
62
7
6
CONTINUOUS
10
1.4200337034
20
-1.8368679976
11
1.3327650255
21
-1.7495993197
0
LINE
5
28A
100
AcDbEntity
8
0
100
AcDbLine
62
9
6
CONTINUOUS
10
4.8204890856
20
-7.3443951677
11
4.7327650255
21
-7.2369717292
0
LINE
5
28B
100
AcDbEntity
8
0
100
AcDbLine
62
7
6
CONTINUOUS
10
-0.0101393901
20
-13.1126001060
11
-0.1672349745
21
-9.8368679976
0
LINE
5
28C
100
AcDbEntity
8
0
100
AcDbLine
62
7
6
CONTINUOUS
10
-0.1672349745
20
31.4131563706
11
-0.1672349745
21
-16.0868923658
0
LINE
5
28D
100
AcDbEntity
8
0
100
AcDbLine
62
7
6
CONTINUOUS
10
-0.0101393901
20
-16.0240594920
11
-0.0101393901
21
-13.1126001060
0
LINE
5
28E
100
AcDbEntity
8
0
100
AcDbLine
62
7
6
CONTINUOUS
10
-0.0101393901
20
28.4388641108
11
-0.0101393901
21
31.3503234967
0
LINE
5
28F
100
AcDbEntity
8
0
100
AcDbLine
62
7
6
CONTINUOUS
10
-0.1672349745
20
25.1631320024
11
-0.0101393901
21
28.4388641108
0
LINE
5
290
100
AcDbEntity
8
0
100
AcDbLine
62
9
6
CONTINUOUS
10
18.9827650255
20
-7.0368679976
11
18.7327650255
21
-7.0368679976
0
LINE
5
291
100
AcDbEntity
8
0
100
AcDbLine
62
9
6
CONTINUOUS
10
5.4827650255
20
-7.0368679976
11
5.7327650255
21
-7.0368679946
0
LINE
5
292
100
AcDbEntity
8
0
100
AcDbLine
62
7
6
CONTINUOUS
10
6.0327650255
20
-6.7368679976
11
18.4327650255
21
-6.7368679976
0
LINE
5
293
100
AcDbEntity
8
0
100
AcDbLine
62
9
6
CONTINUOUS
10
6.0327650255
20
-6.4868679976
11
18.4327650255
21
-6.4868679976
0
LINE
5
294
100
AcDbEntity
8
0
100
AcDbLine
62
7
6
CONTINUOUS
10
18.9827650255
20
-5.9368679976
11
5.4827650255
21
-5.9368679976
0
LINE
5
295
100
AcDbEntity
8
0
100
AcDbLine
62
7
6
CONTINUOUS
10
23.0454963476
20
-5.8368679976
11
19.7327650255
21
-5.8368679976
0
LINE
5
296
100
AcDbEntity
8
0
100
AcDbLine
62
7
6
CONTINUOUS
10
4.7327650255
20
-5.8368679976
11
1.4200337034
21
-5.8368679976
0
LINE
5
297
100
AcDbEntity
8
0
100
AcDbLine
62
7
6
CONTINUOUS
10
1.3327650255
20
-5.7491439375
11
4.8204890856
21
-5.7491439375
0
LINE
5
298
100
AcDbEntity
8
0
100
AcDbLine
62
7
6
CONTINUOUS
10
19.6450409654
20
-5.7491439375
11
23.1327650255
21
-5.7491439375
0
LINE
5
299
100
AcDbEntity
8
0
100
AcDbLine
62
9
6
CONTINUOUS
10
1.5827650255
20
-5.4991534567
11
5.0704795664
21
-5.4991534567
0
LINE
5
29A
100
AcDbEntity
8
0
100
AcDbLine
62
9
6
CONTINUOUS
10
19.3950504846
20
-5.4991534567
11
22.8827650255
21
-5.4991534567
0
LINE
5
29B
100
AcDbEntity
8
0
100
AcDbLine
62
7
6
CONTINUOUS
10
6.2327650255
20
-5.3868679976
11
18.2327650255
21
-5.3868679976
0
LINE
5
29C
100
AcDbEntity
8
0
100
AcDbLine
62
7
6
CONTINUOUS
10
0.6327650255
20
25.1631320024
11
0.5856407051
21
28.4388641108
0
LINE
5
29D
100
AcDbEntity
8
0
100
AcDbLine
62
7
6
CONTINUOUS
10
0.5856407051
20
-13.3031907786
11
0.5856407051
21
-13.1126001060
0
LINE
5
29E
100
AcDbEntity
8
0
100
AcDbLine
62
7
6
CONTINUOUS
10
0.5856407051
20
28.4388641108
11
0.5856407051
21
28.6294547833
0
LINE
5
29F
100
AcDbEntity
8
0
100
AcDbLine
62
7
6
CONTINUOUS
10
0.6327650255
20
28.5980387292
11
0.6327650255
21
25.1631320024
0
LINE
5
2A0
100
AcDbEntity
8
0
100
AcDbLine
62
7
6
CONTINUOUS
10
0.6327650255
20
-9.8368679976
11
0.6327650255
21
-13.2717747244
0
LINE
5
2A1
100
AcDbEntity
8
0
100
AcDbLine
62
7
6
CONTINUOUS
10
1.3327650255
20
-13.2717747244
11
1.3327650255
21
28.5980387292
0
LINE
5
2A2
100
AcDbEntity
8
0
100
AcDbLine
62
7
6
CONTINUOUS
10
1.4200337034
20
14.2631320024
11
1.4200337034
21
6.2131320024
0
LINE
5
2A3
100
AcDbEntity
8
0
100
AcDbLine
62
7
6
CONTINUOUS
10
1.4200337034
20
-13.2368679976
11
1.4200337034
21
-5.8368679976
0
LINE
5
2A4
100
AcDbEntity
8
0
100
AcDbLine
62
7
6
CONTINUOUS
10
1.4200337034
20
5.2131320024
11
1.4200337034
21
-0.8368679976
0
LINE
5
2A5
100
AcDbEntity
8
0
100
AcDbLine
62
7
6
CONTINUOUS
10
1.4200337034
20
-1.8368679976
11
1.4200337034
21
-4.8368679976
0
LINE
5
2A6
100
AcDbEntity
8
0
100
AcDbLine
62
7
6
CONTINUOUS
10
1.4200337034
20
15.2631320024
11
1.4200337034
21
28.5631320024
0
LINE
5
2A7
100
AcDbEntity
8
0
100
AcDbLine
62
9
6
CONTINUOUS
10
1.5827650255
20
14.9605064176
11
1.5827650255
21
14.5131320024
0
LINE
5
2A8
100
AcDbEntity
8
0
100
AcDbLine
62
9
6
CONTINUOUS
10
1.5827650255
20
5.8754174615
11
1.5827650255
21
5.5508465433
0
LINE
5
2A9
100
AcDbEntity
8
0
100
AcDbLine
62
9
6
CONTINUOUS
10
1.5827650255
20
-1.1745825385
11
1.5827650255
21
-1.4991534567
0
LINE
5
2AA
100
AcDbEntity
8
0
100
AcDbLine
62
9
6
CONTINUOUS
10
1.5827650255
20
-5.1394935824
11
1.5827650255
21
-5.4991534567
0
LINE
5
2AB
100
AcDbEntity
8
0
100
AcDbLine
62
7
6
CONTINUOUS
10
1.9113068356
20
31.3502778051
11
1.9113068356
21
30.1327621633
0
LINE
5
2AC
100
AcDbEntity
8
0
100
AcDbLine
62
7
6
CONTINUOUS
10
1.9113068356
20
-14.8064981585
11
1.9113068356
21
-16.0240138003
0
LINE
5
2AD
100
AcDbEntity
8
0
100
AcDbLine
62
7
6
CONTINUOUS
10
2.2327650255
20
18.8631129639
11
2.2327650255
21
27.6631510409
0
LINE
5
2AE
100
AcDbEntity
8
0
100
AcDbLine
62
7
6
CONTINUOUS
10
2.2406192065
20
18.8709671449
11
2.2406192065
21
27.6552968598
0
LINE
5
2AF
100
AcDbEntity
8
0
100
AcDbLine
62
7
6
CONTINUOUS
10
0.5856407051
20
-13.1126001060
11
0.6327650255
21
-9.8368679976
0
LINE
5
2B0
100
AcDbEntity
8
0
100
AcDbLine
62
7
6
CONTINUOUS
10
16.1528685255
20
30.0976249706
11
16.1350241062
21
30.0762114283
0
LINE
5
2B1
100
AcDbEntity
8
0
100
AcDbLine
62
7
6
CONTINUOUS
10
4.0577650255
20
15.5131320024
11
4.7577650255
21
16.2131320024
0
LINE
5
2B2
100
AcDbEntity
8
0
100
AcDbLine
62
9
6
CONTINUOUS
10
22.8827897762
20
31.6631320024
11
22.8042479661
21
31.6002991285
0
LINE
5
2B3
100
AcDbEntity
8
0
100
AcDbLine
62
7
6
CONTINUOUS
10
23.8798893460
20
28.6294547833
11
23.8327650255
21
28.5980387292
0
LINE
5
2B4
100
AcDbEntity
8
0
100
AcDbLine
62
7
6
CONTINUOUS
10
1.3327650255
20
15.2107716463
11
1.4200337034
21
15.2631320024
0
LINE
5
2B5
100
AcDbEntity
8
0
100
AcDbLine
62
9
6
CONTINUOUS
10
22.8827650255
20
-5.1394935824
11
18.9827650255
21
-5.1394935824
0
LINE
5
2B6
100
AcDbEntity
8
0
100
AcDbLine
62
9
6
CONTINUOUS
10
5.4827650255
20
-5.1394935824
11
1.5827650255
21
-5.1394935824
0
LINE
5
2B7
100
AcDbEntity
8
0
100
AcDbLine
62
9
6
CONTINUOUS
10
5.7327650255
20
-4.9540252851
11
6.2327650255
21
-4.9540252851
0
LINE
5
2B8
100
AcDbEntity
8
0
100
AcDbLine
62
9
6
CONTINUOUS
10
18.2327650255
20
-4.9540252851
11
18.7327650255
21
-4.9540252851
0
LINE
5
2B9
100
AcDbEntity
8
0
100
AcDbLine
62
9
6
CONTINUOUS
10
6.2327650255
20
-4.9146030074
11
18.2327650255
21
-4.9146030074
0
LINE
5
2BA
100
AcDbEntity
8
0
100
AcDbLine
62
7
6
CONTINUOUS
10
23.1327650255
20
-4.8894970094
11
18.7327650255
21
-4.8894970094
0
LINE
5
2BB
100
AcDbEntity
8
0
100
AcDbLine
62
7
6
CONTINUOUS
10
5.7327650255
20
-4.8894970094
11
1.3327650255
21
-4.8894970094
0
LINE
5
2BC
100
AcDbEntity
8
0
100
AcDbLine
62
7
6
CONTINUOUS
10
19.5722929543
20
-4.8473400688
11
18.7327650255
21
-4.8473400688
0
LINE
5
2BD
100
AcDbEntity
8
0
100
AcDbLine
62
7
6
CONTINUOUS
10
5.7327650255
20
-4.8473400688
11
4.8932370967
21
-4.8473400688
0
LINE
5
2BE
100
AcDbEntity
8
0
100
AcDbLine
62
7
6
CONTINUOUS
10
1.4200337034
20
-4.8368679976
11
4.8827650255
21
-4.8368679976
0
LINE
5
2BF
100
AcDbEntity
8
0
100
AcDbLine
62
7
6
CONTINUOUS
10
5.7327650255
20
-4.8368679976
11
6.2327650255
21
-4.8368679976
0
LINE
5
2C0
100
AcDbEntity
8
0
100
AcDbLine
62
7
6
CONTINUOUS
10
18.2327650255
20
-4.8368679976
11
18.7327650255
21
-4.8368679976
0
LINE
5
2C1
100
AcDbEntity
8
0
100
AcDbLine
62
7
6
CONTINUOUS
10
19.5827650255
20
-4.8368679976
11
23.0454963476
21
-4.8368679976
0
LINE
5
2C2
100
AcDbEntity
8
0
100
AcDbLine
62
7
6
CONTINUOUS
10
4.8327650255
20
-4.6368679976
11
6.3327650255
21
-4.6368679976
0
LINE
5
2C3
100
AcDbEntity
8
0
100
AcDbLine
62
7
6
CONTINUOUS
10
18.1327650255
20
-4.6368679976
11
19.6327650255
21
-4.6368679976
0
LINE
5
2C4
100
AcDbEntity
8
0
100
AcDbLine
62
9
6
CONTINUOUS
10
4.8327650255
20
-3.6368679976
11
6.3327650255
21
-3.6368679976
0
LINE
5
2C5
100
AcDbEntity
8
0
100
AcDbLine
62
9
6
CONTINUOUS
10
18.1327650255
20
-3.6368679976
11
19.6327650255
21
-3.6368679976
0
LINE
5
2C6
100
AcDbEntity
8
0
100
AcDbLine
62
7
6
CONTINUOUS
10
21.2327650255
20
-3.5868679976
11
19.6327650255
21
-3.5868679976
0
LINE
5
2C7
100
AcDbEntity
8
0
100
AcDbLine
62
7
6
CONTINUOUS
10
18.1327650255
20
-3.5868679976
11
16.4827650255
21
-3.5868679976
0
LINE
5
2C8
100
AcDbEntity
8
0
100
AcDbLine
62
7
6
CONTINUOUS
10
7.9827650255
20
-3.5868679976
11
6.3327650255
21
-3.5868679976
0
LINE
5
2C9
100
AcDbEntity
8
0
100
AcDbLine
62
7
6
CONTINUOUS
10
4.8327650255
20
-3.5868679976
11
3.2327650255
21
-3.5868679976
0
LINE
5
2CA
100
AcDbEntity
8
0
100
AcDbLine
62
7
6
CONTINUOUS
10
23.8798893460
20
-13.3031907786
11
23.8327650255
21
-13.2717747244
0
LINE
5
2CB
100
AcDbEntity
8
0
100
AcDbLine
62
9
6
CONTINUOUS
10
22.8827897762
20
-16.3368679976
11
22.8042479661
21
-16.2740351237
0
LINE
5
2CC
100
AcDbEntity
8
0
100
AcDbLine
62
7
6
CONTINUOUS
10
16.1528685255
20
-14.7713609659
11
16.1350241062
21
-14.7499474235
0
LINE
5
2CD
100
AcDbEntity
8
0
100
AcDbLine
62
7
6
CONTINUOUS
10
3.2327650255
20
14.3131320024
11
3.2327650255
21
-3.5868679976
0
LINE
5
2CE
100
AcDbEntity
8
0
100
AcDbLine
62
7
6
CONTINUOUS
10
3.2827650255
20
17.6131320024
11
3.2827650255
21
10.7131320024
0
LINE
5
2CF
100
AcDbEntity
8
0
100
AcDbLine
62
7
6
CONTINUOUS
10
3.3327650255
20
7.0131320024
11
3.3327650255
21
10.6131320024
0
LINE
5
2D0
100
AcDbEntity
8
0
100
AcDbLine
62
9
6
CONTINUOUS
10
3.5827650255
20
17.9131320024
11
3.5827650255
21
11.0131320024
0
LINE
5
2D1
100
AcDbEntity
8
0
100
AcDbLine
62
9
6
CONTINUOUS
10
4.0327650255
20
6.9131320024
11
4.0327650255
21
-3.5868679976
0
LINE
5
2D2
100
AcDbEntity
8
0
100
AcDbLine
62
7
6
CONTINUOUS
10
4.0577650255
20
10.6131320024
11
4.0577650255
21
15.5131320024
0
LINE
5
2D3
100
AcDbEntity
8
0
100
AcDbLine
62
7
6
CONTINUOUS
10
4.0827650255
20
15.5381320024
11
4.0827650255
21
16.4131320024
0
LINE
5
2D4
100
AcDbEntity
8
0
100
AcDbLine
62
7
6
CONTINUOUS
10
3.4827650255
20
10.7131320024
11
4.0577650255
21
12.4381320024
0
LINE
5
2D5
100
AcDbEntity
8
0
100
AcDbLine
62
7
6
CONTINUOUS
10
17.3270410821
20
27.0074080590
11
17.2374774575
21
26.9178444344
0
LINE
5
2D6
100
AcDbEntity
8
0
100
AcDbLine
62
7
6
CONTINUOUS
10
8.9906192065
20
18.3709861834
11
8.9827650255
21
18.3631320024
0
LINE
5
2D7
100
AcDbEntity
8
0
100
AcDbLine
62
7
6
CONTINUOUS
10
23.0454963476
20
-1.8368679976
11
21.2327650255
21
-1.8368679976
0
LINE
5
2D8
100
AcDbEntity
8
0
100
AcDbLine
62
7
6
CONTINUOUS
10
1.4200337034
20
-1.8368679976
11
3.2327650255
21
-1.8368679976
0
LINE
5
2D9
100
AcDbEntity
8
0
100
AcDbLine
62
7
6
CONTINUOUS
10
7.9827650255
20
-1.7868679976
11
16.4827650255
21
-1.7868679976
0
LINE
5
2DA
100
AcDbEntity
8
0
100
AcDbLine
62
7
6
CONTINUOUS
10
1.3327650255
20
-1.7491439375
11
3.2327650255
21
-1.7491439375
0
LINE
5
2DB
100
AcDbEntity
8
0
100
AcDbLine
62
7
6
CONTINUOUS
10
21.2327650255
20
-1.7491439375
11
23.1327650255
21
-1.7491439375
0
LINE
5
2DC
100
AcDbEntity
8
0
100
AcDbLine
62
7
6
CONTINUOUS
10
17.2327650255
20
-11.5868679976
11
17.3270410821
21
-11.6811440542
0
LINE
5
2DD
100
AcDbEntity
8
0
100
AcDbLine
62
7
6
CONTINUOUS
10
1.4200337034
20
5.2131320024
11
1.3327650255
21
5.3004006803
0
LINE
5
2DE
100
AcDbEntity
8
0
100
AcDbLine
62
7
6
CONTINUOUS
10
6.8741268565
20
-12.7047520791
11
6.8747059292
21
-12.7213345515
0
LINE
5
2DF
100
AcDbEntity
8
0
100
AcDbLine
62
7
6
CONTINUOUS
10
4.7327650255
20
-13.2368679976
11
4.7327650255
21
-11.8868638853
0
LINE
5
2E0
100
AcDbEntity
8
0
100
AcDbLine
62
7
6
CONTINUOUS
10
4.7327650255
20
-7.2369717292
11
4.7327650255
21
-5.8368679976
0
LINE
5
2E1
100
AcDbEntity
8
0
100
AcDbLine
62
7
6
CONTINUOUS
10
4.7327650255
20
28.1631320024
11
4.7327650255
21
28.5631320024
0
LINE
5
2E2
100
AcDbEntity
8
0
100
AcDbLine
62
7
6
CONTINUOUS
10
4.7374774575
20
27.2178403221
11
4.7374774575
21
28.1552778214
0
LINE
5
2E3
100
AcDbEntity
8
0
100
AcDbLine
62
7
6
CONTINUOUS
10
4.8204890856
20
-5.7491439375
11
4.8204890856
21
-7.3443951677
0
LINE
5
2E4
100
AcDbEntity
8
0
100
AcDbLine
62
7
6
CONTINUOUS
10
4.8322497020
20
-13.3031907786
11
4.8322497020
21
-11.9863485618
0
LINE
5
2E5
100
AcDbEntity
8
0
100
AcDbLine
62
7
6
CONTINUOUS
10
4.8322497020
20
27.3126125666
11
4.8322497020
21
28.6294547833
0
LINE
5
2E6
100
AcDbEntity
8
0
100
AcDbLine
62
7
6
CONTINUOUS
10
4.8327650255
20
-3.5868679976
11
4.8327650255
21
-4.6368679976
0
LINE
5
2E7
100
AcDbEntity
8
0
100
AcDbLine
62
7
6
CONTINUOUS
10
4.8827650255
20
-4.6368679976
11
4.8827650255
21
-4.8368679976
0
LINE
5
2E8
100
AcDbEntity
8
0
100
AcDbLine
62
7
6
CONTINUOUS
10
4.8932370967
20
-4.6368679976
11
4.8932370967
21
-4.8473400688
0
LINE
5
2E9
100
AcDbEntity
8
0
100
AcDbLine
62
9
6
CONTINUOUS
10
5.0704795664
20
-5.4991534567
11
5.0704795664
21
-7.3443951677
0
LINE
5
2EA
100
AcDbEntity
8
0
100
AcDbLine
62
9
6
CONTINUOUS
10
5.1252378554
20
-7.3991534567
11
5.1252378554
21
-7.6491439375
0
LINE
5
2EB
100
AcDbEntity
8
0
100
AcDbLine
62
9
6
CONTINUOUS
10
5.4300897776
20
-13.8689830023
11
5.4300897776
21
-12.1047529929
0
LINE
5
2EC
100
AcDbEntity
8
0
100
AcDbLine
62
9
6
CONTINUOUS
10
5.4300897776
20
27.4310169977
11
5.4300897776
21
29.1952470071
0
LINE
5
2ED
100
AcDbEntity
8
0
100
AcDbLine
62
9
6
CONTINUOUS
10
5.4827650255
20
-5.9368679976
11
5.4827650255
21
-5.1394935824
0
LINE
5
2EE
100
AcDbEntity
8
0
100
AcDbLine
62
9
6
CONTINUOUS
10
5.4827650255
20
-7.0368679976
11
5.4827650255
21
-7.6491439375
0
LINE
5
2EF
100
AcDbEntity
8
0
100
AcDbLine
62
7
6
CONTINUOUS
10
5.7327650255
20
6.9131320024
11
5.7327650255
21
4.5131320024
0
LINE
5
2F0
100
AcDbEntity
8
0
100
AcDbLine
62
7
6
CONTINUOUS
10
5.7327650255
20
-7.3991534567
11
5.7327650255
21
-7.0368679976
0
LINE
5
2F1
100
AcDbEntity
8
0
100
AcDbLine
62
7
6
CONTINUOUS
10
5.7327650255
20
-4.8851697033
11
5.7327650255
21
-4.6368679976
0
LINE
5
2F2
100
AcDbEntity
8
0
100
AcDbLine
62
7
6
CONTINUOUS
10
5.7327650255
20
-5.6868679976
11
5.7327650255
21
-4.8894901554
0
LINE
5
2F3
100
AcDbEntity
8
0
100
AcDbLine
62
7
6
CONTINUOUS
10
5.8827650255
20
16.4131320024
11
5.8827650255
21
16.2131320024
0
LINE
5
2F4
100
AcDbEntity
8
0
100
AcDbLine
62
9
6
CONTINUOUS
10
6.0300449994
20
-13.2690277805
11
6.0300449994
21
-12.7047082147
0
LINE
5
2F5
100
AcDbEntity
8
0
100
AcDbLine
62
9
6
CONTINUOUS
10
6.0300449994
20
28.0309722195
11
6.0300449994
21
28.5952917853
0
LINE
5
2F6
100
AcDbEntity
8
0
100
AcDbLine
62
7
6
CONTINUOUS
10
6.0327650255
20
30.9131320024
11
6.0327650255
21
30.1398350267
0
LINE
5
2F7
100
AcDbEntity
8
0
100
AcDbLine
62
7
6
CONTINUOUS
10
6.0327650255
20
-15.5868679976
11
6.0327650255
21
-14.8135710219
0
LINE
5
2F8
100
AcDbEntity
8
0
100
AcDbLine
62
7
6
CONTINUOUS
10
6.0327650255
20
-14.8064981585
11
6.0327650255
21
-14.0075853111
0
LINE
5
2F9
100
AcDbEntity
8
0
100
AcDbLine
62
9
6
CONTINUOUS
10
6.0327650255
20
-6.4868679976
11
6.0327650255
21
-6.7368679976
0
LINE
5
2FA
100
AcDbEntity
8
0
100
AcDbLine
62
9
6
CONTINUOUS
10
6.0327650254
20
16.2131320024
11
6.0327650254
21
16.2631320024
0
LINE
5
2FB
100
AcDbEntity
8
0
100
AcDbLine
62
7
6
CONTINUOUS
10
6.0327650255
20
29.3338493159
11
6.0327650255
21
30.1327621633
0
LINE
5
2FC
100
AcDbEntity
8
0
100
AcDbLine
62
9
6
CONTINUOUS
10
6.1385026767
20
27.4310169977
11
6.1385026767
21
27.0126166789
0
LINE
5
2FD
100
AcDbEntity
8
0
100
AcDbLine
62
9
6
CONTINUOUS
10
6.1385026767
20
-11.6863526741
11
6.1385026767
21
-12.1047529929
0
LINE
5
2FE
100
AcDbEntity
8
0
100
AcDbLine
62
7
6
CONTINUOUS
10
6.8741268565
20
28.0310160838
11
6.8747059292
21
28.0475985563
0
LINE
5
2FF
100
AcDbEntity
8
0
100
AcDbLine
62
9
6
CONTINUOUS
10
21.7327840640
20
28.1631320024
11
21.7249298830
21
28.1552778214
0
LINE
5
300
100
AcDbEntity
8
0
100
AcDbLine
62
9
6
CONTINUOUS
10
22.2327650255
20
27.6631510409
11
22.2249108445
21
27.6552968598
0
LINE
5
301
100
AcDbEntity
8
0
100
AcDbLine
62
7
6
CONTINUOUS
10
1.4200337034
20
6.2131320024
11
1.3327650255
21
6.1258633245
0
LINE
5
302
100
AcDbEntity
8
0
100
AcDbLine
62
9
6
CONTINUOUS
10
1.5827650255
20
-1.4991534567
11
3.2327650255
21
-1.4991534567
0
LINE
5
303
100
AcDbEntity
8
0
100
AcDbLine
62
9
6
CONTINUOUS
10
21.2327650255
20
-1.4991534567
11
22.8827650255
21
-1.4991534567
0
LINE
5
304
100
AcDbEntity
8
0
100
AcDbLine
62
9
6
CONTINUOUS
10
22.8827650255
20
-1.1745825385
11
21.2327650255
21
-1.1745825385
0
LINE
5
305
100
AcDbEntity
8
0
100
AcDbLine
62
9
6
CONTINUOUS
10
3.2327650255
20
-1.1745825385
11
1.5827650255
21
-1.1745825385
0
LINE
5
306
100
AcDbEntity
8
0
100
AcDbLine
62
7
6
CONTINUOUS
10
23.1327650255
20
-0.9245920577
11
21.2327650255
21
-0.9245920577
0
LINE
5
307
100
AcDbEntity
8
0
100
AcDbLine
62
7
6
CONTINUOUS
10
3.2327650255
20
-0.9245920577
11
1.3327650255
21
-0.9245920577
0
LINE
5
308
100
AcDbEntity
8
0
100
AcDbLine
62
7
6
CONTINUOUS
10
23.0454963476
20
-0.8368679976
11
21.2327650255
21
-0.8368679976
0
LINE
5
309
100
AcDbEntity
8
0
100
AcDbLine
62
7
6
CONTINUOUS
10
1.4200337034
20
-0.8368679976
11
3.2327650255
21
-0.8368679976
0
LINE
5
30A
100
AcDbEntity
8
0
100
AcDbLine
62
7
6
CONTINUOUS
10
3.4327650255
20
6.9131320024
11
3.3327650255
21
7.0131320024
0
LINE
5
30B
100
AcDbEntity
8
0
100
AcDbLine
62
7
6
CONTINUOUS
10
6.8015768872
20
28.5952479209
11
6.8026983998
21
28.5631320024
0
LINE
5
30C
100
AcDbEntity
8
0
100
AcDbLine
62
7
6
CONTINUOUS
10
8.2572002553
20
-15.5868679976
11
8.2414157380
21
-14.9285453768
0
LINE
5
30D
100
AcDbEntity
8
0
100
AcDbLine
62
7
6
CONTINUOUS
10
6.2327650255
20
32.6475985563
11
6.2327650255
21
30.9131320024
0
LINE
5
30E
100
AcDbEntity
8
0
100
AcDbLine
62
7
6
CONTINUOUS
10
6.2327650255
20
28.4475985563
11
6.2327650255
21
28.0475985563
0
LINE
5
30F
100
AcDbEntity
8
0
100
AcDbLine
62
7
6
CONTINUOUS
10
6.2327650255
20
-17.3213345515
11
6.2327650255
21
-15.5868679976
0
LINE
5
310
100
AcDbEntity
8
0
100
AcDbLine
62
9
6
CONTINUOUS
10
6.2327650255
20
6.9131320024
11
6.2327650255
21
4.5131320024
0
LINE
5
311
100
AcDbEntity
8
0
100
AcDbLine
62
7
6
CONTINUOUS
10
6.2327650255
20
-5.3868679976
11
6.2327650255
21
-4.6368679976
0
LINE
5
312
100
AcDbEntity
8
0
100
AcDbLine
62
7
6
CONTINUOUS
10
6.2327650255
20
-12.7213345515
11
6.2327650255
21
-13.1213345515
0
LINE
5
313
100
AcDbEntity
8
0
100
AcDbLine
62
7
6
CONTINUOUS
10
6.2549441521
20
28.5631320024
11
6.2549441521
21
28.4475985563
0
LINE
5
314
100
AcDbEntity
8
0
100
AcDbLine
62
7
6
CONTINUOUS
10
6.2549441521
20
-13.1213345515
11
6.2549441521
21
-13.2368679976
0
LINE
5
315
100
AcDbEntity
8
0
100
AcDbLine
62
7
6
CONTINUOUS
10
6.3327650255
20
-3.5868679976
11
6.3327650255
21
-4.6368679976
0
LINE
5
316
100
AcDbEntity
8
0
100
AcDbLine
62
7
6
CONTINUOUS
10
6.7827650255
20
16.4131320024
11
6.7827650255
21
16.2131320024
0
LINE
5
317
100
AcDbEntity
8
0
100
AcDbLine
62
7
6
CONTINUOUS
10
7.1384889689
20
28.0132225927
11
7.1384889689
21
27.0074080590
0
LINE
5
318
100
AcDbEntity
8
0
100
AcDbLine
62
7
6
CONTINUOUS
10
7.1384889689
20
-11.6811440542
11
7.1384889689
21
-12.6869585879
0
LINE
5
319
100
AcDbEntity
8
0
100
AcDbLine
62
9
6
CONTINUOUS
10
7.1890396322
20
28.4475985563
11
7.1890396322
21
28.0475985563
0
LINE
5
31A
100
AcDbEntity
8
0
100
AcDbLine
62
9
6
CONTINUOUS
10
7.1890396322
20
-12.7213345515
11
7.1890396322
21
-13.1213345515
0
LINE
5
31B
100
AcDbEntity
8
0
100
AcDbLine
62
7
6
CONTINUOUS
10
7.2280525935
20
28.0368868941
11
7.2280525935
21
26.9178444344
0
LINE
5
31C
100
AcDbEntity
8
0
100
AcDbLine
62
7
6
CONTINUOUS
10
7.2327650255
20
-11.5868679976
11
7.2327650255
21
-12.7118679976
0
LINE
5
31D
100
AcDbEntity
8
0
100
AcDbLine
62
9
6
CONTINUOUS
10
7.2414538149
20
29.3338493159
11
7.2414538149
21
29.1939549584
0
LINE
5
31E
100
AcDbEntity
8
0
100
AcDbLine
62
9
6
CONTINUOUS
10
7.2414538149
20
-13.8676909537
11
7.2414538149
21
-14.0075853111
0
LINE
5
31F
100
AcDbEntity
8
0
100
AcDbLine
62
7
6
CONTINUOUS
10
7.4890396322
20
-13.1213345515
11
7.4890396322
21
-12.7213345515
0
LINE
5
320
100
AcDbEntity
8
0
100
AcDbLine
62
7
6
CONTINUOUS
10
7.4890396322
20
28.0475985563
11
7.4890396322
21
28.4475985563
0
LINE
5
321
100
AcDbEntity
8
0
100
AcDbLine
62
7
6
CONTINUOUS
10
7.7327650255
20
-17.1376966939
11
7.7327650255
21
-16.2415474102
0
LINE
5
322
100
AcDbEntity
8
0
100
AcDbLine
62
7
6
CONTINUOUS
10
7.7327650255
20
31.5678114150
11
7.7327650255
21
32.4639606987
0
LINE
5
323
100
AcDbEntity
8
0
100
AcDbLine
62
9
6
CONTINUOUS
10
7.9327650255
20
32.5257640976
11
7.9327650255
21
32.1453414911
0
LINE
5
324
100
AcDbEntity
8
0
100
AcDbLine
62
9
6
CONTINUOUS
10
7.9327650255
20
-17.1995000928
11
7.9327650255
21
-16.8190774863
0
LINE
5
325
100
AcDbEntity
8
0
100
AcDbLine
62
7
6
CONTINUOUS
10
7.9827650255
20
-1.7868679976
11
7.9827650255
21
-3.5868679976
0
LINE
5
326
100
AcDbEntity
8
0
100
AcDbLine
62
7
6
CONTINUOUS
10
8.2572002553
20
30.9131320024
11
8.2414157380
21
30.2548093815
0
LINE
5
327
100
AcDbEntity
8
0
100
AcDbLine
62
7
6
CONTINUOUS
10
6.8015768874
20
-13.2689839117
11
6.8026983998
21
-13.2368679976
0
LINE
5
328
100
AcDbEntity
8
0
100
AcDbLine
62
7
6
CONTINUOUS
10
14.4818923387
20
18.7631320024
11
14.4749108445
21
18.7561505082
0
LINE
5
329
100
AcDbEntity
8
0
100
AcDbLine
62
7
6
CONTINUOUS
10
23.0454963476
20
-4.8368679976
11
23.1327650255
21
-4.8892283537
0
LINE
5
32A
100
AcDbEntity
8
0
100
AcDbLine
62
7
6
CONTINUOUS
10
8.2316594467
20
28.6947916381
11
8.2327650255
21
28.6631320024
0
LINE
5
32B
100
AcDbEntity
8
0
100
AcDbLine
62
9
6
CONTINUOUS
10
8.2414157380
20
30.2548093815
11
8.2414157380
21
28.6945631915
0
LINE
5
32C
100
AcDbEntity
8
0
100
AcDbLine
62
9
6
CONTINUOUS
10
8.2414157380
20
-13.3689808552
11
8.2414157380
21
-14.9285453768
0
LINE
5
32D
100
AcDbEntity
8
0
100
AcDbLine
62
7
6
CONTINUOUS
10
8.2580729421
20
-14.8368679976
11
8.2580729421
21
-15.5868679976
0
LINE
5
32E
100
AcDbEntity
8
0
100
AcDbLine
62
7
6
CONTINUOUS
10
8.2580729421
20
30.1631320024
11
8.2580729421
21
30.9131320024
0
LINE
5
32F
100
AcDbEntity
8
0
100
AcDbLine
62
9
6
CONTINUOUS
10
8.2827650255
20
30.4787700113
11
8.2827650255
21
30.0983474048
0
LINE
5
330
100
AcDbEntity
8
0
100
AcDbLine
62
9
6
CONTINUOUS
10
8.2827650255
20
-15.1525060065
11
8.2827650255
21
-14.7720834000
0
LINE
5
331
100
AcDbEntity
8
0
100
AcDbLine
62
7
6
CONTINUOUS
10
8.2827650255
20
-12.7213345515
11
8.2827650255
21
-13.1213345515
0
LINE
5
332
100
AcDbEntity
8
0
100
AcDbLine
62
7
6
CONTINUOUS
10
8.2827650255
20
28.0475985563
11
8.2827650255
21
28.4475985563
0
LINE
5
333
100
AcDbEntity
8
0
100
AcDbLine
62
7
6
CONTINUOUS
10
8.3305059448
20
-14.7499474235
11
8.3305059448
21
-13.3573495335
0
LINE
5
334
100
AcDbEntity
8
0
100
AcDbLine
62
7
6
CONTINUOUS
10
8.3305059448
20
28.6767455844
11
8.3305059448
21
30.0762114283
0
LINE
5
335
100
AcDbEntity
8
0
100
AcDbLine
62
7
6
CONTINUOUS
10
8.4827650255
20
-12.8151087767
11
8.4827650255
21
-15.0907026077
0
LINE
5
336
100
AcDbEntity
8
0
100
AcDbLine
62
7
6
CONTINUOUS
10
8.4827650255
20
28.1413727814
11
8.4827650255
21
30.4169666124
0
LINE
5
337
100
AcDbEntity
8
0
100
AcDbLine
62
7
6
CONTINUOUS
10
8.5827650255
20
15.5881320024
11
8.5827650255
21
16.4131320024
0
LINE
5
338
100
AcDbEntity
8
0
100
AcDbLine
62
7
6
CONTINUOUS
10
8.6577650255
20
15.5131320024
11
8.6577650255
21
10.6131320024
0
LINE
5
339
100
AcDbEntity
8
0
100
AcDbLine
62
7
6
CONTINUOUS
10
8.8152219469
20
28.0475985563
11
8.8152219469
21
27.6475985563
0
LINE
5
33A
100
AcDbEntity
8
0
100
AcDbLine
62
7
6
CONTINUOUS
10
8.8152219469
20
-12.7213345515
11
8.8152219469
21
-12.3213345515
0
LINE
5
33B
100
AcDbEntity
8
0
100
AcDbLine
62
7
6
CONTINUOUS
10
8.8827650255
20
12.1631320024
11
8.8827650255
21
10.6131320024
0
LINE
5
33C
100
AcDbEntity
8
0
100
AcDbLine
62
7
6
CONTINUOUS
10
8.8939617441
20
-12.3213345515
11
8.8939617441
21
-12.7213345515
0
LINE
5
33D
100
AcDbEntity
8
0
100
AcDbLine
62
7
6
CONTINUOUS
10
8.8939617441
20
27.6475985563
11
8.8939617441
21
28.0475985563
0
LINE
5
33E
100
AcDbEntity
8
0
100
AcDbLine
62
7
6
CONTINUOUS
10
8.9827650255
20
18.3631320024
11
8.9827650255
21
17.9131320024
0
LINE
5
33F
100
AcDbEntity
8
0
100
AcDbLine
62
7
6
CONTINUOUS
10
8.9906192065
20
18.3709861834
11
8.9906192065
21
24.8902412290
0
LINE
5
340
100
AcDbEntity
8
0
100
AcDbLine
62
7
6
CONTINUOUS
10
9.3827650255
20
10.6131320024
11
9.3827650255
21
7.0131320024
0
LINE
5
341
100
AcDbEntity
8
0
100
AcDbLine
62
7
6
CONTINUOUS
10
9.6077650255
20
12.5131320024
11
9.6077650255
21
14.9131320024
0
LINE
5
342
100
AcDbEntity
8
0
100
AcDbLine
62
7
6
CONTINUOUS
10
9.9749108445
20
27.6475985563
11
9.9749108445
21
24.8902412290
0
LINE
5
343
100
AcDbEntity
8
0
100
AcDbLine
62
7
6
CONTINUOUS
10
9.9836377123
20
18.7631320024
11
9.9836377123
21
27.6475985563
0
LINE
5
344
100
AcDbEntity
8
0
100
AcDbLine
62
7
6
CONTINUOUS
10
8.2322896287
20
-13.3504815796
11
8.2327650255
21
-13.3368679976
0
LINE
5
345
100
AcDbEntity
8
0
100
AcDbLine
62
7
6
CONTINUOUS
10
19.7327650255
20
28.1631320024
11
19.7280525935
21
28.1552778214
0
LINE
5
346
100
AcDbEntity
8
0
100
AcDbLine
62
7
6
CONTINUOUS
10
15.8077650255
20
15.5131320024
11
16.5077650255
21
16.2131320024
0
LINE
5
347
100
AcDbEntity
8
0
100
AcDbLine
62
7
6
CONTINUOUS
10
19.6450409654
20
-5.7491439375
11
19.7327650255
21
-5.8368679976
0
LINE
5
348
100
AcDbEntity
8
0
100
AcDbLine
62
7
6
CONTINUOUS
10
9.9906192065
20
17.9131320024
11
9.9906192065
21
18.7561505082
0
LINE
5
349
100
AcDbEntity
8
0
100
AcDbLine
62
7
6
CONTINUOUS
10
10.1827650255
20
11.8631320024
11
10.1827650255
21
13.2631320024
0
LINE
5
34A
100
AcDbEntity
8
DEFAULT_3
100
AcDbLine
62
8
6
PHANTOM
10
10.4827650255
20
18.5633808927
11
10.4827650255
21
18.8131320024
0
LINE
5
34B
100
AcDbEntity
8
0
100
AcDbLine
62
9
6
CONTINUOUS
10
10.8327650255
20
32.5257640976
11
10.8327650255
21
32.1453414911
0
LINE
5
34C
100
AcDbEntity
8
0
100
AcDbLine
62
9
6
CONTINUOUS
10
10.8327650255
20
-17.1995000928
11
10.8327650255
21
-16.8190774863
0
LINE
5
34D
100
AcDbEntity
8
0
100
AcDbLine
62
7
6
CONTINUOUS
10
11.0327650255
20
32.4639606987
11
11.0327650255
21
31.5678114150
0
LINE
5
34E
100
AcDbEntity
8
0
100
AcDbLine
62
7
6
CONTINUOUS
10
11.0327650255
20
-16.2415474102
11
11.0327650255
21
-17.1376966939
0
LINE
5
34F
100
AcDbEntity
8
0
100
AcDbLine
62
7
6
CONTINUOUS
10
11.7327650255
20
-12.0868679976
11
11.7327650255
21
-12.3213345515
0
LINE
5
350
100
AcDbEntity
8
0
100
AcDbLine
62
7
6
CONTINUOUS
10
1.3327650255
20
-0.9241366755
11
1.4200337034
21
-0.8368679976
0
LINE
5
351
100
AcDbEntity
8
0
100
AcDbLine
62
7
6
CONTINUOUS
10
9.3827650255
20
7.0131320024
11
9.2827650255
21
6.9131320024
0
LINE
5
352
100
AcDbEntity
8
0
100
AcDbLine
62
7
6
CONTINUOUS
10
5.7327650255
20
4.5131320024
11
18.7327650255
21
4.5131320024
0
LINE
5
353
100
AcDbEntity
8
0
100
AcDbLine
62
7
6
CONTINUOUS
10
23.0454963476
20
5.2131320024
11
21.2327650255
21
5.2131320024
0
LINE
5
354
100
AcDbEntity
8
0
100
AcDbLine
62
7
6
CONTINUOUS
10
1.4200337034
20
5.2131320024
11
3.2327650255
21
5.2131320024
0
LINE
5
355
100
AcDbEntity
8
0
100
AcDbLine
62
7
6
CONTINUOUS
10
1.3327650255
20
5.3008560625
11
3.2327650255
21
5.3008560625
0
LINE
5
356
100
AcDbEntity
8
0
100
AcDbLine
62
7
6
CONTINUOUS
10
21.2327650255
20
5.3008560625
11
23.1327650255
21
5.3008560625
0
LINE
5
357
100
AcDbEntity
8
0
100
AcDbLine
62
9
6
CONTINUOUS
10
1.5827650255
20
5.5508465433
11
3.2327650255
21
5.5508465433
0
LINE
5
358
100
AcDbEntity
8
0
100
AcDbLine
62
9
6
CONTINUOUS
10
21.2327650255
20
5.5508465433
11
22.8827650255
21
5.5508465433
0
LINE
5
359
100
AcDbEntity
8
0
100
AcDbLine
62
9
6
CONTINUOUS
10
22.8827650255
20
5.8754174615
11
21.2327650255
21
5.8754174615
0
LINE
5
35A
100
AcDbEntity
8
0
100
AcDbLine
62
9
6
CONTINUOUS
10
3.2327650255
20
5.8754174615
11
1.5827650255
21
5.8754174615
0
LINE
5
35B
100
AcDbEntity
8
0
100
AcDbLine
62
9
6
CONTINUOUS
10
12.0327650255
20
-12.0868679976
11
12.0327650255
21
-12.3213345515
0
LINE
5
35C
100
AcDbEntity
8
0
100
AcDbLine
62
9
6
CONTINUOUS
10
12.4327650255
20
-12.3213345515
11
12.4327650255
21
-12.0868679976
0
LINE
5
35D
100
AcDbEntity
8
0
100
AcDbLine
62
7
6
CONTINUOUS
10
12.7327650255
20
-12.3213345515
11
12.7327650255
21
-12.0868679976
0
LINE
5
35E
100
AcDbEntity
8
0
100
AcDbLine
62
7
6
CONTINUOUS
10
13.4327650255
20
-17.1376966939
11
13.4327650255
21
-16.2415474102
0
LINE
5
35F
100
AcDbEntity
8
0
100
AcDbLine
62
7
6
CONTINUOUS
10
13.4327650255
20
31.5678114150
11
13.4327650255
21
32.4639606987
0
LINE
5
360
100
AcDbEntity
8
0
100
AcDbLine
62
9
6
CONTINUOUS
10
13.6327650255
20
32.5257640976
11
13.6327650255
21
32.1453414911
0
LINE
5
361
100
AcDbEntity
8
0
100
AcDbLine
62
9
6
CONTINUOUS
10
13.6327650255
20
-17.1995000928
11
13.6327650255
21
-16.8190774863
0
LINE
5
362
100
AcDbEntity
8
0
100
AcDbLine
62
7
6
CONTINUOUS
10
23.1327650255
20
6.1254079423
11
21.2327650255
21
6.1254079423
0
LINE
5
363
100
AcDbEntity
8
0
100
AcDbLine
62
7
6
CONTINUOUS
10
3.2327650255
20
6.1254079423
11
1.3327650255
21
6.1254079423
0
LINE
5
364
100
AcDbEntity
8
0
100
AcDbLine
62
7
6
CONTINUOUS
10
23.0454963476
20
6.2131320024
11
21.2327650255
21
6.2131320024
0
LINE
5
365
100
AcDbEntity
8
0
100
AcDbLine
62
7
6
CONTINUOUS
10
1.4200337034
20
6.2131320024
11
3.2327650255
21
6.2131320024
0
LINE
5
366
100
AcDbEntity
8
0
100
AcDbLine
62
7
6
CONTINUOUS
10
3.2327650255
20
6.9131320024
11
21.2327650255
21
6.9131320024
0
LINE
5
367
100
AcDbEntity
8
0
100
AcDbLine
62
7
6
CONTINUOUS
10
16.2332404223
20
-13.3504815796
11
16.2327650255
21
-13.3368679976
0
LINE
5
368
100
AcDbEntity
8
DEFAULT_3
100
AcDbLine
62
8
6
PHANTOM
10
13.9827650255
20
18.8131320024
11
13.9827650255
21
18.5633808927
0
LINE
5
369
100
AcDbEntity
8
0
100
AcDbLine
62
7
6
CONTINUOUS
10
14.2827650255
20
13.2631320024
11
14.2827650255
21
11.8631320024
0
LINE
5
36A
100
AcDbEntity
8
0
100
AcDbLine
62
7
6
CONTINUOUS
10
14.4749108445
20
17.9131320024
11
14.4749108445
21
18.7561505082
0
LINE
5
36B
100
AcDbEntity
8
0
100
AcDbLine
62
7
6
CONTINUOUS
10
14.4818923387
20
18.7631320024
11
14.4818923387
21
27.6475985563
0
LINE
5
36C
100
AcDbEntity
8
0
100
AcDbLine
62
7
6
CONTINUOUS
10
14.4906192065
20
24.8902412290
11
14.4906192065
21
27.6475985563
0
LINE
5
36D
100
AcDbEntity
8
0
100
AcDbLine
62
7
6
CONTINUOUS
10
14.8577650255
20
12.5131320024
11
14.8577650255
21
14.9131320024
0
LINE
5
36E
100
AcDbEntity
8
0
100
AcDbLine
62
7
6
CONTINUOUS
10
15.0827650255
20
7.0131320024
11
15.0827650255
21
10.6131320024
0
LINE
5
36F
100
AcDbEntity
8
0
100
AcDbLine
62
7
6
CONTINUOUS
10
15.4749108445
20
18.3709861834
11
15.4749108445
21
24.8902412290
0
LINE
5
370
100
AcDbEntity
8
0
100
AcDbLine
62
7
6
CONTINUOUS
10
15.4827650255
20
18.3631320024
11
15.4827650255
21
17.9131320024
0
LINE
5
371
100
AcDbEntity
8
0
100
AcDbLine
62
7
6
CONTINUOUS
10
15.5715683069
20
-12.3213345515
11
15.5715683069
21
-12.7213345515
0
LINE
5
372
100
AcDbEntity
8
0
100
AcDbLine
62
7
6
CONTINUOUS
10
15.5715683069
20
27.6475985563
11
15.5715683069
21
28.0475985563
0
LINE
5
373
100
AcDbEntity
8
0
100
AcDbLine
62
7
6
CONTINUOUS
10
15.5827650255
20
10.6131320024
11
15.5827650255
21
12.1631320024
0
LINE
5
374
100
AcDbEntity
8
0
100
AcDbLine
62
7
6
CONTINUOUS
10
15.6503081041
20
28.0475985563
11
15.6503081041
21
27.6475985563
0
LINE
5
375
100
AcDbEntity
8
0
100
AcDbLine
62
7
6
CONTINUOUS
10
15.6503081041
20
-12.7213345515
11
15.6503081041
21
-12.3213345515
0
LINE
5
376
100
AcDbEntity
8
0
100
AcDbLine
62
7
6
CONTINUOUS
10
16.2338706043
20
28.6947916381
11
16.2327650255
21
28.6631320024
0
LINE
5
377
100
AcDbEntity
8
0
100
AcDbLine
62
7
6
CONTINUOUS
10
9.3827650255
20
9.5631320024
11
15.0827650255
21
9.5631320024
0
LINE
5
378
100
AcDbEntity
8
0
100
AcDbLine
62
7
6
CONTINUOUS
10
15.1827650255
20
6.9131320024
11
15.0827650255
21
7.0131320024
0
LINE
5
379
100
AcDbEntity
8
0
100
AcDbLine
62
7
6
CONTINUOUS
10
23.0454963476
20
-0.8368679976
11
23.1327650255
21
-0.9241366755
0
LINE
5
37A
100
AcDbEntity
8
0
100
AcDbLine
62
7
6
CONTINUOUS
10
7.9577650255
20
16.2131320024
11
8.6577650255
21
15.5131320024
0
LINE
5
37B
100
AcDbEntity
8
0
100
AcDbLine
62
7
6
CONTINUOUS
10
17.6639531638
20
-13.2689839162
11
17.6628316512
21
-13.2368679976
0
LINE
5
37C
100
AcDbEntity
8
0
100
AcDbLine
62
7
6
CONTINUOUS
10
16.2083297957
20
30.9131320024
11
16.2241143130
21
30.2548093815
0
LINE
5
37D
100
AcDbEntity
8
0
100
AcDbLine
62
7
6
CONTINUOUS
10
15.8077650255
20
10.6131320024
11
15.8077650255
21
15.5131320024
0
LINE
5
37E
100
AcDbEntity
8
0
100
AcDbLine
62
7
6
CONTINUOUS
10
15.8827650255
20
15.5881320024
11
15.8827650255
21
16.4131320024
0
LINE
5
37F
100
AcDbEntity
8
0
100
AcDbLine
62
7
6
CONTINUOUS
10
15.9827650255
20
-12.8151087767
11
15.9827650255
21
-15.0907026077
0
LINE
5
380
100
AcDbEntity
8
0
100
AcDbLine
62
7
6
CONTINUOUS
10
15.9827650255
20
28.1413727814
11
15.9827650255
21
30.4169666124
0
LINE
5
381
100
AcDbEntity
8
0
100
AcDbLine
62
7
6
CONTINUOUS
10
16.1350241062
20
30.0762114283
11
16.1350241062
21
28.6767455844
0
LINE
5
382
100
AcDbEntity
8
0
100
AcDbLine
62
7
6
CONTINUOUS
10
16.1350241062
20
-13.3573495335
11
16.1350241062
21
-14.7499474235
0
LINE
5
383
100
AcDbEntity
8
0
100
AcDbLine
62
9
6
CONTINUOUS
10
16.1827650255
20
30.4787700113
11
16.1827650255
21
30.0983474048
0
LINE
5
384
100
AcDbEntity
8
0
100
AcDbLine
62
9
6
CONTINUOUS
10
16.1827650255
20
-15.1525060065
11
16.1827650255
21
-14.7720834000
0
LINE
5
385
100
AcDbEntity
8
0
100
AcDbLine
62
7
6
CONTINUOUS
10
16.1827650255
20
-12.7213345515
11
16.1827650255
21
-13.1213345515
0
LINE
5
386
100
AcDbEntity
8
0
100
AcDbLine
62
7
6
CONTINUOUS
10
16.1827650255
20
28.0475985563
11
16.1827650255
21
28.4475985563
0
LINE
5
387
100
AcDbEntity
8
0
100
AcDbLine
62
7
6
CONTINUOUS
10
16.2074571089
20
-14.8368679976
11
16.2074571089
21
-15.5868679976
0
LINE
5
388
100
AcDbEntity
8
0
100
AcDbLine
62
7
6
CONTINUOUS
10
16.2074571089
20
30.1631320024
11
16.2074571089
21
30.9131320024
0
LINE
5
389
100
AcDbEntity
8
0
100
AcDbLine
62
9
6
CONTINUOUS
10
16.2241143130
20
30.2548093815
11
16.2241143130
21
28.6945631915
0
LINE
5
38A
100
AcDbEntity
8
0
100
AcDbLine
62
9
6
CONTINUOUS
10
16.2241143130
20
-13.3689808552
11
16.2241143130
21
-14.9285453768
0
LINE
5
38B
100
AcDbEntity
8
0
100
AcDbLine
62
7
6
CONTINUOUS
10
16.4827650255
20
-1.7868679976
11
16.4827650255
21
-3.5868679976
0
LINE
5
38C
100
AcDbEntity
8
0
100
AcDbLine
62
9
6
CONTINUOUS
10
16.5327650255
20
32.5257640976
11
16.5327650255
21
32.1453414911
0
LINE
5
38D
100
AcDbEntity
8
0
100
AcDbLine
62
9
6
CONTINUOUS
10
16.5327650255
20
-17.1995000928
11
16.5327650255
21
-16.8190774863
0
LINE
5
38E
100
AcDbEntity
8
0
100
AcDbLine
62
7
6
CONTINUOUS
10
16.7327650255
20
32.4639606987
11
16.7327650255
21
31.5678114150
0
LINE
5
38F
100
AcDbEntity
8
0
100
AcDbLine
62
7
6
CONTINUOUS
10
16.7327650255
20
-16.2415474102
11
16.7327650255
21
-17.1376966939
0
LINE
5
390
100
AcDbEntity
8
0
100
AcDbLine
62
7
6
CONTINUOUS
10
16.9764904188
20
28.4475985563
11
16.9764904188
21
28.0475985563
0
LINE
5
391
100
AcDbEntity
8
0
100
AcDbLine
62
7
6
CONTINUOUS
10
16.9764904188
20
-12.7213345515
11
16.9764904188
21
-13.1213345515
0
LINE
5
392
100
AcDbEntity
8
0
100
AcDbLine
62
9
6
CONTINUOUS
10
17.2240762361
20
29.3338493159
11
17.2240762361
21
29.1939548272
0
LINE
5
393
100
AcDbEntity
8
0
100
AcDbLine
62
9
6
CONTINUOUS
10
17.2240762361
20
-13.8676909537
11
17.2240762361
21
-14.0075853111
0
LINE
5
394
100
AcDbEntity
8
0
100
AcDbLine
62
7
6
CONTINUOUS
10
17.2327650255
20
-12.7118679976
11
17.2327650255
21
-11.5868679976
0
LINE
5
395
100
AcDbEntity
8
0
100
AcDbLine
62
7
6
CONTINUOUS
10
17.2374774575
20
26.9178444344
11
17.2374774575
21
28.0368868941
0
LINE
5
396
100
AcDbEntity
8
0
100
AcDbLine
62
9
6
CONTINUOUS
10
17.2764904188
20
-13.1213345515
11
17.2764904188
21
-12.7213345515
0
LINE
5
397
100
AcDbEntity
8
0
100
AcDbLine
62
9
6
CONTINUOUS
10
17.2764904188
20
28.0475985563
11
17.2764904188
21
28.4475985563
0
LINE
5
398
100
AcDbEntity
8
0
100
AcDbLine
62
7
6
CONTINUOUS
10
17.3270410821
20
28.0132225927
11
17.3270410821
21
27.0074080590
0
LINE
5
399
100
AcDbEntity
8
0
100
AcDbLine
62
7
6
CONTINUOUS
10
17.3270410821
20
-11.6811440542
11
17.3270410821
21
-12.6869585879
0
LINE
5
39A
100
AcDbEntity
8
0
100
AcDbLine
62
7
6
CONTINUOUS
10
16.2083297957
20
-15.5868679976
11
16.2241143130
21
-14.9285453768
0
LINE
5
39B
100
AcDbEntity
8
0
100
AcDbLine
62
7
6
CONTINUOUS
10
17.6639531636
20
28.5952479165
11
17.6628316512
21
28.5631320024
0
LINE
5
39C
100
AcDbEntity
8
0
100
AcDbLine
62
7
6
CONTINUOUS
10
4.8204890856
20
-5.7491439375
11
4.7327650255
21
-5.8368679976
0
LINE
5
39D
100
AcDbEntity
8
0
100
AcDbLine
62
7
6
CONTINUOUS
10
3.3327650255
20
10.6131320024
11
4.0577650255
21
10.6131320024
0
LINE
5
39E
100
AcDbEntity
8
0
100
AcDbLine
62
7
6
CONTINUOUS
10
8.6577650255
20
10.6131320024
11
9.3827650255
21
10.6131320024
0
LINE
5
39F
100
AcDbEntity
8
0
100
AcDbLine
62
7
6
CONTINUOUS
10
15.0827650255
20
10.6131320024
11
15.8077650255
21
10.6131320024
0
LINE
5
3A0
100
AcDbEntity
8
0
100
AcDbLine
62
7
6
CONTINUOUS
10
20.4077650255
20
10.6131320024
11
21.1327650255
21
10.6131320024
0
LINE
5
3A1
100
AcDbEntity
8
0
100
AcDbLine
62
7
6
CONTINUOUS
10
21.1827650255
20
10.7131320024
11
20.9827650255
21
10.7131320024
0
LINE
5
3A2
100
AcDbEntity
8
0
100
AcDbLine
62
7
6
CONTINUOUS
10
3.4827650255
20
10.7131320024
11
3.2827650255
21
10.7131320024
0
LINE
5
3A3
100
AcDbEntity
8
0
100
AcDbLine
62
7
6
CONTINUOUS
10
4.7327650255
20
28.1631320024
11
4.7374774575
21
28.1552778214
0
LINE
5
3A4
100
AcDbEntity
8
0
100
AcDbLine
62
7
6
CONTINUOUS
10
17.5914031945
20
28.0310160838
11
17.5908241218
21
28.0475985563
0
LINE
5
3A5
100
AcDbEntity
8
0
100
AcDbLine
62
7
6
CONTINUOUS
10
17.6827650255
20
16.4131320024
11
17.6827650255
21
16.2131320024
0
LINE
5
3A6
100
AcDbEntity
8
0
100
AcDbLine
62
7
6
CONTINUOUS
10
18.1327650255
20
-3.5868679976
11
18.1327650255
21
-4.6368679976
0
LINE
5
3A7
100
AcDbEntity
8
0
100
AcDbLine
62
7
6
CONTINUOUS
10
18.2105858989
20
-13.2368679976
11
18.2105858989
21
-13.1213345515
0
LINE
5
3A8
100
AcDbEntity
8
0
100
AcDbLine
62
7
6
CONTINUOUS
10
18.2105858989
20
28.4475985563
11
18.2105858989
21
28.5631320024
0
LINE
5
3A9
100
AcDbEntity
8
0
100
AcDbLine
62
7
6
CONTINUOUS
10
18.2327650255
20
32.6475985563
11
18.2327650255
21
30.9131320024
0
LINE
5
3AA
100
AcDbEntity
8
0
100
AcDbLine
62
7
6
CONTINUOUS
10
18.2327650255
20
-17.3213345515
11
18.2327650255
21
-15.5868679976
0
LINE
5
3AB
100
AcDbEntity
8
0
100
AcDbLine
62
7
6
CONTINUOUS
10
18.2327650255
20
-13.1213345515
11
18.2327650255
21
-12.7213345515
0
LINE
5
3AC
100
AcDbEntity
8
0
100
AcDbLine
62
9
6
CONTINUOUS
10
18.2327650255
20
6.9131320024
11
18.2327650255
21
4.5131320024
0
LINE
5
3AD
100
AcDbEntity
8
0
100
AcDbLine
62
7
6
CONTINUOUS
10
18.2327650255
20
-4.6368679976
11
18.2327650255
21
-5.3868679976
0
LINE
5
3AE
100
AcDbEntity
8
0
100
AcDbLine
62
7
6
CONTINUOUS
10
18.2327650255
20
28.0475985563
11
18.2327650255
21
28.4475985563
0
LINE
5
3AF
100
AcDbEntity
8
0
100
AcDbLine
62
9
6
CONTINUOUS
10
18.3270273743
20
27.4310169977
11
18.3270273743
21
27.0126166789
0
LINE
5
3B0
100
AcDbEntity
8
0
100
AcDbLine
62
9
6
CONTINUOUS
10
18.3270273743
20
-11.6863526741
11
18.3270273743
21
-12.1047529929
0
LINE
5
3B1
100
AcDbEntity
8
0
100
AcDbLine
62
7
6
CONTINUOUS
10
18.4327650255
20
30.9131320024
11
18.4327650255
21
30.1398350267
0
LINE
5
3B2
100
AcDbEntity
8
0
100
AcDbLine
62
7
6
CONTINUOUS
10
18.4327650255
20
30.1327621633
11
18.4327650255
21
29.3338493159
0
LINE
5
3B3
100
AcDbEntity
8
0
100
AcDbLine
62
7
6
CONTINUOUS
10
18.4327650255
20
-15.5868679976
11
18.4327650255
21
-14.8135710219
0
LINE
5
3B4
100
AcDbEntity
8
0
100
AcDbLine
62
9
6
CONTINUOUS
10
18.4327650255
20
-6.4868679976
11
18.4327650256
21
-6.7368679976
0
LINE
5
3B5
100
AcDbEntity
8
0
100
AcDbLine
62
7
6
CONTINUOUS
10
18.4327650255
20
-14.0075853111
11
18.4327650255
21
-14.8064981585
0
LINE
5
3B6
100
AcDbEntity
8
0
100
AcDbLine
62
9
6
CONTINUOUS
10
18.4327650255
20
16.2131320024
11
18.4327650255
21
16.2631320024
0
LINE
5
3B7
100
AcDbEntity
8
0
100
AcDbLine
62
9
6
CONTINUOUS
10
18.4354850516
20
28.5952917853
11
18.4354850516
21
28.0309722195
0
LINE
5
3B8
100
AcDbEntity
8
0
100
AcDbLine
62
9
6
CONTINUOUS
10
18.4354850516
20
-12.7047082147
11
18.4354850516
21
-13.2690277805
0
LINE
5
3B9
100
AcDbEntity
8
0
100
AcDbLine
62
7
6
CONTINUOUS
10
18.5827650255
20
16.4131320024
11
18.5827650255
21
16.2131320024
0
LINE
5
3BA
100
AcDbEntity
8
0
100
AcDbLine
62
7
6
CONTINUOUS
10
18.7327650255
20
6.9131320024
11
18.7327650255
21
4.5131320024
0
LINE
5
3BB
100
AcDbEntity
8
0
100
AcDbLine
62
7
6
CONTINUOUS
10
18.7327650255
20
-4.6368679976
11
18.7327650255
21
-4.8851697033
0
LINE
5
3BC
100
AcDbEntity
8
0
100
AcDbLine
62
7
6
CONTINUOUS
10
18.7327650255
20
-4.8894901554
11
18.7327650255
21
-5.6868679976
0
LINE
5
3BD
100
AcDbEntity
8
0
100
AcDbLine
62
7
6
CONTINUOUS
10
18.7327650255
20
-7.0368679976
11
18.7327650255
21
-7.3991534567
0
LINE
5
3BE
100
AcDbEntity
8
0
100
AcDbLine
62
9
6
CONTINUOUS
10
18.9827650255
20
-5.1394935824
11
18.9827650255
21
-5.9368679976
0
LINE
5
3BF
100
AcDbEntity
8
0
100
AcDbLine
62
9
6
CONTINUOUS
10
18.9827650255
20
-7.0368679976
11
18.9827650255
21
-7.6491439375
0
LINE
5
3C0
100
AcDbEntity
8
0
100
AcDbLine
62
9
6
CONTINUOUS
10
19.0354402734
20
29.1952470071
11
19.0354402734
21
27.4310169977
0
LINE
5
3C1
100
AcDbEntity
8
0
100
AcDbLine
62
9
6
CONTINUOUS
10
19.0354402734
20
-12.1047529929
11
19.0354402734
21
-13.8689830023
0
LINE
5
3C2
100
AcDbEntity
8
0
100
AcDbLine
62
9
6
CONTINUOUS
10
19.3402921956
20
-7.3991534567
11
19.3402921989
21
-7.6491439375
0
LINE
5
3C3
100
AcDbEntity
8
0
100
AcDbLine
62
9
6
CONTINUOUS
10
19.3950504846
20
-7.3443951677
11
19.3950504846
21
-5.4991534567
0
LINE
5
3C4
100
AcDbEntity
8
0
100
AcDbLine
62
7
6
CONTINUOUS
10
17.5914031945
20
-12.7047520791
11
17.5908241218
21
-12.7213345515
0
LINE
5
3C5
100
AcDbEntity
8
0
100
AcDbLine
62
7
6
CONTINUOUS
10
21.1327650255
20
7.0131320024
11
21.0327650255
21
6.9131320024
0
LINE
5
3C6
100
AcDbEntity
8
0
100
AcDbLine
62
7
6
CONTINUOUS
10
1.4200337034
20
-4.8368679976
11
1.3327650255
21
-4.8892283537
0
LINE
5
3C7
100
AcDbEntity
8
0
100
AcDbLine
62
7
6
CONTINUOUS
10
8.8827650255
20
11.8631320024
11
10.1827650255
21
11.8631320024
0
LINE
5
3C8
100
AcDbEntity
8
0
100
AcDbLine
62
7
6
CONTINUOUS
10
14.2827650255
20
11.8631320024
11
15.5827650255
21
11.8631320024
0
LINE
5
3C9
100
AcDbEntity
8
0
100
AcDbLine
62
7
6
CONTINUOUS
10
8.6577650255
20
12.1631320024
11
8.8827650255
21
12.1631320024
0
LINE
5
3CA
100
AcDbEntity
8
0
100
AcDbLine
62
7
6
CONTINUOUS
10
15.5827650255
20
12.1631320024
11
15.8077650255
21
12.1631320024
0
LINE
5
3CB
100
AcDbEntity
8
0
100
AcDbLine
62
7
6
CONTINUOUS
10
8.6577650255
20
12.5131320024
11
9.6077650255
21
12.5131320024
0
LINE
5
3CC
100
AcDbEntity
8
0
100
AcDbLine
62
7
6
CONTINUOUS
10
14.8577650255
20
12.5131320024
11
15.8077650255
21
12.5131320024
0
LINE
5
3CD
100
AcDbEntity
8
0
100
AcDbLine
62
7
6
CONTINUOUS
10
14.8577650255
20
13.2631320024
11
9.6077650255
21
13.2631320024
0
LINE
5
3CE
100
AcDbEntity
8
0
100
AcDbLine
62
7
6
CONTINUOUS
10
9.9836377123
20
18.7631320024
11
9.9906192065
21
18.7561505082
0
LINE
5
3CF
100
AcDbEntity
8
0
100
AcDbLine
62
7
6
CONTINUOUS
10
23.0454963476
20
6.2131320024
11
23.1327650255
21
6.1258633245
0
LINE
5
3D0
100
AcDbEntity
8
0
100
AcDbLine
62
7
6
CONTINUOUS
10
19.5722929543
20
-4.8473400688
11
19.5722929543
21
-4.6368679976
0
LINE
5
3D1
100
AcDbEntity
8
0
100
AcDbLine
62
7
6
CONTINUOUS
10
19.5827650255
20
-4.8368679976
11
19.5827650255
21
-4.6368679976
0
LINE
5
3D2
100
AcDbEntity
8
0
100
AcDbLine
62
7
6
CONTINUOUS
10
19.6327650255
20
-3.5868679976
11
19.6327650255
21
-4.6368679976
0
LINE
5
3D3
100
AcDbEntity
8
0
100
AcDbLine
62
7
6
CONTINUOUS
10
19.6332803490
20
28.6294547833
11
19.6332803490
21
27.3126125666
0
LINE
5
3D4
100
AcDbEntity
8
0
100
AcDbLine
62
7
6
CONTINUOUS
10
19.6332803490
20
-11.9863485618
11
19.6332803490
21
-13.3031907786
0
LINE
5
3D5
100
AcDbEntity
8
0
100
AcDbLine
62
7
6
CONTINUOUS
10
19.6450409654
20
-7.3443951677
11
19.6450409654
21
-5.7491439375
0
LINE
5
3D6
100
AcDbEntity
8
0
100
AcDbLine
62
7
6
CONTINUOUS
10
19.7280525935
20
27.2178403221
11
19.7280525935
21
28.1552778214
0
LINE
5
3D7
100
AcDbEntity
8
0
100
AcDbLine
62
7
6
CONTINUOUS
10
19.7327650255
20
28.5631320024
11
19.7327650255
21
28.1631320024
0
LINE
5
3D8
100
AcDbEntity
8
0
100
AcDbLine
62
7
6
CONTINUOUS
10
19.7327650255
20
-5.8368679976
11
19.7327650255
21
-7.2369717292
0
LINE
5
3D9
100
AcDbEntity
8
0
100
AcDbLine
62
7
6
CONTINUOUS
10
19.7327650255
20
-11.8868638853
11
19.7327650255
21
-13.2368679976
0
LINE
5
3DA
100
AcDbEntity
8
0
100
AcDbLine
62
7
6
CONTINUOUS
10
20.3827650255
20
15.5381320024
11
20.3827650255
21
16.4131320024
0
LINE
5
3DB
100
AcDbEntity
8
0
100
AcDbLine
62
7
6
CONTINUOUS
10
20.4077650255
20
15.5131320024
11
20.4077650255
21
10.6131320024
0
LINE
5
3DC
100
AcDbEntity
8
0
100
AcDbLine
62
9
6
CONTINUOUS
10
20.4327650255
20
6.9131320024
11
20.4327650255
21
-3.5868679976
0
LINE
5
3DD
100
AcDbEntity
8
0
100
AcDbLine
62
9
6
CONTINUOUS
10
20.8827650255
20
17.9131320024
11
20.8827650255
21
11.0131320024
0
LINE
5
3DE
100
AcDbEntity
8
0
100
AcDbLine
62
7
6
CONTINUOUS
10
21.1327650255
20
10.6131320024
11
21.1327650255
21
7.0131320024
0
LINE
5
3DF
100
AcDbEntity
8
0
100
AcDbLine
62
7
6
CONTINUOUS
10
21.1827650255
20
17.6131320024
11
21.1827650255
21
10.7131320024
0
LINE
5
3E0
100
AcDbEntity
8
0
100
AcDbLine
62
7
6
CONTINUOUS
10
21.2327650255
20
-3.5868679976
11
21.2327650255
21
14.3131320024
0
LINE
5
3E1
100
AcDbEntity
8
0
100
AcDbLine
62
7
6
CONTINUOUS
10
1.3327650255
20
14.2631320024
11
3.2327650255
21
14.2631320024
0
LINE
5
3E2
100
AcDbEntity
8
0
100
AcDbLine
62
7
6
CONTINUOUS
10
21.2327650255
20
14.2631320024
11
23.1327650255
21
14.2631320024
0
LINE
5
3E3
100
AcDbEntity
8
0
100
AcDbLine
62
7
6
CONTINUOUS
10
21.2327650255
20
14.3131320024
11
21.1827650255
21
14.3131320024
0
LINE
5
3E4
100
AcDbEntity
8
0
100
AcDbLine
62
7
6
CONTINUOUS
10
14.8577650255
20
14.3131320024
11
9.6077650255
21
14.3131320024
0
LINE
5
3E5
100
AcDbEntity
8
0
100
AcDbLine
62
7
6
CONTINUOUS
10
3.2827650255
20
14.3131320024
11
3.2327650255
21
14.3131320024
0
LINE
5
3E6
100
AcDbEntity
8
0
100
AcDbLine
62
9
6
CONTINUOUS
10
14.8577650255
20
14.3802892899
11
9.6077650255
21
14.3802892899
0
LINE
5
3E7
100
AcDbEntity
8
0
100
AcDbLine
62
9
6
CONTINUOUS
10
1.5827650255
20
14.5131320024
11
3.2827650255
21
14.5131320024
0
LINE
5
3E8
100
AcDbEntity
8
0
100
AcDbLine
62
9
6
CONTINUOUS
10
21.1827650255
20
14.5131320024
11
22.8827650255
21
14.5131320024
0
LINE
5
3E9
100
AcDbEntity
8
0
100
AcDbLine
62
7
6
CONTINUOUS
10
8.6577650255
20
14.9131320024
11
9.8348492638
21
14.9131320024
0
LINE
5
3EA
100
AcDbEntity
8
0
100
AcDbLine
62
7
6
CONTINUOUS
10
14.6306807872
20
14.9131320024
11
15.8077650255
21
14.9131320024
0
LINE
5
3EB
100
AcDbEntity
8
0
100
AcDbLine
62
9
6
CONTINUOUS
10
22.8827650255
20
14.9605064176
11
21.1827650255
21
14.9605064176
0
LINE
5
3EC
100
AcDbEntity
8
0
100
AcDbLine
62
9
6
CONTINUOUS
10
3.2827650255
20
14.9605064176
11
1.5827650255
21
14.9605064176
0
LINE
5
3ED
100
AcDbEntity
8
0
100
AcDbLine
62
7
6
CONTINUOUS
10
9.9571893761
20
14.9631320024
11
14.5083406749
21
14.9631320024
0
LINE
5
3EE
100
AcDbEntity
8
0
100
AcDbLine
62
7
6
CONTINUOUS
10
23.1327650255
20
15.2105029906
11
21.1827650255
21
15.2105029906
0
LINE
5
3EF
100
AcDbEntity
8
0
100
AcDbLine
62
7
6
CONTINUOUS
10
3.2827650255
20
15.2105029906
11
1.3327650255
21
15.2105029906
0
LINE
5
3F0
100
AcDbEntity
8
0
100
AcDbLine
62
7
6
CONTINUOUS
10
1.4200337034
20
15.2631320024
11
3.2827650255
21
15.2631320024
0
LINE
5
3F1
100
AcDbEntity
8
0
100
AcDbLine
62
7
6
CONTINUOUS
10
21.1827650255
20
15.2631320024
11
23.0454963476
21
15.2631320024
0
LINE
5
3F2
100
AcDbEntity
8
0
100
AcDbLine
62
9
6
CONTINUOUS
10
2.2327650255
20
27.6631510409
11
2.2406192065
21
27.6552968598
0
LINE
5
3F3
100
AcDbEntity
8
0
100
AcDbLine
62
9
6
CONTINUOUS
10
2.7327459870
20
28.1631320024
11
2.7406001680
21
28.1552778214
0
LINE
5
3F4
100
AcDbEntity
8
0
100
AcDbLine
62
7
6
CONTINUOUS
10
22.2249108445
20
27.6552968598
11
22.2249108445
21
18.8709671449
0
LINE
5
3F5
100
AcDbEntity
8
0
100
AcDbLine
62
7
6
CONTINUOUS
10
22.2327650255
20
27.6631510409
11
22.2327650255
21
18.8631129639
0
LINE
5
3F6
100
AcDbEntity
8
0
100
AcDbLine
62
7
6
CONTINUOUS
10
22.5542232154
20
-16.0240138003
11
22.5542232154
21
-14.8064981585
0
LINE
5
3F7
100
AcDbEntity
8
0
100
AcDbLine
62
7
6
CONTINUOUS
10
22.5542232154
20
30.1327621633
11
22.5542232154
21
31.3502778051
0
LINE
5
3F8
100
AcDbEntity
8
0
100
AcDbLine
62
9
6
CONTINUOUS
10
22.8827650255
20
-5.4991534567
11
22.8827650255
21
-5.1394935824
0
LINE
5
3F9
100
AcDbEntity
8
0
100
AcDbLine
62
9
6
CONTINUOUS
10
22.8827650255
20
-1.4991534567
11
22.8827650255
21
-1.1745825385
0
LINE
5
3FA
100
AcDbEntity
8
0
100
AcDbLine
62
9
6
CONTINUOUS
10
22.8827650255
20
5.5508465433
11
22.8827650255
21
5.8754174615
0
LINE
5
3FB
100
AcDbEntity
8
0
100
AcDbLine
62
9
6
CONTINUOUS
10
22.8827650255
20
14.5131320024
11
22.8827650255
21
14.9605064176
0
LINE
5
3FC
100
AcDbEntity
8
0
100
AcDbLine
62
7
6
CONTINUOUS
10
23.0454963476
20
28.5631320024
11
23.0454963476
21
15.2631320024
0
LINE
5
3FD
100
AcDbEntity
8
0
100
AcDbLine
62
7
6
CONTINUOUS
10
23.0454963476
20
-4.8368679976
11
23.0454963476
21
-1.8368679976
0
LINE
5
3FE
100
AcDbEntity
8
0
100
AcDbLine
62
7
6
CONTINUOUS
10
23.0454963476
20
-0.8368679976
11
23.0454963476
21
5.2131320024
0
LINE
5
3FF
100
AcDbEntity
8
0
100
AcDbLine
62
7
6
CONTINUOUS
10
23.0454963476
20
-5.8368679976
11
23.0454963476
21
-13.2368679976
0
LINE
5
400
100
AcDbEntity
8
0
100
AcDbLine
62
7
6
CONTINUOUS
10
23.0454963476
20
6.2131320024
11
23.0454963476
21
14.2631320024
0
LINE
5
401
100
AcDbEntity
8
0
100
AcDbLine
62
7
6
CONTINUOUS
10
23.1327650255
20
-13.2717747244
11
23.1327650255
21
28.5980387292
0
LINE
5
402
100
AcDbEntity
8
0
100
AcDbLine
62
7
6
CONTINUOUS
10
23.0454963476
20
5.2131320024
11
23.1327650255
21
5.3004006803
0
LINE
5
403
100
AcDbEntity
8
0
100
AcDbLine
62
7
6
CONTINUOUS
10
7.2327650255
20
-11.5868679976
11
7.1384889689
21
-11.6811440542
0
LINE
5
404
100
AcDbEntity
8
0
100
AcDbLine
62
7
6
CONTINUOUS
10
4.7577650255
20
16.2131320024
11
7.9577650255
21
16.2131320024
0
LINE
5
405
100
AcDbEntity
8
0
100
AcDbLine
62
7
6
CONTINUOUS
10
16.5077650255
20
16.2131320024
11
19.7077650255
21
16.2131320024
0
LINE
5
406
100
AcDbEntity
8
0
100
AcDbLine
62
7
6
CONTINUOUS
10
18.4327650255
20
16.2631320024
11
17.6827650255
21
16.2631320024
0
LINE
5
407
100
AcDbEntity
8
0
100
AcDbLine
62
7
6
CONTINUOUS
10
6.7827650255
20
16.2631320024
11
6.0327650255
21
16.2631320024
0
LINE
5
408
100
AcDbEntity
8
0
100
AcDbLine
62
7
6
CONTINUOUS
10
20.3827650255
20
16.4131320024
11
15.8827650255
21
16.4131320024
0
LINE
5
409
100
AcDbEntity
8
0
100
AcDbLine
62
7
6
CONTINUOUS
10
8.5827650255
20
16.4131320024
11
4.0827650255
21
16.4131320024
0
LINE
5
40A
100
AcDbEntity
8
0
100
AcDbLine
62
7
6
CONTINUOUS
10
15.4749108445
20
18.3709861834
11
15.4827650255
21
18.3631320024
0
LINE
5
40B
100
AcDbEntity
8
0
100
AcDbLine
62
7
6
CONTINUOUS
10
7.1384889689
20
27.0074080590
11
7.2280525935
21
26.9178444344
0
LINE
5
40C
100
AcDbEntity
8
0
100
AcDbLine
62
7
6
CONTINUOUS
10
20.4077650255
20
12.4381320024
11
20.9827650255
21
10.7131320024
0
LINE
5
40D
100
AcDbEntity
8
0
100
AcDbLine
62
7
6
CONTINUOUS
10
23.8798893460
20
-13.1126001060
11
23.8327650255
21
-9.8368679976
0
LINE
5
40E
100
AcDbEntity
8
0
100
AcDbLine
62
7
6
CONTINUOUS
10
23.8327650255
20
28.5980387292
11
23.8327650255
21
25.1631320024
0
LINE
5
40F
100
AcDbEntity
8
0
100
AcDbLine
62
7
6
CONTINUOUS
10
23.8327650255
20
-9.8368679976
11
23.8327650255
21
-13.2717747244
0
LINE
5
410
100
AcDbEntity
8
0
100
AcDbLine
62
7
6
CONTINUOUS
10
23.8798893460
20
-13.3031907786
11
23.8798893460
21
-13.1126001060
0
LINE
5
411
100
AcDbEntity
8
0
100
AcDbLine
62
7
6
CONTINUOUS
10
23.8798893460
20
28.4388641108
11
23.8798893460
21
28.6294547833
0
LINE
5
412
100
AcDbEntity
8
0
100
AcDbLine
62
7
6
CONTINUOUS
10
24.4756694411
20
31.3503234967
11
24.4756694411
21
28.4388641108
0
LINE
5
413
100
AcDbEntity
8
0
100
AcDbLine
62
7
6
CONTINUOUS
10
24.4756694411
20
-13.1126001060
11
24.4756694411
21
-16.0240594920
0
LINE
5
414
100
AcDbEntity
8
0
100
AcDbLine
62
7
6
CONTINUOUS
10
24.6327650255
20
31.4131563706
11
24.6327650255
21
-16.0868923658
0
LINE
5
415
100
AcDbEntity
8
0
100
AcDbLine
62
7
6
CONTINUOUS
10
23.8327650255
20
25.1631320024
11
23.8798893460
21
28.4388641108
0
LINE
5
416
100
AcDbEntity
8
0
100
AcDbLine
62
7
6
CONTINUOUS
10
8.3126615255
20
-14.7713609659
11
8.3305059448
21
-14.7499474235
0
LINE
5
417
100
AcDbEntity
8
0
100
AcDbLine
62
9
6
CONTINUOUS
10
1.5827402748
20
-16.3368679976
11
1.6612820849
21
-16.2740351237
0
LINE
5
418
100
AcDbEntity
8
0
100
AcDbLine
62
7
6
CONTINUOUS
10
0.5856407051
20
-13.3031907786
11
0.6327650255
21
-13.2717747244
0
LINE
5
419
100
AcDbEntity
8
0
100
AcDbLine
62
9
6
CONTINUOUS
10
3.2827650255
20
17.6131320024
11
21.1827650255
21
17.6131320024
0
LINE
5
41A
100
AcDbEntity
8
0
100
AcDbLine
62
7
6
CONTINUOUS
10
3.5827650255
20
17.9131320024
11
20.8827650255
21
17.9131320024
0
LINE
5
41B
100
AcDbEntity
8
0
100
AcDbLine
62
7
6
CONTINUOUS
10
21.7327840640
20
18.3631320024
11
15.4827650255
21
18.3631320024
0
LINE
5
41C
100
AcDbEntity
8
0
100
AcDbLine
62
7
6
CONTINUOUS
10
8.9827650255
20
18.3631320024
11
2.7327459870
21
18.3631320024
0
LINE
5
41D
100
AcDbEntity
8
0
100
AcDbLine
62
7
6
CONTINUOUS
10
21.7249298830
20
18.3709861834
11
15.4749108445
21
18.3709861834
0
LINE
5
41E
100
AcDbEntity
8
0
100
AcDbLine
62
7
6
CONTINUOUS
10
8.9906192065
20
18.3709861834
11
2.7406001680
21
18.3709861834
0
LINE
5
41F
100
AcDbEntity
8
DEFAULT_3
100
AcDbLine
62
8
6
PHANTOM
10
13.9827650255
20
18.5633726207
11
10.4827650255
21
18.5633726207
0
LINE
5
420
100
AcDbEntity
8
DEFAULT_3
100
AcDbLine
62
9
6
PHANTOM
10
13.9827650255
20
18.6631320024
11
10.4827650255
21
18.6631320024
0
LINE
5
421
100
AcDbEntity
8
0
100
AcDbLine
62
7
6
CONTINUOUS
10
9.9906192065
20
18.7561505082
11
14.4749108445
21
18.7561505082
0
LINE
5
422
100
AcDbEntity
8
DEFAULT_3
100
AcDbLine
62
8
6
PHANTOM
10
9.9836377123
20
18.8131320024
11
14.4818923387
21
18.8131320024
0
LINE
5
423
100
AcDbEntity
8
0
100
AcDbLine
62
7
6
CONTINUOUS
10
14.4818923387
20
18.8631320024
11
9.9836377123
21
18.8631320024
0
LINE
5
424
100
AcDbEntity
8
0
100
AcDbLine
62
7
6
CONTINUOUS
10
23.1327650255
20
15.2107716463
11
23.0454963476
21
15.2631320024
0
LINE
5
425
100
AcDbEntity
8
0
100
AcDbLine
62
7
6
CONTINUOUS
10
0.5856407051
20
28.6294547833
11
0.6327650255
21
28.5980387292
0
LINE
5
426
100
AcDbEntity
8
0
100
AcDbLine
62
9
6
CONTINUOUS
10
1.5827402748
20
31.6631320024
11
1.6612820849
21
31.6002991285
0
LINE
5
427
100
AcDbEntity
8
0
100
AcDbLine
62
7
6
CONTINUOUS
10
19.7077650255
20
16.2131320024
11
20.4077650255
21
15.5131320024
0
LINE
5
428
100
AcDbEntity
8
0
100
AcDbLine
62
7
6
CONTINUOUS
10
8.3126615255
20
30.0976249706
11
8.3305059448
21
30.0762114283
0
LINE
5
429
100
AcDbEntity
8
0
100
AcDbLine
62
7
6
CONTINUOUS
10
24.6327650255
20
25.1631320024
11
24.4756694411
21
28.4388641108
0
LINE
5
42A
100
AcDbEntity
8
0
100
AcDbLine
62
7
6
CONTINUOUS
10
24.4756694411
20
-13.1126001060
11
24.6327650255
21
-9.8368679976
0
LINE
5
42B
100
AcDbEntity
8
0
100
AcDbLine
62
7
6
CONTINUOUS
10
23.1327650255
20
-1.7495993197
11
23.0454963476
21
-1.8368679976
0
LINE
5
42C
100
AcDbEntity
8
0
100
AcDbLine
62
9
6
CONTINUOUS
10
21.7327840640
20
18.3631320024
11
21.7249298830
21
18.3709861834
0
LINE
5
42D
100
AcDbEntity
8
0
100
AcDbLine
62
9
6
CONTINUOUS
10
19.7327650255
20
-7.2369717292
11
19.6450409654
21
-7.3443951677
0
LINE
5
42E
100
AcDbEntity
8
0
100
AcDbLine
62
7
6
CONTINUOUS
10
6.0300449994
20
-13.2690277805
11
6.0301217646
21
-13.2689839162
0
LINE
5
42F
100
AcDbEntity
8
0
100
AcDbLine
62
7
6
CONTINUOUS
10
1.3327650255
20
-13.2717747244
11
1.4200337034
21
-13.2368679976
0
LINE
5
430
100
AcDbEntity
8
0
100
AcDbLine
62
7
6
CONTINUOUS
10
1.3327650255
20
28.5980387292
11
1.4200337034
21
28.5631320024
0
LINE
5
431
100
AcDbEntity
8
0
100
AcDbLine
62
7
6
CONTINUOUS
10
6.0300449994
20
28.5952917853
11
6.0301217646
21
28.5952479209
0
LINE
5
432
100
AcDbEntity
8
0
100
AcDbLine
62
9
6
CONTINUOUS
10
22.2327650255
20
18.8631129639
11
22.2249108445
21
18.8709671449
0
LINE
5
433
100
AcDbEntity
8
0
100
AcDbLine
62
7
6
CONTINUOUS
10
23.1327650255
20
-5.7495993197
11
23.0454963476
21
-5.8368679976
0
LINE
5
434
100
AcDbEntity
8
0
100
AcDbLine
62
9
6
CONTINUOUS
10
19.2328687571
20
-7.7368679976
11
19.3402921956
21
-7.6491439375
0
LINE
5
435
100
AcDbEntity
8
0
100
AcDbLine
62
9
6
CONTINUOUS
10
-0.1672349745
20
-16.0868923658
11
-0.0101393901
21
-16.0240594920
0
LINE
5
436
100
AcDbEntity
8
0
100
AcDbLine
62
9
6
CONTINUOUS
10
0.0827726429
20
-16.3368679976
11
0.2398682273
21
-16.2740351237
0
LINE
5
437
100
AcDbEntity
8
0
100
AcDbLine
62
9
6
CONTINUOUS
10
-0.1672349745
20
31.4131563706
11
-0.0101393901
21
31.3503234967
0
LINE
5
438
100
AcDbEntity
8
0
100
AcDbLine
62
9
6
CONTINUOUS
10
0.0827726429
20
31.6631320024
11
0.2398682273
21
31.6002991285
0
LINE
5
439
100
AcDbEntity
8
0
100
AcDbLine
62
9
6
CONTINUOUS
10
19.3332844613
20
-11.6863526741
11
19.4327691378
21
-11.5868679976
0
LINE
5
43A
100
AcDbEntity
8
0
100
AcDbLine
62
9
6
CONTINUOUS
10
19.6332803490
20
-11.9863485618
11
19.7327650255
21
-11.8868638853
0
LINE
5
43B
100
AcDbEntity
8
0
100
AcDbLine
62
7
6
CONTINUOUS
10
24.6327650255
20
25.1631320024
11
23.8327650255
21
25.1631320024
0
LINE
5
43C
100
AcDbEntity
8
0
100
AcDbLine
62
7
6
CONTINUOUS
10
-0.1672349745
20
25.1631320024
11
0.6327650255
21
25.1631320024
0
LINE
5
43D
100
AcDbEntity
8
0
100
AcDbLine
62
9
6
CONTINUOUS
10
19.4280567058
20
26.9178444344
11
19.3332844613
21
27.0126166789
0
LINE
5
43E
100
AcDbEntity
8
0
100
AcDbLine
62
9
6
CONTINUOUS
10
19.7280525935
20
27.2178403221
11
19.6332803490
21
27.3126125666
0
LINE
5
43F
100
AcDbEntity
8
0
100
AcDbLine
62
7
6
CONTINUOUS
10
19.6332803490
20
-13.3031907786
11
19.7327650255
21
-13.2368679976
0
LINE
5
440
100
AcDbEntity
8
0
100
AcDbLine
62
7
6
CONTINUOUS
10
18.4354850516
20
-12.7047082147
11
18.4354082864
21
-12.7047520791
0
LINE
5
441
100
AcDbEntity
8
0
100
AcDbLine
62
7
6
CONTINUOUS
10
16.1350241062
20
28.6767455844
11
16.2241143130
21
28.6945631915
0
LINE
5
442
100
AcDbEntity
8
0
100
AcDbLine
62
7
6
CONTINUOUS
10
18.4354082864
20
28.5952479209
11
18.2105858989
21
28.5631320024
0
LINE
5
443
100
AcDbEntity
8
0
100
AcDbLine
62
7
6
CONTINUOUS
10
17.5914031945
20
28.0310160838
11
17.4109699822
21
28.0183989645
0
LINE
5
444
100
AcDbEntity
8
0
100
AcDbLine
62
7
6
CONTINUOUS
10
17.2374774575
20
28.0368868941
11
17.3906613635
21
28.0475985563
0
LINE
5
445
100
AcDbEntity
8
0
100
AcDbLine
62
7
6
CONTINUOUS
10
5.0374733452
20
26.9178444344
11
7.2280525935
21
26.9178444344
0
LINE
5
446
100
AcDbEntity
8
0
100
AcDbLine
62
7
6
CONTINUOUS
10
17.2374774575
20
26.9178444344
11
19.4280567058
21
26.9178444344
0
LINE
5
447
100
AcDbEntity
8
0
100
AcDbLine
62
7
6
CONTINUOUS
10
5.1322455897
20
27.0126166789
11
6.1385026767
21
27.0126166789
0
LINE
5
448
100
AcDbEntity
8
0
100
AcDbLine
62
7
6
CONTINUOUS
10
18.3270273743
20
27.0126166789
11
19.3332844613
21
27.0126166789
0
LINE
5
449
100
AcDbEntity
8
0
100
AcDbLine
62
9
6
CONTINUOUS
10
19.0354402734
20
27.4310169977
11
18.3270273743
21
27.4310169977
0
LINE
5
44A
100
AcDbEntity
8
0
100
AcDbLine
62
9
6
CONTINUOUS
10
6.1385026767
20
27.4310169977
11
5.4300897776
21
27.4310169977
0
LINE
5
44B
100
AcDbEntity
8
0
100
AcDbLine
62
7
6
CONTINUOUS
10
15.6503081041
20
27.6475985563
11
8.8152219469
21
27.6475985563
0
LINE
5
44C
100
AcDbEntity
8
0
100
AcDbLine
62
7
6
CONTINUOUS
10
18.4354082864
20
28.0310160838
11
17.5914031945
21
28.0310160838
0
LINE
5
44D
100
AcDbEntity
8
0
100
AcDbLine
62
7
6
CONTINUOUS
10
6.8741268565
20
28.0310160838
11
6.0301217646
21
28.0310160838
0
LINE
5
44E
100
AcDbEntity
8
0
100
AcDbLine
62
7
6
CONTINUOUS
10
6.2327650255
20
28.0475985563
11
18.2327650255
21
28.0475985563
0
LINE
5
44F
100
AcDbEntity
8
0
100
AcDbLine
62
7
6
CONTINUOUS
10
2.7406001680
20
28.1552778214
11
4.7374774575
21
28.1552778214
0
LINE
5
450
100
AcDbEntity
8
0
100
AcDbLine
62
7
6
CONTINUOUS
10
19.7280525935
20
28.1552778214
11
21.7249298830
21
28.1552778214
0
LINE
5
451
100
AcDbEntity
8
0
100
AcDbLine
62
7
6
CONTINUOUS
10
2.7327459870
20
28.1631320024
11
4.7327650255
21
28.1631320024
0
LINE
5
452
100
AcDbEntity
8
0
100
AcDbLine
62
7
6
CONTINUOUS
10
19.7327650255
20
28.1631320024
11
21.7327840640
21
28.1631320024
0
LINE
5
453
100
AcDbEntity
8
0
100
AcDbLine
62
7
6
CONTINUOUS
10
24.4756694411
20
28.4388641108
11
23.8798893460
21
28.4388641108
0
LINE
5
454
100
AcDbEntity
8
0
100
AcDbLine
62
7
6
CONTINUOUS
10
-0.0101393901
20
28.4388641108
11
0.5856407051
21
28.4388641108
0
LINE
5
455
100
AcDbEntity
8
0
100
AcDbLine
62
3
6
CONTINUOUS
10
18.2327650255
20
28.4475985563
11
16.9766079962
21
28.4475985563
0
LINE
5
456
100
AcDbEntity
8
0
100
AcDbLine
62
3
6
CONTINUOUS
10
16.9652845318
20
28.4475985563
11
16.1827650255
21
28.4475985563
0
LINE
5
457
100
AcDbEntity
8
0
100
AcDbLine
62
3
6
CONTINUOUS
10
6.2327650255
20
28.4475985563
11
7.4889220548
21
28.4475985563
0
LINE
5
458
100
AcDbEntity
8
0
100
AcDbLine
62
3
6
CONTINUOUS
10
7.5002455192
20
28.4475985563
11
8.2827650255
21
28.4475985563
0
LINE
5
459
100
AcDbEntity
8
0
100
AcDbLine
62
7
6
CONTINUOUS
10
23.0454963476
20
28.5631320024
11
19.7327650255
21
28.5631320024
0
LINE
5
45A
100
AcDbEntity
8
0
100
AcDbLine
62
7
6
CONTINUOUS
10
18.2105858989
20
28.5631320024
11
17.6628316512
21
28.5631320024
0
LINE
5
45B
100
AcDbEntity
8
0
100
AcDbLine
62
7
6
CONTINUOUS
10
6.8026983998
20
28.5631320024
11
6.2549441521
21
28.5631320024
0
LINE
5
45C
100
AcDbEntity
8
0
100
AcDbLine
62
7
6
CONTINUOUS
10
4.7327650255
20
28.5631320024
11
1.4200337034
21
28.5631320024
0
LINE
5
45D
100
AcDbEntity
8
0
100
AcDbLine
62
7
6
CONTINUOUS
10
6.0301217646
20
28.5952479209
11
6.8015768872
21
28.5952479209
0
LINE
5
45E
100
AcDbEntity
8
0
100
AcDbLine
62
7
6
CONTINUOUS
10
17.6639531638
20
28.5952479209
11
18.4354082864
21
28.5952479209
0
LINE
5
45F
100
AcDbEntity
8
0
100
AcDbLine
62
7
6
CONTINUOUS
10
0.6327650255
20
28.5980387292
11
1.3327650255
21
28.5980387292
0
LINE
5
460
100
AcDbEntity
8
0
100
AcDbLine
62
7
6
CONTINUOUS
10
23.1327650255
20
28.5980387292
11
23.8327650255
21
28.5980387292
0
LINE
5
461
100
AcDbEntity
8
0
100
AcDbLine
62
7
6
CONTINUOUS
10
0.5856407051
20
28.6294547833
11
4.8322497020
21
28.6294547833
0
LINE
5
462
100
AcDbEntity
8
0
100
AcDbLine
62
7
6
CONTINUOUS
10
19.6332803490
20
28.6294547833
11
23.8798893460
21
28.6294547833
0
LINE
5
463
100
AcDbEntity
8
0
100
AcDbLine
62
7
6
CONTINUOUS
10
16.2327650255
20
28.6631320024
11
15.9827650255
21
28.6631320024
0
LINE
5
464
100
AcDbEntity
8
0
100
AcDbLine
62
7
6
CONTINUOUS
10
8.4827650255
20
28.6631320024
11
8.2327650255
21
28.6631320024
0
LINE
5
465
100
AcDbEntity
8
0
100
AcDbLine
62
7
6
CONTINUOUS
10
16.1350241062
20
28.6767455844
11
15.9827650255
21
28.6767455844
0
LINE
5
466
100
AcDbEntity
8
0
100
AcDbLine
62
7
6
CONTINUOUS
10
8.4827650255
20
28.6767455844
11
8.3305059448
21
28.6767455844
0
LINE
5
467
100
AcDbEntity
8
0
100
AcDbLine
62
7
6
CONTINUOUS
10
7.0545600688
20
28.0183989645
11
6.8741268565
21
28.0310160838
0
LINE
5
468
100
AcDbEntity
8
0
100
AcDbLine
62
7
6
CONTINUOUS
10
7.0748686875
20
28.0475985563
11
7.2280525935
21
28.0368868941
0
LINE
5
469
100
AcDbEntity
8
0
100
AcDbLine
62
7
6
CONTINUOUS
10
17.6628316512
20
28.5631320024
11
16.2327650255
21
28.6631320024
0
LINE
5
46A
100
AcDbEntity
8
0
100
AcDbLine
62
7
6
CONTINUOUS
10
6.0301217646
20
28.5952479209
11
6.2549441521
21
28.5631320024
0
LINE
5
46B
100
AcDbEntity
8
0
100
AcDbLine
62
7
6
CONTINUOUS
10
18.4354082864
20
28.0310160838
11
18.2344960660
21
28.0597164307
0
LINE
5
46C
100
AcDbEntity
8
0
100
AcDbLine
62
7
6
CONTINUOUS
10
8.3305059448
20
28.6767455844
11
8.2414157380
21
28.6945631915
0
LINE
5
46D
100
AcDbEntity
8
0
100
AcDbLine
62
7
6
CONTINUOUS
10
17.3270410821
20
28.0132225927
11
17.2374774575
21
28.0368868941
0
LINE
5
46E
100
AcDbEntity
8
0
100
AcDbLine
62
7
6
CONTINUOUS
10
18.4354850516
20
28.0309722195
11
18.4354082864
21
28.0310160838
0
LINE
5
46F
100
AcDbEntity
8
0
100
AcDbLine
62
7
6
CONTINUOUS
10
19.6332803490
20
28.6294547833
11
19.7327650255
21
28.5631320024
0
LINE
5
470
100
AcDbEntity
8
0
100
AcDbLine
62
7
6
CONTINUOUS
10
7.1384889689
20
28.0132225927
11
7.2280525935
21
28.0368868941
0
LINE
5
471
100
AcDbEntity
8
0
100
AcDbLine
62
7
6
CONTINUOUS
10
6.0301217646
20
28.0310160838
11
6.2310339850
21
28.0597164307
0
LINE
5
472
100
AcDbEntity
8
0
100
AcDbLine
62
7
6
CONTINUOUS
10
8.2327650255
20
28.6631320024
11
6.8026983998
21
28.5631320024
0
LINE
5
473
100
AcDbEntity
8
0
100
AcDbLine
62
7
6
CONTINUOUS
10
6.8015768874
20
28.5952479165
11
8.1118049638
21
28.6870278788
0
LINE
5
474
100
AcDbEntity
8
0
100
AcDbLine
62
9
6
CONTINUOUS
10
17.2240762361
20
29.1939548272
11
19.0354402734
21
29.1952470071
0
LINE
5
475
100
AcDbEntity
8
0
100
AcDbLine
62
9
6
CONTINUOUS
10
18.4327650255
20
29.3338493159
11
17.2240762361
21
29.3338493159
0
LINE
5
476
100
AcDbEntity
8
0
100
AcDbLine
62
9
6
CONTINUOUS
10
7.2414538149
20
29.3338493159
11
6.0327650255
21
29.3338493159
0
LINE
5
477
100
AcDbEntity
8
0
100
AcDbLine
62
9
6
CONTINUOUS
10
8.4827650255
20
29.8035494209
11
15.9827650255
21
29.8035494209
0
LINE
5
478
100
AcDbEntity
8
0
100
AcDbLine
62
7
6
CONTINUOUS
10
16.1350241062
20
30.0762114283
11
16.0295303696
21
30.0762114283
0
LINE
5
479
100
AcDbEntity
8
0
100
AcDbLine
62
7
6
CONTINUOUS
10
8.4359996814
20
30.0762114283
11
8.3305059448
21
30.0762114283
0
LINE
5
47A
100
AcDbEntity
8
0
100
AcDbLine
62
9
6
CONTINUOUS
10
18.4327650255
20
30.0856034125
11
16.3433448492
21
30.0856034125
0
LINE
5
47B
100
AcDbEntity
8
0
100
AcDbLine
62
9
6
CONTINUOUS
10
8.1221852018
20
30.0856034125
11
6.0327650255
21
30.0856034125
0
LINE
5
47C
100
AcDbEntity
8
0
100
AcDbLine
62
7
6
CONTINUOUS
10
1.9113068356
20
30.1327621633
11
6.0327650255
21
30.1327621633
0
LINE
5
47D
100
AcDbEntity
8
0
100
AcDbLine
62
7
6
CONTINUOUS
10
18.4327650255
20
30.1327621633
11
22.5542232154
21
30.1327621633
0
LINE
5
47E
100
AcDbEntity
8
0
100
AcDbLine
62
7
6
CONTINUOUS
10
1.9113068356
20
30.1631320024
11
6.0327650255
21
30.1631320024
0
LINE
5
47F
100
AcDbEntity
8
0
100
AcDbLine
62
7
6
CONTINUOUS
10
18.4327650255
20
30.1631320024
11
22.5542232154
21
30.1631320024
0
LINE
5
480
100
AcDbEntity
8
0
100
AcDbLine
62
7
6
CONTINUOUS
10
16.2074571089
20
30.4787700113
11
16.1827650255
21
30.4787700113
0
LINE
5
481
100
AcDbEntity
8
0
100
AcDbLine
62
7
6
CONTINUOUS
10
8.2580729421
20
30.4787700113
11
8.2827650255
21
30.4787700113
0
LINE
5
482
100
AcDbEntity
8
0
100
AcDbLine
62
9
6
CONTINUOUS
10
5.4300897776
20
29.1952470071
11
7.2414538149
21
29.1939549584
0
LINE
5
483
100
AcDbEntity
8
0
100
AcDbLine
62
7
6
CONTINUOUS
10
16.3537252829
20
28.6870278657
11
17.6639531636
21
28.5952479165
0
LINE
5
484
100
AcDbEntity
8
0
100
AcDbLine
62
7
6
CONTINUOUS
10
6.0327650255
20
30.9131320024
11
8.2572002553
21
30.9131320024
0
LINE
5
485
100
AcDbEntity
8
0
100
AcDbLine
62
7
6
CONTINUOUS
10
16.2083297957
20
30.9131320024
11
18.4327650255
21
30.9131320024
0
LINE
5
486
100
AcDbEntity
8
0
100
AcDbLine
62
7
6
CONTINUOUS
10
16.5327650255
20
31.5060080161
11
13.6327650255
21
31.5060080161
0
LINE
5
487
100
AcDbEntity
8
0
100
AcDbLine
62
7
6
CONTINUOUS
10
10.8327650255
20
31.5060080161
11
7.9327650255
21
31.5060080161
0
LINE
5
488
100
AcDbEntity
8
0
100
AcDbLine
62
7
6
CONTINUOUS
10
0.2398682273
20
31.6002991285
11
1.6612820849
21
31.6002991285
0
LINE
5
489
100
AcDbEntity
8
0
100
AcDbLine
62
7
6
CONTINUOUS
10
22.8042479661
20
31.6002991285
11
24.2256618237
21
31.6002991285
0
LINE
5
48A
100
AcDbEntity
8
0
100
AcDbLine
62
3
6
CONTINUOUS
10
7.7327650255
20
31.6475985563
11
8.2994987907
21
31.6475985563
0
LINE
5
48B
100
AcDbEntity
8
0
100
AcDbLine
62
3
6
CONTINUOUS
10
16.1660312603
20
31.6475985563
11
16.7327650255
21
31.6475985563
0
LINE
5
48C
100
AcDbEntity
8
0
100
AcDbLine
62
7
6
CONTINUOUS
10
1.5827707370
20
31.6631320024
11
0.0827726429
21
31.6631320024
0
LINE
5
48D
100
AcDbEntity
8
0
100
AcDbLine
62
7
6
CONTINUOUS
10
22.8827593140
20
31.6631320024
11
24.3827574081
21
31.6631320024
0
LINE
5
48E
100
AcDbEntity
8
0
100
AcDbLine
62
9
6
CONTINUOUS
10
7.7327650255
20
31.9475985563
11
11.0327650255
21
31.9475985563
0
LINE
5
48F
100
AcDbEntity
8
0
100
AcDbLine
62
9
6
CONTINUOUS
10
13.4327650255
20
31.9475985563
11
16.7327650255
21
31.9475985563
0
LINE
5
490
100
AcDbEntity
8
0
100
AcDbLine
62
3
6
CONTINUOUS
10
7.9327650255
20
32.1453414911
11
10.8327650255
21
32.1453414911
0
LINE
5
491
100
AcDbEntity
8
0
100
AcDbLine
62
3
6
CONTINUOUS
10
13.6327650255
20
32.1453414911
11
16.5327650255
21
32.1453414911
0
LINE
5
492
100
AcDbEntity
8
0
100
AcDbLine
62
7
6
CONTINUOUS
10
7.9327650255
20
32.5257640976
11
10.8327650255
21
32.5257640976
0
LINE
5
493
100
AcDbEntity
8
0
100
AcDbLine
62
7
6
CONTINUOUS
10
13.6327650255
20
32.5257640976
11
16.5327650255
21
32.5257640976
0
LINE
5
494
100
AcDbEntity
8
0
100
AcDbLine
62
9
6
CONTINUOUS
10
6.2327650255
20
32.6133381177
11
18.2327650255
21
32.6133381177
0
LINE
5
495
100
AcDbEntity
8
0
100
AcDbLine
62
7
6
CONTINUOUS
10
6.2327650255
20
32.6475985563
11
18.2327650255
21
32.6475985563
0
ARC
5
496
100
AcDbEntity
8
0
100
AcDbCircle
62
7
6
CONTINUOUS
10
20.8827650255
20
17.6131320024
40
0.3000000000
100
AcDbArc
50
0.0000000000
51
90.0000000000
0
ARC
5
497
100
AcDbEntity
8
0
100
AcDbCircle
62
7
6
CONTINUOUS
10
3.5827650255
20
17.6131320024
40
0.3000000000
100
AcDbArc
50
90.0000000000
51
180.0000000000
0
ARC
5
498
100
AcDbEntity
8
0
100
AcDbCircle
62
7
6
CONTINUOUS
10
12.2327650255
20
9.4131320024
40
6.0000000000
100
AcDbArc
50
66.4435356909
51
113.5564643091
0
ARC
5
499
100
AcDbEntity
8
0
100
AcDbCircle
62
7
6
CONTINUOUS
10
6.0327650255
20
-7.0368679976
40
0.3000000000
100
AcDbArc
50
90.0000000000
51
180.0000000000
0
ARC
5
49A
100
AcDbEntity
8
0
100
AcDbCircle
62
7
6
CONTINUOUS
10
18.4327650255
20
-7.0368679976
40
0.3000000000
100
AcDbArc
50
0.0000000000
51
90.0000000000
0
ARC
5
49B
100
AcDbEntity
8
0
100
AcDbCircle
62
7
6
CONTINUOUS
10
6.0327650255
20
16.5631320024
40
0.3000000000
100
AcDbArc
50
239.9985965282
51
270.0000000000
0
ARC
5
49C
100
AcDbEntity
8
0
100
AcDbCircle
62
7
6
CONTINUOUS
10
18.4327650255
20
16.5631320024
40
0.3000000000
100
AcDbArc
50
270.0000000000
51
300.0014034718
0
ARC
5
49D
100
AcDbEntity
8
0
100
AcDbCircle
62
7
6
CONTINUOUS
10
12.2327650255
20
-12.0868679976
40
0.5000000000
100
AcDbArc
50
0.0000000000
51
180.0000000000
0
ARC
5
49E
100
AcDbEntity
8
0
100
AcDbCircle
62
9
6
CONTINUOUS
10
18.4327650255
20
-7.0368679976
40
0.5499936571
100
AcDbArc
50
0.0000000000
51
90.0000000000
0
ARC
5
49F
100
AcDbEntity
8
0
100
AcDbCircle
62
9
6
CONTINUOUS
10
6.0327650255
20
-7.0368679976
40
0.5499936547
100
AcDbArc
50
90.0000000000
51
180.0000000000
0
ARC
5
4A0
100
AcDbEntity
8
0
100
AcDbCircle
62
9
6
CONTINUOUS
10
12.2327650255
20
-12.0868679976
40
0.1999984797
100
AcDbArc
50
0.0000000000
51
180.0000000000
0
ARC
5
4A1
100
AcDbEntity
8
0
100
AcDbCircle
62
3
6
CONTINUOUS
10
16.1660312603
20
-16.1213345515
40
0.2000000000
100
AcDbArc
50
196.9854272590
51
270.0000000000
0
ARC
5
4A2
100
AcDbEntity
8
0
100
AcDbCircle
62
3
6
CONTINUOUS
10
8.2994987907
20
-16.1213345515
40
0.2000000000
100
AcDbArc
50
270.0000000000
51
343.0145727410
0
ARC
5
4A3
100
AcDbEntity
8
0
100
AcDbCircle
62
3
6
CONTINUOUS
10
8.2994987907
20
31.4475985563
40
0.2000000000
100
AcDbArc
50
16.9854272590
51
90.0000000000
0
ARC
5
4A4
100
AcDbEntity
8
0
100
AcDbCircle
62
3
6
CONTINUOUS
10
16.1660312603
20
31.4475985563
40
0.2000000000
100
AcDbArc
50
90.0000000000
51
163.0145727410
0
SPLINE
5
4A5
100
AcDbEntity
8
0
100
AcDbSpline
62
7
6
CONTINUOUS
70
0
71
3
72
22
73
18
74
16
42
0.0000001000
43
0.0000001000
44
0.0000000001
12
0.3659305376
22
0.0000000000
32
0.0000000000
13
0.0102259767
23
-0.3657876358
33
0.0000000000
40
0.0000000000
40
0.0000000000
40
0.0000000000
40
0.0000000000
40
0.0020002790
40
0.0062443531
40
0.0130011394
40
0.0223031974
40
0.0485103833
40
0.0847324186
40
0.1307248074
40
0.1859819573
40
0.2499311414
40
0.3219974439
40
0.4015567611
40
0.4877920767
40
0.6768282568
40
0.8819786269
40
1.0000000000
40
1.0000000000
40
1.0000000000
40
1.0000000000
10
15.6503081041
20
-12.3213345515
30
0.0000000000
10
15.6505520918
20
-12.3213345515
30
0.0000000000
10
15.6510772739
20
-12.3221088890
30
0.0000000000
10
15.6514879488
20
-12.3235283971
30
0.0000000000
10
15.6520441335
20
-12.3260016613
30
0.0000000000
10
15.6528170604
20
-12.3310676220
30
0.0000000000
10
15.6537581420
20
-12.3397930126
30
0.0000000000
10
15.6548078350
20
-12.3529654012
30
0.0000000000
10
15.6558742764
20
-12.3697046927
30
0.0000000000
10
15.6569481740
20
-12.3898251332
30
0.0000000000
10
15.6580279084
20
-12.4131316272
30
0.0000000000
10
15.6591105705
20
-12.4394043795
30
0.0000000000
10
15.6601942670
20
-12.4683977644
30
0.0000000000
10
15.6616875243
20
-12.5116531631
30
0.0000000000
10
15.6635187879
20
-12.5702250241
30
0.0000000000
10
15.6653245330
20
-12.6326764418
30
0.0000000000
10
15.6664313921
20
-12.6720803696
30
0.0000000000
10
15.6668336867
20
-12.6864706226
30
0.0000000000
11
15.6503081041
21
-12.3213345515
31
0.0000000000
11
15.6508549083
21
-12.3218211471
31
0.0000000000
11
15.6514017124
21
-12.3232747382
31
0.0000000000
11
15.6519485165
21
-12.3256860310
31
0.0000000000
11
15.6524953207
21
-12.3290457317
31
0.0000000000
11
15.6535889290
21
-12.3385731818
31
0.0000000000
11
15.6546825373
21
-12.3517827385
31
0.0000000000
11
15.6557761456
21
-12.3685771893
31
0.0000000000
11
15.6568697539
21
-12.3887678725
31
0.0000000000
11
15.6579633622
21
-12.4121432638
31
0.0000000000
11
15.6590569705
21
-12.4384918390
31
0.0000000000
11
15.6601505788
21
-12.4675844753
31
0.0000000000
11
15.6612441870
21
-12.4991216550
31
0.0000000000
11
15.6634314036
21
-12.5682611785
31
0.0000000000
11
15.6656186202
21
-12.6433000943
31
0.0000000000
11
15.6668336867
21
-12.6864706226
31
0.0000000000
0
SPLINE
5
4A6
100
AcDbEntity
8
0
100
AcDbSpline
62
7
6
CONTINUOUS
70
0
71
3
72
8
73
4
74
2
42
0.0000001000
43
0.0000001000
44
0.0000000001
12
0.0009746557
22
-0.0348638590
32
0.0000000000
13
0.0009709093
23
-0.0348639627
33
0.0000000000
40
0.0000000000
40
0.0000000000
40
0.0000000000
40
0.0000000000
40
1.0000000000
40
1.0000000000
40
1.0000000000
40
1.0000000000
10
15.6668336867
20
-12.6864706226
30
0.0000000000
10
15.6671585720
20
-12.6980919090
30
0.0000000000
10
15.6674822004
20
-12.7097132306
30
0.0000000000
10
15.6678058368
20
-12.7213345515
30
0.0000000000
11
15.6668336867
21
-12.6864706226
31
0.0000000000
11
15.6678058368
21
-12.7213345515
31
0.0000000000
0
SPLINE
5
4A7
100
AcDbEntity
8
0
100
AcDbSpline
62
7
6
CONTINUOUS
70
0
71
3
72
8
73
4
74
2
42
0.0000001000
43
0.0000001000
44
0.0000000001
12
0.0009709093
22
0.0348639627
32
0.0000000000
13
0.0009746557
23
0.0348638590
33
0.0000000000
40
0.0000000000
40
0.0000000000
40
0.0000000000
40
0.0000000000
40
1.0000000000
40
1.0000000000
40
1.0000000000
40
1.0000000000
10
8.7977242142
20
-12.7213345515
30
0.0000000000
10
8.7980478506
20
-12.7097132306
30
0.0000000000
10
8.7983714791
20
-12.6980919090
30
0.0000000000
10
8.7986963643
20
-12.6864706226
30
0.0000000000
11
8.7977242142
21
-12.7213345515
31
0.0000000000
11
8.7986963643
21
-12.6864706226
31
0.0000000000
0
SPLINE
5
4A8
100
AcDbEntity
8
0
100
AcDbSpline
62
7
6
CONTINUOUS
70
0
71
3
72
22
73
18
74
16
42
0.0000001000
43
0.0000001000
44
0.0000000001
12
0.0102259767
22
0.3657876358
32
0.0000000000
13
0.3659305376
23
0.0000000000
33
0.0000000000
40
0.0000000000
40
0.0000000000
40
0.0000000000
40
0.0000000000
40
0.1180213731
40
0.3231717432
40
0.5122079233
40
0.5984432389
40
0.6780025561
40
0.7500688586
40
0.8140180427
40
0.8692751926
40
0.9152675814
40
0.9514896167
40
0.9776968026
40
0.9869988606
40
0.9937556469
40
0.9979997210
40
1.0000000000
40
1.0000000000
40
1.0000000000
40
1.0000000000
10
8.7986963643
20
-12.6864706226
30
0.0000000000
10
8.7990986589
20
-12.6720803696
30
0.0000000000
10
8.8002055180
20
-12.6326764418
30
0.0000000000
10
8.8020112631
20
-12.5702250241
30
0.0000000000
10
8.8038425267
20
-12.5116531631
30
0.0000000000
10
8.8053357840
20
-12.4683977644
30
0.0000000000
10
8.8064194805
20
-12.4394043795
30
0.0000000000
10
8.8075021426
20
-12.4131316272
30
0.0000000000
10
8.8085818770
20
-12.3898251332
30
0.0000000000
10
8.8096557746
20
-12.3697046927
30
0.0000000000
10
8.8107222160
20
-12.3529654012
30
0.0000000000
10
8.8117719090
20
-12.3397930126
30
0.0000000000
10
8.8127129906
20
-12.3310676220
30
0.0000000000
10
8.8134859175
20
-12.3260016613
30
0.0000000000
10
8.8140421022
20
-12.3235283971
30
0.0000000000
10
8.8144527771
20
-12.3221088890
30
0.0000000000
10
8.8149779592
20
-12.3213345515
30
0.0000000000
10
8.8152219469
20
-12.3213345515
30
0.0000000000
11
8.7986963643
21
-12.6864706226
31
0.0000000000
11
8.7999114308
21
-12.6433000943
31
0.0000000000
11
8.8020986474
21
-12.5682611785
31
0.0000000000
11
8.8042858640
21
-12.4991216550
31
0.0000000000
11
8.8053794723
21
-12.4675844753
31
0.0000000000
11
8.8064730805
21
-12.4384918390
31
0.0000000000
11
8.8075666888
21
-12.4121432638
31
0.0000000000
11
8.8086602971
21
-12.3887678725
31
0.0000000000
11
8.8097539054
21
-12.3685771893
31
0.0000000000
11
8.8108475137
21
-12.3517827385
31
0.0000000000
11
8.8119411220
21
-12.3385731818
31
0.0000000000
11
8.8130347303
21
-12.3290457317
31
0.0000000000
11
8.8135815345
21
-12.3256860310
31
0.0000000000
11
8.8141283386
21
-12.3232747382
31
0.0000000000
11
8.8146751428
21
-12.3218211471
31
0.0000000000
11
8.8152219469
21
-12.3213345515
31
0.0000000000
0
SPLINE
5
4A9
100
AcDbEntity
8
0
100
AcDbSpline
62
7
6
CONTINUOUS
70
0
71
3
72
15
73
11
74
9
42
0.0000001000
43
0.0000001000
44
0.0000000001
12
0.2198589173
22
0.0000000000
32
0.0000000000
13
0.0000000000
23
-0.2198589173
33
0.0000000000
40
0.0000000000
40
0.0000000000
40
0.0000000000
40
0.0000000000
40
0.1775508236
40
0.3489475586
40
0.5083491360
40
0.6505618283
40
0.7714455810
40
0.8685458831
40
0.9424410166
40
1.0000000000
40
1.0000000000
40
1.0000000000
40
1.0000000000
10
16.5327650255
20
-16.1797440114
30
0.0000000000
10
16.5457770694
20
-16.1797440114
30
0.0000000000
10
16.5713574087
20
-16.1805089744
30
0.0000000000
10
16.6084797698
20
-16.1839252758
30
0.0000000000
10
16.6427338865
20
-16.1894616768
30
0.0000000000
10
16.6728305553
20
-16.1968988965
30
0.0000000000
10
16.6977228759
20
-16.2059171343
30
0.0000000000
10
16.7165548772
20
-16.2162669912
30
0.0000000000
10
16.7291824608
20
-16.2277141544
30
0.0000000000
10
16.7327650255
20
-16.2373291250
30
0.0000000000
10
16.7327650255
20
-16.2415474102
30
0.0000000000
11
16.5327650255
21
-16.1797440114
31
0.0000000000
11
16.5717830899
21
-16.1809315463
31
0.0000000000
11
16.6093017120
21
-16.1844485150
31
0.0000000000
11
16.6438790721
21
-16.1901597621
31
0.0000000000
11
16.6741863817
21
-16.1978458078
31
0.0000000000
11
16.6990589480
21
-16.2072112815
31
0.0000000000
11
16.7175409320
21
-16.2178962734
31
0.0000000000
11
16.7289220816
21
-16.2294901652
31
0.0000000000
11
16.7327650255
21
-16.2415474102
31
0.0000000000
0
SPLINE
5
4AA
100
AcDbEntity
8
0
100
AcDbSpline
62
7
6
CONTINUOUS
70
0
71
3
72
15
73
11
74
9
42
0.0000001000
43
0.0000001000
44
0.0000000001
12
0.2198589173
22
0.0000000000
32
0.0000000000
13
0.0000000000
23
-0.2198589173
33
0.0000000000
40
0.0000000000
40
0.0000000000
40
0.0000000000
40
0.0000000000
40
0.1775508236
40
0.3489475586
40
0.5083491360
40
0.6505618283
40
0.7714455810
40
0.8685458831
40
0.9424410166
40
1.0000000000
40
1.0000000000
40
1.0000000000
40
1.0000000000
10
10.8327650255
20
-16.1797440114
30
0.0000000000
10
10.8457770694
20
-16.1797440114
30
0.0000000000
10
10.8713574087
20
-16.1805089744
30
0.0000000000
10
10.9084797698
20
-16.1839252758
30
0.0000000000
10
10.9427338865
20
-16.1894616768
30
0.0000000000
10
10.9728305553
20
-16.1968988965
30
0.0000000000
10
10.9977228759
20
-16.2059171343
30
0.0000000000
10
11.0165548772
20
-16.2162669912
30
0.0000000000
10
11.0291824608
20
-16.2277141544
30
0.0000000000
10
11.0327650255
20
-16.2373291250
30
0.0000000000
10
11.0327650255
20
-16.2415474102
30
0.0000000000
11
10.8327650255
21
-16.1797440114
31
0.0000000000
11
10.8717830899
21
-16.1809315463
31
0.0000000000
11
10.9093017120
21
-16.1844485150
31
0.0000000000
11
10.9438790721
21
-16.1901597621
31
0.0000000000
11
10.9741863817
21
-16.1978458078
31
0.0000000000
11
10.9990589480
21
-16.2072112815
31
0.0000000000
11
11.0175409320
21
-16.2178962734
31
0.0000000000
11
11.0289220816
21
-16.2294901652
31
0.0000000000
11
11.0327650255
21
-16.2415474102
31
0.0000000000
0
SPLINE
5
4AB
100
AcDbEntity
8
0
100
AcDbSpline
62
7
6
CONTINUOUS
70
0
71
3
72
15
73
11
74
9
42
0.0000001000
43
0.0000001000
44
0.0000000001
12
0.0000000000
22
0.2198589173
32
0.0000000000
13
0.2198589173
23
0.0000000000
33
0.0000000000
40
0.0000000000
40
0.0000000000
40
0.0000000000
40
0.0000000000
40
0.0575589834
40
0.1314541169
40
0.2285544190
40
0.3494381717
40
0.4916508640
40
0.6510524414
40
0.8224491764
40
1.0000000000
40
1.0000000000
40
1.0000000000
40
1.0000000000
10
13.4327650255
20
-16.2415474102
30
0.0000000000
10
13.4327650255
20
-16.2373291250
30
0.0000000000
10
13.4363475902
20
-16.2277141544
30
0.0000000000
10
13.4489751738
20
-16.2162669912
30
0.0000000000
10
13.4678071751
20
-16.2059171343
30
0.0000000000
10
13.4926994957
20
-16.1968988965
30
0.0000000000
10
13.5227961645
20
-16.1894616768
30
0.0000000000
10
13.5570502812
20
-16.1839252758
30
0.0000000000
10
13.5941726423
20
-16.1805089744
30
0.0000000000
10
13.6197529816
20
-16.1797440114
30
0.0000000000
10
13.6327650255
20
-16.1797440114
30
0.0000000000
11
13.4327650255
21
-16.2415474102
31
0.0000000000
11
13.4366079694
21
-16.2294901652
31
0.0000000000
11
13.4479891190
21
-16.2178962734
31
0.0000000000
11
13.4664711030
21
-16.2072112815
31
0.0000000000
11
13.4913436693
21
-16.1978458078
31
0.0000000000
11
13.5216509789
21
-16.1901597621
31
0.0000000000
11
13.5562283390
21
-16.1844485150
31
0.0000000000
11
13.5937469611
21
-16.1809315463
31
0.0000000000
11
13.6327650255
21
-16.1797440114
31
0.0000000000
0
SPLINE
5
4AC
100
AcDbEntity
8
0
100
AcDbSpline
62
7
6
CONTINUOUS
70
0
71
3
72
15
73
11
74
9
42
0.0000001000
43
0.0000001000
44
0.0000000001
12
0.0000000000
22
0.2198589173
32
0.0000000000
13
0.2198589173
23
0.0000000000
33
0.0000000000
40
0.0000000000
40
0.0000000000
40
0.0000000000
40
0.0000000000
40
0.0575589834
40
0.1314541169
40
0.2285544190
40
0.3494381717
40
0.4916508640
40
0.6510524414
40
0.8224491764
40
1.0000000000
40
1.0000000000
40
1.0000000000
40
1.0000000000
10
7.7327650255
20
-16.2415474102
30
0.0000000000
10
7.7327650255
20
-16.2373291250
30
0.0000000000
10
7.7363475902
20
-16.2277141544
30
0.0000000000
10
7.7489751738
20
-16.2162669912
30
0.0000000000
10
7.7678071751
20
-16.2059171343
30
0.0000000000
10
7.7926994957
20
-16.1968988965
30
0.0000000000
10
7.8227961645
20
-16.1894616768
30
0.0000000000
10
7.8570502812
20
-16.1839252758
30
0.0000000000
10
7.8941726423
20
-16.1805089744
30
0.0000000000
10
7.9197529816
20
-16.1797440114
30
0.0000000000
10
7.9327650255
20
-16.1797440114
30
0.0000000000
11
7.7327650255
21
-16.2415474102
31
0.0000000000
11
7.7366079694
21
-16.2294901652
31
0.0000000000
11
7.7479891190
21
-16.2178962734
31
0.0000000000
11
7.7664711030
21
-16.2072112815
31
0.0000000000
11
7.7913436693
21
-16.1978458078
31
0.0000000000
11
7.8216509789
21
-16.1901597621
31
0.0000000000
11
7.8562283390
21
-16.1844485150
31
0.0000000000
11
7.8937469611
21
-16.1809315463
31
0.0000000000
11
7.9327650255
21
-16.1797440114
31
0.0000000000
0
SPLINE
5
4AD
100
AcDbEntity
8
0
100
AcDbSpline
62
7
6
CONTINUOUS
70
0
71
3
72
15
73
11
74
9
42
0.0000001000
43
0.0000001000
44
0.0000000001
12
0.0000000000
22
-0.2198589173
32
0.0000000000
13
-0.2198589173
23
0.0000000000
33
0.0000000000
40
0.0000000000
40
0.0000000000
40
0.0000000000
40
0.0000000000
40
0.0575589834
40
0.1314541169
40
0.2285544190
40
0.3494381717
40
0.4916508640
40
0.6510524414
40
0.8224491764
40
1.0000000000
40
1.0000000000
40
1.0000000000
40
1.0000000000
10
8.4827650255
20
-15.0907026077
30
0.0000000000
10
8.4827650255
20
-15.0949208929
30
0.0000000000
10
8.4791824608
20
-15.1045358635
30
0.0000000000
10
8.4665548772
20
-15.1159830267
30
0.0000000000
10
8.4477228759
20
-15.1263328836
30
0.0000000000
10
8.4228305553
20
-15.1353511213
30
0.0000000000
10
8.3927338865
20
-15.1427883411
30
0.0000000000
10
8.3584797698
20
-15.1483247421
30
0.0000000000
10
8.3213574087
20
-15.1517410435
30
0.0000000000
10
8.2957770694
20
-15.1525060065
30
0.0000000000
10
8.2827650255
20
-15.1525060065
30
0.0000000000
11
8.4827650255
21
-15.0907026077
31
0.0000000000
11
8.4789220816
21
-15.1027598526
31
0.0000000000
11
8.4675409320
21
-15.1143537445
31
0.0000000000
11
8.4490589480
21
-15.1250387364
31
0.0000000000
11
8.4241863817
21
-15.1344042101
31
0.0000000000
11
8.3938790721
21
-15.1420902558
31
0.0000000000
11
8.3593017120
21
-15.1478015029
31
0.0000000000
11
8.3217830899
21
-15.1513184715
31
0.0000000000
11
8.2827650255
21
-15.1525060065
31
0.0000000000
0
SPLINE
5
4AE
100
AcDbEntity
8
0
100
AcDbSpline
62
7
6
CONTINUOUS
70
0
71
3
72
15
73
11
74
9
42
0.0000001000
43
0.0000001000
44
0.0000000001
12
-0.2198589173
22
0.0000000000
32
0.0000000000
13
0.0000000000
23
0.2198589173
33
0.0000000000
40
0.0000000000
40
0.0000000000
40
0.0000000000
40
0.0000000000
40
0.1775508236
40
0.3489475586
40
0.5083491360
40
0.6505618283
40
0.7714455810
40
0.8685458831
40
0.9424410166
40
1.0000000000
40
1.0000000000
40
1.0000000000
40
1.0000000000
10
16.1827650255
20
-15.1525060065
30
0.0000000000
10
16.1697529816
20
-15.1525060065
30
0.0000000000
10
16.1441726423
20
-15.1517410435
30
0.0000000000
10
16.1070502812
20
-15.1483247421
30
0.0000000000
10
16.0727961645
20
-15.1427883411
30
0.0000000000
10
16.0426994957
20
-15.1353511213
30
0.0000000000
10
16.0178071751
20
-15.1263328836
30
0.0000000000
10
15.9989751738
20
-15.1159830267
30
0.0000000000
10
15.9863475902
20
-15.1045358635
30
0.0000000000
10
15.9827650255
20
-15.0949208929
30
0.0000000000
10
15.9827650255
20
-15.0907026077
30
0.0000000000
11
16.1827650255
21
-15.1525060065
31
0.0000000000
11
16.1437469611
21
-15.1513184715
31
0.0000000000
11
16.1062283390
21
-15.1478015029
31
0.0000000000
11
16.0716509789
21
-15.1420902558
31
0.0000000000
11
16.0413436693
21
-15.1344042101
31
0.0000000000
11
16.0164711030
21
-15.1250387364
31
0.0000000000
11
15.9979891190
21
-15.1143537445
31
0.0000000000
11
15.9866079694
21
-15.1027598526
31
0.0000000000
11
15.9827650255
21
-15.0907026077
31
0.0000000000
0
SPLINE
5
4AF
100
AcDbEntity
8
0
100
AcDbSpline
62
7
6
CONTINUOUS
70
0
71
3
72
15
73
11
74
9
42
0.0000001000
43
0.0000001000
44
0.0000000001
12
-0.2198589173
22
0.0000000000
32
0.0000000000
13
0.0000000000
23
0.2198589173
33
0.0000000000
40
0.0000000000
40
0.0000000000
40
0.0000000000
40
0.0000000000
40
0.1775508236
40
0.3489475586
40
0.5083491360
40
0.6505618283
40
0.7714455810
40
0.8685458831
40
0.9424410166
40
1.0000000000
40
1.0000000000
40
1.0000000000
40
1.0000000000
10
13.6327650255
20
-17.1995000928
30
0.0000000000
10
13.6197529816
20
-17.1995000928
30
0.0000000000
10
13.5941726423
20
-17.1987351297
30
0.0000000000
10
13.5570502812
20
-17.1953188283
30
0.0000000000
10
13.5227961645
20
-17.1897824273
30
0.0000000000
10
13.4926994957
20
-17.1823452076
30
0.0000000000
10
13.4678071751
20
-17.1733269699
30
0.0000000000
10
13.4489751738
20
-17.1629771130
30
0.0000000000
10
13.4363475902
20
-17.1515299497
30
0.0000000000
10
13.4327650255
20
-17.1419149792
30
0.0000000000
10
13.4327650255
20
-17.1376966939
30
0.0000000000
11
13.6327650255
21
-17.1995000928
31
0.0000000000
11
13.5937469611
21
-17.1983125578
31
0.0000000000
11
13.5562283390
21
-17.1947955892
31
0.0000000000
11
13.5216509789
21
-17.1890843420
31
0.0000000000
11
13.4913436693
21
-17.1813982964
31
0.0000000000
11
13.4664711030
21
-17.1720328226
31
0.0000000000
11
13.4479891190
21
-17.1613478307
31
0.0000000000
11
13.4366079694
21
-17.1497539389
31
0.0000000000
11
13.4327650255
21
-17.1376966939
31
0.0000000000
0
SPLINE
5
4B0
100
AcDbEntity
8
0
100
AcDbSpline
62
7
6
CONTINUOUS
70
0
71
3
72
15
73
11
74
9
42
0.0000001000
43
0.0000001000
44
0.0000000001
12
-0.0014006394
22
0.2483099203
32
0.0000000000
13
0.2483138706
23
-0.0000000000
33
0.0000000000
40
0.0000000000
40
0.0000000000
40
0.0000000000
40
0.0000000000
40
0.0926202882
40
0.1777653558
40
0.2617319066
40
0.3526553716
40
0.4603908153
40
0.5958910118
40
0.7707964804
40
1.0000000000
40
1.0000000000
40
1.0000000000
40
1.0000000000
10
15.9827650255
20
-12.8151087767
30
0.0000000000
10
15.9827217830
20
-12.8074425979
30
0.0000000000
10
15.9841420120
20
-12.7926389077
30
0.0000000000
10
15.9919480234
20
-12.7720832211
30
0.0000000000
10
16.0058866686
20
-12.7551924266
30
0.0000000000
10
16.0256569628
20
-12.7421959781
30
0.0000000000
10
16.0517368038
20
-12.7325120269
30
0.0000000000
10
16.0857813284
20
-12.7257590328
30
0.0000000000
10
16.1303318374
20
-12.7218840818
30
0.0000000000
10
16.1637935545
20
-12.7213345515
30
0.0000000000
10
16.1827650255
20
-12.7213345515
30
0.0000000000
11
15.9827650255
21
-12.8151087767
31
0.0000000000
11
15.9852554426
21
-12.7922451084
31
0.0000000000
11
15.9930025371
21
-12.7725728857
31
0.0000000000
11
16.0061728521
21
-12.7564091060
31
0.0000000000
11
16.0248177497
21
-12.7436767105
31
0.0000000000
11
16.0497308060
21
-12.7339288852
31
0.0000000000
11
16.0826405461
21
-12.7269259404
31
0.0000000000
11
16.1258673482
21
-12.7227146734
31
0.0000000000
11
16.1827650255
21
-12.7213345515
31
0.0000000000
0
SPLINE
5
4B1
100
AcDbEntity
8
0
100
AcDbSpline
62
7
6
CONTINUOUS
70
0
71
3
72
15
73
11
74
9
42
0.0000001000
43
0.0000001000
44
0.0000000001
12
0.0000000000
22
-0.2198589173
32
0.0000000000
13
-0.2198589173
23
0.0000000000
33
0.0000000000
40
0.0000000000
40
0.0000000000
40
0.0000000000
40
0.0000000000
40
0.0575589834
40
0.1314541169
40
0.2285544190
40
0.3494381717
40
0.4916508640
40
0.6510524414
40
0.8224491764
40
1.0000000000
40
1.0000000000
40
1.0000000000
40
1.0000000000
10
16.7327650255
20
-17.1376966939
30
0.0000000000
10
16.7327650255
20
-17.1419149792
30
0.0000000000
10
16.7291824608
20
-17.1515299497
30
0.0000000000
10
16.7165548772
20
-17.1629771130
30
0.0000000000
10
16.6977228759
20
-17.1733269699
30
0.0000000000
10
16.6728305553
20
-17.1823452076
30
0.0000000000
10
16.6427338865
20
-17.1897824273
30
0.0000000000
10
16.6084797698
20
-17.1953188283
30
0.0000000000
10
16.5713574087
20
-17.1987351297
30
0.0000000000
10
16.5457770694
20
-17.1995000928
30
0.0000000000
10
16.5327650255
20
-17.1995000928
30
0.0000000000
11
16.7327650255
21
-17.1376966939
31
0.0000000000
11
16.7289220816
21
-17.1497539389
31
0.0000000000
11
16.7175409320
21
-17.1613478307
31
0.0000000000
11
16.6990589480
21
-17.1720328226
31
0.0000000000
11
16.6741863817
21
-17.1813982964
31
0.0000000000
11
16.6438790721
21
-17.1890843420
31
0.0000000000
11
16.6093017120
21
-17.1947955892
31
0.0000000000
11
16.5717830899
21
-17.1983125578
31
0.0000000000
11
16.5327650255
21
-17.1995000928
31
0.0000000000
0
SPLINE
5
4B2
100
AcDbEntity
8
0
100
AcDbSpline
62
7
6
CONTINUOUS
70
0
71
3
72
15
73
11
74
9
42
0.0000001000
43
0.0000001000
44
0.0000000001
12
0.2483138888
22
0.0000000000
32
0.0000000000
13
-0.0014001197
23
-0.2483099414
33
0.0000000000
40
0.0000000000
40
0.0000000000
40
0.0000000000
40
0.0000000000
40
0.2292119856
40
0.4041239592
40
0.5396273611
40
0.6473625758
40
0.7382831531
40
0.8222452540
40
0.9073850020
40
1.0000000000
40
1.0000000000
40
1.0000000000
40
1.0000000000
10
8.2827650255
20
-12.7213345515
30
0.0000000000
10
8.3017371987
20
-12.7213345515
30
0.0000000000
10
8.3352001590
20
-12.7218841190
30
0.0000000000
10
8.3797521611
20
-12.7257594260
30
0.0000000000
10
8.4137973780
20
-12.7325130864
30
0.0000000000
10
8.4398769601
20
-12.7421978546
30
0.0000000000
10
8.4596461235
20
-12.7551949228
30
0.0000000000
10
8.4735832215
20
-12.7720855755
30
0.0000000000
10
8.4813882017
20
-12.7926402423
30
0.0000000000
10
8.4828082495
20
-12.8074430351
30
0.0000000000
10
8.4827650255
20
-12.8151087767
30
0.0000000000
11
8.2827650255
21
-12.7213345515
31
0.0000000000
11
8.3396648069
21
-12.7227147923
31
0.0000000000
11
8.3828931930
21
-12.7269264916
31
0.0000000000
11
8.4158035955
21
-12.7339301595
31
0.0000000000
11
8.4407162841
21
-12.7436787740
31
0.0000000000
11
8.4593599938
21
-12.7564116404
31
0.0000000000
11
8.4725288527
21
-12.7725751831
31
0.0000000000
11
8.4802749135
21
-12.7922463949
31
0.0000000000
11
8.4827650255
21
-12.8151087767
31
0.0000000000
0
SPLINE
5
4B3
100
AcDbEntity
8
0
100
AcDbSpline
62
7
6
CONTINUOUS
70
0
71
3
72
15
73
11
74
9
42
0.0000001000
43
0.0000001000
44
0.0000000001
12
-0.2198589173
22
0.0000000000
32
0.0000000000
13
0.0000000000
23
0.2198589173
33
0.0000000000
40
0.0000000000
40
0.0000000000
40
0.0000000000
40
0.0000000000
40
0.1775508236
40
0.3489475586
40
0.5083491360
40
0.6505618283
40
0.7714455810
40
0.8685458831
40
0.9424410166
40
1.0000000000
40
1.0000000000
40
1.0000000000
40
1.0000000000
10
7.9327650255
20
-17.1995000928
30
0.0000000000
10
7.9197529816
20
-17.1995000928
30
0.0000000000
10
7.8941726423
20
-17.1987351297
30
0.0000000000
10
7.8570502812
20
-17.1953188283
30
0.0000000000
10
7.8227961645
20
-17.1897824273
30
0.0000000000
10
7.7926994957
20
-17.1823452076
30
0.0000000000
10
7.7678071751
20
-17.1733269699
30
0.0000000000
10
7.7489751738
20
-17.1629771130
30
0.0000000000
10
7.7363475902
20
-17.1515299497
30
0.0000000000
10
7.7327650255
20
-17.1419149792
30
0.0000000000
10
7.7327650255
20
-17.1376966939
30
0.0000000000
11
7.9327650255
21
-17.1995000928
31
0.0000000000
11
7.8937469611
21
-17.1983125578
31
0.0000000000
11
7.8562283390
21
-17.1947955892
31
0.0000000000
11
7.8216509789
21
-17.1890843420
31
0.0000000000
11
7.7913436693
21
-17.1813982964
31
0.0000000000
11
7.7664711030
21
-17.1720328226
31
0.0000000000
11
7.7479891190
21
-17.1613478307
31
0.0000000000
11
7.7366079694
21
-17.1497539389
31
0.0000000000
11
7.7327650255
21
-17.1376966939
31
0.0000000000
0
SPLINE
5
4B4
100
AcDbEntity
8
0
100
AcDbSpline
62
7
6
CONTINUOUS
70
0
71
3
72
15
73
11
74
9
42
0.0000001000
43
0.0000001000
44
0.0000000001
12
0.0000000000
22
-0.2198589173
32
0.0000000000
13
-0.2198589173
23
0.0000000000
33
0.0000000000
40
0.0000000000
40
0.0000000000
40
0.0000000000
40
0.0000000000
40
0.0575589834
40
0.1314541169
40
0.2285544190
40
0.3494381717
40
0.4916508640
40
0.6510524414
40
0.8224491764
40
1.0000000000
40
1.0000000000
40
1.0000000000
40
1.0000000000
10
11.0327650255
20
-17.1376966939
30
0.0000000000
10
11.0327650255
20
-17.1419149792
30
0.0000000000
10
11.0291824608
20
-17.1515299497
30
0.0000000000
10
11.0165548772
20
-17.1629771130
30
0.0000000000
10
10.9977228759
20
-17.1733269699
30
0.0000000000
10
10.9728305553
20
-17.1823452076
30
0.0000000000
10
10.9427338865
20
-17.1897824273
30
0.0000000000
10
10.9084797698
20
-17.1953188283
30
0.0000000000
10
10.8713574087
20
-17.1987351297
30
0.0000000000
10
10.8457770694
20
-17.1995000928
30
0.0000000000
10
10.8327650255
20
-17.1995000928
30
0.0000000000
11
11.0327650255
21
-17.1376966939
31
0.0000000000
11
11.0289220816
21
-17.1497539389
31
0.0000000000
11
11.0175409320
21
-17.1613478307
31
0.0000000000
11
10.9990589480
21
-17.1720328226
31
0.0000000000
11
10.9741863817
21
-17.1813982964
31
0.0000000000
11
10.9438790721
21
-17.1890843420
31
0.0000000000
11
10.9093017120
21
-17.1947955892
31
0.0000000000
11
10.8717830899
21
-17.1983125578
31
0.0000000000
11
10.8327650255
21
-17.1995000928
31
0.0000000000
0
SPLINE
5
4B5
100
AcDbEntity
8
0
100
AcDbSpline
62
7
6
CONTINUOUS
70
0
71
3
72
22
73
18
74
16
42
0.0000001000
43
0.0000001000
44
0.0000000001
12
-0.3659305376
22
0.0000000000
32
0.0000000000
13
-0.0102259767
23
0.3657876358
33
0.0000000000
40
0.0000000000
40
0.0000000000
40
0.0000000000
40
0.0000000000
40
0.0020002790
40
0.0062443531
40
0.0130011394
40
0.0223031974
40
0.0485103833
40
0.0847324186
40
0.1307248074
40
0.1859819573
40
0.2499311414
40
0.3219974439
40
0.4015567611
40
0.4877920767
40
0.6768282568
40
0.8819786269
40
1.0000000000
40
1.0000000000
40
1.0000000000
40
1.0000000000
10
8.8152219469
20
27.6475985563
30
0.0000000000
10
8.8149779592
20
27.6475985563
30
0.0000000000
10
8.8144527771
20
27.6483728938
30
0.0000000000
10
8.8140421022
20
27.6497924018
30
0.0000000000
10
8.8134859175
20
27.6522656661
30
0.0000000000
10
8.8127129906
20
27.6573316268
30
0.0000000000
10
8.8117719090
20
27.6660570173
30
0.0000000000
10
8.8107222160
20
27.6792294060
30
0.0000000000
10
8.8096557746
20
27.6959686975
30
0.0000000000
10
8.8085818770
20
27.7160891380
30
0.0000000000
10
8.8075021426
20
27.7393956320
30
0.0000000000
10
8.8064194805
20
27.7656683843
30
0.0000000000
10
8.8053357840
20
27.7946617691
30
0.0000000000
10
8.8038425267
20
27.8379171679
30
0.0000000000
10
8.8020112631
20
27.8964890288
30
0.0000000000
10
8.8002055180
20
27.9589404466
30
0.0000000000
10
8.7990986589
20
27.9983443744
30
0.0000000000
10
8.7986963643
20
28.0127346274
30
0.0000000000
11
8.8152219469
21
27.6475985563
31
0.0000000000
11
8.8146751428
21
27.6480851519
31
0.0000000000
11
8.8141283386
21
27.6495387430
31
0.0000000000
11
8.8135815345
21
27.6519500358
31
0.0000000000
11
8.8130347303
21
27.6553097365
31
0.0000000000
11
8.8119411220
21
27.6648371866
31
0.0000000000
11
8.8108475137
21
27.6780467433
31
0.0000000000
11
8.8097539054
21
27.6948411941
31
0.0000000000
11
8.8086602971
21
27.7150318773
31
0.0000000000
11
8.8075666888
21
27.7384072686
31
0.0000000000
11
8.8064730805
21
27.7647558438
31
0.0000000000
11
8.8053794723
21
27.7938484801
31
0.0000000000
11
8.8042858640
21
27.8253856598
31
0.0000000000
11
8.8020986474
21
27.8945251833
31
0.0000000000
11
8.7999114308
21
27.9695640991
31
0.0000000000
11
8.7986963643
21
28.0127346274
31
0.0000000000
0
SPLINE
5
4B6
100
AcDbEntity
8
0
100
AcDbSpline
62
7
6
CONTINUOUS
70
0
71
3
72
8
73
4
74
2
42
0.0000001000
43
0.0000001000
44
0.0000000001
12
-0.0009746557
22
0.0348638590
32
0.0000000000
13
-0.0009709093
23
0.0348639627
33
0.0000000000
40
0.0000000000
40
0.0000000000
40
0.0000000000
40
0.0000000000
40
1.0000000000
40
1.0000000000
40
1.0000000000
40
1.0000000000
10
8.7986963643
20
28.0127346274
30
0.0000000000
10
8.7983714791
20
28.0243559138
30
0.0000000000
10
8.7980478506
20
28.0359772354
30
0.0000000000
10
8.7977242142
20
28.0475985563
30
0.0000000000
11
8.7986963643
21
28.0127346274
31
0.0000000000
11
8.7977242142
21
28.0475985563
31
0.0000000000
0
SPLINE
5
4B7
100
AcDbEntity
8
0
100
AcDbSpline
62
7
6
CONTINUOUS
70
0
71
3
72
8
73
4
74
2
42
0.0000001000
43
0.0000001000
44
0.0000000001
12
-0.0009709093
22
-0.0348639627
32
0.0000000000
13
-0.0009746557
23
-0.0348638590
33
0.0000000000
40
0.0000000000
40
0.0000000000
40
0.0000000000
40
0.0000000000
40
1.0000000000
40
1.0000000000
40
1.0000000000
40
1.0000000000
10
15.6678058368
20
28.0475985563
30
0.0000000000
10
15.6674822004
20
28.0359772354
30
0.0000000000
10
15.6671585720
20
28.0243559138
30
0.0000000000
10
15.6668336867
20
28.0127346274
30
0.0000000000
11
15.6678058368
21
28.0475985563
31
0.0000000000
11
15.6668336867
21
28.0127346274
31
0.0000000000
0
SPLINE
5
4B8
100
AcDbEntity
8
0
100
AcDbSpline
62
7
6
CONTINUOUS
70
0
71
3
72
22
73
18
74
16
42
0.0000001000
43
0.0000001000
44
0.0000000001
12
-0.0102259767
22
-0.3657876358
32
0.0000000000
13
-0.3659305376
23
-0.0000000000
33
0.0000000000
40
0.0000000000
40
0.0000000000
40
0.0000000000
40
0.0000000000
40
0.1180213731
40
0.3231717432
40
0.5122079233
40
0.5984432389
40
0.6780025561
40
0.7500688586
40
0.8140180427
40
0.8692751926
40
0.9152675814
40
0.9514896167
40
0.9776968026
40
0.9869988606
40
0.9937556469
40
0.9979997210
40
1.0000000000
40
1.0000000000
40
1.0000000000
40
1.0000000000
10
15.6668336867
20
28.0127346274
30
0.0000000000
10
15.6664313921
20
27.9983443744
30
0.0000000000
10
15.6653245330
20
27.9589404466
30
0.0000000000
10
15.6635187879
20
27.8964890288
30
0.0000000000
10
15.6616875243
20
27.8379171679
30
0.0000000000
10
15.6601942670
20
27.7946617691
30
0.0000000000
10
15.6591105705
20
27.7656683843
30
0.0000000000
10
15.6580279084
20
27.7393956320
30
0.0000000000
10
15.6569481740
20
27.7160891380
30
0.0000000000
10
15.6558742764
20
27.6959686975
30
0.0000000000
10
15.6548078350
20
27.6792294060
30
0.0000000000
10
15.6537581420
20
27.6660570173
30
0.0000000000
10
15.6528170604
20
27.6573316268
30
0.0000000000
10
15.6520441335
20
27.6522656661
30
0.0000000000
10
15.6514879488
20
27.6497924018
30
0.0000000000
10
15.6510772739
20
27.6483728938
30
0.0000000000
10
15.6505520918
20
27.6475985563
30
0.0000000000
10
15.6503081041
20
27.6475985563
30
0.0000000000
11
15.6668336867
21
28.0127346274
31
0.0000000000
11
15.6656186202
21
27.9695640991
31
0.0000000000
11
15.6634314036
21
27.8945251833
31
0.0000000000
11
15.6612441870
21
27.8253856598
31
0.0000000000
11
15.6601505788
21
27.7938484801
31
0.0000000000
11
15.6590569705
21
27.7647558438
31
0.0000000000
11
15.6579633622
21
27.7384072686
31
0.0000000000
11
15.6568697539
21
27.7150318773
31
0.0000000000
11
15.6557761456
21
27.6948411941
31
0.0000000000
11
15.6546825373
21
27.6780467433
31
0.0000000000
11
15.6535889290
21
27.6648371866
31
0.0000000000
11
15.6524953207
21
27.6553097365
31
0.0000000000
11
15.6519485165
21
27.6519500358
31
0.0000000000
11
15.6514017124
21
27.6495387430
31
0.0000000000
11
15.6508549083
21
27.6480851519
31
0.0000000000
11
15.6503081041
21
27.6475985563
31
0.0000000000
0
SPLINE
5
4B9
100
AcDbEntity
8
0
100
AcDbSpline
62
7
6
CONTINUOUS
70
0
71
3
72
15
73
11
74
9
42
0.0000001000
43
0.0000001000
44
0.0000000001
12
-0.2198589173
22
0.0000000000
32
0.0000000000
13
0.0000000000
23
0.2198589173
33
0.0000000000
40
0.0000000000
40
0.0000000000
40
0.0000000000
40
0.0000000000
40
0.1775508236
40
0.3489475586
40
0.5083491360
40
0.6505618283
40
0.7714455810
40
0.8685458831
40
0.9424410166
40
1.0000000000
40
1.0000000000
40
1.0000000000
40
1.0000000000
10
7.9327650255
20
31.5060080161
30
0.0000000000
10
7.9197529816
20
31.5060080161
30
0.0000000000
10
7.8941726423
20
31.5067729792
30
0.0000000000
10
7.8570502812
20
31.5101892806
30
0.0000000000
10
7.8227961645
20
31.5157256816
30
0.0000000000
10
7.7926994957
20
31.5231629013
30
0.0000000000
10
7.7678071751
20
31.5321811391
30
0.0000000000
10
7.7489751738
20
31.5425309960
30
0.0000000000
10
7.7363475902
20
31.5539781592
30
0.0000000000
10
7.7327650255
20
31.5635931298
30
0.0000000000
10
7.7327650255
20
31.5678114150
30
0.0000000000
11
7.9327650255
21
31.5060080161
31
0.0000000000
11
7.8937469611
21
31.5071955511
31
0.0000000000
11
7.8562283390
21
31.5107125198
31
0.0000000000
11
7.8216509789
21
31.5164237669
31
0.0000000000
11
7.7913436693
21
31.5241098126
31
0.0000000000
11
7.7664711030
21
31.5334752863
31
0.0000000000
11
7.7479891190
21
31.5441602782
31
0.0000000000
11
7.7366079694
21
31.5557541700
31
0.0000000000
11
7.7327650255
21
31.5678114150
31
0.0000000000
0
SPLINE
5
4BA
100
AcDbEntity
8
0
100
AcDbSpline
62
7
6
CONTINUOUS
70
0
71
3
72
15
73
11
74
9
42
0.0000001000
43
0.0000001000
44
0.0000000001
12
-0.2198589173
22
0.0000000000
32
0.0000000000
13
0.0000000000
23
0.2198589173
33
0.0000000000
40
0.0000000000
40
0.0000000000
40
0.0000000000
40
0.0000000000
40
0.1775508236
40
0.3489475586
40
0.5083491360
40
0.6505618283
40
0.7714455810
40
0.8685458831
40
0.9424410166
40
1.0000000000
40
1.0000000000
40
1.0000000000
40
1.0000000000
10
13.6327650255
20
31.5060080161
30
0.0000000000
10
13.6197529816
20
31.5060080161
30
0.0000000000
10
13.5941726423
20
31.5067729792
30
0.0000000000
10
13.5570502812
20
31.5101892806
30
0.0000000000
10
13.5227961645
20
31.5157256816
30
0.0000000000
10
13.4926994957
20
31.5231629013
30
0.0000000000
10
13.4678071751
20
31.5321811391
30
0.0000000000
10
13.4489751738
20
31.5425309960
30
0.0000000000
10
13.4363475902
20
31.5539781592
30
0.0000000000
10
13.4327650255
20
31.5635931298
30
0.0000000000
10
13.4327650255
20
31.5678114150
30
0.0000000000
11
13.6327650255
21
31.5060080161
31
0.0000000000
11
13.5937469611
21
31.5071955511
31
0.0000000000
11
13.5562283390
21
31.5107125198
31
0.0000000000
11
13.5216509789
21
31.5164237669
31
0.0000000000
11
13.4913436693
21
31.5241098126
31
0.0000000000
11
13.4664711030
21
31.5334752863
31
0.0000000000
11
13.4479891190
21
31.5441602782
31
0.0000000000
11
13.4366079694
21
31.5557541700
31
0.0000000000
11
13.4327650255
21
31.5678114150
31
0.0000000000
0
SPLINE
5
4BB
100
AcDbEntity
8
0
100
AcDbSpline
62
7
6
CONTINUOUS
70
0
71
3
72
15
73
11
74
9
42
0.0000001000
43
0.0000001000
44
0.0000000001
12
0.0000000000
22
-0.2198589173
32
0.0000000000
13
-0.2198589173
23
-0.0000000000
33
0.0000000000
40
0.0000000000
40
0.0000000000
40
0.0000000000
40
0.0000000000
40
0.0575589834
40
0.1314541169
40
0.2285544190
40
0.3494381717
40
0.4916508640
40
0.6510524414
40
0.8224491764
40
1.0000000000
40
1.0000000000
40
1.0000000000
40
1.0000000000
10
11.0327650255
20
31.5678114150
30
0.0000000000
10
11.0327650255
20
31.5635931298
30
0.0000000000
10
11.0291824608
20
31.5539781592
30
0.0000000000
10
11.0165548772
20
31.5425309960
30
0.0000000000
10
10.9977228759
20
31.5321811391
30
0.0000000000
10
10.9728305553
20
31.5231629013
30
0.0000000000
10
10.9427338865
20
31.5157256816
30
0.0000000000
10
10.9084797698
20
31.5101892806
30
0.0000000000
10
10.8713574087
20
31.5067729792
30
0.0000000000
10
10.8457770694
20
31.5060080161
30
0.0000000000
10
10.8327650255
20
31.5060080161
30
0.0000000000
11
11.0327650255
21
31.5678114150
31
0.0000000000
11
11.0289220816
21
31.5557541700
31
0.0000000000
11
11.0175409320
21
31.5441602782
31
0.0000000000
11
10.9990589480
21
31.5334752863
31
0.0000000000
11
10.9741863817
21
31.5241098126
31
0.0000000000
11
10.9438790721
21
31.5164237669
31
0.0000000000
11
10.9093017120
21
31.5107125198
31
0.0000000000
11
10.8717830899
21
31.5071955511
31
0.0000000000
11
10.8327650255
21
31.5060080161
31
0.0000000000
0
SPLINE
5
4BC
100
AcDbEntity
8
0
100
AcDbSpline
62
7
6
CONTINUOUS
70
0
71
3
72
15
73
11
74
9
42
0.0000001000
43
0.0000001000
44
0.0000000001
12
0.0000000000
22
-0.2198589173
32
0.0000000000
13
-0.2198589173
23
0.0000000000
33
0.0000000000
40
0.0000000000
40
0.0000000000
40
0.0000000000
40
0.0000000000
40
0.0575589834
40
0.1314541169
40
0.2285544190
40
0.3494381717
40
0.4916508640
40
0.6510524414
40
0.8224491764
40
1.0000000000
40
1.0000000000
40
1.0000000000
40
1.0000000000
10
16.7327650255
20
31.5678114150
30
0.0000000000
10
16.7327650255
20
31.5635931298
30
0.0000000000
10
16.7291824608
20
31.5539781592
30
0.0000000000
10
16.7165548772
20
31.5425309960
30
0.0000000000
10
16.6977228759
20
31.5321811391
30
0.0000000000
10
16.6728305553
20
31.5231629013
30
0.0000000000
10
16.6427338865
20
31.5157256816
30
0.0000000000
10
16.6084797698
20
31.5101892806
30
0.0000000000
10
16.5713574087
20
31.5067729792
30
0.0000000000
10
16.5457770694
20
31.5060080161
30
0.0000000000
10
16.5327650255
20
31.5060080161
30
0.0000000000
11
16.7327650255
21
31.5678114150
31
0.0000000000
11
16.7289220816
21
31.5557541700
31
0.0000000000
11
16.7175409320
21
31.5441602782
31
0.0000000000
11
16.6990589480
21
31.5334752863
31
0.0000000000
11
16.6741863817
21
31.5241098126
31
0.0000000000
11
16.6438790721
21
31.5164237669
31
0.0000000000
11
16.6093017120
21
31.5107125198
31
0.0000000000
11
16.5717830899
21
31.5071955511
31
0.0000000000
11
16.5327650255
21
31.5060080161
31
0.0000000000
0
SPLINE
5
4BD
100
AcDbEntity
8
0
100
AcDbSpline
62
7
6
CONTINUOUS
70
0
71
3
72
15
73
11
74
9
42
0.0000001000
43
0.0000001000
44
0.0000000001
12
0.0000000000
22
0.2198589173
32
0.0000000000
13
0.2198589173
23
0.0000000000
33
0.0000000000
40
0.0000000000
40
0.0000000000
40
0.0000000000
40
0.0000000000
40
0.0575589834
40
0.1314541169
40
0.2285544190
40
0.3494381717
40
0.4916508640
40
0.6510524414
40
0.8224491764
40
1.0000000000
40
1.0000000000
40
1.0000000000
40
1.0000000000
10
15.9827650255
20
30.4169666124
30
0.0000000000
10
15.9827650255
20
30.4211848977
30
0.0000000000
10
15.9863475902
20
30.4307998683
30
0.0000000000
10
15.9989751738
20
30.4422470315
30
0.0000000000
10
16.0178071751
20
30.4525968884
30
0.0000000000
10
16.0426994957
20
30.4616151261
30
0.0000000000
10
16.0727961645
20
30.4690523458
30
0.0000000000
10
16.1070502812
20
30.4745887469
30
0.0000000000
10
16.1441726423
20
30.4780050482
30
0.0000000000
10
16.1697529816
20
30.4787700113
30
0.0000000000
10
16.1827650255
20
30.4787700113
30
0.0000000000
11
15.9827650255
21
30.4169666124
31
0.0000000000
11
15.9866079694
21
30.4290238574
31
0.0000000000
11
15.9979891190
21
30.4406177492
31
0.0000000000
11
16.0164711030
21
30.4513027412
31
0.0000000000
11
16.0413436693
21
30.4606682149
31
0.0000000000
11
16.0716509789
21
30.4683542605
31
0.0000000000
11
16.1062283390
21
30.4740655077
31
0.0000000000
11
16.1437469611
21
30.4775824763
31
0.0000000000
11
16.1827650255
21
30.4787700113
31
0.0000000000
0
SPLINE
5
4BE
100
AcDbEntity
8
0
100
AcDbSpline
62
7
6
CONTINUOUS
70
0
71
3
72
15
73
11
74
9
42
0.0000001000
43
0.0000001000
44
0.0000000001
12
0.2198589173
22
0.0000000000
32
0.0000000000
13
0.0000000000
23
-0.2198589173
33
0.0000000000
40
0.0000000000
40
0.0000000000
40
0.0000000000
40
0.0000000000
40
0.1775508236
40
0.3489475586
40
0.5083491360
40
0.6505618283
40
0.7714455810
40
0.8685458831
40
0.9424410166
40
1.0000000000
40
1.0000000000
40
1.0000000000
40
1.0000000000
10
8.2827650255
20
30.4787700113
30
0.0000000000
10
8.2957770694
20
30.4787700113
30
0.0000000000
10
8.3213574087
20
30.4780050482
30
0.0000000000
10
8.3584797698
20
30.4745887469
30
0.0000000000
10
8.3927338865
20
30.4690523458
30
0.0000000000
10
8.4228305553
20
30.4616151261
30
0.0000000000
10
8.4477228759
20
30.4525968884
30
0.0000000000
10
8.4665548772
20
30.4422470315
30
0.0000000000
10
8.4791824608
20
30.4307998683
30
0.0000000000
10
8.4827650255
20
30.4211848977
30
0.0000000000
10
8.4827650255
20
30.4169666124
30
0.0000000000
11
8.2827650255
21
30.4787700113
31
0.0000000000
11
8.3217830899
21
30.4775824763
31
0.0000000000
11
8.3593017120
21
30.4740655077
31
0.0000000000
11
8.3938790721
21
30.4683542605
31
0.0000000000
11
8.4241863817
21
30.4606682149
31
0.0000000000
11
8.4490589480
21
30.4513027412
31
0.0000000000
11
8.4675409320
21
30.4406177492
31
0.0000000000
11
8.4789220816
21
30.4290238574
31
0.0000000000
11
8.4827650255
21
30.4169666124
31
0.0000000000
0
SPLINE
5
4BF
100
AcDbEntity
8
0
100
AcDbSpline
62
7
6
CONTINUOUS
70
0
71
3
72
15
73
11
74
9
42
0.0000001000
43
0.0000001000
44
0.0000000001
12
0.2198589173
22
0.0000000000
32
0.0000000000
13
0.0000000000
23
-0.2198589173
33
0.0000000000
40
0.0000000000
40
0.0000000000
40
0.0000000000
40
0.0000000000
40
0.1775508236
40
0.3489475586
40
0.5083491360
40
0.6505618283
40
0.7714455810
40
0.8685458831
40
0.9424410166
40
1.0000000000
40
1.0000000000
40
1.0000000000
40
1.0000000000
10
10.8327650255
20
32.5257640976
30
0.0000000000
10
10.8457770694
20
32.5257640976
30
0.0000000000
10
10.8713574087
20
32.5249991345
30
0.0000000000
10
10.9084797698
20
32.5215828331
30
0.0000000000
10
10.9427338865
20
32.5160464321
30
0.0000000000
10
10.9728305553
20
32.5086092124
30
0.0000000000
10
10.9977228759
20
32.4995909746
30
0.0000000000
10
11.0165548772
20
32.4892411178
30
0.0000000000
10
11.0291824608
20
32.4777939545
30
0.0000000000
10
11.0327650255
20
32.4681789840
30
0.0000000000
10
11.0327650255
20
32.4639606987
30
0.0000000000
11
10.8327650255
21
32.5257640976
31
0.0000000000
11
10.8717830899
21
32.5245765626
31
0.0000000000
11
10.9093017120
21
32.5210595940
31
0.0000000000
11
10.9438790721
21
32.5153483468
31
0.0000000000
11
10.9741863817
21
32.5076623011
31
0.0000000000
11
10.9990589480
21
32.4982968274
31
0.0000000000
11
11.0175409320
21
32.4876118355
31
0.0000000000
11
11.0289220816
21
32.4760179437
31
0.0000000000
11
11.0327650255
21
32.4639606987
31
0.0000000000
0
SPLINE
5
4C0
100
AcDbEntity
8
0
100
AcDbSpline
62
7
6
CONTINUOUS
70
0
71
3
72
15
73
11
74
9
42
0.0000001000
43
0.0000001000
44
0.0000000001
12
0.0014006394
22
-0.2483099203
32
0.0000000000
13
-0.2483138706
23
0.0000000000
33
0.0000000000
40
0.0000000000
40
0.0000000000
40
0.0000000000
40
0.0000000000
40
0.0926202882
40
0.1777653558
40
0.2617319066
40
0.3526553716
40
0.4603908153
40
0.5958910118
40
0.7707964804
40
1.0000000000
40
1.0000000000
40
1.0000000000
40
1.0000000000
10
8.4827650255
20
28.1413727814
30
0.0000000000
10
8.4828082680
20
28.1337066027
30
0.0000000000
10
8.4813880390
20
28.1189029125
30
0.0000000000
10
8.4735820276
20
28.0983472259
30
0.0000000000
10
8.4596433824
20
28.0814564314
30
0.0000000000
10
8.4398730882
20
28.0684599828
30
0.0000000000
10
8.4137932472
20
28.0587760317
30
0.0000000000
10
8.3797487226
20
28.0520230376
30
0.0000000000
10
8.3351982136
20
28.0481480866
30
0.0000000000
10
8.3017364965
20
28.0475985563
30
0.0000000000
10
8.2827650255
20
28.0475985563
30
0.0000000000
11
8.4827650255
21
28.1413727814
31
0.0000000000
11
8.4802746084
21
28.1185091132
31
0.0000000000
11
8.4725275139
21
28.0988368905
31
0.0000000000
11
8.4593571989
21
28.0826731108
31
0.0000000000
11
8.4407123013
21
28.0699407153
31
0.0000000000
11
8.4157992450
21
28.0601928899
31
0.0000000000
11
8.3828895049
21
28.0531899452
31
0.0000000000
11
8.3396627028
21
28.0489786782
31
0.0000000000
11
8.2827650255
21
28.0475985563
31
0.0000000000
0
SPLINE
5
4C1
100
AcDbEntity
8
0
100
AcDbSpline
62
7
6
CONTINUOUS
70
0
71
3
72
15
73
11
74
9
42
0.0000001000
43
0.0000001000
44
0.0000000001
12
0.0000000000
22
0.2198589173
32
0.0000000000
13
0.2198589173
23
-0.0000000000
33
0.0000000000
40
0.0000000000
40
0.0000000000
40
0.0000000000
40
0.0000000000
40
0.0575589834
40
0.1314541169
40
0.2285544190
40
0.3494381717
40
0.4916508640
40
0.6510524414
40
0.8224491764
40
1.0000000000
40
1.0000000000
40
1.0000000000
40
1.0000000000
10
7.7327650255
20
32.4639606987
30
0.0000000000
10
7.7327650255
20
32.4681789840
30
0.0000000000
10
7.7363475902
20
32.4777939545
30
0.0000000000
10
7.7489751738
20
32.4892411178
30
0.0000000000
10
7.7678071751
20
32.4995909746
30
0.0000000000
10
7.7926994957
20
32.5086092124
30
0.0000000000
10
7.8227961645
20
32.5160464321
30
0.0000000000
10
7.8570502812
20
32.5215828331
30
0.0000000000
10
7.8941726423
20
32.5249991345
30
0.0000000000
10
7.9197529816
20
32.5257640976
30
0.0000000000
10
7.9327650255
20
32.5257640976
30
0.0000000000
11
7.7327650255
21
32.4639606987
31
0.0000000000
11
7.7366079694
21
32.4760179437
31
0.0000000000
11
7.7479891190
21
32.4876118355
31
0.0000000000
11
7.7664711030
21
32.4982968274
31
0.0000000000
11
7.7913436693
21
32.5076623011
31
0.0000000000
11
7.8216509789
21
32.5153483468
31
0.0000000000
11
7.8562283390
21
32.5210595940
31
0.0000000000
11
7.8937469611
21
32.5245765626
31
0.0000000000
11
7.9327650255
21
32.5257640976
31
0.0000000000
0
SPLINE
5
4C2
100
AcDbEntity
8
0
100
AcDbSpline
62
7
6
CONTINUOUS
70
0
71
3
72
15
73
11
74
9
42
0.0000001000
43
0.0000001000
44
0.0000000001
12
-0.2483138888
22
0.0000000000
32
0.0000000000
13
0.0014001197
23
0.2483099414
33
0.0000000000
40
0.0000000000
40
0.0000000000
40
0.0000000000
40
0.0000000000
40
0.2292119856
40
0.4041239592
40
0.5396273611
40
0.6473625758
40
0.7382831531
40
0.8222452540
40
0.9073850020
40
1.0000000000
40
1.0000000000
40
1.0000000000
40
1.0000000000
10
16.1827650255
20
28.0475985563
30
0.0000000000
10
16.1637928523
20
28.0475985563
30
0.0000000000
10
16.1303298920
20
28.0481481238
30
0.0000000000
10
16.0857778899
20
28.0520234308
30
0.0000000000
10
16.0517326730
20
28.0587770912
30
0.0000000000
10
16.0256530909
20
28.0684618593
30
0.0000000000
10
16.0058839276
20
28.0814589276
30
0.0000000000
10
15.9919468295
20
28.0983495803
30
0.0000000000
10
15.9841418493
20
28.1189042471
30
0.0000000000
10
15.9827218015
20
28.1337070399
30
0.0000000000
10
15.9827650255
20
28.1413727814
30
0.0000000000
11
16.1827650255
21
28.0475985563
31
0.0000000000
11
16.1258652441
21
28.0489787971
31
0.0000000000
11
16.0826368580
21
28.0531904964
31
0.0000000000
11
16.0497264555
21
28.0601941643
31
0.0000000000
11
16.0248137669
21
28.0699427788
31
0.0000000000
11
16.0061700572
21
28.0826756452
31
0.0000000000
11
15.9930011983
21
28.0988391879
31
0.0000000000
11
15.9852551375
21
28.1185103996
31
0.0000000000
11
15.9827650255
21
28.1413727814
31
0.0000000000
0
SPLINE
5
4C3
100
AcDbEntity
8
0
100
AcDbSpline
62
7
6
CONTINUOUS
70
0
71
3
72
15
73
11
74
9
42
0.0000001000
43
0.0000001000
44
0.0000000001
12
0.2198589173
22
0.0000000000
32
0.0000000000
13
0.0000000000
23
-0.2198589173
33
0.0000000000
40
0.0000000000
40
0.0000000000
40
0.0000000000
40
0.0000000000
40
0.1775508236
40
0.3489475586
40
0.5083491360
40
0.6505618283
40
0.7714455810
40
0.8685458831
40
0.9424410166
40
1.0000000000
40
1.0000000000
40
1.0000000000
40
1.0000000000
10
16.5327650255
20
32.5257640976
30
0.0000000000
10
16.5457770694
20
32.5257640976
30
0.0000000000
10
16.5713574087
20
32.5249991345
30
0.0000000000
10
16.6084797698
20
32.5215828331
30
0.0000000000
10
16.6427338865
20
32.5160464321
30
0.0000000000
10
16.6728305553
20
32.5086092124
30
0.0000000000
10
16.6977228759
20
32.4995909746
30
0.0000000000
10
16.7165548772
20
32.4892411178
30
0.0000000000
10
16.7291824608
20
32.4777939545
30
0.0000000000
10
16.7327650255
20
32.4681789840
30
0.0000000000
10
16.7327650255
20
32.4639606987
30
0.0000000000
11
16.5327650255
21
32.5257640976
31
0.0000000000
11
16.5717830899
21
32.5245765626
31
0.0000000000
11
16.6093017120
21
32.5210595940
31
0.0000000000
11
16.6438790721
21
32.5153483468
31
0.0000000000
11
16.6741863817
21
32.5076623011
31
0.0000000000
11
16.6990589480
21
32.4982968274
31
0.0000000000
11
16.7175409320
21
32.4876118355
31
0.0000000000
11
16.7289220816
21
32.4760179437
31
0.0000000000
11
16.7327650255
21
32.4639606987
31
0.0000000000
0
SPLINE
5
4C4
100
AcDbEntity
8
0
100
AcDbSpline
62
7
6
CONTINUOUS
70
0
71
3
72
15
73
11
74
9
42
0.0000001000
43
0.0000001000
44
0.0000000001
12
0.0000000000
22
0.2198589173
32
0.0000000000
13
0.2198589173
23
0.0000000000
33
0.0000000000
40
0.0000000000
40
0.0000000000
40
0.0000000000
40
0.0000000000
40
0.0575589834
40
0.1314541169
40
0.2285544190
40
0.3494381717
40
0.4916508640
40
0.6510524414
40
0.8224491764
40
1.0000000000
40
1.0000000000
40
1.0000000000
40
1.0000000000
10
13.4327650255
20
32.4639606987
30
0.0000000000
10
13.4327650255
20
32.4681789840
30
0.0000000000
10
13.4363475902
20
32.4777939545
30
0.0000000000
10
13.4489751738
20
32.4892411178
30
0.0000000000
10
13.4678071751
20
32.4995909746
30
0.0000000000
10
13.4926994957
20
32.5086092124
30
0.0000000000
10
13.5227961645
20
32.5160464321
30
0.0000000000
10
13.5570502812
20
32.5215828331
30
0.0000000000
10
13.5941726423
20
32.5249991345
30
0.0000000000
10
13.6197529816
20
32.5257640976
30
0.0000000000
10
13.6327650255
20
32.5257640976
30
0.0000000000
11
13.4327650255
21
32.4639606987
31
0.0000000000
11
13.4366079694
21
32.4760179437
31
0.0000000000
11
13.4479891190
21
32.4876118355
31
0.0000000000
11
13.4664711030
21
32.4982968274
31
0.0000000000
11
13.4913436693
21
32.5076623011
31
0.0000000000
11
13.5216509789
21
32.5153483468
31
0.0000000000
11
13.5562283390
21
32.5210595940
31
0.0000000000
11
13.5937469611
21
32.5245765626
31
0.0000000000
11
13.6327650255
21
32.5257640976
31
0.0000000000
0
SPLINE
5
4C5
100
AcDbEntity
8
0
100
AcDbSpline
62
7
6
CONTINUOUS
70
0
71
3
72
8
73
4
74
2
42
0.0000001000
43
0.0000001000
44
0.0000000001
12
0.0464324220
22
0.0232351488
32
0.0000000000
13
0.0475937544
23
0.0207923180
33
0.0000000000
40
0.0000000000
40
0.0000000000
40
0.0000000000
40
0.0000000000
40
1.0000000000
40
1.0000000000
40
1.0000000000
40
1.0000000000
10
6.8717052924
20
27.9616715618
30
0.0000000000
10
6.8871827664
20
27.9694166114
30
0.0000000000
10
6.9028309629
20
27.9768581705
30
0.0000000000
10
6.9186955477
20
27.9837889432
30
0.0000000000
11
6.8717052924
21
27.9616715618
31
0.0000000000
11
6.9186955477
21
27.9837889432
31
0.0000000000
0
SPLINE
5
4C6
100
AcDbEntity
8
0
100
AcDbSpline
62
7
6
CONTINUOUS
70
0
71
3
72
8
73
4
74
2
42
0.0000001000
43
0.0000001000
44
0.0000000001
12
0.0506772717
22
0.0116287785
32
0.0000000000
13
0.0516010140
23
-0.0034020784
33
0.0000000000
40
0.0000000000
40
0.0000000000
40
0.0000000000
40
0.0000000000
40
1.0000000000
40
1.0000000000
40
1.0000000000
40
1.0000000000
10
7.0031125135
20
28.0131656258
30
0.0000000000
10
7.0200049375
20
28.0170418853
30
0.0000000000
10
7.0373597308
20
28.0195329907
30
0.0000000000
10
7.0545600688
20
28.0183989645
30
0.0000000000
11
7.0031125135
21
28.0131656258
31
0.0000000000
11
7.0545600688
21
28.0183989645
31
0.0000000000
0
SPLINE
5
4C7
100
AcDbEntity
8
0
100
AcDbSpline
62
7
6
CONTINUOUS
70
0
71
3
72
9
73
5
74
3
42
0.0000001000
43
0.0000001000
44
0.0000000001
12
0.0024215641
22
0.0693445220
32
0.0000000000
13
0.0024215641
23
0.0693445220
33
0.0000000000
40
0.0000000000
40
0.0000000000
40
0.0000000000
40
0.0000000000
40
0.7444406889
40
1.0000000000
40
1.0000000000
40
1.0000000000
40
1.0000000000
10
6.8717052924
20
27.9616715618
30
0.0000000000
10
6.8723061960
20
27.9788791897
30
0.0000000000
10
6.8731133841
20
28.0019940304
30
0.0000000000
10
6.8739205721
20
28.0251088711
30
0.0000000000
10
6.8741268565
20
28.0310160838
30
0.0000000000
11
6.8717052924
21
27.9616715618
31
0.0000000000
11
6.8735080033
21
28.0132944456
31
0.0000000000
11
6.8741268565
21
28.0310160838
31
0.0000000000
0
SPLINE
5
4C8
100
AcDbEntity
8
0
100
AcDbSpline
62
7
6
CONTINUOUS
70
0
71
3
72
8
73
4
74
2
42
0.0000001000
43
0.0000001000
44
0.0000000001
12
0.0517636509
22
0.0034128011
32
0.0000000000
13
0.0508310646
23
-0.0116961267
33
0.0000000000
40
0.0000000000
40
0.0000000000
40
0.0000000000
40
0.0000000000
40
1.0000000000
40
1.0000000000
40
1.0000000000
40
1.0000000000
10
17.4109699822
20
28.0183989645
30
0.0000000000
10
17.4282245325
20
28.0195365649
30
0.0000000000
10
17.4456339423
20
28.0170276262
30
0.0000000000
10
17.4625776305
20
28.0131289173
30
0.0000000000
11
17.4109699822
21
28.0183989645
31
0.0000000000
11
17.4625776305
21
28.0131289173
31
0.0000000000
0
SPLINE
5
4C9
100
AcDbEntity
8
0
100
AcDbSpline
62
7
6
CONTINUOUS
70
0
71
3
72
9
73
5
74
3
42
0.0000001000
43
0.0000001000
44
0.0000000001
12
-0.0024215641
22
0.0693445220
32
0.0000000000
13
-0.0024215641
23
0.0693445220
33
0.0000000000
40
0.0000000000
40
0.0000000000
40
0.0000000000
40
0.0000000000
40
0.7444406889
40
1.0000000000
40
1.0000000000
40
1.0000000000
40
1.0000000000
10
17.5938247586
20
27.9616715618
30
0.0000000000
10
17.5932238550
20
27.9788791897
30
0.0000000000
10
17.5924166669
20
28.0019940304
30
0.0000000000
10
17.5916094789
20
28.0251088711
30
0.0000000000
10
17.5914031945
20
28.0310160838
30
0.0000000000
11
17.5938247586
21
27.9616715618
31
0.0000000000
11
17.5920220478
21
28.0132944456
31
0.0000000000
11
17.5914031945
21
28.0310160838
31
0.0000000000
0
SPLINE
5
4CA
100
AcDbEntity
8
0
100
AcDbSpline
62
7
6
CONTINUOUS
70
0
71
3
72
9
73
5
74
3
42
0.0000001000
43
0.0000001000
44
0.0000000001
12
-0.0024215641
22
-0.0693445220
32
0.0000000000
13
-0.0024215641
23
-0.0693445220
33
0.0000000000
40
0.0000000000
40
0.0000000000
40
0.0000000000
40
0.0000000000
40
0.7444406889
40
1.0000000000
40
1.0000000000
40
1.0000000000
40
1.0000000000
10
17.5938247586
20
-12.6354075570
30
0.0000000000
10
17.5932238550
20
-12.6526151850
30
0.0000000000
10
17.5924166669
20
-12.6757300256
30
0.0000000000
10
17.5916094789
20
-12.6988448663
30
0.0000000000
10
17.5914031945
20
-12.7047520791
30
0.0000000000
11
17.5938247586
21
-12.6354075570
31
0.0000000000
11
17.5920220478
21
-12.6870304408
31
0.0000000000
11
17.5914031945
21
-12.7047520791
31
0.0000000000
0
SPLINE
5
4CB
100
AcDbEntity
8
0
100
AcDbSpline
62
7
6
CONTINUOUS
70
0
71
3
72
8
73
4
74
2
42
0.0000001000
43
0.0000001000
44
0.0000000001
12
-0.0463874874
22
-0.0232126632
32
0.0000000000
13
-0.0475463281
23
-0.0207751684
33
0.0000000000
40
0.0000000000
40
0.0000000000
40
0.0000000000
40
0.0000000000
40
1.0000000000
40
1.0000000000
40
1.0000000000
40
1.0000000000
10
17.5938247586
20
-12.6354075570
30
0.0000000000
10
17.5783622628
20
-12.6431451114
30
0.0000000000
10
17.5627292652
20
-12.6505798592
30
0.0000000000
10
17.5468804892
20
-12.6575049154
30
0.0000000000
11
17.5938247586
21
-12.6354075570
31
0.0000000000
11
17.5468804892
21
-12.6575049154
31
0.0000000000
0
SPLINE
5
4CC
100
AcDbEntity
8
0
100
AcDbSpline
62
7
6
CONTINUOUS
70
0
71
3
72
8
73
4
74
2
42
0.0000001000
43
0.0000001000
44
0.0000000001
12
-0.0508188171
22
-0.0116908056
32
0.0000000000
13
-0.0517507300
23
0.0034119492
33
0.0000000000
40
0.0000000000
40
0.0000000000
40
0.0000000000
40
0.0000000000
40
1.0000000000
40
1.0000000000
40
1.0000000000
40
1.0000000000
10
17.4625649124
20
-12.6868678323
30
0.0000000000
10
17.4456253067
20
-12.6907647675
30
0.0000000000
10
17.4282202255
20
-12.6932722761
30
0.0000000000
10
17.4109699822
20
-12.6921349597
30
0.0000000000
11
17.4625649124
21
-12.6868678323
31
0.0000000000
11
17.4109699822
21
-12.6921349597
31
0.0000000000
0
SPLINE
5
4CD
100
AcDbEntity
8
0
100
AcDbSpline
62
7
6
CONTINUOUS
70
0
71
3
72
8
73
4
74
2
42
0.0000001000
43
0.0000001000
44
0.0000000001
12
-0.0516049234
22
-0.0034023361
32
0.0000000000
13
-0.0506809936
23
0.0116303686
33
0.0000000000
40
0.0000000000
40
0.0000000000
40
0.0000000000
40
0.0000000000
40
1.0000000000
40
1.0000000000
40
1.0000000000
40
1.0000000000
10
7.0545600688
20
-12.6921349597
30
0.0000000000
10
7.0373584277
20
-12.6932690718
30
0.0000000000
10
7.0200023296
20
-12.6907775292
30
0.0000000000
10
7.0031086651
20
-12.6869007397
30
0.0000000000
11
7.0545600688
21
-12.6921349597
31
0.0000000000
11
7.0031086651
21
-12.6869007397
31
0.0000000000
0
SPLINE
5
4CE
100
AcDbEntity
8
0
100
AcDbSpline
62
7
6
CONTINUOUS
70
0
71
3
72
9
73
5
74
3
42
0.0000001000
43
0.0000001000
44
0.0000000001
12
0.0024215641
22
-0.0693445220
32
0.0000000000
13
0.0024215641
23
-0.0693445220
33
0.0000000000
40
0.0000000000
40
0.0000000000
40
0.0000000000
40
0.0000000000
40
0.7444406889
40
1.0000000000
40
1.0000000000
40
1.0000000000
40
1.0000000000
10
6.8717052924
20
-12.6354075570
30
0.0000000000
10
6.8723061960
20
-12.6526151850
30
0.0000000000
10
6.8731133841
20
-12.6757300256
30
0.0000000000
10
6.8739205721
20
-12.6988448663
30
0.0000000000
10
6.8741268565
20
-12.7047520791
30
0.0000000000
11
6.8717052924
21
-12.6354075570
31
0.0000000000
11
6.8735080033
21
-12.6870304408
31
0.0000000000
11
6.8741268565
21
-12.7047520791
31
0.0000000000
0
SPLINE
5
4CF
100
AcDbEntity
8
0
100
AcDbSpline
62
7
6
CONTINUOUS
70
0
71
3
72
12
73
8
74
6
42
0.0000001000
43
0.0000001000
44
0.0000000001
12
0.1749519272
22
0.1399553532
32
0.0000000000
13
0.0000000000
23
0.2236837610
33
0.0000000000
40
0.0000000000
40
0.0000000000
40
0.0000000000
40
0.0000000000
40
0.1235311801
40
0.3426483270
40
0.5617654708
40
0.7808827885
40
1.0000000000
40
1.0000000000
40
1.0000000000
40
1.0000000000
10
1.8174619551
20
-16.2192524650
30
0.0000000000
10
1.8246659611
20
-16.2134895150
30
0.0000000000
10
1.8437646641
20
-16.1964001235
30
0.0000000000
10
1.8705088054
20
-16.1638144659
30
0.0000000000
10
1.8937629792
20
-16.1203065476
30
0.0000000000
10
1.9080831962
20
-16.0731173223
30
0.0000000000
10
1.9113068356
20
-16.0403514543
30
0.0000000000
10
1.9113068356
20
-16.0240138003
30
0.0000000000
11
1.8174619551
21
-16.2192524650
31
0.0000000000
11
1.8380747207
21
-16.2008052864
31
0.0000000000
11
1.8691687115
21
-16.1629181810
31
0.0000000000
11
1.8922739810
21
-16.1196930092
31
0.0000000000
11
1.9065024043
21
-16.0727907199
31
0.0000000000
11
1.9113068356
21
-16.0240138003
31
0.0000000000
0
SPLINE
5
4D0
100
AcDbEntity
8
0
100
AcDbSpline
62
7
6
CONTINUOUS
70
0
71
3
72
9
73
5
74
3
42
0.0000001000
43
0.0000001000
44
0.0000000001
12
-0.1316619659
22
0.1052813196
32
0.0000000000
13
-0.1675865957
23
0.0000000000
33
0.0000000000
40
0.0000000000
40
0.0000000000
40
0.0000000000
40
0.0000000000
40
0.4178844987
40
1.0000000000
40
1.0000000000
40
1.0000000000
40
1.0000000000
10
1.7389130324
20
31.6083484069
30
0.0000000000
10
1.7205732009
20
31.6230135508
30
0.0000000000
10
1.6717330937
20
31.6519599151
30
0.0000000000
10
1.6152585265
20
31.6631320024
30
0.0000000000
10
1.5827402748
20
31.6631320024
30
0.0000000000
11
1.7389130324
21
31.6083484069
31
0.0000000000
11
1.6784209672
21
31.6441021479
31
0.0000000000
11
1.5827402748
21
31.6631320024
31
0.0000000000
0
SPLINE
5
4D1
100
AcDbEntity
8
0
100
AcDbSpline
62
7
6
CONTINUOUS
70
0
71
3
72
12
73
8
74
6
42
0.0000001000
43
0.0000001000
44
0.0000000001
12
-0.1749519272
22
-0.1399553532
32
0.0000000000
13
0.0000000000
23
-0.2236837610
33
0.0000000000
40
0.0000000000
40
0.0000000000
40
0.0000000000
40
0.0000000000
40
0.1235311801
40
0.3426483270
40
0.5617654708
40
0.7808827885
40
1.0000000000
40
1.0000000000
40
1.0000000000
40
1.0000000000
10
22.6480680959
20
31.5455164698
30
0.0000000000
10
22.6408640899
20
31.5397535198
30
0.0000000000
10
22.6217653869
20
31.5226641283
30
0.0000000000
10
22.5950212456
20
31.4900784707
30
0.0000000000
10
22.5717670718
20
31.4465705524
30
0.0000000000
10
22.5574468548
20
31.3993813271
30
0.0000000000
10
22.5542232154
20
31.3666154591
30
0.0000000000
10
22.5542232154
20
31.3502778051
30
0.0000000000
11
22.6480680959
21
31.5455164698
31
0.0000000000
11
22.6274553303
21
31.5270692912
31
0.0000000000
11
22.5963613395
21
31.4891821857
31
0.0000000000
11
22.5732560700
21
31.4459570139
31
0.0000000000
11
22.5590276467
21
31.3990547247
31
0.0000000000
11
22.5542232154
21
31.3502778051
31
0.0000000000
0
SPLINE
5
4D2
100
AcDbEntity
8
0
100
AcDbSpline
62
7
6
CONTINUOUS
70
0
71
3
72
9
73
5
74
3
42
0.0000001000
43
0.0000001000
44
0.0000000001
12
0.1316382222
22
0.1052596914
32
0.0000000000
13
0.1675559903
23
0.0000000000
33
0.0000000000
40
0.0000000000
40
0.0000000000
40
0.0000000000
40
0.0000000000
40
0.4179197340
40
1.0000000000
40
1.0000000000
40
1.0000000000
40
1.0000000000
10
22.7266175910
20
31.6083485412
30
0.0000000000
10
22.7449556613
20
31.6230119086
30
0.0000000000
10
22.7937864253
20
31.6519530037
30
0.0000000000
10
22.8502489688
20
31.6631320024
30
0.0000000000
10
22.8827593140
20
31.6631320024
30
0.0000000000
11
22.7266175910
21
31.6083485412
31
0.0000000000
11
22.7871032841
21
31.6440997454
31
0.0000000000
11
22.8827593140
21
31.6631320024
31
0.0000000000
0
SPLINE
5
4D3
100
AcDbEntity
8
0
100
AcDbSpline
62
7
6
CONTINUOUS
70
0
71
3
72
11
73
7
74
5
42
0.0000001000
43
0.0000001000
44
0.0000000001
12
-0.3901726380
22
0.0000000000
32
0.0000000000
13
0.0000000000
23
0.3901726380
33
0.0000000000
40
0.0000000000
40
0.0000000000
40
0.0000000000
40
0.0000000000
40
0.2510771550
40
0.5024138089
40
0.7537566819
40
1.0000000000
40
1.0000000000
40
1.0000000000
40
1.0000000000
10
18.9827650255
20
-7.6491439375
30
0.0000000000
10
18.9501105469
20
-7.6491439375
30
0.0000000000
10
18.8840468852
20
-7.6360127730
30
0.0000000000
10
18.8006673470
20
-7.5798565779
30
0.0000000000
10
18.7455016840
20
-7.4965747991
30
0.0000000000
10
18.7327650255
20
-7.4311792584
30
0.0000000000
10
18.7327650255
20
-7.3991534567
30
0.0000000000
11
18.9827650255
21
-7.6491439375
31
0.0000000000
11
18.8867001322
21
-7.6299509427
31
0.0000000000
11
18.8053125068
21
-7.5752450297
31
0.0000000000
11
18.7512281151
21
-7.4934401582
31
0.0000000000
11
18.7327650255
21
-7.3991534567
31
0.0000000000
0
SPLINE
5
4D4
100
AcDbEntity
8
0
100
AcDbSpline
62
7
6
CONTINUOUS
70
0
71
3
72
11
73
7
74
5
42
0.0000001000
43
0.0000001000
44
0.0000000001
12
0.3901726381
22
0.0000000000
32
0.0000000000
13
0.0000000000
23
0.3901726381
33
0.0000000000
40
0.0000000000
40
0.0000000000
40
0.0000000000
40
0.0000000000
40
0.2462598389
40
0.4975956994
40
0.7489180023
40
1.0000000000
40
1.0000000000
40
1.0000000000
40
1.0000000000
10
5.4827650255
20
-7.6491439375
30
0.0000000000
10
5.5147929758
20
-7.6491439375
30
0.0000000000
10
5.5801897607
20
-7.6364077252
30
0.0000000000
10
5.6634726753
20
-7.5812457004
30
0.0000000000
10
5.7196321523
20
-7.4978711612
30
0.0000000000
10
5.7327650255
20
-7.4318085652
30
0.0000000000
10
5.7327650255
20
-7.3991534567
30
0.0000000000
11
5.4827650255
21
-7.6491439375
31
0.0000000000
11
5.5770582029
21
-7.6306803758
31
0.0000000000
11
5.6588624759
21
-7.5766000401
31
0.0000000000
11
5.7135692099
21
-7.4952197132
31
0.0000000000
11
5.7327650255
21
-7.3991534567
31
0.0000000000
0
SPLINE
5
4D5
100
AcDbEntity
8
0
100
AcDbSpline
62
7
6
CONTINUOUS
70
0
71
3
72
12
73
8
74
6
42
0.0000001000
43
0.0000001000
44
0.0000000001
12
0.0000000000
22
-0.2236837612
32
0.0000000000
13
0.1749519275
23
-0.1399553532
33
0.0000000000
40
0.0000000000
40
0.0000000000
40
0.0000000000
40
0.0000000000
40
0.2191172168
40
0.4382345463
40
0.6573517021
40
0.8764688540
40
1.0000000000
40
1.0000000000
40
1.0000000000
40
1.0000000000
10
22.5542232154
20
-16.0240138003
30
0.0000000000
10
22.5542232154
20
-16.0403514547
30
0.0000000000
10
22.5574468550
20
-16.0731173241
30
0.0000000000
10
22.5717670732
20
-16.1203065514
30
0.0000000000
10
22.5950212490
20
-16.1638144711
30
0.0000000000
10
22.6217653904
20
-16.1964001270
30
0.0000000000
10
22.6408640921
20
-16.2134895167
30
0.0000000000
10
22.6480680961
20
-16.2192524651
30
0.0000000000
11
22.5542232154
21
-16.0240138003
31
0.0000000000
11
22.5590276469
21
-16.0727907211
31
0.0000000000
11
22.5732560715
21
-16.1196930128
31
0.0000000000
11
22.5963613432
21
-16.1629181865
31
0.0000000000
11
22.6274553358
21
-16.2008052920
31
0.0000000000
11
22.6480680961
21
-16.2192524651
31
0.0000000000
0
SPLINE
5
4D6
100
AcDbEntity
8
0
100
AcDbSpline
62
7
6
CONTINUOUS
70
0
71
3
72
9
73
5
74
3
42
0.0000001000
43
0.0000001000
44
0.0000000001
12
-0.1675559903
22
0.0000000000
32
0.0000000000
13
-0.1316382222
23
0.1052596914
33
0.0000000000
40
0.0000000000
40
0.0000000000
40
0.0000000000
40
0.0000000000
40
0.5820802660
40
1.0000000000
40
1.0000000000
40
1.0000000000
40
1.0000000000
10
22.8827593140
20
-16.3368679976
30
0.0000000000
10
22.8502489688
20
-16.3368679976
30
0.0000000000
10
22.7937864253
20
-16.3256889989
30
0.0000000000
10
22.7449556613
20
-16.2967479038
30
0.0000000000
10
22.7266175910
20
-16.2820845364
30
0.0000000000
11
22.8827593140
21
-16.3368679976
31
0.0000000000
11
22.7871032841
21
-16.3178357406
31
0.0000000000
11
22.7266175910
21
-16.2820845364
31
0.0000000000
0
SPLINE
5
4D7
100
AcDbEntity
8
0
100
AcDbSpline
62
7
6
CONTINUOUS
70
0
71
3
72
11
73
7
74
5
42
0.0000001000
43
0.0000001000
44
0.0000000001
12
0.3901697090
22
0.0000000000
32
0.0000000000
13
-0.0000000000
23
0.3901697090
33
0.0000000000
40
0.0000000000
40
0.0000000000
40
0.0000000000
40
0.0000000000
40
0.2499979982
40
0.4999986853
40
0.7499986747
40
1.0000000000
40
1.0000000000
40
1.0000000000
40
1.0000000000
10
24.3827574081
20
-16.3368679976
30
0.0000000000
10
24.4152712901
20
-16.3368679976
30
0.0000000000
10
24.4810110373
20
-16.3238631119
30
0.0000000000
10
24.5641112755
20
-16.2682373281
30
0.0000000000
10
24.6197543391
20
-16.1851472308
30
0.0000000000
10
24.6327650255
20
-16.1194066806
30
0.0000000000
10
24.6327650255
20
-16.0868923658
30
0.0000000000
11
24.3827574081
21
-16.3368679976
31
0.0000000000
11
24.4784258025
21
-16.3178435121
31
0.0000000000
11
24.5595350888
21
-16.2636599251
31
0.0000000000
11
24.6137331002
21
-16.1825606041
31
0.0000000000
11
24.6327650255
21
-16.0868923658
31
0.0000000000
0
SPLINE
5
4D8
100
AcDbEntity
8
0
100
AcDbSpline
62
7
6
CONTINUOUS
70
0
71
3
72
11
73
7
74
5
42
0.0000001000
43
0.0000001000
44
0.0000000001
12
-0.3901697090
22
0.0000000000
32
0.0000000000
13
-0.0000000000
23
0.3901697090
33
0.0000000000
40
0.0000000000
40
0.0000000000
40
0.0000000000
40
0.0000000000
40
0.2499979982
40
0.4999986853
40
0.7499986747
40
1.0000000000
40
1.0000000000
40
1.0000000000
40
1.0000000000
10
0.0827726429
20
-16.3368679976
30
0.0000000000
10
0.0502587609
20
-16.3368679976
30
0.0000000000
10
-0.0154809863
20
-16.3238631119
30
0.0000000000
10
-0.0985812245
20
-16.2682373281
30
0.0000000000
10
-0.1542242880
20
-16.1851472308
30
0.0000000000
10
-0.1672349745
20
-16.1194066806
30
0.0000000000
10
-0.1672349745
20
-16.0868923658
30
0.0000000000
11
0.0827726429
21
-16.3368679976
31
0.0000000000
11
-0.0128957515
21
-16.3178435121
31
0.0000000000
11
-0.0940050378
21
-16.2636599251
31
0.0000000000
11
-0.1482030492
21
-16.1825606041
31
0.0000000000
11
-0.1672349745
21
-16.0868923658
31
0.0000000000
0
SPLINE
5
4D9
100
AcDbEntity
8
0
100
AcDbSpline
62
7
6
CONTINUOUS
70
0
71
3
72
9
73
5
74
3
42
0.0000001000
43
0.0000001000
44
0.0000000001
12
0.1675865957
22
0.0000000000
32
0.0000000000
13
0.1316619659
23
0.1052813196
33
0.0000000000
40
0.0000000000
40
0.0000000000
40
0.0000000000
40
0.0000000000
40
0.5821155013
40
1.0000000000
40
1.0000000000
40
1.0000000000
40
1.0000000000
10
1.5827402748
20
-16.3368679976
30
0.0000000000
10
1.6152585265
20
-16.3368679976
30
0.0000000000
10
1.6717330937
20
-16.3256959103
30
0.0000000000
10
1.7205732009
20
-16.2967495460
30
0.0000000000
10
1.7389130324
20
-16.2820844022
30
0.0000000000
11
1.5827402748
21
-16.3368679976
31
0.0000000000
11
1.6784209672
21
-16.3178381431
31
0.0000000000
11
1.7389130324
21
-16.2820844022
31
0.0000000000
0
SPLINE
5
4DA
100
AcDbEntity
8
0
100
AcDbSpline
62
7
6
CONTINUOUS
70
0
71
3
72
12
73
8
74
6
42
0.0000001000
43
0.0000001000
44
0.0000000001
12
0.0000000000
22
0.2236837612
32
0.0000000000
13
-0.1749519275
23
0.1399553532
33
0.0000000000
40
0.0000000000
40
0.0000000000
40
0.0000000000
40
0.0000000000
40
0.2191172168
40
0.4382345463
40
0.6573517021
40
0.8764688540
40
1.0000000000
40
1.0000000000
40
1.0000000000
40
1.0000000000
10
1.9113068356
20
31.3502778051
30
0.0000000000
10
1.9113068356
20
31.3666154595
30
0.0000000000
10
1.9080831960
20
31.3993813288
30
0.0000000000
10
1.8937629778
20
31.4465705561
30
0.0000000000
10
1.8705088020
20
31.4900784759
30
0.0000000000
10
1.8437646606
20
31.5226641318
30
0.0000000000
10
1.8246659589
20
31.5397535215
30
0.0000000000
10
1.8174619549
20
31.5455164699
30
0.0000000000
11
1.9113068356
21
31.3502778051
31
0.0000000000
11
1.9065024041
21
31.3990547259
31
0.0000000000
11
1.8922739795
21
31.4459570176
31
0.0000000000
11
1.8691687078
21
31.4891821913
31
0.0000000000
11
1.8380747152
21
31.5270692967
31
0.0000000000
11
1.8174619549
21
31.5455164699
31
0.0000000000
0
SPLINE
5
4DB
100
AcDbEntity
8
0
100
AcDbSpline
62
7
6
CONTINUOUS
70
0
71
3
72
11
73
7
74
5
42
0.0000001000
43
0.0000001000
44
0.0000000001
12
0.0000000000
22
0.3901697090
32
0.0000000000
13
0.3901697090
23
-0.0000000000
33
0.0000000000
40
0.0000000000
40
0.0000000000
40
0.0000000000
40
0.0000000000
40
0.2500013253
40
0.5000013147
40
0.7500020018
40
1.0000000000
40
1.0000000000
40
1.0000000000
40
1.0000000000
10
-0.1672349745
20
31.4131563706
30
0.0000000000
10
-0.1672349745
20
31.4456706854
30
0.0000000000
10
-0.1542242880
20
31.5114112356
30
0.0000000000
10
-0.0985812245
20
31.5945013329
30
0.0000000000
10
-0.0154809863
20
31.6501271167
30
0.0000000000
10
0.0502587609
20
31.6631320024
30
0.0000000000
10
0.0827726429
20
31.6631320024
30
0.0000000000
11
-0.1672349745
21
31.4131563706
31
0.0000000000
11
-0.1482030492
21
31.5088246089
31
0.0000000000
11
-0.0940050378
21
31.5899239299
31
0.0000000000
11
-0.0128957515
21
31.6441075169
31
0.0000000000
11
0.0827726429
21
31.6631320024
31
0.0000000000
0
SPLINE
5
4DC
100
AcDbEntity
8
0
100
AcDbSpline
62
7
6
CONTINUOUS
70
0
71
3
72
11
73
7
74
5
42
0.0000001000
43
0.0000001000
44
0.0000000001
12
0.0000000000
22
0.3901697090
32
0.0000000000
13
-0.3901697090
23
0.0000000000
33
0.0000000000
40
0.0000000000
40
0.0000000000
40
0.0000000000
40
0.0000000000
40
0.2500013253
40
0.5000013147
40
0.7500020018
40
1.0000000000
40
1.0000000000
40
1.0000000000
40
1.0000000000
10
24.6327650255
20
31.4131563706
30
0.0000000000
10
24.6327650255
20
31.4456706854
30
0.0000000000
10
24.6197543391
20
31.5114112356
30
0.0000000000
10
24.5641112755
20
31.5945013329
30
0.0000000000
10
24.4810110373
20
31.6501271167
30
0.0000000000
10
24.4152712901
20
31.6631320024
30
0.0000000000
10
24.3827574081
20
31.6631320024
30
0.0000000000
11
24.6327650255
21
31.4131563706
31
0.0000000000
11
24.6137331002
21
31.5088246089
31
0.0000000000
11
24.5595350888
21
31.5899239299
31
0.0000000000
11
24.4784258025
21
31.6441075169
31
0.0000000000
11
24.3827574081
21
31.6631320024
31
0.0000000000
0
SPLINE
5
4DD
100
AcDbEntity
8
0
100
AcDbSpline
62
7
6
CONTINUOUS
70
0
71
3
72
13
73
9
74
7
42
0.0000001000
43
0.0000001000
44
0.0000000001
12
-1.0000259509
22
0.0000000000
32
0.0000000000
13
-0.7071251313
23
-0.7071251313
33
0.0000000000
40
0.0000000000
40
0.0000000000
40
0.0000000000
40
0.0000000000
40
0.2579674224
40
0.4984723750
40
0.7052342484
40
0.8642565300
40
0.9647755362
40
1.0000000000
40
1.0000000000
40
1.0000000000
40
1.0000000000
10
18.3270273743
20
27.0126166789
30
0.0000000000
10
18.2410360021
20
27.0126166789
30
0.0000000000
10
18.0750098216
20
27.0122123143
30
0.0000000000
10
17.8393764373
20
27.0129149064
30
0.0000000000
10
17.6388678426
20
27.0086959382
30
0.0000000000
10
17.4794576323
20
27.0163394442
30
0.0000000000
10
17.3886623798
20
26.9991351529
30
0.0000000000
10
17.3353437833
20
27.0157107602
30
0.0000000000
10
17.3270410821
20
27.0074080590
30
0.0000000000
11
18.3270273743
21
27.0126166789
31
0.0000000000
11
18.0690533183
21
27.0124394488
31
0.0000000000
11
17.8285426859
21
27.0119197547
31
0.0000000000
11
17.6217771006
21
27.0110927749
31
0.0000000000
11
17.4627543479
21
27.0100144896
31
0.0000000000
11
17.3622405876
21
27.0087578944
31
0.0000000000
11
17.3270410821
21
27.0074080590
31
0.0000000000
0
SPLINE
5
4DE
100
AcDbEntity
8
0
100
AcDbSpline
62
7
6
CONTINUOUS
70
0
71
3
72
13
73
9
74
7
42
0.0000001000
43
0.0000001000
44
0.0000000001
12
-0.7071251313
22
0.7071251313
32
0.0000000000
13
-1.0000259509
23
0.0000000000
33
0.0000000000
40
0.0000000000
40
0.0000000000
40
0.0000000000
40
0.0000000000
40
0.0352244628
40
0.1357434686
40
0.2947657516
40
0.5015276275
40
0.7420325810
40
1.0000000000
40
1.0000000000
40
1.0000000000
40
1.0000000000
10
7.1384889689
20
27.0074080590
30
0.0000000000
10
7.1301862679
20
27.0157107600
30
0.0000000000
10
7.0768676720
20
26.9991351529
30
0.0000000000
10
6.9860724195
20
27.0163394443
30
0.0000000000
10
6.8266622080
20
27.0086959381
30
0.0000000000
10
6.6261536117
20
27.0129149064
30
0.0000000000
10
6.3905202275
20
27.0122123143
30
0.0000000000
10
6.2244940478
20
27.0126166789
30
0.0000000000
10
6.1385026767
20
27.0126166789
30
0.0000000000
11
7.1384889689
21
27.0074080590
31
0.0000000000
11
7.1032894643
21
27.0087578944
31
0.0000000000
11
7.0027757045
21
27.0100144896
31
0.0000000000
11
6.8437529504
21
27.0110927749
31
0.0000000000
11
6.6369873626
21
27.0119197547
31
0.0000000000
11
6.3964767293
21
27.0124394488
31
0.0000000000
11
6.1385026767
21
27.0126166789
31
0.0000000000
0
SPLINE
5
4DF
100
AcDbEntity
8
0
100
AcDbSpline
62
7
6
CONTINUOUS
70
0
71
3
72
13
73
9
74
7
42
0.0000001000
43
0.0000001000
44
0.0000000001
12
-1.0000259509
22
0.0000000000
32
0.0000000000
13
-0.7071251313
23
0.7071251313
33
0.0000000000
40
0.0000000000
40
0.0000000000
40
0.0000000000
40
0.0000000000
40
0.2579674224
40
0.4984723750
40
0.7052342484
40
0.8642565300
40
0.9647755362
40
1.0000000000
40
1.0000000000
40
1.0000000000
40
1.0000000000
10
18.3270273743
20
-11.6863526741
30
0.0000000000
10
18.2410360021
20
-11.6863526741
30
0.0000000000
10
18.0750098216
20
-11.6859483095
30
0.0000000000
10
17.8393764373
20
-11.6866509016
30
0.0000000000
10
17.6388678426
20
-11.6824319334
30
0.0000000000
10
17.4794576323
20
-11.6900754395
30
0.0000000000
10
17.3886623798
20
-11.6728711481
30
0.0000000000
10
17.3353437833
20
-11.6894467554
30
0.0000000000
10
17.3270410821
20
-11.6811440542
30
0.0000000000
11
18.3270273743
21
-11.6863526741
31
0.0000000000
11
18.0690533183
21
-11.6861754440
31
0.0000000000
11
17.8285426859
21
-11.6856557499
31
0.0000000000
11
17.6217771006
21
-11.6848287701
31
0.0000000000
11
17.4627543479
21
-11.6837504848
31
0.0000000000
11
17.3622405876
21
-11.6824938896
31
0.0000000000
11
17.3270410821
21
-11.6811440542
31
0.0000000000
0
SPLINE
5
4E0
100
AcDbEntity
8
0
100
AcDbSpline
62
7
6
CONTINUOUS
70
0
71
3
72
13
73
9
74
7
42
0.0000001000
43
0.0000001000
44
0.0000000001
12
-0.7071251313
22
-0.7071251313
32
0.0000000000
13
-1.0000259509
23
-0.0000000000
33
0.0000000000
40
0.0000000000
40
0.0000000000
40
0.0000000000
40
0.0000000000
40
0.0352244628
40
0.1357434686
40
0.2947657516
40
0.5015276275
40
0.7420325810
40
1.0000000000
40
1.0000000000
40
1.0000000000
40
1.0000000000
10
7.1384889689
20
-11.6811440542
30
0.0000000000
10
7.1301862679
20
-11.6894467552
30
0.0000000000
10
7.0768676720
20
-11.6728711481
30
0.0000000000
10
6.9860724195
20
-11.6900754395
30
0.0000000000
10
6.8266622080
20
-11.6824319334
30
0.0000000000
10
6.6261536117
20
-11.6866509016
30
0.0000000000
10
6.3905202275
20
-11.6859483095
30
0.0000000000
10
6.2244940478
20
-11.6863526741
30
0.0000000000
10
6.1385026767
20
-11.6863526741
30
0.0000000000
11
7.1384889689
21
-11.6811440542
31
0.0000000000
11
7.1032894643
21
-11.6824938896
31
0.0000000000
11
7.0027757045
21
-11.6837504848
31
0.0000000000
11
6.8437529504
21
-11.6848287701
31
0.0000000000
11
6.6369873626
21
-11.6856557499
31
0.0000000000
11
6.3964767293
21
-11.6861754440
31
0.0000000000
11
6.1385026767
21
-11.6863526741
31
0.0000000000
0
SPLINE
5
4E1
100
AcDbEntity
8
0
100
AcDbSpline
62
7
6
CONTINUOUS
70
0
71
3
72
11
73
7
74
5
42
0.0000001000
43
0.0000001000
44
0.0000000001
12
0.1060916003
22
-0.0848695273
32
0.0000000000
13
0.1347648737
23
-0.0177824021
33
0.0000000000
40
0.0000000000
40
0.0000000000
40
0.0000000000
40
0.0000000000
40
0.1576273290
40
0.5189654880
40
0.8803039175
40
1.0000000000
40
1.0000000000
40
1.0000000000
40
1.0000000000
10
22.6480680961
20
-16.2192524651
30
0.0000000000
10
22.6536424080
20
-16.2237117174
30
0.0000000000
10
22.6726230023
20
-16.2376084198
30
0.0000000000
10
22.7079551012
20
-16.2564919686
30
0.0000000000
10
22.7446252751
20
-16.2676195656
30
0.0000000000
10
22.7661444327
20
-16.2711724991
30
0.0000000000
10
22.7715213752
20
-16.2718819937
30
0.0000000000
11
22.6480680961
21
-16.2192524651
31
0.0000000000
11
22.6653430553
21
-16.2318984953
31
0.0000000000
11
22.7085685985
21
-16.2550030075
31
0.0000000000
11
22.7554710199
21
-16.2692308860
31
0.0000000000
11
22.7715213752
21
-16.2718819937
31
0.0000000000
0
SPLINE
5
4E2
100
AcDbEntity
8
0
100
AcDbSpline
62
7
6
CONTINUOUS
70
0
71
3
72
8
73
4
74
2
42
0.0000001000
43
0.0000001000
44
0.0000000001
12
0.0325649158
22
-0.0042969834
32
0.0000000000
13
0.0327770585
23
0.0000000000
33
0.0000000000
40
0.0000000000
40
0.0000000000
40
0.0000000000
40
0.0000000000
40
1.0000000000
40
1.0000000000
40
1.0000000000
40
1.0000000000
10
22.7715213752
20
-16.2718819937
30
0.0000000000
10
22.7823763471
20
-16.2733143216
30
0.0000000000
10
22.7933222799
20
-16.2740351237
30
0.0000000000
10
22.8042479661
20
-16.2740351237
30
0.0000000000
11
22.7715213752
21
-16.2718819937
31
0.0000000000
11
22.8042479661
21
-16.2740351237
31
0.0000000000
0
SPLINE
5
4E3
100
AcDbEntity
8
0
100
AcDbSpline
62
7
6
CONTINUOUS
70
0
71
3
72
9
73
5
74
3
42
0.0000001000
43
0.0000001000
44
0.0000000001
12
-0.0812993863
22
0.0214807428
32
0.0000000000
13
-0.0839071457
23
-0.0055320363
33
0.0000000000
40
0.0000000000
40
0.0000000000
40
0.0000000000
40
0.0000000000
40
0.2601651824
40
1.0000000000
40
1.0000000000
40
1.0000000000
40
1.0000000000
10
7.1384889689
20
-12.6869585879
30
0.0000000000
10
7.1314385457
20
-12.6850957408
30
0.0000000000
10
7.1028842465
20
-12.6919839417
30
0.0000000000
10
7.0752525448
20
-12.6907706954
30
0.0000000000
10
7.0545600688
20
-12.6921349597
30
0.0000000000
11
7.1384889689
21
-12.6869585879
31
0.0000000000
11
7.1166433236
21
-12.6881315270
31
0.0000000000
11
7.0545600688
21
-12.6921349597
31
0.0000000000
0
SPLINE
5
4E4
100
AcDbEntity
8
0
100
AcDbSpline
62
7
6
CONTINUOUS
70
0
71
3
72
9
73
5
74
3
42
0.0000001000
43
0.0000001000
44
0.0000000001
12
-0.1287790141
22
-0.0168129608
32
0.0000000000
13
-0.1295828080
23
0.0086606000
33
0.0000000000
40
0.0000000000
40
0.0000000000
40
0.0000000000
40
0.0000000000
40
0.2624507649
40
1.0000000000
40
1.0000000000
40
1.0000000000
40
1.0000000000
10
8.2414157380
20
-13.3689808552
30
0.0000000000
10
8.2301496877
20
-13.3704517134
30
0.0000000000
10
8.1867383154
20
-13.3629808364
30
0.0000000000
10
8.1436628641
20
-13.3628930803
30
0.0000000000
10
8.1118049638
20
-13.3607638740
30
0.0000000000
11
8.2414157380
21
-13.3689808552
31
0.0000000000
11
8.2073861304
21
-13.3670387910
31
0.0000000000
11
8.1118049638
21
-13.3607638740
31
0.0000000000
0
SPLINE
5
4E5
100
AcDbEntity
8
0
100
AcDbSpline
62
7
6
CONTINUOUS
70
0
71
3
72
12
73
8
74
6
42
0.0000001000
43
0.0000001000
44
0.0000000001
12
0.4692975279
22
0.0000000000
32
0.0000000000
13
0.0000000000
23
0.4692975279
33
0.0000000000
40
0.0000000000
40
0.0000000000
40
0.0000000000
40
0.0000000000
40
0.2000913286
40
0.4000511012
40
0.5995650367
40
0.8000196282
40
1.0000000000
40
1.0000000000
40
1.0000000000
40
1.0000000000
10
19.3332844613
20
27.0126166789
30
0.0000000000
10
19.3645852499
20
27.0126166789
30
0.0000000000
10
19.4276077820
20
27.0225744021
30
0.0000000000
10
19.5124826916
20
27.0658654654
30
0.0000000000
10
19.5799782741
20
27.1333192532
30
0.0000000000
10
19.6233193376
20
27.2182473866
30
0.0000000000
10
19.6332803490
20
27.2813291352
30
0.0000000000
10
19.6332803490
20
27.3126125666
30
0.0000000000
11
19.3332844613
21
27.0126166789
31
0.0000000000
11
19.4260297118
21
27.0273126925
31
0.0000000000
11
19.5096376747
21
27.0699245667
31
0.0000000000
11
19.5758651944
21
27.1361118320
31
0.0000000000
11
19.6186006297
21
27.2199174559
31
0.0000000000
11
19.6332803490
21
27.3126125666
31
0.0000000000
0
SPLINE
5
4E6
100
AcDbEntity
8
0
100
AcDbSpline
62
7
6
CONTINUOUS
70
0
71
3
72
9
73
5
74
3
42
0.0000001000
43
0.0000001000
44
0.0000000001
12
-0.1295828080
22
-0.0086606000
32
0.0000000000
13
-0.1287790141
23
0.0168129608
33
0.0000000000
40
0.0000000000
40
0.0000000000
40
0.0000000000
40
0.0000000000
40
0.7375499161
40
1.0000000000
40
1.0000000000
40
1.0000000000
40
1.0000000000
10
16.3537250872
20
-13.3607638740
30
0.0000000000
10
16.3218671575
20
-13.3628930822
30
0.0000000000
10
16.2787917063
20
-13.3629808364
30
0.0000000000
10
16.2353803341
20
-13.3704517096
30
0.0000000000
10
16.2241143130
20
-13.3689808552
30
0.0000000000
11
16.3537250872
21
-13.3607638740
31
0.0000000000
11
16.2581438324
21
-13.3670387966
31
0.0000000000
11
16.2241143130
21
-13.3689808552
31
0.0000000000
0
SPLINE
5
4E7
100
AcDbEntity
8
0
100
AcDbSpline
62
7
6
CONTINUOUS
70
0
71
3
72
12
73
8
74
6
42
0.0000001000
43
0.0000001000
44
0.0000000001
12
0.0000000000
22
0.4692975279
32
0.0000000000
13
-0.4692975279
23
0.0000000000
33
0.0000000000
40
0.0000000000
40
0.0000000000
40
0.0000000000
40
0.0000000000
40
0.1999803718
40
0.4004349633
40
0.5999488988
40
0.7999086714
40
1.0000000000
40
1.0000000000
40
1.0000000000
40
1.0000000000
10
19.6332803490
20
-11.9863485618
30
0.0000000000
10
19.6332803490
20
-11.9550651304
30
0.0000000000
10
19.6233193376
20
-11.8919833818
30
0.0000000000
10
19.5799782741
20
-11.8070552484
30
0.0000000000
10
19.5124826916
20
-11.7396014606
30
0.0000000000
10
19.4276077820
20
-11.6963103973
30
0.0000000000
10
19.3645852499
20
-11.6863526741
30
0.0000000000
10
19.3332844613
20
-11.6863526741
30
0.0000000000
11
19.6332803490
21
-11.9863485618
31
0.0000000000
11
19.6186006297
21
-11.8936534511
31
0.0000000000
11
19.5758651944
21
-11.8098478272
31
0.0000000000
11
19.5096376747
21
-11.7436605619
31
0.0000000000
11
19.4260297118
21
-11.7010486878
31
0.0000000000
11
19.3332844613
21
-11.6863526741
31
0.0000000000
0
SPLINE
5
4E8
100
AcDbEntity
8
0
100
AcDbSpline
62
7
6
CONTINUOUS
70
0
71
3
72
9
73
5
74
3
42
0.0000001000
43
0.0000001000
44
0.0000000001
12
-0.0839071457
22
0.0055320363
32
0.0000000000
13
-0.0812993863
23
-0.0214807428
33
0.0000000000
40
0.0000000000
40
0.0000000000
40
0.0000000000
40
0.0000000000
40
0.7398353041
40
1.0000000000
40
1.0000000000
40
1.0000000000
40
1.0000000000
10
17.4109699822
20
-12.6921349597
30
0.0000000000
10
17.3902774926
20
-12.6907706945
30
0.0000000000
10
17.3626457911
20
-12.6919839425
30
0.0000000000
10
17.3340914921
20
-12.6850957442
30
0.0000000000
10
17.3270410821
20
-12.6869585879
30
0.0000000000
11
17.4109699822
21
-12.6921349597
31
0.0000000000
11
17.3488866865
21
-12.6881315244
31
0.0000000000
11
17.3270410821
21
-12.6869585879
31
0.0000000000
0
SPLINE
5
4E9
100
AcDbEntity
8
0
100
AcDbSpline
62
7
6
CONTINUOUS
70
0
71
3
72
9
73
5
74
3
42
0.0000001000
43
0.0000001000
44
0.0000000001
12
-0.0839071457
22
-0.0055320363
32
0.0000000000
13
-0.0812993863
23
0.0214807428
33
0.0000000000
40
0.0000000000
40
0.0000000000
40
0.0000000000
40
0.0000000000
40
0.7398353041
40
1.0000000000
40
1.0000000000
40
1.0000000000
40
1.0000000000
10
17.4109699822
20
28.0183989645
30
0.0000000000
10
17.3902774926
20
28.0170346993
30
0.0000000000
10
17.3626457911
20
28.0182479473
30
0.0000000000
10
17.3340914921
20
28.0113597490
30
0.0000000000
10
17.3270410821
20
28.0132225927
30
0.0000000000
11
17.4109699822
21
28.0183989645
31
0.0000000000
11
17.3488866865
21
28.0143955292
31
0.0000000000
11
17.3270410821
21
28.0132225927
31
0.0000000000
0
SPLINE
5
4EA
100
AcDbEntity
8
0
100
AcDbSpline
62
7
6
CONTINUOUS
70
0
71
3
72
9
73
5
74
3
42
0.0000001000
43
0.0000001000
44
0.0000000001
12
-0.1198386815
22
0.0080093567
32
0.0000000000
13
-0.1199078499
23
0.0068968768
33
0.0000000000
40
0.0000000000
40
0.0000000000
40
0.0000000000
40
0.0000000000
40
0.6408292315
40
1.0000000000
40
1.0000000000
40
1.0000000000
40
1.0000000000
10
16.3537252829
20
28.6870278657
30
0.0000000000
10
16.3281265729
20
28.6887387423
30
0.0000000000
10
16.2881782048
20
28.6913729386
30
0.0000000000
10
16.2482264025
20
28.6939659192
30
0.0000000000
10
16.2338706043
20
28.6947916381
30
0.0000000000
11
16.3537252829
21
28.6870278657
31
0.0000000000
11
16.2769249986
21
28.6920979566
31
0.0000000000
11
16.2338706043
21
28.6947916381
31
0.0000000000
0
SPLINE
5
4EB
100
AcDbEntity
8
0
100
AcDbSpline
62
7
6
CONTINUOUS
70
0
71
3
72
8
73
4
74
2
42
0.0000001000
43
0.0000001000
44
0.0000000001
12
-0.0095694620
22
0.0019138458
32
0.0000000000
13
-0.0097582179
23
0.0001207915
33
0.0000000000
40
0.0000000000
40
0.0000000000
40
0.0000000000
40
0.0000000000
40
1.0000000000
40
1.0000000000
40
1.0000000000
40
1.0000000000
10
8.2414157380
20
28.6945631915
30
0.0000000000
10
8.2382259173
20
28.6952011401
30
0.0000000000
10
8.2349121860
20
28.6947513742
30
0.0000000000
10
8.2316594467
20
28.6947916381
30
0.0000000000
11
8.2414157380
21
28.6945631915
31
0.0000000000
11
8.2316594467
21
28.6947916381
31
0.0000000000
0
SPLINE
5
4EC
100
AcDbEntity
8
0
100
AcDbSpline
62
7
6
CONTINUOUS
70
0
71
3
72
9
73
5
74
3
42
0.0000001000
43
0.0000001000
44
0.0000000001
12
-0.0094520057
22
-0.0001170011
32
0.0000000000
13
-0.0089470159
23
-0.0048258246
33
0.0000000000
40
0.0000000000
40
0.0000000000
40
0.0000000000
40
0.0000000000
40
0.7405156222
40
1.0000000000
40
1.0000000000
40
1.0000000000
40
1.0000000000
10
16.2338706043
20
28.6947916381
30
0.0000000000
10
16.2315374851
20
28.6947627577
30
0.0000000000
10
16.2283263857
20
28.6952667304
30
0.0000000000
10
16.2252791925
20
28.6942556743
30
0.0000000000
10
16.2245053222
20
28.6938382656
30
0.0000000000
11
16.2338706043
21
28.6947916381
31
0.0000000000
11
16.2268716267
21
28.6946783707
31
0.0000000000
11
16.2245053222
21
28.6938382656
31
0.0000000000
0
SPLINE
5
4ED
100
AcDbEntity
8
0
100
AcDbSpline
62
7
6
CONTINUOUS
70
0
71
3
72
9
73
5
74
3
42
0.0000001000
43
0.0000001000
44
0.0000000001
12
-0.1199076541
22
-0.0068968655
32
0.0000000000
13
-0.1198384858
23
-0.0080093433
33
0.0000000000
40
0.0000000000
40
0.0000000000
40
0.0000000000
40
0.0000000000
40
0.3591712915
40
1.0000000000
40
1.0000000000
40
1.0000000000
40
1.0000000000
10
8.2316594467
20
28.6947916381
30
0.0000000000
10
8.2173036510
20
28.6939659194
30
0.0000000000
10
8.1773519140
20
28.6913729430
30
0.0000000000
10
8.1374036111
20
28.6887387511
30
0.0000000000
10
8.1118049638
20
28.6870278788
30
0.0000000000
11
8.2316594467
21
28.6947916381
31
0.0000000000
11
8.1886050600
21
28.6920979571
31
0.0000000000
11
8.1118049638
21
28.6870278788
31
0.0000000000
0
SPLINE
5
4EE
100
AcDbEntity
8
0
100
AcDbSpline
62
7
6
CONTINUOUS
70
0
71
3
72
9
73
5
74
3
42
0.0000001000
43
0.0000001000
44
0.0000000001
12
-0.0812993863
22
-0.0214807428
32
0.0000000000
13
-0.0839071457
23
0.0055320363
33
0.0000000000
40
0.0000000000
40
0.0000000000
40
0.0000000000
40
0.0000000000
40
0.2601651824
40
1.0000000000
40
1.0000000000
40
1.0000000000
40
1.0000000000
10
7.1384889689
20
28.0132225927
30
0.0000000000
10
7.1314385457
20
28.0113597455
30
0.0000000000
10
7.1028842465
20
28.0182479465
30
0.0000000000
10
7.0752525448
20
28.0170347002
30
0.0000000000
10
7.0545600688
20
28.0183989645
30
0.0000000000
11
7.1384889689
21
28.0132225927
31
0.0000000000
11
7.1166433236
21
28.0143955317
31
0.0000000000
11
7.0545600688
21
28.0183989645
31
0.0000000000
0
SPLINE
5
4EF
100
AcDbEntity
8
0
100
AcDbSpline
62
7
6
CONTINUOUS
70
0
71
3
72
12
73
8
74
6
42
0.0000001000
43
0.0000001000
44
0.0000000001
12
0.0000000000
22
-0.4692975279
32
0.0000000000
13
0.4692975279
23
0.0000000000
33
0.0000000000
40
0.0000000000
40
0.0000000000
40
0.0000000000
40
0.0000000000
40
0.1999803718
40
0.4004349633
40
0.5999488988
40
0.7999086714
40
1.0000000000
40
1.0000000000
40
1.0000000000
40
1.0000000000
10
4.8322497020
20
27.3126125666
30
0.0000000000
10
4.8322497020
20
27.2813291352
30
0.0000000000
10
4.8422107134
20
27.2182473866
30
0.0000000000
10
4.8855517769
20
27.1333192532
30
0.0000000000
10
4.9530473594
20
27.0658654654
30
0.0000000000
10
5.0379222690
20
27.0225744021
30
0.0000000000
10
5.1009448011
20
27.0126166789
30
0.0000000000
10
5.1322455897
20
27.0126166789
30
0.0000000000
11
4.8322497020
21
27.3126125666
31
0.0000000000
11
4.8469294213
21
27.2199174559
31
0.0000000000
11
4.8896648566
21
27.1361118320
31
0.0000000000
11
4.9558923763
21
27.0699245667
31
0.0000000000
11
5.0395003392
21
27.0273126925
31
0.0000000000
11
5.1322455897
21
27.0126166789
31
0.0000000000
0
SPLINE
5
4F0
100
AcDbEntity
8
0
100
AcDbSpline
62
7
6
CONTINUOUS
70
0
71
3
72
13
73
9
74
7
42
0.0000001000
43
0.0000001000
44
0.0000000001
12
-0.2499982866
22
0.2499982866
32
0.0000000000
13
0.0000000000
23
0.3535509675
33
0.0000000000
40
0.0000000000
40
0.0000000000
40
0.0000000000
40
0.0000000000
40
0.2175980522
40
0.4352011662
40
0.6392374089
40
0.8158956326
40
0.9463184906
40
1.0000000000
40
1.0000000000
40
1.0000000000
40
1.0000000000
10
1.5827650255
20
-5.1394935824
30
0.0000000000
10
1.5646319788
20
-5.1213605357
30
0.0000000000
10
1.5284464248
20
-5.0850604670
30
0.0000000000
10
1.4748202445
20
-5.0319389033
30
0.0000000000
10
1.4261382210
20
-4.9815938312
30
0.0000000000
10
1.3800919885
20
-4.9404322383
30
0.0000000000
10
1.3577643502
20
-4.9071629259
30
0.0000000000
10
1.3327650255
20
-4.8958233926
30
0.0000000000
10
1.3327650255
20
-4.8894970094
30
0.0000000000
11
1.5827650255
21
-5.1394935824
31
0.0000000000
11
1.5283658853
21
-5.0850944422
31
0.0000000000
11
1.4739654796
21
-5.0306940365
31
0.0000000000
11
1.4229567685
21
-4.9796853254
31
0.0000000000
11
1.3787925153
21
-4.9355210722
31
0.0000000000
11
1.3461870242
21
-4.9029155812
31
0.0000000000
11
1.3327650255
21
-4.8894970094
31
0.0000000000
0
SPLINE
5
4F1
100
AcDbEntity
8
0
100
AcDbSpline
62
7
6
CONTINUOUS
70
0
71
3
72
13
73
9
74
7
42
0.0000001000
43
0.0000001000
44
0.0000000001
12
0.2499982866
22
0.2499982866
32
0.0000000000
13
0.0000000000
23
0.3535509675
33
0.0000000000
40
0.0000000000
40
0.0000000000
40
0.0000000000
40
0.0000000000
40
0.2175980522
40
0.4352011662
40
0.6392374089
40
0.8158956326
40
0.9463184906
40
1.0000000000
40
1.0000000000
40
1.0000000000
40
1.0000000000
10
5.4827650255
20
-5.1394935824
30
0.0000000000
10
5.5008980722
20
-5.1213605357
30
0.0000000000
10
5.5370836262
20
-5.0850604670
30
0.0000000000
10
5.5907098065
20
-5.0319389033
30
0.0000000000
10
5.6393918300
20
-4.9815938312
30
0.0000000000
10
5.6854380625
20
-4.9404322383
30
0.0000000000
10
5.7077657008
20
-4.9071629259
30
0.0000000000
10
5.7327650255
20
-4.8958233926
30
0.0000000000
10
5.7327650255
20
-4.8894970094
30
0.0000000000
11
5.4827650255
21
-5.1394935824
31
0.0000000000
11
5.5371641657
21
-5.0850944422
31
0.0000000000
11
5.5915645714
21
-5.0306940365
31
0.0000000000
11
5.6425732825
21
-4.9796853254
31
0.0000000000
11
5.6867375357
21
-4.9355210722
31
0.0000000000
11
5.7193430268
21
-4.9029155812
31
0.0000000000
11
5.7327650255
21
-4.8894970094
31
0.0000000000
0
SPLINE
5
4F2
100
AcDbEntity
8
0
100
AcDbSpline
62
7
6
CONTINUOUS
70
0
71
3
72
12
73
8
74
6
42
0.0000001000
43
0.0000001000
44
0.0000000001
12
0.0000000000
22
-0.3910805649
32
0.0000000000
13
-0.3910805649
23
0.0000000000
33
0.0000000000
40
0.0000000000
40
0.0000000000
40
0.0000000000
40
0.0000000000
40
0.2125647877
40
0.4115219838
40
0.6042772519
40
0.8036959029
40
1.0000000000
40
1.0000000000
40
1.0000000000
40
1.0000000000
10
5.7327650255
20
-5.6868679976
30
0.0000000000
10
5.7327650255
20
-5.7145779834
30
0.0000000000
10
5.7236694740
20
-5.7686640238
30
0.0000000000
10
5.6859609000
20
-5.8392146459
30
0.0000000000
10
5.6299396176
20
-5.8938589782
30
0.0000000000
10
5.5602880569
20
-5.9288233746
30
0.0000000000
10
5.5083552646
20
-5.9368679976
30
0.0000000000
10
5.4827650255
20
-5.9368679976
30
0.0000000000
11
5.7327650255
21
-5.6868679976
31
0.0000000000
11
5.7189438459
21
-5.7688409492
31
0.0000000000
11
5.6823030929
21
-5.8374819400
31
0.0000000000
11
5.6283362633
21
-5.8901141900
31
0.0000000000
11
5.5586254117
21
-5.9250805116
31
0.0000000000
11
5.4827650255
21
-5.9368679976
31
0.0000000000
0
SPLINE
5
4F3
100
AcDbEntity
8
0
100
AcDbSpline
62
7
6
CONTINUOUS
70
0
71
3
72
13
73
9
74
7
42
0.0000001000
43
0.0000001000
44
0.0000000001
12
-0.2499952412
22
-0.2499952412
32
0.0000000000
13
0.0000000000
23
-0.3535466607
33
0.0000000000
40
0.0000000000
40
0.0000000000
40
0.0000000000
40
0.0000000000
40
0.2176724759
40
0.4350476293
40
0.6387593861
40
0.8152322208
40
0.9458072093
40
1.0000000000
40
1.0000000000
40
1.0000000000
40
1.0000000000
10
1.5827650255
20
-5.4991534567
30
0.0000000000
10
1.5646259978
20
-5.5172924844
30
0.0000000000
10
1.5284535190
20
-5.5535792818
30
0.0000000000
10
1.4748690023
20
-5.6066607115
30
0.0000000000
10
1.4262444164
20
-5.6569422219
30
0.0000000000
10
1.3802389501
20
-5.6980764575
30
0.0000000000
10
1.3578731654
20
-5.7313888242
30
0.0000000000
10
1.3327650255
20
-5.7427573774
30
0.0000000000
10
1.3327650255
20
-5.7491439375
30
0.0000000000
11
1.5827650255
21
-5.4991534567
31
0.0000000000
11
1.5283479424
21
-5.5535705398
31
0.0000000000
11
1.4740051885
21
-5.6079132937
31
0.0000000000
11
1.4230782187
21
-5.6588402635
31
0.0000000000
11
1.3789608498
21
-5.7029576324
31
0.0000000000
11
1.3463177241
21
-5.7356007581
31
0.0000000000
11
1.3327650255
21
-5.7491439375
31
0.0000000000
0
SPLINE
5
4F4
100
AcDbEntity
8
0
100
AcDbSpline
62
7
6
CONTINUOUS
70
0
71
3
72
9
73
5
74
3
42
0.0000001000
43
0.0000001000
44
0.0000000001
12
-0.1762974342
22
0.1193242911
32
0.0000000000
13
-0.0051027963
23
0.2128215995
33
0.0000000000
40
0.0000000000
40
0.0000000000
40
0.0000000000
40
0.0000000000
40
0.5622485349
40
1.0000000000
40
1.0000000000
40
1.0000000000
40
1.0000000000
10
16.3433448492
20
30.0856034125
30
0.0000000000
10
16.3103038578
20
30.1079667151
30
0.0000000000
10
16.2542969898
20
30.1538254862
30
0.0000000000
10
16.2248588986
20
30.2237550592
30
0.0000000000
10
16.2241143130
20
30.2548093815
30
0.0000000000
11
16.3433448492
21
30.0856034125
31
0.0000000000
11
16.2557233113
21
30.1671441130
31
0.0000000000
11
16.2241143130
21
30.2548093815
31
0.0000000000
0
SPLINE
5
4F5
100
AcDbEntity
8
0
100
AcDbSpline
62
7
6
CONTINUOUS
70
0
71
3
72
9
73
5
74
3
42
0.0000001000
43
0.0000001000
44
0.0000000001
12
-0.0051027971
22
-0.2128216341
32
0.0000000000
13
-0.1762974629
23
-0.1193243105
33
0.0000000000
40
0.0000000000
40
0.0000000000
40
0.0000000000
40
0.0000000000
40
0.4377411386
40
1.0000000000
40
1.0000000000
40
1.0000000000
40
1.0000000000
10
8.2414157380
20
30.2548093815
30
0.0000000000
10
8.2406711699
20
30.2237557867
30
0.0000000000
10
8.2112337481
20
30.1538261215
30
0.0000000000
10
8.1552268054
20
30.1079671295
30
0.0000000000
10
8.1221852018
20
30.0856034125
30
0.0000000000
11
8.2414157380
21
30.2548093815
31
0.0000000000
11
8.2098080488
21
30.1671459617
31
0.0000000000
11
8.1221852018
21
30.0856034125
31
0.0000000000
0
SPLINE
5
4F6
100
AcDbEntity
8
0
100
AcDbSpline
62
7
6
CONTINUOUS
70
0
71
3
72
13
73
9
74
7
42
0.0000001000
43
0.0000001000
44
0.0000000001
12
0.2499904808
22
0.2499904808
32
0.0000000000
13
0.2499904808
23
0.2499904808
33
0.0000000000
40
0.0000000000
40
0.0000000000
40
0.0000000000
40
0.0000000000
40
0.0549921888
40
0.1858145159
40
0.3625070290
40
0.5663020252
40
0.7833258585
40
1.0000000000
40
1.0000000000
40
1.0000000000
40
1.0000000000
10
4.8204890856
20
-5.7491439375
30
0.0000000000
10
4.8250715935
20
-5.7445614296
30
0.0000000000
10
4.8405555469
20
-5.7290774762
30
0.0000000000
10
4.8707633157
20
-5.6988697074
30
0.0000000000
10
4.9133708464
20
-5.6562621768
30
0.0000000000
10
4.9631615623
20
-5.6064714608
30
0.0000000000
10
5.0162839537
20
-5.5533490694
30
0.0000000000
10
5.0524240755
20
-5.5172089476
30
0.0000000000
10
5.0704795664
20
-5.4991534567
30
0.0000000000
11
4.8204890856
21
-5.7491439375
31
0.0000000000
11
4.8342366093
21
-5.7353964138
31
0.0000000000
11
4.8669409458
21
-5.7026920773
31
0.0000000000
11
4.9111123921
21
-5.6585206310
31
0.0000000000
11
4.9620592012
21
-5.6075738219
31
0.0000000000
11
5.0163130936
21
-5.5533199295
31
0.0000000000
11
5.0704795664
21
-5.4991534567
31
0.0000000000
0
SPLINE
5
4F7
100
AcDbEntity
8
0
100
AcDbSpline
62
7
6
CONTINUOUS
70
0
71
3
72
9
73
5
74
3
42
0.0000001000
43
0.0000001000
44
0.0000000001
12
-0.1762974342
22
-0.1193242911
32
0.0000000000
13
-0.0051027963
23
-0.2128215995
33
0.0000000000
40
0.0000000000
40
0.0000000000
40
0.0000000000
40
0.0000000000
40
0.5622485349
40
1.0000000000
40
1.0000000000
40
1.0000000000
40
1.0000000000
10
16.3433448492
20
-14.7593394077
30
0.0000000000
10
16.3103038578
20
-14.7817027103
30
0.0000000000
10
16.2542969898
20
-14.8275614815
30
0.0000000000
10
16.2248588986
20
-14.8974910544
30
0.0000000000
10
16.2241143130
20
-14.9285453768
30
0.0000000000
11
16.3433448492
21
-14.7593394077
31
0.0000000000
11
16.2557233113
21
-14.8408801082
31
0.0000000000
11
16.2241143130
21
-14.9285453768
31
0.0000000000
0
SPLINE
5
4F8
100
AcDbEntity
8
0
100
AcDbSpline
62
7
6
CONTINUOUS
70
0
71
3
72
9
73
5
74
3
42
0.0000001000
43
0.0000001000
44
0.0000000001
12
-0.0051027971
22
0.2128216341
32
0.0000000000
13
-0.1762974629
23
0.1193243105
33
0.0000000000
40
0.0000000000
40
0.0000000000
40
0.0000000000
40
0.0000000000
40
0.4377411386
40
1.0000000000
40
1.0000000000
40
1.0000000000
40
1.0000000000
10
8.2414157380
20
-14.9285453768
30
0.0000000000
10
8.2406711699
20
-14.8974917819
30
0.0000000000
10
8.2112337481
20
-14.8275621167
30
0.0000000000
10
8.1552268054
20
-14.7817031247
30
0.0000000000
10
8.1221852018
20
-14.7593394077
30
0.0000000000
11
8.2414157380
21
-14.9285453768
31
0.0000000000
11
8.2098080488
21
-14.8408819569
31
0.0000000000
11
8.1221852018
21
-14.7593394077
31
0.0000000000
0
SPLINE
5
4F9
100
AcDbEntity
8
0
100
AcDbSpline
62
7
6
CONTINUOUS
70
0
71
3
72
12
73
8
74
6
42
0.0000001000
43
0.0000001000
44
0.0000000001
12
-0.4692975279
22
0.0000000000
32
0.0000000000
13
0.0000000000
23
-0.4692975279
33
0.0000000000
40
0.0000000000
40
0.0000000000
40
0.0000000000
40
0.0000000000
40
0.2000913286
40
0.4000511012
40
0.5995650367
40
0.8000196282
40
1.0000000000
40
1.0000000000
40
1.0000000000
40
1.0000000000
10
5.1322455897
20
-11.6863526741
30
0.0000000000
10
5.1009448011
20
-11.6863526741
30
0.0000000000
10
5.0379222690
20
-11.6963103973
30
0.0000000000
10
4.9530473594
20
-11.7396014606
30
0.0000000000
10
4.8855517769
20
-11.8070552484
30
0.0000000000
10
4.8422107134
20
-11.8919833818
30
0.0000000000
10
4.8322497020
20
-11.9550651304
30
0.0000000000
10
4.8322497020
20
-11.9863485618
30
0.0000000000
11
5.1322455897
21
-11.6863526741
31
0.0000000000
11
5.0395003392
21
-11.7010486878
31
0.0000000000
11
4.9558923763
21
-11.7436605619
31
0.0000000000
11
4.8896648566
21
-11.8098478272
31
0.0000000000
11
4.8469294213
21
-11.8936534511
31
0.0000000000
11
4.8322497020
21
-11.9863485618
31
0.0000000000
0
SPLINE
5
4FA
100
AcDbEntity
8
0
100
AcDbSpline
62
7
6
CONTINUOUS
70
0
71
3
72
13
73
9
74
7
42
0.0000001000
43
0.0000001000
44
0.0000000001
12
0.2499904808
22
-0.2499904808
32
0.0000000000
13
0.2499904808
23
-0.2499904808
33
0.0000000000
40
0.0000000000
40
0.0000000000
40
0.0000000000
40
0.0000000000
40
0.2166741415
40
0.4336979748
40
0.6374929710
40
0.8141854841
40
0.9450078112
40
1.0000000000
40
1.0000000000
40
1.0000000000
40
1.0000000000
10
19.3950504846
20
-5.4991534567
30
0.0000000000
10
19.4131059755
20
-5.5172089476
30
0.0000000000
10
19.4492460973
20
-5.5533490694
30
0.0000000000
10
19.5023684887
20
-5.6064714608
30
0.0000000000
10
19.5521592047
20
-5.6562621768
30
0.0000000000
10
19.5947667353
20
-5.6988697074
30
0.0000000000
10
19.6249745041
20
-5.7290774762
30
0.0000000000
10
19.6404584575
20
-5.7445614296
30
0.0000000000
10
19.6450409654
20
-5.7491439375
30
0.0000000000
11
19.3950504846
21
-5.4991534567
31
0.0000000000
11
19.4492169574
21
-5.5533199295
31
0.0000000000
11
19.5034708498
21
-5.6075738219
31
0.0000000000
11
19.5544176589
21
-5.6585206310
31
0.0000000000
11
19.5985891052
21
-5.7026920773
31
0.0000000000
11
19.6312934417
21
-5.7353964138
31
0.0000000000
11
19.6450409654
21
-5.7491439375
31
0.0000000000
0
SPLINE
5
4FB
100
AcDbEntity
8
0
100
AcDbSpline
62
7
6
CONTINUOUS
70
0
71
3
72
13
73
9
74
7
42
0.0000001000
43
0.0000001000
44
0.0000000001
12
0.2500047606
22
-0.2500047606
32
0.0000000000
13
0.0000000000
23
-0.3535601232
33
0.0000000000
40
0.0000000000
40
0.0000000000
40
0.0000000000
40
0.0000000000
40
0.2164912796
40
0.4340806922
40
0.6386795793
40
0.8158303209
40
0.9462722615
40
1.0000000000
40
1.0000000000
40
1.0000000000
40
1.0000000000
10
22.8827650255
20
-5.4991534567
30
0.0000000000
10
22.9008063090
20
-5.5171947402
30
0.0000000000
10
22.9369000073
20
-5.5534020651
30
0.0000000000
10
22.9904803244
20
-5.6064791365
30
0.0000000000
10
23.0392485148
20
-5.6569120852
30
0.0000000000
10
23.0853909017
20
-5.6981649429
30
0.0000000000
10
23.1077693715
20
-5.7314734899
30
0.0000000000
10
23.1327650255
20
-5.7428309810
30
0.0000000000
10
23.1327650255
20
-5.7491629763
30
0.0000000000
11
22.8827650255
21
-5.4991534567
31
0.0000000000
11
22.9368888761
21
-5.5532773073
31
0.0000000000
11
22.9912872651
21
-5.6076756963
31
0.0000000000
11
23.0424379608
21
-5.6588263921
31
0.0000000000
11
23.0867264896
21
-5.7031149208
31
0.0000000000
11
23.1193375958
21
-5.7357260270
31
0.0000000000
11
23.1327650255
21
-5.7491629763
31
0.0000000000
0
SPLINE
5
4FC
100
AcDbEntity
8
0
100
AcDbSpline
62
7
6
CONTINUOUS
70
0
71
3
72
13
73
9
74
7
42
0.0000001000
43
0.0000001000
44
0.0000000001
12
0.2499982866
22
0.2499982866
32
0.0000000000
13
0.0000000000
23
0.3535509675
33
0.0000000000
40
0.0000000000
40
0.0000000000
40
0.0000000000
40
0.0000000000
40
0.2175980522
40
0.4352011662
40
0.6392374089
40
0.8158956326
40
0.9463184906
40
1.0000000000
40
1.0000000000
40
1.0000000000
40
1.0000000000
10
22.8827650255
20
-5.1394935824
30
0.0000000000
10
22.9008980722
20
-5.1213605357
30
0.0000000000
10
22.9370836262
20
-5.0850604670
30
0.0000000000
10
22.9907098065
20
-5.0319389033
30
0.0000000000
10
23.0393918300
20
-4.9815938312
30
0.0000000000
10
23.0854380625
20
-4.9404322383
30
0.0000000000
10
23.1077657008
20
-4.9071629259
30
0.0000000000
10
23.1327650255
20
-4.8958233926
30
0.0000000000
10
23.1327650255
20
-4.8894970094
30
0.0000000000
11
22.8827650255
21
-5.1394935824
31
0.0000000000
11
22.9371641657
21
-5.0850944422
31
0.0000000000
11
22.9915645714
21
-5.0306940365
31
0.0000000000
11
23.0425732825
21
-4.9796853254
31
0.0000000000
11
23.0867375357
21
-4.9355210722
31
0.0000000000
11
23.1193430268
21
-4.9029155812
31
0.0000000000
11
23.1327650255
21
-4.8894970094
31
0.0000000000
0
SPLINE
5
4FD
100
AcDbEntity
8
0
100
AcDbSpline
62
7
6
CONTINUOUS
70
0
71
3
72
12
73
8
74
6
42
0.0000001000
43
0.0000001000
44
0.0000000001
12
-0.3910805649
22
0.0000000000
32
0.0000000000
13
0.0000000000
23
0.3910805649
33
0.0000000000
40
0.0000000000
40
0.0000000000
40
0.0000000000
40
0.0000000000
40
0.1963040971
40
0.3957227481
40
0.5884780162
40
0.7874352123
40
1.0000000000
40
1.0000000000
40
1.0000000000
40
1.0000000000
10
18.9827650255
20
-5.9368679976
30
0.0000000000
10
18.9571747864
20
-5.9368679976
30
0.0000000000
10
18.9052419941
20
-5.9288233746
30
0.0000000000
10
18.8355904334
20
-5.8938589782
30
0.0000000000
10
18.7795691510
20
-5.8392146459
30
0.0000000000
10
18.7418605770
20
-5.7686640238
30
0.0000000000
10
18.7327650255
20
-5.7145779834
30
0.0000000000
10
18.7327650255
20
-5.6868679976
30
0.0000000000
11
18.9827650255
21
-5.9368679976
31
0.0000000000
11
18.9069046393
21
-5.9250805116
31
0.0000000000
11
18.8371937877
21
-5.8901141900
31
0.0000000000
11
18.7832269581
21
-5.8374819400
31
0.0000000000
11
18.7465862051
21
-5.7688409492
31
0.0000000000
11
18.7327650255
21
-5.6868679976
31
0.0000000000
0
SPLINE
5
4FE
100
AcDbEntity
8
0
100
AcDbSpline
62
7
6
CONTINUOUS
70
0
71
3
72
13
73
9
74
7
42
0.0000001000
43
0.0000001000
44
0.0000000001
12
-0.2500017136
22
0.2500017136
32
0.0000000000
13
0.0000000000
23
0.3535558140
33
0.0000000000
40
0.0000000000
40
0.0000000000
40
0.0000000000
40
0.0000000000
40
0.2168915231
40
0.4346250381
40
0.6391952110
40
0.8162613230
40
0.9466049918
40
1.0000000000
40
1.0000000000
40
1.0000000000
40
1.0000000000
10
18.9827650255
20
-5.1394935824
30
0.0000000000
10
18.9646906080
20
-5.1214191650
30
0.0000000000
10
18.9285523602
20
-5.0851667325
30
0.0000000000
10
18.8749285169
20
-5.0320479807
30
0.0000000000
10
18.8261610481
20
-4.9816115015
30
0.0000000000
10
18.7800308746
20
-4.9403806335
30
0.0000000000
10
18.7577003848
20
-4.9071104272
30
0.0000000000
10
18.7327650255
20
-4.8957828606
30
0.0000000000
10
18.7327650255
20
-4.8894901554
30
0.0000000000
11
18.9827650255
21
-5.1394935824
31
0.0000000000
11
18.9285417731
21
-5.0852703300
31
0.0000000000
11
18.8741080212
21
-5.0308365781
31
0.0000000000
11
18.8229651274
21
-4.9796936844
31
0.0000000000
11
18.7786982960
21
-4.9354268529
31
0.0000000000
11
18.7461121555
21
-4.9028407124
31
0.0000000000
11
18.7327650255
21
-4.8894901554
31
0.0000000000
0
SPLINE
5
4FF
100
AcDbEntity
8
0
100
AcDbSpline
62
7
6
CONTINUOUS
70
0
71
3
72
12
73
8
74
6
42
0.0000001000
43
0.0000001000
44
0.0000000001
12
-0.3910935904
22
0.0000000000
32
0.0000000000
13
-0.0000000000
23
0.3910935904
33
0.0000000000
40
0.0000000000
40
0.0000000000
40
0.0000000000
40
0.0000000000
40
0.2003382846
40
0.4000246277
40
0.5994662793
40
0.7995328183
40
1.0000000000
40
1.0000000000
40
1.0000000000
40
1.0000000000
10
18.9827650255
20
-7.6557081272
30
0.0000000000
10
18.9566480192
20
-7.6557081272
30
0.0000000000
10
18.9041295922
20
-7.6473985701
30
0.0000000000
10
18.8334213464
20
-7.6113150899
30
0.0000000000
10
18.7772383279
20
-7.5551743396
30
0.0000000000
10
18.7410894509
20
-7.4844177947
30
0.0000000000
10
18.7327650255
20
-7.4318324175
30
0.0000000000
10
18.7327650255
20
-7.4056986076
30
0.0000000000
11
18.9827650255
21
-7.6557081272
31
0.0000000000
11
18.9053820314
21
-7.6434299182
31
0.0000000000
11
18.8358089479
21
-7.6079534627
31
0.0000000000
11
18.7806337001
21
-7.5528195632
31
0.0000000000
11
18.7450576807
21
-7.4831303506
31
0.0000000000
11
18.7327650255
21
-7.4056986076
31
0.0000000000
0
SPLINE
5
500
100
AcDbEntity
8
0
100
AcDbSpline
62
7
6
CONTINUOUS
70
0
71
3
72
12
73
8
74
6
42
0.0000001000
43
0.0000001000
44
0.0000000001
12
0.0000000000
22
-0.3910935904
32
0.0000000000
13
-0.3910935904
23
0.0000000000
33
0.0000000000
40
0.0000000000
40
0.0000000000
40
0.0000000000
40
0.0000000000
40
0.2004671817
40
0.4005337207
40
0.5999753723
40
0.7996617154
40
1.0000000000
40
1.0000000000
40
1.0000000000
40
1.0000000000
10
5.7327650255
20
-7.4056986076
30
0.0000000000
10
5.7327650255
20
-7.4318324175
30
0.0000000000
10
5.7244406001
20
-7.4844177947
30
0.0000000000
10
5.6882917231
20
-7.5551743396
30
0.0000000000
10
5.6321087046
20
-7.6113150899
30
0.0000000000
10
5.5614004588
20
-7.6473985701
30
0.0000000000
10
5.5088820318
20
-7.6557081272
30
0.0000000000
10
5.4827650255
20
-7.6557081272
30
0.0000000000
11
5.7327650255
21
-7.4056986076
31
0.0000000000
11
5.7204723703
21
-7.4831303506
31
0.0000000000
11
5.6848963509
21
-7.5528195632
31
0.0000000000
11
5.6297211031
21
-7.6079534627
31
0.0000000000
11
5.5601480196
21
-7.6434299182
31
0.0000000000
11
5.4827650255
21
-7.6557081272
31
0.0000000000
0
SPLINE
5
501
100
AcDbEntity
8
0
100
AcDbSpline
62
7
6
CONTINUOUS
70
0
71
3
72
8
73
4
74
2
42
0.0000001000
43
0.0000001000
44
0.0000000001
12
-0.1546059997
22
0.0000000000
32
0.0000000000
13
-0.1479794239
23
0.0474371275
33
0.0000000000
40
0.0000000000
40
0.0000000000
40
0.0000000000
40
0.0000000000
40
1.0000000000
40
1.0000000000
40
1.0000000000
40
1.0000000000
10
5.2326612939
20
-7.7368679976
30
0.0000000000
10
5.1811259606
20
-7.7368679976
30
0.0000000000
10
5.1292411990
20
-7.7287742941
30
0.0000000000
10
5.0799147243
20
-7.7129619182
30
0.0000000000
11
5.2326612939
21
-7.7368679976
31
0.0000000000
11
5.0799147243
21
-7.7129619182
31
0.0000000000
0
SPLINE
5
502
100
AcDbEntity
8
0
100
AcDbSpline
62
7
6
CONTINUOUS
70
0
71
3
72
10
73
6
74
4
42
0.0000001000
43
0.0000001000
44
0.0000000001
12
-0.4524202983
22
0.1450304292
32
0.0000000000
13
-0.1451423199
23
0.4523889142
33
0.0000000000
40
0.0000000000
40
0.0000000000
40
0.0000000000
40
0.0000000000
40
0.3356504322
40
0.6640414796
40
1.0000000000
40
1.0000000000
40
1.0000000000
40
1.0000000000
10
5.0799147243
20
-7.7129619182
30
0.0000000000
10
5.0292963681
20
-7.6967354095
30
0.0000000000
10
4.9344842479
20
-7.6485525778
30
0.0000000000
10
4.8212064984
20
-7.5353362317
30
0.0000000000
10
4.7729623951
20
-7.4404959736
30
0.0000000000
10
4.7567084620
20
-7.3898346702
30
0.0000000000
11
5.0799147243
21
-7.7129619182
31
0.0000000000
11
4.9384531698
21
-7.6411280807
31
0.0000000000
11
4.8286637373
21
-7.5313978723
31
0.0000000000
11
4.7567084620
21
-7.3898346702
31
0.0000000000
0
SPLINE
5
503
100
AcDbEntity
8
0
100
AcDbSpline
62
7
6
CONTINUOUS
70
0
71
3
72
8
73
4
74
2
42
0.0000001000
43
0.0000001000
44
0.0000000001
12
-0.0475108028
22
0.1480847246
32
0.0000000000
13
0.0000000000
23
0.1547267490
33
0.0000000000
40
0.0000000000
40
0.0000000000
40
0.0000000000
40
0.0000000000
40
1.0000000000
40
1.0000000000
40
1.0000000000
40
1.0000000000
10
4.7567084620
20
-7.3898346702
30
0.0000000000
10
4.7408715278
20
-7.3404730953
30
0.0000000000
10
4.7327650255
20
-7.2885473123
30
0.0000000000
10
4.7327650255
20
-7.2369717292
30
0.0000000000
11
4.7567084620
21
-7.3898346702
31
0.0000000000
11
4.7327650255
21
-7.2369717292
31
0.0000000000
0
SPLINE
5
504
100
AcDbEntity
8
0
100
AcDbSpline
62
9
6
CONTINUOUS
70
0
71
3
72
12
73
8
74
6
42
0.0000001000
43
0.0000001000
44
0.0000000001
12
-0.0001823971
22
-0.4767400842
32
0.0000000000
13
0.4767401057
23
0.0001127209
33
0.0000000000
40
0.0000000000
40
0.0000000000
40
0.0000000000
40
0.0000000000
40
0.2000295061
40
0.4000543550
40
0.6000890009
40
0.8000224838
40
1.0000000000
40
1.0000000000
40
1.0000000000
40
1.0000000000
10
4.8204890856
20
-7.3443951677
30
0.0000000000
10
4.8204769240
20
-7.3761825289
30
0.0000000000
10
4.8306008982
20
-7.4402056328
30
0.0000000000
10
4.8746055207
20
-7.5265051908
30
0.0000000000
10
4.9431745606
20
-7.5950578320
30
0.0000000000
10
5.0294587232
20
-7.6390405724
30
0.0000000000
10
5.0934587547
20
-7.6491514514
30
0.0000000000
10
5.1252378554
20
-7.6491439375
30
0.0000000000
11
4.8204890856
21
-7.3443951677
31
0.0000000000
11
4.8354041468
21
-7.4385836450
31
0.0000000000
11
4.8787005018
21
-7.5235479346
31
0.0000000000
11
4.9461410703
21
-7.5909731924
31
0.0000000000
11
5.0310732446
21
-7.6342366317
31
0.0000000000
11
5.1252378554
21
-7.6491439375
31
0.0000000000
0
SPLINE
5
505
100
AcDbEntity
8
0
100
AcDbSpline
62
7
6
CONTINUOUS
70
0
71
3
72
12
73
8
74
6
42
0.0000001000
43
0.0000001000
44
0.0000000001
12
0.0000000000
22
-0.7821449713
32
0.0000000000
13
0.7821449713
23
0.0000000000
33
0.0000000000
40
0.0000000000
40
0.0000000000
40
0.0000000000
40
0.0000000000
40
0.1990993894
40
0.4000808806
40
0.5996317234
40
0.8010552839
40
1.0000000000
40
1.0000000000
40
1.0000000000
40
1.0000000000
10
2.2406192065
20
18.8709671449
30
0.0000000000
10
2.2406192065
20
18.8190589495
30
0.0000000000
10
2.2571271813
20
18.7140273271
30
0.0000000000
10
2.3291917119
20
18.5724694867
30
0.0000000000
10
2.4419969211
20
18.4596116849
30
0.0000000000
10
2.5836275940
20
18.3874918654
30
0.0000000000
10
2.6887322983
20
18.3709861834
30
0.0000000000
10
2.7406001680
20
18.3709861834
30
0.0000000000
11
2.2406192065
21
18.8709671449
31
0.0000000000
11
2.2648689982
21
18.7171422628
31
0.0000000000
11
2.3361424100
21
18.5770319794
31
0.0000000000
11
2.4464808721
21
18.4666432638
31
0.0000000000
11
2.5868918206
21
18.3951983116
31
0.0000000000
11
2.7406001680
21
18.3709861834
31
0.0000000000
0
SPLINE
5
506
100
AcDbEntity
8
0
100
AcDbSpline
62
7
6
CONTINUOUS
70
0
71
3
72
12
73
8
74
6
42
0.0000001000
43
0.0000001000
44
0.0000000001
12
-0.7821449713
22
0.0000000000
32
0.0000000000
13
0.0000000000
23
-0.7821449713
33
0.0000000000
40
0.0000000000
40
0.0000000000
40
0.0000000000
40
0.0000000000
40
0.1990993894
40
0.4000808806
40
0.5996317234
40
0.8010552839
40
1.0000000000
40
1.0000000000
40
1.0000000000
40
1.0000000000
10
2.7406001680
20
28.1552778214
30
0.0000000000
10
2.6886919726
20
28.1552778214
30
0.0000000000
10
2.5836603502
20
28.1387698466
30
0.0000000000
10
2.4421025098
20
28.0667053160
30
0.0000000000
10
2.3292447080
20
27.9539001068
30
0.0000000000
10
2.2571248885
20
27.8122694339
30
0.0000000000
10
2.2406192065
20
27.7071647296
30
0.0000000000
10
2.2406192065
20
27.6552968598
30
0.0000000000
11
2.7406001680
21
28.1552778214
31
0.0000000000
11
2.5867752859
21
28.1310280297
31
0.0000000000
11
2.4466650025
21
28.0597546179
31
0.0000000000
11
2.3362762869
21
27.9494161558
31
0.0000000000
11
2.2648313347
21
27.8090052073
31
0.0000000000
11
2.2406192065
21
27.6552968598
31
0.0000000000
0
SPLINE
5
507
100
AcDbEntity
8
0
100
AcDbSpline
62
7
6
CONTINUOUS
70
0
71
3
72
12
73
8
74
6
42
0.0000001000
43
0.0000001000
44
0.0000000001
12
0.0000000000
22
0.7821449713
32
0.0000000000
13
-0.7821449713
23
0.0000000000
33
0.0000000000
40
0.0000000000
40
0.0000000000
40
0.0000000000
40
0.0000000000
40
0.1990993894
40
0.4000808806
40
0.5996317234
40
0.8010552839
40
1.0000000000
40
1.0000000000
40
1.0000000000
40
1.0000000000
10
22.2249108445
20
27.6552968598
30
0.0000000000
10
22.2249108445
20
27.7072050553
30
0.0000000000
10
22.2084028697
20
27.8122366777
30
0.0000000000
10
22.1363383391
20
27.9537945181
30
0.0000000000
10
22.0235331299
20
28.0666523199
30
0.0000000000
10
21.8819024570
20
28.1387721394
30
0.0000000000
10
21.7767977527
20
28.1552778214
30
0.0000000000
10
21.7249298830
20
28.1552778214
30
0.0000000000
11
22.2249108445
21
27.6552968598
31
0.0000000000
11
22.2006610529
21
27.8091217420
31
0.0000000000
11
22.1293876410
21
27.9492320254
31
0.0000000000
11
22.0190491789
21
28.0596207410
31
0.0000000000
11
21.8786382304
21
28.1310656932
31
0.0000000000
11
21.7249298830
21
28.1552778214
31
0.0000000000
0
SPLINE
5
508
100
AcDbEntity
8
0
100
AcDbSpline
62
7
6
CONTINUOUS
70
0
71
3
72
12
73
8
74
6
42
0.0000001000
43
0.0000001000
44
0.0000000001
12
0.7821449713
22
0.0000000000
32
0.0000000000
13
-0.0000000000
23
0.7821449713
33
0.0000000000
40
0.0000000000
40
0.0000000000
40
0.0000000000
40
0.0000000000
40
0.1990993894
40
0.4000808806
40
0.5996317234
40
0.8010552839
40
1.0000000000
40
1.0000000000
40
1.0000000000
40
1.0000000000
10
21.7249298830
20
18.3709861834
30
0.0000000000
10
21.7768380784
20
18.3709861834
30
0.0000000000
10
21.8818697008
20
18.3874941582
30
0.0000000000
10
22.0234275412
20
18.4595586888
30
0.0000000000
10
22.1362853430
20
18.5723638980
30
0.0000000000
10
22.2084051625
20
18.7139945709
30
0.0000000000
10
22.2249108445
20
18.8190992752
30
0.0000000000
10
22.2249108445
20
18.8709671449
30
0.0000000000
11
21.7249298830
21
18.3709861834
31
0.0000000000
11
21.8787547651
21
18.3952359750
31
0.0000000000
11
22.0188650485
21
18.4665093869
31
0.0000000000
11
22.1292537641
21
18.5768478490
31
0.0000000000
11
22.2006987163
21
18.7172587975
31
0.0000000000
11
22.2249108445
21
18.8709671449
31
0.0000000000
0
SPLINE
5
509
100
AcDbEntity
8
0
100
AcDbSpline
62
9
6
CONTINUOUS
70
0
71
3
72
9
73
5
74
3
42
0.0000001000
43
0.0000001000
44
0.0000000001
12
0.0616444384
22
-6.9771092266
32
0.0000000000
13
0.0616444384
23
-6.9771092266
33
0.0000000000
40
0.0000000000
40
0.0000000000
40
0.0000000000
40
0.0000000000
40
0.5520209878
40
1.0000000000
40
1.0000000000
40
1.0000000000
40
1.0000000000
10
14.4906192065
20
24.8902412290
30
0.0000000000
10
14.5019622144
20
23.6064043198
30
0.0000000000
10
14.5225103606
20
21.2807012443
30
0.0000000000
10
14.5430585067
20
18.9549981687
30
0.0000000000
10
14.5522636449
20
17.9131320024
30
0.0000000000
11
14.4906192065
21
24.8902412290
31
0.0000000000
11
14.5246482303
21
21.0387305014
31
0.0000000000
11
14.5522636449
21
17.9131320024
31
0.0000000000
0
SPLINE
5
50A
100
AcDbEntity
8
0
100
AcDbSpline
62
9
6
CONTINUOUS
70
0
71
3
72
12
73
8
74
6
42
0.0000001000
43
0.0000001000
44
0.0000000001
12
0.4767400842
22
-0.0001823971
32
0.0000000000
13
-0.0001127209
23
0.4767401057
33
0.0000000000
40
0.0000000000
40
0.0000000000
40
0.0000000000
40
0.0000000000
40
0.2000295061
40
0.4000543550
40
0.6000890009
40
0.8000224838
40
1.0000000000
40
1.0000000000
40
1.0000000000
40
1.0000000000
10
19.3402921956
20
-7.6491439375
30
0.0000000000
10
19.3720795568
20
-7.6491560991
30
0.0000000000
10
19.4361026607
20
-7.6390321249
30
0.0000000000
10
19.5224022187
20
-7.5950275025
30
0.0000000000
10
19.5909548599
20
-7.5264584625
30
0.0000000000
10
19.6349376003
20
-7.4401742999
30
0.0000000000
10
19.6450484793
20
-7.3761742684
30
0.0000000000
10
19.6450409654
20
-7.3443951677
30
0.0000000000
11
19.3402921956
21
-7.6491439375
31
0.0000000000
11
19.4344806729
21
-7.6342288763
31
0.0000000000
11
19.5194449625
21
-7.5909325213
31
0.0000000000
11
19.5868702203
21
-7.5234919528
31
0.0000000000
11
19.6301336596
21
-7.4385597785
31
0.0000000000
11
19.6450409654
21
-7.3443951677
31
0.0000000000
0
SPLINE
5
50B
100
AcDbEntity
8
0
100
AcDbSpline
62
9
6
CONTINUOUS
70
0
71
3
72
9
73
5
74
3
42
0.0000001000
43
0.0000001000
44
0.0000000001
12
0.0616444384
22
6.9771092266
32
0.0000000000
13
0.0616444384
23
6.9771092266
33
0.0000000000
40
0.0000000000
40
0.0000000000
40
0.0000000000
40
0.0000000000
40
0.4479790122
40
1.0000000000
40
1.0000000000
40
1.0000000000
40
1.0000000000
10
9.9132664061
20
17.9131320024
30
0.0000000000
10
9.9224715443
20
18.9549981687
30
0.0000000000
10
9.9430196904
20
21.2807012443
30
0.0000000000
10
9.9635678366
20
23.6064043198
30
0.0000000000
10
9.9749108445
20
24.8902412290
30
0.0000000000
11
9.9132664061
21
17.9131320024
31
0.0000000000
11
9.9408818207
21
21.0387305014
31
0.0000000000
11
9.9749108445
21
24.8902412290
31
0.0000000000
0
SPLINE
5
50C
100
AcDbEntity
8
0
100
AcDbSpline
62
7
6
CONTINUOUS
70
0
71
3
72
8
73
4
74
2
42
0.0000001000
43
0.0000001000
44
0.0000000001
12
0.0000000000
22
-0.1545501472
32
0.0000000000
13
-0.0474033371
23
-0.1479310631
33
0.0000000000
40
0.0000000000
40
0.0000000000
40
0.0000000000
40
0.0000000000
40
1.0000000000
40
1.0000000000
40
1.0000000000
40
1.0000000000
10
19.7327650255
20
-7.2369717292
30
0.0000000000
10
19.7327650255
20
-7.2884884450
30
0.0000000000
10
19.7246773281
20
-7.3403541146
30
0.0000000000
10
19.7088762158
20
-7.3896644690
30
0.0000000000
11
19.7327650255
21
-7.2369717292
31
0.0000000000
11
19.7088762158
21
-7.3896644690
31
0.0000000000
0
SPLINE
5
50D
100
AcDbEntity
8
0
100
AcDbSpline
62
7
6
CONTINUOUS
70
0
71
3
72
10
73
6
74
4
42
0.0000001000
43
0.0000001000
44
0.0000000001
12
-0.1450143529
22
-0.4525446665
32
0.0000000000
13
-0.4525140072
23
-0.1451245837
33
0.0000000000
40
0.0000000000
40
0.0000000000
40
0.0000000000
40
0.0000000000
40
0.3356263412
40
0.6640357656
40
1.0000000000
40
1.0000000000
40
1.0000000000
40
1.0000000000
10
19.7088762158
20
-7.3896644690
30
0.0000000000
10
19.6926526702
20
-7.4402931059
30
0.0000000000
10
19.6444665685
20
-7.5351321018
30
0.0000000000
10
19.5312233749
20
-7.6484395470
30
0.0000000000
10
19.4363521288
20
-7.6966902363
30
0.0000000000
10
19.3856759548
20
-7.7129424595
30
0.0000000000
11
19.7088762158
21
-7.3896644690
31
0.0000000000
11
19.6370424306
21
-7.5311560560
31
0.0000000000
11
19.5272810487
21
-7.6409793798
31
0.0000000000
11
19.3856759548
21
-7.7129424595
31
0.0000000000
0
SPLINE
5
50E
100
AcDbEntity
8
0
100
AcDbSpline
62
7
6
CONTINUOUS
70
0
71
3
72
8
73
4
74
2
42
0.0000001000
43
0.0000001000
44
0.0000000001
12
-0.1480347076
22
-0.0474758239
32
0.0000000000
13
-0.1546689078
23
0.0000000000
33
0.0000000000
40
0.0000000000
40
0.0000000000
40
0.0000000000
40
0.0000000000
40
1.0000000000
40
1.0000000000
40
1.0000000000
40
1.0000000000
10
19.3856759548
20
-7.7129424595
30
0.0000000000
10
19.3363310523
20
-7.7287677341
30
0.0000000000
10
19.2844250597
20
-7.7368679976
30
0.0000000000
10
19.2328687571
20
-7.7368679976
30
0.0000000000
11
19.3856759548
21
-7.7129424595
31
0.0000000000
11
19.2328687571
21
-7.7368679976
31
0.0000000000
0
SPLINE
5
50F
100
AcDbEntity
8
0
100
AcDbSpline
62
7
6
CONTINUOUS
70
0
71
3
72
11
73
7
74
5
42
0.0000001000
43
0.0000001000
44
0.0000000001
12
-0.1060916003
22
0.0848695273
32
0.0000000000
13
-0.1347648737
23
0.0177824021
33
0.0000000000
40
0.0000000000
40
0.0000000000
40
0.0000000000
40
0.0000000000
40
0.1576273290
40
0.5189654880
40
0.8803039175
40
1.0000000000
40
1.0000000000
40
1.0000000000
40
1.0000000000
10
1.8174619549
20
31.5455164699
30
0.0000000000
10
1.8118876431
20
31.5499757222
30
0.0000000000
10
1.7929070487
20
31.5638724246
30
0.0000000000
10
1.7575749498
20
31.5827559734
30
0.0000000000
10
1.7209047759
20
31.5938835704
30
0.0000000000
10
1.6993856183
20
31.5974365039
30
0.0000000000
10
1.6940086758
20
31.5981459985
30
0.0000000000
11
1.8174619549
21
31.5455164699
31
0.0000000000
11
1.8001869957
21
31.5581625001
31
0.0000000000
11
1.7569614525
21
31.5812670123
31
0.0000000000
11
1.7100590311
21
31.5954948908
31
0.0000000000
11
1.6940086758
21
31.5981459985
31
0.0000000000
0
SPLINE
5
510
100
AcDbEntity
8
0
100
AcDbSpline
62
7
6
CONTINUOUS
70
0
71
3
72
8
73
4
74
2
42
0.0000001000
43
0.0000001000
44
0.0000000001
12
-0.0325649158
22
0.0042969834
32
0.0000000000
13
-0.0327770585
23
0.0000000000
33
0.0000000000
40
0.0000000000
40
0.0000000000
40
0.0000000000
40
0.0000000000
40
1.0000000000
40
1.0000000000
40
1.0000000000
40
1.0000000000
10
1.6940086758
20
31.5981459985
30
0.0000000000
10
1.6831537039
20
31.5995783263
30
0.0000000000
10
1.6722077711
20
31.6002991285
30
0.0000000000
10
1.6612820849
20
31.6002991285
30
0.0000000000
11
1.6940086758
21
31.5981459985
31
0.0000000000
11
1.6612820849
21
31.6002991285
31
0.0000000000
0
SPLINE
5
511
100
AcDbEntity
8
0
100
AcDbSpline
62
7
6
CONTINUOUS
70
0
71
3
72
13
73
9
74
7
42
0.0000001000
43
0.0000001000
44
0.0000000001
12
0.2500000000
22
-0.2500000000
32
0.0000000000
13
0.2500000000
23
-0.2500000000
33
0.0000000000
40
0.0000000000
40
0.0000000000
40
0.0000000000
40
0.0000000000
40
0.2174906642
40
0.4354383120
40
0.6399626827
40
0.8168993412
40
0.9470932219
40
1.0000000000
40
1.0000000000
40
1.0000000000
40
1.0000000000
10
22.8827650255
20
14.5131320024
30
0.0000000000
10
22.9008892475
20
14.4950077804
30
0.0000000000
10
22.9371757735
20
14.4587212544
30
0.0000000000
10
22.9905059971
20
14.4053910308
30
0.0000000000
10
23.0404567202
20
14.3554403077
30
0.0000000000
10
23.0830946293
20
14.3128023986
30
0.0000000000
10
23.1130977391
20
14.2827992888
30
0.0000000000
10
23.1283561273
20
14.2675409006
30
0.0000000000
10
23.1327650255
20
14.2631320024
30
0.0000000000
11
22.8827650255
21
14.5131320024
31
0.0000000000
11
22.9371376916
21
14.4587593363
31
0.0000000000
11
22.9916246035
21
14.4042724244
31
0.0000000000
11
23.0427556962
21
14.3531413317
31
0.0000000000
11
23.0869898608
21
14.3089071671
31
0.0000000000
11
23.1195383310
21
14.2763586969
31
0.0000000000
11
23.1327650255
21
14.2631320024
31
0.0000000000
0
SPLINE
5
512
100
AcDbEntity
8
0
100
AcDbSpline
62
7
6
CONTINUOUS
70
0
71
3
72
12
73
8
74
6
42
0.0000001000
43
0.0000001000
44
0.0000000001
12
0.4692975279
22
0.0000000000
32
0.0000000000
13
-0.0000000000
23
-0.4692975279
33
0.0000000000
40
0.0000000000
40
0.0000000000
40
0.0000000000
40
0.0000000000
40
0.2000913286
40
0.4000511012
40
0.5995650367
40
0.8000196282
40
1.0000000000
40
1.0000000000
40
1.0000000000
40
1.0000000000
10
19.4327691378
20
-11.5868679976
30
0.0000000000
10
19.4640699264
20
-11.5868679976
30
0.0000000000
10
19.5270924585
20
-11.5968257208
30
0.0000000000
10
19.6119673681
20
-11.6401167841
30
0.0000000000
10
19.6794629506
20
-11.7075705719
30
0.0000000000
10
19.7228040141
20
-11.7924987053
30
0.0000000000
10
19.7327650255
20
-11.8555804539
30
0.0000000000
10
19.7327650255
20
-11.8868638853
30
0.0000000000
11
19.4327691378
21
-11.5868679976
31
0.0000000000
11
19.5255143884
21
-11.6015640112
31
0.0000000000
11
19.6091223512
21
-11.6441758854
31
0.0000000000
11
19.6753498709
21
-11.7103631507
31
0.0000000000
11
19.7180853062
21
-11.7941687746
31
0.0000000000
11
19.7327650255
21
-11.8868638853
31
0.0000000000
0
SPLINE
5
513
100
AcDbEntity
8
0
100
AcDbSpline
62
7
6
CONTINUOUS
70
0
71
3
72
12
73
8
74
6
42
0.0000001000
43
0.0000001000
44
0.0000000001
12
0.0000000000
22
0.4692975279
32
0.0000000000
13
0.4692975279
23
-0.0000000000
33
0.0000000000
40
0.0000000000
40
0.0000000000
40
0.0000000000
40
0.0000000000
40
0.1999803718
40
0.4004349633
40
0.5999488988
40
0.7999086714
40
1.0000000000
40
1.0000000000
40
1.0000000000
40
1.0000000000
10
4.7327650255
20
-11.8868638853
30
0.0000000000
10
4.7327650255
20
-11.8555804539
30
0.0000000000
10
4.7427260369
20
-11.7924987053
30
0.0000000000
10
4.7860671004
20
-11.7075705719
30
0.0000000000
10
4.8535626829
20
-11.6401167841
30
0.0000000000
10
4.9384375925
20
-11.5968257208
30
0.0000000000
10
5.0014601246
20
-11.5868679976
30
0.0000000000
10
5.0327609132
20
-11.5868679976
30
0.0000000000
11
4.7327650255
21
-11.8868638853
31
0.0000000000
11
4.7474447448
21
-11.7941687746
31
0.0000000000
11
4.7901801801
21
-11.7103631507
31
0.0000000000
11
4.8564076998
21
-11.6441758854
31
0.0000000000
11
4.9400156626
21
-11.6015640112
31
0.0000000000
11
5.0327609132
21
-11.5868679976
31
0.0000000000
0
SPLINE
5
514
100
AcDbEntity
8
0
100
AcDbSpline
62
7
6
CONTINUOUS
70
0
71
3
72
12
73
8
74
6
42
0.0000001000
43
0.0000001000
44
0.0000000001
12
0.0000000000
22
-0.4692975279
32
0.0000000000
13
-0.4692975279
23
0.0000000000
33
0.0000000000
40
0.0000000000
40
0.0000000000
40
0.0000000000
40
0.0000000000
40
0.1999803718
40
0.4004349633
40
0.5999488988
40
0.7999086714
40
1.0000000000
40
1.0000000000
40
1.0000000000
40
1.0000000000
10
19.7280525935
20
27.2178403221
30
0.0000000000
10
19.7280525935
20
27.1865568907
30
0.0000000000
10
19.7180915820
20
27.1234751421
30
0.0000000000
10
19.6747505186
20
27.0385470087
30
0.0000000000
10
19.6072549361
20
26.9710932209
30
0.0000000000
10
19.5223800265
20
26.9278021576
30
0.0000000000
10
19.4593574944
20
26.9178444344
30
0.0000000000
10
19.4280567058
20
26.9178444344
30
0.0000000000
11
19.7280525935
21
27.2178403221
31
0.0000000000
11
19.7133728741
21
27.1251452114
31
0.0000000000
11
19.6706374389
21
27.0413395875
31
0.0000000000
11
19.6044099192
21
26.9751523223
31
0.0000000000
11
19.5208019563
21
26.9325404481
31
0.0000000000
11
19.4280567058
21
26.9178444344
31
0.0000000000
0
SPLINE
5
515
100
AcDbEntity
8
0
100
AcDbSpline
62
7
6
CONTINUOUS
70
0
71
3
72
12
73
8
74
6
42
0.0000001000
43
0.0000001000
44
0.0000000001
12
-0.4692975279
22
0.0000000000
32
0.0000000000
13
0.0000000000
23
0.4692975279
33
0.0000000000
40
0.0000000000
40
0.0000000000
40
0.0000000000
40
0.0000000000
40
0.2000913286
40
0.4000511012
40
0.5995650367
40
0.8000196282
40
1.0000000000
40
1.0000000000
40
1.0000000000
40
1.0000000000
10
5.0374733452
20
26.9178444344
30
0.0000000000
10
5.0061725566
20
26.9178444344
30
0.0000000000
10
4.9431500245
20
26.9278021576
30
0.0000000000
10
4.8582751149
20
26.9710932209
30
0.0000000000
10
4.7907795325
20
27.0385470087
30
0.0000000000
10
4.7474384690
20
27.1234751421
30
0.0000000000
10
4.7374774575
20
27.1865568907
30
0.0000000000
10
4.7374774575
20
27.2178403221
30
0.0000000000
11
5.0374733452
21
26.9178444344
31
0.0000000000
11
4.9447280947
21
26.9325404481
31
0.0000000000
11
4.8611201318
21
26.9751523223
31
0.0000000000
11
4.7948926121
21
27.0413395875
31
0.0000000000
11
4.7521571769
21
27.1251452114
31
0.0000000000
11
4.7374774575
21
27.2178403221
31
0.0000000000
0
SPLINE
5
516
100
AcDbEntity
8
0
100
AcDbSpline
62
7
6
CONTINUOUS
70
0
71
3
72
12
73
8
74
6
42
0.0000001000
43
0.0000001000
44
0.0000000001
12
0.0000000000
22
0.7821449713
32
0.0000000000
13
0.7821449713
23
-0.0000000000
33
0.0000000000
40
0.0000000000
40
0.0000000000
40
0.0000000000
40
0.0000000000
40
0.1989447161
40
0.4003682766
40
0.5999191194
40
0.8009006106
40
1.0000000000
40
1.0000000000
40
1.0000000000
40
1.0000000000
10
2.2327650255
20
27.6631510409
30
0.0000000000
10
2.2327650255
20
27.7150189106
30
0.0000000000
10
2.2492707075
20
27.8201236149
30
0.0000000000
10
2.3213905270
20
27.9617542878
30
0.0000000000
10
2.4342483288
20
28.0745594970
30
0.0000000000
10
2.5758061692
20
28.1466240276
30
0.0000000000
10
2.6808377916
20
28.1631320024
30
0.0000000000
10
2.7327459870
20
28.1631320024
30
0.0000000000
11
2.2327650255
21
27.6631510409
31
0.0000000000
11
2.2569771537
21
27.8168593883
31
0.0000000000
11
2.3284221059
21
27.9572703368
31
0.0000000000
11
2.4388108215
21
28.0676087989
31
0.0000000000
11
2.5789211049
21
28.1388822108
31
0.0000000000
11
2.7327459870
21
28.1631320024
31
0.0000000000
0
SPLINE
5
517
100
AcDbEntity
8
0
100
AcDbSpline
62
7
6
CONTINUOUS
70
0
71
3
72
13
73
9
74
7
42
0.0000001000
43
0.0000001000
44
0.0000000001
12
0.2499982866
22
0.2499982866
32
0.0000000000
13
0.0000000000
23
0.3535509675
33
0.0000000000
40
0.0000000000
40
0.0000000000
40
0.0000000000
40
0.0000000000
40
0.2175980522
40
0.4352011662
40
0.6392374089
40
0.8158956326
40
0.9463184906
40
1.0000000000
40
1.0000000000
40
1.0000000000
40
1.0000000000
10
22.8827650255
20
14.9605064176
30
0.0000000000
10
22.9008980722
20
14.9786394643
30
0.0000000000
10
22.9370836262
20
15.0149395330
30
0.0000000000
10
22.9907098065
20
15.0680610967
30
0.0000000000
10
23.0393918300
20
15.1184061688
30
0.0000000000
10
23.0854380625
20
15.1595677617
30
0.0000000000
10
23.1077657008
20
15.1928370741
30
0.0000000000
10
23.1327650255
20
15.2041766074
30
0.0000000000
10
23.1327650255
20
15.2105029906
30
0.0000000000
11
22.8827650255
21
14.9605064176
31
0.0000000000
11
22.9371641657
21
15.0149055578
31
0.0000000000
11
22.9915645714
21
15.0693059635
31
0.0000000000
11
23.0425732825
21
15.1203146746
31
0.0000000000
11
23.0867375357
21
15.1644789278
31
0.0000000000
11
23.1193430268
21
15.1970844188
31
0.0000000000
11
23.1327650255
21
15.2105029906
31
0.0000000000
0
SPLINE
5
518
100
AcDbEntity
8
0
100
AcDbSpline
62
7
6
CONTINUOUS
70
0
71
3
72
12
73
8
74
6
42
0.0000001000
43
0.0000001000
44
0.0000000001
12
0.7821449713
22
0.0000000000
32
0.0000000000
13
-0.0000000000
23
-0.7821449713
33
0.0000000000
40
0.0000000000
40
0.0000000000
40
0.0000000000
40
0.0000000000
40
0.1989447161
40
0.4003682766
40
0.5999191194
40
0.8009006106
40
1.0000000000
40
1.0000000000
40
1.0000000000
40
1.0000000000
10
21.7327840640
20
28.1631320024
30
0.0000000000
10
21.7846519337
20
28.1631320024
30
0.0000000000
10
21.8897566380
20
28.1466263204
30
0.0000000000
10
22.0313873109
20
28.0745065009
30
0.0000000000
10
22.1441925201
20
27.9616486991
30
0.0000000000
10
22.2162570507
20
27.8200908587
30
0.0000000000
10
22.2327650255
20
27.7150592363
30
0.0000000000
10
22.2327650255
20
27.6631510409
30
0.0000000000
11
21.7327840640
21
28.1631320024
31
0.0000000000
11
21.8864924114
21
28.1389198742
31
0.0000000000
11
22.0269033599
21
28.0674749220
31
0.0000000000
11
22.1372418220
21
27.9570862064
31
0.0000000000
11
22.2085152339
21
27.8169759230
31
0.0000000000
11
22.2327650255
21
27.6631510409
31
0.0000000000
0
SPLINE
5
519
100
AcDbEntity
8
0
100
AcDbSpline
62
7
6
CONTINUOUS
70
0
71
3
72
12
73
8
74
6
42
0.0000001000
43
0.0000001000
44
0.0000000001
12
0.0000000000
22
-0.7821449713
32
0.0000000000
13
-0.7821449713
23
0.0000000000
33
0.0000000000
40
0.0000000000
40
0.0000000000
40
0.0000000000
40
0.0000000000
40
0.1989447161
40
0.4003682766
40
0.5999191194
40
0.8009006106
40
1.0000000000
40
1.0000000000
40
1.0000000000
40
1.0000000000
10
22.2327650255
20
18.8631129639
30
0.0000000000
10
22.2327650255
20
18.8112450942
30
0.0000000000
10
22.2162593435
20
18.7061403899
30
0.0000000000
10
22.1441395240
20
18.5645097170
30
0.0000000000
10
22.0312817222
20
18.4517045077
30
0.0000000000
10
21.8897238818
20
18.3796399772
30
0.0000000000
10
21.7846922594
20
18.3631320024
30
0.0000000000
10
21.7327840640
20
18.3631320024
30
0.0000000000
11
22.2327650255
21
18.8631129639
31
0.0000000000
11
22.2085528973
21
18.7094046165
31
0.0000000000
11
22.1371079451
21
18.5689936680
31
0.0000000000
11
22.0267192295
21
18.4586552059
31
0.0000000000
11
21.8866089461
21
18.3873817940
31
0.0000000000
11
21.7327840640
21
18.3631320024
31
0.0000000000
0
SPLINE
5
51A
100
AcDbEntity
8
0
100
AcDbSpline
62
7
6
CONTINUOUS
70
0
71
3
72
12
73
8
74
6
42
0.0000001000
43
0.0000001000
44
0.0000000001
12
-0.7821449713
22
0.0000000000
32
0.0000000000
13
-0.0000000000
23
0.7821449713
33
0.0000000000
40
0.0000000000
40
0.0000000000
40
0.0000000000
40
0.0000000000
40
0.1989447161
40
0.4003682766
40
0.5999191194
40
0.8009006106
40
1.0000000000
40
1.0000000000
40
1.0000000000
40
1.0000000000
10
2.7327459870
20
18.3631320024
30
0.0000000000
10
2.6808781173
20
18.3631320024
30
0.0000000000
10
2.5757734130
20
18.3796376844
30
0.0000000000
10
2.4341427401
20
18.4517575039
30
0.0000000000
10
2.3213375309
20
18.5646153057
30
0.0000000000
10
2.2492730003
20
18.7061731461
30
0.0000000000
10
2.2327650255
20
18.8112047685
30
0.0000000000
10
2.2327650255
20
18.8631129639
30
0.0000000000
11
2.7327459870
21
18.3631320024
31
0.0000000000
11
2.5790376396
21
18.3873441306
31
0.0000000000
11
2.4386266911
21
18.4587890828
31
0.0000000000
11
2.3282882290
21
18.5691777984
31
0.0000000000
11
2.2570148171
21
18.7092880818
31
0.0000000000
11
2.2327650255
21
18.8631129639
31
0.0000000000
0
SPLINE
5
51B
100
AcDbEntity
8
0
100
AcDbSpline
62
7
6
CONTINUOUS
70
0
71
3
72
13
73
9
74
7
42
0.0000001000
43
0.0000001000
44
0.0000000001
12
-0.2499952412
22
0.2499952412
32
0.0000000000
13
0.0000000000
23
0.3535466607
33
0.0000000000
40
0.0000000000
40
0.0000000000
40
0.0000000000
40
0.0000000000
40
0.2176724759
40
0.4350476293
40
0.6387593861
40
0.8152322208
40
0.9458072093
40
1.0000000000
40
1.0000000000
40
1.0000000000
40
1.0000000000
10
1.5827650255
20
-1.1745825385
30
0.0000000000
10
1.5646259978
20
-1.1564435108
30
0.0000000000
10
1.5284535190
20
-1.1201567134
30
0.0000000000
10
1.4748690023
20
-1.0670752837
30
0.0000000000
10
1.4262444164
20
-1.0167937733
30
0.0000000000
10
1.3802389501
20
-0.9756595377
30
0.0000000000
10
1.3578731654
20
-0.9423471710
30
0.0000000000
10
1.3327650255
20
-0.9309786178
30
0.0000000000
10
1.3327650255
20
-0.9245920577
30
0.0000000000
11
1.5827650255
21
-1.1745825385
31
0.0000000000
11
1.5283479424
21
-1.1201654554
31
0.0000000000
11
1.4740051885
21
-1.0658227015
31
0.0000000000
11
1.4230782187
21
-1.0148957317
31
0.0000000000
11
1.3789608498
21
-0.9707783628
31
0.0000000000
11
1.3463177241
21
-0.9381352371
31
0.0000000000
11
1.3327650255
21
-0.9245920577
31
0.0000000000
0
SPLINE
5
51C
100
AcDbEntity
8
0
100
AcDbSpline
62
9
6
CONTINUOUS
70
0
71
3
72
12
73
8
74
6
42
0.0000001000
43
0.0000001000
44
0.0000000001
12
0.0856596080
22
-0.0000610661
32
0.0000000000
13
-0.0000355950
23
0.0856596224
33
0.0000000000
40
0.0000000000
40
0.0000000000
40
0.0000000000
40
0.0000000000
40
0.2004026535
40
0.4007357216
40
0.6009533609
40
0.8010302204
40
1.0000000000
40
1.0000000000
40
1.0000000000
40
1.0000000000
10
19.3402921956
20
-7.3991534567
30
0.0000000000
10
19.3460143331
20
-7.3991575360
30
0.0000000000
10
19.3575378020
20
-7.3973284428
30
0.0000000000
10
19.3730594622
20
-7.3893962112
30
0.0000000000
10
19.3853740940
20
-7.3770465187
30
0.0000000000
10
19.3932471477
20
-7.3615500046
30
0.0000000000
10
19.3950528454
20
-7.3500763931
30
0.0000000000
10
19.3950504846
20
-7.3443951677
30
0.0000000000
11
19.3402921956
21
-7.3991534567
31
0.0000000000
11
19.3572464239
21
-7.3964627289
31
0.0000000000
11
19.3725288577
21
-7.3886570589
31
0.0000000000
11
19.3846394121
21
-7.3765130693
31
0.0000000000
11
19.3923976873
21
-7.3612311296
31
0.0000000000
11
19.3950504846
21
-7.3443951677
31
0.0000000000
0
SPLINE
5
51D
100
AcDbEntity
8
0
100
AcDbSpline
62
9
6
CONTINUOUS
70
0
71
3
72
12
73
8
74
6
42
0.0000001000
43
0.0000001000
44
0.0000000001
12
-0.0000610661
22
-0.0856596080
32
0.0000000000
13
0.0856596224
23
0.0000355950
33
0.0000000000
40
0.0000000000
40
0.0000000000
40
0.0000000000
40
0.0000000000
40
0.2004026535
40
0.4007357216
40
0.6009533609
40
0.8010302204
40
1.0000000000
40
1.0000000000
40
1.0000000000
40
1.0000000000
10
5.0704795664
20
-7.3443951677
30
0.0000000000
10
5.0704754871
20
-7.3501173052
30
0.0000000000
10
5.0723045803
20
-7.3616407741
30
0.0000000000
10
5.0802368119
20
-7.3771624343
30
0.0000000000
10
5.0925865044
20
-7.3894770661
30
0.0000000000
10
5.1080830185
20
-7.3973501198
30
0.0000000000
10
5.1195566300
20
-7.3991558175
30
0.0000000000
10
5.1252378554
20
-7.3991534567
30
0.0000000000
11
5.0704795664
21
-7.3443951677
31
0.0000000000
11
5.0731702942
21
-7.3613493961
31
0.0000000000
11
5.0809759642
21
-7.3766318298
31
0.0000000000
11
5.0931199538
21
-7.3887423842
31
0.0000000000
11
5.1084018935
21
-7.3965006594
31
0.0000000000
11
5.1252378554
21
-7.3991534567
31
0.0000000000
0
SPLINE
5
51E
100
AcDbEntity
8
0
100
AcDbSpline
62
7
6
CONTINUOUS
70
0
71
3
72
13
73
9
74
7
42
0.0000001000
43
0.0000001000
44
0.0000000001
12
-0.2499952412
22
-0.2499952412
32
0.0000000000
13
0.0000000000
23
-0.3535466607
33
0.0000000000
40
0.0000000000
40
0.0000000000
40
0.0000000000
40
0.0000000000
40
0.2176724759
40
0.4350476293
40
0.6387593861
40
0.8152322208
40
0.9458072093
40
1.0000000000
40
1.0000000000
40
1.0000000000
40
1.0000000000
10
1.5827650255
20
-1.4991534567
30
0.0000000000
10
1.5646259978
20
-1.5172924844
30
0.0000000000
10
1.5284535190
20
-1.5535792818
30
0.0000000000
10
1.4748690023
20
-1.6066607115
30
0.0000000000
10
1.4262444164
20
-1.6569422219
30
0.0000000000
10
1.3802389501
20
-1.6980764575
30
0.0000000000
10
1.3578731654
20
-1.7313888242
30
0.0000000000
10
1.3327650255
20
-1.7427573774
30
0.0000000000
10
1.3327650255
20
-1.7491439375
30
0.0000000000
11
1.5827650255
21
-1.4991534567
31
0.0000000000
11
1.5283479424
21
-1.5535705398
31
0.0000000000
11
1.4740051885
21
-1.6079132937
31
0.0000000000
11
1.4230782187
21
-1.6588402635
31
0.0000000000
11
1.3789608498
21
-1.7029576324
31
0.0000000000
11
1.3463177241
21
-1.7356007581
31
0.0000000000
11
1.3327650255
21
-1.7491439375
31
0.0000000000
0
SPLINE
5
51F
100
AcDbEntity
8
0
100
AcDbSpline
62
7
6
CONTINUOUS
70
0
71
3
72
13
73
9
74
7
42
0.0000001000
43
0.0000001000
44
0.0000000001
12
0.2499952412
22
0.2499952412
32
0.0000000000
13
-0.0000000000
23
0.3535466607
33
0.0000000000
40
0.0000000000
40
0.0000000000
40
0.0000000000
40
0.0000000000
40
0.2176724759
40
0.4350476293
40
0.6387593861
40
0.8152322208
40
0.9458072093
40
1.0000000000
40
1.0000000000
40
1.0000000000
40
1.0000000000
10
22.8827650255
20
-1.1745825385
30
0.0000000000
10
22.9009040532
20
-1.1564435108
30
0.0000000000
10
22.9370765320
20
-1.1201567134
30
0.0000000000
10
22.9906610487
20
-1.0670752837
30
0.0000000000
10
23.0392856346
20
-1.0167937733
30
0.0000000000
10
23.0852911009
20
-0.9756595377
30
0.0000000000
10
23.1076568856
20
-0.9423471710
30
0.0000000000
10
23.1327650255
20
-0.9309786178
30
0.0000000000
10
23.1327650255
20
-0.9245920577
30
0.0000000000
11
22.8827650255
21
-1.1745825385
31
0.0000000000
11
22.9371821086
21
-1.1201654554
31
0.0000000000
11
22.9915248625
21
-1.0658227015
31
0.0000000000
11
23.0424518323
21
-1.0148957317
31
0.0000000000
11
23.0865692012
21
-0.9707783628
31
0.0000000000
11
23.1192123269
21
-0.9381352371
31
0.0000000000
11
23.1327650255
21
-0.9245920577
31
0.0000000000
0
SPLINE
5
520
100
AcDbEntity
8
0
100
AcDbSpline
62
7
6
CONTINUOUS
70
0
71
3
72
13
73
9
74
7
42
0.0000001000
43
0.0000001000
44
0.0000000001
12
0.2499952412
22
-0.2499952412
32
0.0000000000
13
0.0000000000
23
-0.3535466607
33
0.0000000000
40
0.0000000000
40
0.0000000000
40
0.0000000000
40
0.0000000000
40
0.2176724759
40
0.4350476293
40
0.6387593861
40
0.8152322208
40
0.9458072093
40
1.0000000000
40
1.0000000000
40
1.0000000000
40
1.0000000000
10
22.8827650255
20
-1.4991534567
30
0.0000000000
10
22.9009040532
20
-1.5172924844
30
0.0000000000
10
22.9370765320
20
-1.5535792818
30
0.0000000000
10
22.9906610487
20
-1.6066607115
30
0.0000000000
10
23.0392856346
20
-1.6569422219
30
0.0000000000
10
23.0852911009
20
-1.6980764575
30
0.0000000000
10
23.1076568856
20
-1.7313888242
30
0.0000000000
10
23.1327650255
20
-1.7427573774
30
0.0000000000
10
23.1327650255
20
-1.7491439375
30
0.0000000000
11
22.8827650255
21
-1.4991534567
31
0.0000000000
11
22.9371821086
21
-1.5535705398
31
0.0000000000
11
22.9915248625
21
-1.6079132937
31
0.0000000000
11
23.0424518323
21
-1.6588402635
31
0.0000000000
11
23.0865692012
21
-1.7029576324
31
0.0000000000
11
23.1192123269
21
-1.7356007581
31
0.0000000000
11
23.1327650255
21
-1.7491439375
31
0.0000000000
0
SPLINE
5
521
100
AcDbEntity
8
0
100
AcDbSpline
62
7
6
CONTINUOUS
70
0
71
3
72
13
73
9
74
7
42
0.0000001000
43
0.0000001000
44
0.0000000001
12
-0.2500017136
22
0.2500017136
32
0.0000000000
13
0.0000000000
23
0.3535558140
33
0.0000000000
40
0.0000000000
40
0.0000000000
40
0.0000000000
40
0.0000000000
40
0.2168915231
40
0.4346250381
40
0.6391952110
40
0.8162613230
40
0.9466049918
40
1.0000000000
40
1.0000000000
40
1.0000000000
40
1.0000000000
10
1.5827650255
20
14.9605064176
30
0.0000000000
10
1.5646906080
20
14.9785808350
30
0.0000000000
10
1.5285523602
20
15.0148332675
30
0.0000000000
10
1.4749285169
20
15.0679520193
30
0.0000000000
10
1.4261610481
20
15.1183884985
30
0.0000000000
10
1.3800308746
20
15.1596193665
30
0.0000000000
10
1.3577003848
20
15.1928895728
30
0.0000000000
10
1.3327650255
20
15.2042171394
30
0.0000000000
10
1.3327650255
20
15.2105098446
30
0.0000000000
11
1.5827650255
21
14.9605064176
31
0.0000000000
11
1.5285417731
21
15.0147296700
31
0.0000000000
11
1.4741080212
21
15.0691634219
31
0.0000000000
11
1.4229651274
21
15.1203063156
31
0.0000000000
11
1.3786982960
21
15.1645731471
31
0.0000000000
11
1.3461121555
21
15.1971592876
31
0.0000000000
11
1.3327650255
21
15.2105098446
31
0.0000000000
0
SPLINE
5
522
100
AcDbEntity
8
0
100
AcDbSpline
62
7
6
CONTINUOUS
70
0
71
3
72
13
73
9
74
7
42
0.0000001000
43
0.0000001000
44
0.0000000001
12
-0.2500000000
22
-0.2500000000
32
0.0000000000
13
-0.2500000000
23
-0.2500000000
33
0.0000000000
40
0.0000000000
40
0.0000000000
40
0.0000000000
40
0.0000000000
40
0.2174906642
40
0.4354383120
40
0.6399626827
40
0.8168993412
40
0.9470932219
40
1.0000000000
40
1.0000000000
40
1.0000000000
40
1.0000000000
10
1.5827650255
20
14.5131320024
30
0.0000000000
10
1.5646408035
20
14.4950077804
30
0.0000000000
10
1.5283542775
20
14.4587212544
30
0.0000000000
10
1.4750240539
20
14.4053910308
30
0.0000000000
10
1.4250733308
20
14.3554403077
30
0.0000000000
10
1.3824354217
20
14.3128023986
30
0.0000000000
10
1.3524323119
20
14.2827992888
30
0.0000000000
10
1.3371739237
20
14.2675409006
30
0.0000000000
10
1.3327650255
20
14.2631320024
30
0.0000000000
11
1.5827650255
21
14.5131320024
31
0.0000000000
11
1.5283923594
21
14.4587593363
31
0.0000000000
11
1.4739054475
21
14.4042724244
31
0.0000000000
11
1.4227743548
21
14.3531413317
31
0.0000000000
11
1.3785401902
21
14.3089071671
31
0.0000000000
11
1.3459917200
21
14.2763586969
31
0.0000000000
11
1.3327650255
21
14.2631320024
31
0.0000000000
0
SPLINE
5
523
100
AcDbEntity
8
0
100
AcDbSpline
62
7
6
CONTINUOUS
70
0
71
3
72
13
73
9
74
7
42
0.0000001000
43
0.0000001000
44
0.0000000001
12
0.2500047606
22
-0.2500047606
32
0.0000000000
13
0.0000000000
23
-0.3535601232
33
0.0000000000
40
0.0000000000
40
0.0000000000
40
0.0000000000
40
0.0000000000
40
0.2164912796
40
0.4340806922
40
0.6386795793
40
0.8158303209
40
0.9462722615
40
1.0000000000
40
1.0000000000
40
1.0000000000
40
1.0000000000
10
22.8827650255
20
5.5508465433
30
0.0000000000
10
22.9008063090
20
5.5328052598
30
0.0000000000
10
22.9369000073
20
5.4965979349
30
0.0000000000
10
22.9904803244
20
5.4435208635
30
0.0000000000
10
23.0392485148
20
5.3930879148
30
0.0000000000
10
23.0853909017
20
5.3518350571
30
0.0000000000
10
23.1077693715
20
5.3185265101
30
0.0000000000
10
23.1327650255
20
5.3071690190
30
0.0000000000
10
23.1327650255
20
5.3008370237
30
0.0000000000
11
22.8827650255
21
5.5508465433
31
0.0000000000
11
22.9368888761
21
5.4967226927
31
0.0000000000
11
22.9912872651
21
5.4423243037
31
0.0000000000
11
23.0424379608
21
5.3911736079
31
0.0000000000
11
23.0867264896
21
5.3468850792
31
0.0000000000
11
23.1193375958
21
5.3142739730
31
0.0000000000
11
23.1327650255
21
5.3008370237
31
0.0000000000
0
SPLINE
5
524
100
AcDbEntity
8
0
100
AcDbSpline
62
7
6
CONTINUOUS
70
0
71
3
72
13
73
9
74
7
42
0.0000001000
43
0.0000001000
44
0.0000000001
12
0.2500047606
22
0.2500047606
32
0.0000000000
13
0.0000000000
23
0.3535601232
33
0.0000000000
40
0.0000000000
40
0.0000000000
40
0.0000000000
40
0.0000000000
40
0.2164912796
40
0.4340806922
40
0.6386795793
40
0.8158303209
40
0.9462722615
40
1.0000000000
40
1.0000000000
40
1.0000000000
40
1.0000000000
10
22.8827650255
20
5.8754174615
30
0.0000000000
10
22.9008063090
20
5.8934587450
30
0.0000000000
10
22.9369000073
20
5.9296660699
30
0.0000000000
10
22.9904803244
20
5.9827431413
30
0.0000000000
10
23.0392485148
20
6.0331760900
30
0.0000000000
10
23.0853909017
20
6.0744289477
30
0.0000000000
10
23.1077693715
20
6.1077374947
30
0.0000000000
10
23.1327650255
20
6.1190949858
30
0.0000000000
10
23.1327650255
20
6.1254269811
30
0.0000000000
11
22.8827650255
21
5.8754174615
31
0.0000000000
11
22.9368888761
21
5.9295413120
31
0.0000000000
11
22.9912872651
21
5.9839397011
31
0.0000000000
11
23.0424379608
21
6.0350903968
31
0.0000000000
11
23.0867264896
21
6.0793789256
31
0.0000000000
11
23.1193375958
21
6.1119900317
31
0.0000000000
11
23.1327650255
21
6.1254269811
31
0.0000000000
0
SPLINE
5
525
100
AcDbEntity
8
0
100
AcDbSpline
62
7
6
CONTINUOUS
70
0
71
3
72
13
73
9
74
7
42
0.0000001000
43
0.0000001000
44
0.0000000001
12
-0.2499952412
22
-0.2499952412
32
0.0000000000
13
0.0000000000
23
-0.3535466607
33
0.0000000000
40
0.0000000000
40
0.0000000000
40
0.0000000000
40
0.0000000000
40
0.2176724759
40
0.4350476293
40
0.6387593861
40
0.8152322208
40
0.9458072093
40
1.0000000000
40
1.0000000000
40
1.0000000000
40
1.0000000000
10
1.5827650255
20
5.5508465433
30
0.0000000000
10
1.5646259978
20
5.5327075156
30
0.0000000000
10
1.5284535190
20
5.4964207182
30
0.0000000000
10
1.4748690023
20
5.4433392885
30
0.0000000000
10
1.4262444164
20
5.3930577781
30
0.0000000000
10
1.3802389501
20
5.3519235425
30
0.0000000000
10
1.3578731654
20
5.3186111758
30
0.0000000000
10
1.3327650255
20
5.3072426226
30
0.0000000000
10
1.3327650255
20
5.3008560625
30
0.0000000000
11
1.5827650255
21
5.5508465433
31
0.0000000000
11
1.5283479424
21
5.4964294602
31
0.0000000000
11
1.4740051885
21
5.4420867063
31
0.0000000000
11
1.4230782187
21
5.3911597365
31
0.0000000000
11
1.3789608498
21
5.3470423676
31
0.0000000000
11
1.3463177241
21
5.3143992419
31
0.0000000000
11
1.3327650255
21
5.3008560625
31
0.0000000000
0
SPLINE
5
526
100
AcDbEntity
8
0
100
AcDbSpline
62
7
6
CONTINUOUS
70
0
71
3
72
13
73
9
74
7
42
0.0000001000
43
0.0000001000
44
0.0000000001
12
-0.2499952412
22
0.2499952412
32
0.0000000000
13
0.0000000000
23
0.3535466607
33
0.0000000000
40
0.0000000000
40
0.0000000000
40
0.0000000000
40
0.0000000000
40
0.2176724759
40
0.4350476293
40
0.6387593861
40
0.8152322208
40
0.9458072093
40
1.0000000000
40
1.0000000000
40
1.0000000000
40
1.0000000000
10
1.5827650255
20
5.8754174615
30
0.0000000000
10
1.5646259978
20
5.8935564892
30
0.0000000000
10
1.5284535190
20
5.9298432866
30
0.0000000000
10
1.4748690023
20
5.9829247163
30
0.0000000000
10
1.4262444164
20
6.0332062267
30
0.0000000000
10
1.3802389501
20
6.0743404623
30
0.0000000000
10
1.3578731654
20
6.1076528290
30
0.0000000000
10
1.3327650255
20
6.1190213822
30
0.0000000000
10
1.3327650255
20
6.1254079423
30
0.0000000000
11
1.5827650255
21
5.8754174615
31
0.0000000000
11
1.5283479424
21
5.9298345446
31
0.0000000000
11
1.4740051885
21
5.9841772985
31
0.0000000000
11
1.4230782187
21
6.0351042683
31
0.0000000000
11
1.3789608498
21
6.0792216372
31
0.0000000000
11
1.3463177241
21
6.1118647629
31
0.0000000000
11
1.3327650255
21
6.1254079423
31
0.0000000000
0
SPLINE
5
527
100
AcDbEntity
8
0
100
AcDbSpline
62
7
6
CONTINUOUS
70
0
71
3
72
18
73
14
74
12
42
0.0000001000
43
0.0000001000
44
0.0000000001
12
0.0000000000
22
1.8666835407
32
0.0000000000
13
0.0000000000
23
-1.8666835407
33
0.0000000000
40
0.0000000000
40
0.0000000000
40
0.0000000000
40
0.0000000000
40
0.1149702556
40
0.2189338349
40
0.3093592609
40
0.3889169180
40
0.4631528954
40
0.5331509342
40
0.6071547940
40
0.6878918151
40
0.7804956029
40
0.8844802675
40
1.0000000000
40
1.0000000000
40
1.0000000000
40
1.0000000000
10
8.9906192065
20
24.8902412290
30
0.0000000000
10
8.9906192065
20
24.9617789236
30
0.0000000000
10
9.0055950403
20
25.0985438323
30
0.0000000000
10
9.0690093822
20
25.2820167311
30
0.0000000000
10
9.1624430363
20
25.4267967571
30
0.0000000000
10
9.2780592870
20
25.5288096675
30
0.0000000000
10
9.4096085640
20
25.5831909472
30
0.0000000000
10
9.5487435609
20
25.5846205167
30
0.0000000000
10
9.6819006811
20
25.5324995756
30
0.0000000000
10
9.8003588246
20
25.4305295398
30
0.0000000000
10
9.8956212338
20
25.2842648502
30
0.0000000000
10
9.9598233328
20
25.0992534215
30
0.0000000000
10
9.9749108445
20
24.9621208235
30
0.0000000000
10
9.9749108445
20
24.8902412290
30
0.0000000000
11
8.9906192065
21
24.8902412290
31
0.0000000000
11
9.0145941286
21
25.1035109616
31
0.0000000000
11
9.0793507884
21
25.2864552570
31
0.0000000000
11
9.1725159860
21
25.4272111411
31
0.0000000000
11
9.2852871356
21
25.5238423042
31
0.0000000000
11
9.4139993661
21
25.5751863762
31
0.0000000000
11
9.5446571463
21
25.5764802937
31
0.0000000000
11
9.6738915784
21
25.5276785023
31
0.0000000000
11
9.7895833184
21
25.4310914088
31
0.0000000000
11
9.8857008572
21
25.2874158082
31
0.0000000000
11
9.9507033494
21
25.1045169441
31
0.0000000000
11
9.9749108445
21
24.8902412290
31
0.0000000000
0
SPLINE
5
528
100
AcDbEntity
8
0
100
AcDbSpline
62
7
6
CONTINUOUS
70
0
71
3
72
18
73
14
74
12
42
0.0000001000
43
0.0000001000
44
0.0000000001
12
0.0000000000
22
1.8666007495
32
0.0000000000
13
0.0000000000
23
-1.8666007495
33
0.0000000000
40
0.0000000000
40
0.0000000000
40
0.0000000000
40
0.0000000000
40
0.1176743489
40
0.2236768444
40
0.3154758889
40
0.3967218991
40
0.4716049381
40
0.5429538288
40
0.6183459209
40
0.7037819547
40
0.8002241790
40
0.9015008544
40
1.0000000000
40
1.0000000000
40
1.0000000000
40
1.0000000000
10
14.4906192065
20
24.8902412290
30
0.0000000000
10
14.4906192065
20
24.9634582383
30
0.0000000000
10
14.5062738870
20
25.1032083624
30
0.0000000000
10
14.5724682825
20
25.2898634239
30
0.0000000000
10
14.6698909624
20
25.4359862743
30
0.0000000000
10
14.7900714085
20
25.5366399440
30
0.0000000000
10
14.9260832285
20
25.5865731344
30
0.0000000000
10
15.0673985539
20
25.5808558561
30
0.0000000000
10
15.2019124043
20
25.5200133285
30
0.0000000000
10
15.3195863140
20
25.4077617589
30
0.0000000000
10
15.4093241550
20
25.2538678058
30
0.0000000000
10
15.4631921607
20
25.0761544869
30
0.0000000000
10
15.4749108445
20
24.9515274220
30
0.0000000000
10
15.4749108445
20
24.8902412290
30
0.0000000000
11
14.4906192065
21
24.8902412290
31
0.0000000000
11
14.5157476600
21
25.1084501539
31
0.0000000000
11
14.5833618351
21
25.2944034259
31
0.0000000000
11
14.6801794903
21
25.4357820175
31
0.0000000000
11
14.7979405835
21
25.5313394309
31
0.0000000000
11
14.9297195841
21
25.5779423403
31
0.0000000000
11
15.0627987703
21
25.5727641154
31
0.0000000000
11
15.1917828825
21
25.5164865070
31
0.0000000000
11
15.3089145635
21
25.4082625091
31
0.0000000000
11
15.4014381011
21
25.2538400966
31
0.0000000000
11
15.4573722211
21
25.0732613747
31
0.0000000000
11
15.4749108445
21
24.8902412290
31
0.0000000000
0
SPLINE
5
529
100
AcDbEntity
8
0
100
AcDbSpline
62
9
6
CONTINUOUS
70
0
71
3
72
9
73
5
74
3
42
0.0000001000
43
0.0000001000
44
0.0000000001
12
-0.0616444384
22
-6.9771092266
32
0.0000000000
13
-0.0616444384
23
-6.9771092266
33
0.0000000000
40
0.0000000000
40
0.0000000000
40
0.0000000000
40
0.0000000000
40
0.5520209878
40
1.0000000000
40
1.0000000000
40
1.0000000000
40
1.0000000000
10
15.4749108445
20
24.8902412290
30
0.0000000000
10
15.4635678366
20
23.6064043198
30
0.0000000000
10
15.4430196904
20
21.2807012443
30
0.0000000000
10
15.4224715443
20
18.9549981687
30
0.0000000000
10
15.4132664061
20
17.9131320024
30
0.0000000000
11
15.4749108445
21
24.8902412290
31
0.0000000000
11
15.4408818207
21
21.0387305014
31
0.0000000000
11
15.4132664061
21
17.9131320024
31
0.0000000000
0
SPLINE
5
52A
100
AcDbEntity
8
0
100
AcDbSpline
62
9
6
CONTINUOUS
70
0
71
3
72
9
73
5
74
3
42
0.0000001000
43
0.0000001000
44
0.0000000001
12
-0.0616444384
22
6.9771092266
32
0.0000000000
13
-0.0616444384
23
6.9771092266
33
0.0000000000
40
0.0000000000
40
0.0000000000
40
0.0000000000
40
0.0000000000
40
0.4479790122
40
1.0000000000
40
1.0000000000
40
1.0000000000
40
1.0000000000
10
9.0522636449
20
17.9131320024
30
0.0000000000
10
9.0430585067
20
18.9549981687
30
0.0000000000
10
9.0225103606
20
21.2807012443
30
0.0000000000
10
9.0019622144
20
23.6064043198
30
0.0000000000
10
8.9906192065
20
24.8902412290
30
0.0000000000
11
9.0522636449
21
17.9131320024
31
0.0000000000
11
9.0246482303
21
21.0387305014
31
0.0000000000
11
8.9906192065
21
24.8902412290
31
0.0000000000
0
SPLINE
5
52B
100
AcDbEntity
8
0
100
AcDbSpline
62
7
6
CONTINUOUS
70
0
71
3
72
15
73
11
74
9
42
0.0000001000
43
0.0000001000
44
0.0000000001
12
0.3920575792
22
0.0000000000
32
0.0000000000
13
0.0000000000
23
0.3920575792
33
0.0000000000
40
0.0000000000
40
0.0000000000
40
0.0000000000
40
0.0000000000
40
0.1250004118
40
0.2500001462
40
0.3749999295
40
0.4999995608
40
0.6249996381
40
0.7499997748
40
0.8749999251
40
1.0000000000
40
1.0000000000
40
1.0000000000
40
1.0000000000
10
24.2256618237
20
-16.2740351237
30
0.0000000000
10
24.2419976100
20
-16.2740351237
30
0.0000000000
10
24.2747595911
20
-16.2708131217
30
0.0000000000
10
24.3219444412
20
-16.2564989112
30
0.0000000000
10
24.3654498224
20
-16.2332526247
30
0.0000000000
10
24.4035791942
20
-16.2019660582
30
0.0000000000
10
24.4348732044
20
-16.1638426698
30
0.0000000000
10
24.4581267512
20
-16.1203408263
30
0.0000000000
10
24.4724461778
20
-16.0731572914
30
0.0000000000
10
24.4756694411
20
-16.0403952342
30
0.0000000000
10
24.4756694411
20
-16.0240594920
30
0.0000000000
11
24.2256618237
21
-16.2740351237
31
0.0000000000
11
24.2744333306
21
-16.2692329013
31
0.0000000000
11
24.3213312066
21
-16.2550102289
31
0.0000000000
11
24.3645538316
21
-16.2319125719
31
0.0000000000
11
24.4024399209
21
-16.2008266350
31
0.0000000000
11
24.4335331158
21
-16.1629462760
31
0.0000000000
11
24.4566377303
21
-16.1197272126
31
0.0000000000
11
24.4708654246
21
-16.0728306894
31
0.0000000000
11
24.4756694411
21
-16.0240594920
31
0.0000000000
0
SPLINE
5
52C
100
AcDbEntity
8
0
100
AcDbSpline
62
7
6
CONTINUOUS
70
0
71
3
72
14
73
10
74
8
42
0.0000001000
43
0.0000001000
44
0.0000000001
12
-1.0152103683
22
-0.0678510606
32
0.0000000000
13
-0.8130738903
23
0.6116916766
33
0.0000000000
40
0.0000000000
40
0.0000000000
40
0.0000000000
40
0.0000000000
40
0.0962836683
40
0.2163718132
40
0.3533377364
40
0.5051398792
40
0.6670323196
40
0.8333557546
40
1.0000000000
40
1.0000000000
40
1.0000000000
40
1.0000000000
10
8.1118049638
20
28.6870278788
30
0.0000000000
10
8.0792222377
20
28.6848502291
30
0.0000000000
10
8.0055780175
20
28.7013767334
30
0.0000000000
10
7.8963608664
20
28.7500781835
30
0.0000000000
10
7.7754583445
20
28.8185865676
30
0.0000000000
10
7.6469056244
20
28.9012439353
30
0.0000000000
10
7.5130138326
20
28.9939220904
30
0.0000000000
10
7.3771311016
20
29.0924405475
30
0.0000000000
10
7.2866185099
20
29.1599766591
30
0.0000000000
10
7.2414538149
20
29.1939549584
30
0.0000000000
11
8.1118049638
21
28.6870278788
31
0.0000000000
11
8.0150193744
21
28.7021915021
31
0.0000000000
11
7.9023291312
21
28.7494196940
31
0.0000000000
11
7.7805247624
21
28.8171304607
31
0.0000000000
11
7.6502484264
21
28.9001027390
31
0.0000000000
11
7.5145965448
21
28.9935466034
31
0.0000000000
11
7.3774478490
21
29.0926880184
31
0.0000000000
11
7.2414538149
21
29.1939549584
31
0.0000000000
0
SPLINE
5
52D
100
AcDbEntity
8
0
100
AcDbSpline
62
7
6
CONTINUOUS
70
0
71
3
72
14
73
10
74
8
42
0.0000001000
43
0.0000001000
44
0.0000000001
12
-0.5999552218
22
0.5999552218
32
0.0000000000
13
-0.5999552218
23
0.5999552218
33
0.0000000000
40
0.0000000000
40
0.0000000000
40
0.0000000000
40
0.0000000000
40
0.0422771168
40
0.1441181202
40
0.2842576237
40
0.4489129753
40
0.6284578521
40
0.8148216501
40
1.0000000000
40
1.0000000000
40
1.0000000000
40
1.0000000000
10
6.0300449994
20
28.5952917853
30
0.0000000000
10
6.0215902071
20
28.6037465776
30
0.0000000000
10
5.9927687341
20
28.6325680506
30
0.0000000000
10
5.9359214522
20
28.6894153324
30
0.0000000000
10
5.8546003500
20
28.7707364347
30
0.0000000000
10
5.7577396329
20
28.8675971518
30
0.0000000000
10
5.6516347469
20
28.9737020378
30
0.0000000000
10
5.5414255675
20
29.0839112172
30
0.0000000000
10
5.4671226836
20
29.1582141011
30
0.0000000000
10
5.4300897776
20
29.1952470071
30
0.0000000000
11
6.0300449994
21
28.5952917853
31
0.0000000000
11
6.0046806224
21
28.6206561623
31
0.0000000000
11
5.9435805806
21
28.6817562041
31
0.0000000000
11
5.8595031537
21
28.7658336309
31
0.0000000000
11
5.7607173157
21
28.8646194690
31
0.0000000000
11
5.6529984293
21
28.9723383553
31
0.0000000000
11
5.5411884956
21
29.0841482891
31
0.0000000000
11
5.4300897776
21
29.1952470071
31
0.0000000000
0
SPLINE
5
52E
100
AcDbEntity
8
0
100
AcDbSpline
62
7
6
CONTINUOUS
70
0
71
3
72
12
73
8
74
6
42
0.0000001000
43
0.0000001000
44
0.0000000001
12
0.4160809903
22
-0.4780890576
32
0.0000000000
13
0.0221190284
23
-0.6334060989
33
0.0000000000
40
0.0000000000
40
0.0000000000
40
0.0000000000
40
0.0000000000
40
0.3204749937
40
0.5894025526
40
0.8067496060
40
0.9534214152
40
1.0000000000
40
1.0000000000
40
1.0000000000
40
1.0000000000
10
6.8015768872
20
29.1952470071
30
0.0000000000
10
6.8460247382
20
29.1441751445
30
0.0000000000
10
6.9350189397
20
29.0199651617
30
0.0000000000
10
6.8163486349
20
28.8671084880
30
0.0000000000
10
6.8115964000
20
28.7320650068
30
0.0000000000
10
6.8047884800
20
28.6458870084
30
0.0000000000
10
6.8012334629
20
28.6050823075
30
0.0000000000
10
6.8015768872
20
28.5952479209
30
0.0000000000
11
6.8015768872
21
29.1952470071
31
0.0000000000
11
6.8908599751
21
29.0128078403
31
0.0000000000
11
6.8295218782
21
28.8537831302
31
0.0000000000
11
6.8098884106
21
28.7174365915
31
0.0000000000
11
6.8029267931
21
28.6247381846
31
0.0000000000
11
6.8015768872
21
28.5952479209
31
0.0000000000
0
SPLINE
5
52F
100
AcDbEntity
8
0
100
AcDbSpline
62
7
6
CONTINUOUS
70
0
71
3
72
14
73
10
74
8
42
0.0000001000
43
0.0000001000
44
0.0000000001
12
-0.5999552218
22
-0.5999552218
32
0.0000000000
13
-0.5999552218
23
-0.5999552218
33
0.0000000000
40
0.0000000000
40
0.0000000000
40
0.0000000000
40
0.0000000000
40
0.0422771168
40
0.1441181202
40
0.2842576237
40
0.4489129753
40
0.6284578521
40
0.8148216501
40
1.0000000000
40
1.0000000000
40
1.0000000000
40
1.0000000000
10
6.0300449994
20
28.0309722195
30
0.0000000000
10
6.0215902071
20
28.0225174272
30
0.0000000000
10
5.9927687341
20
27.9936959542
30
0.0000000000
10
5.9359214522
20
27.9368486724
30
0.0000000000
10
5.8546003500
20
27.8555275701
30
0.0000000000
10
5.7577396329
20
27.7586668530
30
0.0000000000
10
5.6516347469
20
27.6525619670
30
0.0000000000
10
5.5414255675
20
27.5423527876
30
0.0000000000
10
5.4671226836
20
27.4680499037
30
0.0000000000
10
5.4300897776
20
27.4310169977
30
0.0000000000
11
6.0300449994
21
28.0309722195
31
0.0000000000
11
6.0046806224
21
28.0056078425
31
0.0000000000
11
5.9435805806
21
27.9445078007
31
0.0000000000
11
5.8595031537
21
27.8604303738
31
0.0000000000
11
5.7607173157
21
27.7616445358
31
0.0000000000
11
5.6529984293
21
27.6539256494
31
0.0000000000
11
5.5411884956
21
27.5421157157
31
0.0000000000
11
5.4300897776
21
27.4310169977
31
0.0000000000
0
SPLINE
5
530
100
AcDbEntity
8
0
100
AcDbSpline
62
7
6
CONTINUOUS
70
0
71
3
72
11
73
7
74
5
42
0.0000001000
43
0.0000001000
44
0.0000000001
12
0.7159553367
22
0.5545766191
32
0.0000000000
13
0.7871388180
23
0.4478389798
33
0.0000000000
40
0.0000000000
40
0.0000000000
40
0.0000000000
40
0.0000000000
40
0.3097572327
40
0.5845169845
40
0.8159998008
40
1.0000000000
40
1.0000000000
40
1.0000000000
40
1.0000000000
10
6.1385026767
20
27.4310169977
30
0.0000000000
10
6.2124267913
20
27.4882783707
30
0.0000000000
10
6.3519146574
20
27.5963375337
30
0.0000000000
10
6.5484332249
20
27.7448986583
30
0.0000000000
10
6.7179069723
20
27.8661319726
30
0.0000000000
10
6.8234273927
20
27.9342040747
30
0.0000000000
10
6.8717052924
20
27.9616715618
30
0.0000000000
11
6.1385026767
21
27.4310169977
31
0.0000000000
11
6.3606264975
21
27.6023464004
31
0.0000000000
11
6.5595559820
21
27.7518200551
31
0.0000000000
11
6.7306541207
21
27.8729499012
31
0.0000000000
11
6.8717052924
21
27.9616715618
31
0.0000000000
0
SPLINE
5
531
100
AcDbEntity
8
0
100
AcDbSpline
62
7
6
CONTINUOUS
70
0
71
3
72
8
73
4
74
2
42
0.0000001000
43
0.0000001000
44
0.0000000001
12
0.0464324220
22
0.0232351488
32
0.0000000000
13
0.0475937544
23
0.0207923180
33
0.0000000000
40
0.0000000000
40
0.0000000000
40
0.0000000000
40
0.0000000000
40
1.0000000000
40
1.0000000000
40
1.0000000000
40
1.0000000000
10
6.8717052924
20
27.9616715618
30
0.0000000000
10
6.8871827664
20
27.9694166114
30
0.0000000000
10
6.9028309629
20
27.9768581705
30
0.0000000000
10
6.9186955477
20
27.9837889432
30
0.0000000000
11
6.8717052924
21
27.9616715618
31
0.0000000000
11
6.9186955477
21
27.9837889432
31
0.0000000000
0
SPLINE
5
532
100
AcDbEntity
8
0
100
AcDbSpline
62
7
6
CONTINUOUS
70
0
71
3
72
9
73
5
74
3
42
0.0000001000
43
0.0000001000
44
0.0000000001
12
0.0819871366
22
0.0358177799
32
0.0000000000
13
0.0876508441
23
0.0201130056
33
0.0000000000
40
0.0000000000
40
0.0000000000
40
0.0000000000
40
0.0000000000
40
0.2706873301
40
1.0000000000
40
1.0000000000
40
1.0000000000
40
1.0000000000
10
6.9186955477
20
27.9837889432
30
0.0000000000
10
6.9260931741
20
27.9870207496
30
0.0000000000
10
6.9535960370
20
27.9985497121
30
0.0000000000
10
6.9818042232
20
28.0082760692
30
0.0000000000
10
7.0031125135
20
28.0131656258
30
0.0000000000
11
6.9186955477
21
27.9837889432
31
0.0000000000
11
6.9410342073
21
27.9931301579
31
0.0000000000
11
7.0031125135
21
28.0131656258
31
0.0000000000
0
SPLINE
5
533
100
AcDbEntity
8
0
100
AcDbSpline
62
7
6
CONTINUOUS
70
0
71
3
72
8
73
4
74
2
42
0.0000001000
43
0.0000001000
44
0.0000000001
12
0.0506772717
22
0.0116287785
32
0.0000000000
13
0.0516010140
23
-0.0034020784
33
0.0000000000
40
0.0000000000
40
0.0000000000
40
0.0000000000
40
0.0000000000
40
1.0000000000
40
1.0000000000
40
1.0000000000
40
1.0000000000
10
7.0031125135
20
28.0131656258
30
0.0000000000
10
7.0200049375
20
28.0170418853
30
0.0000000000
10
7.0373597308
20
28.0195329907
30
0.0000000000
10
7.0545600688
20
28.0183989645
30
0.0000000000
11
7.0031125135
21
28.0131656258
31
0.0000000000
11
7.0545600688
21
28.0183989645
31
0.0000000000
0
SPLINE
5
534
100
AcDbEntity
8
0
100
AcDbSpline
62
7
6
CONTINUOUS
70
0
71
3
72
9
73
5
74
3
42
0.0000001000
43
0.0000001000
44
0.0000000001
12
0.0024215641
22
0.0693445220
32
0.0000000000
13
0.0024215641
23
0.0693445220
33
0.0000000000
40
0.0000000000
40
0.0000000000
40
0.0000000000
40
0.0000000000
40
0.7444406889
40
1.0000000000
40
1.0000000000
40
1.0000000000
40
1.0000000000
10
6.8717052924
20
27.9616715618
30
0.0000000000
10
6.8723061960
20
27.9788791897
30
0.0000000000
10
6.8731133841
20
28.0019940304
30
0.0000000000
10
6.8739205721
20
28.0251088711
30
0.0000000000
10
6.8741268565
20
28.0310160838
30
0.0000000000
11
6.8717052924
21
27.9616715618
31
0.0000000000
11
6.8735080033
21
28.0132944456
31
0.0000000000
11
6.8741268565
21
28.0310160838
31
0.0000000000
0
SPLINE
5
535
100
AcDbEntity
8
0
100
AcDbSpline
62
7
6
CONTINUOUS
70
0
71
3
72
8
73
4
74
2
42
0.0000001000
43
0.0000001000
44
0.0000000001
12
0.0517636509
22
0.0034128011
32
0.0000000000
13
0.0508310646
23
-0.0116961267
33
0.0000000000
40
0.0000000000
40
0.0000000000
40
0.0000000000
40
0.0000000000
40
1.0000000000
40
1.0000000000
40
1.0000000000
40
1.0000000000
10
17.4109699822
20
28.0183989645
30
0.0000000000
10
17.4282245325
20
28.0195365649
30
0.0000000000
10
17.4456339423
20
28.0170276262
30
0.0000000000
10
17.4625776305
20
28.0131289173
30
0.0000000000
11
17.4109699822
21
28.0183989645
31
0.0000000000
11
17.4625776305
21
28.0131289173
31
0.0000000000
0
SPLINE
5
536
100
AcDbEntity
8
0
100
AcDbSpline
62
7
6
CONTINUOUS
70
0
71
3
72
9
73
5
74
3
42
0.0000001000
43
0.0000001000
44
0.0000000001
12
0.1123958156
22
-0.0258620533
32
0.0000000000
13
0.1038136185
23
-0.0489215301
33
0.0000000000
40
0.0000000000
40
0.0000000000
40
0.0000000000
40
0.0000000000
40
0.5681377687
40
1.0000000000
40
1.0000000000
40
1.0000000000
40
1.0000000000
10
17.4625776305
20
28.0131289173
30
0.0000000000
10
17.4838630665
20
28.0082311809
30
0.0000000000
10
17.5200346729
20
27.9957500411
30
0.0000000000
10
17.5550481152
20
27.9803055047
30
0.0000000000
10
17.5699925088
20
27.9732630510
30
0.0000000000
11
17.4625776305
21
28.0131289173
31
0.0000000000
11
17.5245901452
21
27.9930926404
31
0.0000000000
11
17.5699925088
21
27.9732630510
31
0.0000000000
0
SPLINE
5
537
100
AcDbEntity
8
0
100
AcDbSpline
62
7
6
CONTINUOUS
70
0
71
3
72
8
73
4
74
2
42
0.0000001000
43
0.0000001000
44
0.0000000001
12
0.0239777523
22
-0.0112993685
32
0.0000000000
13
0.0236927765
23
-0.0118560515
33
0.0000000000
40
0.0000000000
40
0.0000000000
40
0.0000000000
40
0.0000000000
40
1.0000000000
40
1.0000000000
40
1.0000000000
40
1.0000000000
10
17.5699925088
20
27.9732630510
30
0.0000000000
10
17.5779850930
20
27.9694965948
30
0.0000000000
10
17.5859271664
20
27.9656235790
30
0.0000000000
10
17.5938247586
20
27.9616715618
30
0.0000000000
11
17.5699925088
21
27.9732630510
31
0.0000000000
11
17.5938247586
21
27.9616715618
31
0.0000000000
0
SPLINE
5
538
100
AcDbEntity
8
0
100
AcDbSpline
62
7
6
CONTINUOUS
70
0
71
3
72
11
73
7
74
5
42
0.0000001000
43
0.0000001000
44
0.0000000001
12
0.7871387936
22
-0.4478389659
32
0.0000000000
13
0.7159553145
23
-0.5545766019
33
0.0000000000
40
0.0000000000
40
0.0000000000
40
0.0000000000
40
0.0000000000
40
0.1840164131
40
0.4156880729
40
0.6906496677
40
1.0000000000
40
1.0000000000
40
1.0000000000
40
1.0000000000
10
17.5938247586
20
27.9616715618
30
0.0000000000
10
17.6421069111
20
27.9342016551
30
0.0000000000
10
17.7476791032
20
27.8660954773
30
0.0000000000
10
17.9172500300
20
27.7447868229
30
0.0000000000
10
18.1137613607
20
27.5962242880
30
0.0000000000
10
18.2532003695
20
27.4882031497
30
0.0000000000
10
18.3270273743
20
27.4310169977
30
0.0000000000
11
17.5938247586
21
27.9616715618
31
0.0000000000
11
17.7348881039
21
27.8729416863
31
0.0000000000
11
17.9061238101
21
27.7517101888
31
0.0000000000
11
18.1051962951
21
27.6021225672
31
0.0000000000
11
18.3270273743
21
27.4310169977
31
0.0000000000
0
SPLINE
5
539
100
AcDbEntity
8
0
100
AcDbSpline
62
7
6
CONTINUOUS
70
0
71
3
72
9
73
5
74
3
42
0.0000001000
43
0.0000001000
44
0.0000000001
12
-0.0024215641
22
0.0693445220
32
0.0000000000
13
-0.0024215641
23
0.0693445220
33
0.0000000000
40
0.0000000000
40
0.0000000000
40
0.0000000000
40
0.0000000000
40
0.7444406889
40
1.0000000000
40
1.0000000000
40
1.0000000000
40
1.0000000000
10
17.5938247586
20
27.9616715618
30
0.0000000000
10
17.5932238550
20
27.9788791897
30
0.0000000000
10
17.5924166669
20
28.0019940304
30
0.0000000000
10
17.5916094789
20
28.0251088711
30
0.0000000000
10
17.5914031945
20
28.0310160838
30
0.0000000000
11
17.5938247586
21
27.9616715618
31
0.0000000000
11
17.5920220478
21
28.0132944456
31
0.0000000000
11
17.5914031945
21
28.0310160838
31
0.0000000000
0
SPLINE
5
53A
100
AcDbEntity
8
0
100
AcDbSpline
62
7
6
CONTINUOUS
70
0
71
3
72
14
73
10
74
8
42
0.0000001000
43
0.0000001000
44
0.0000000001
12
0.5999552218
22
-0.5999552218
32
0.0000000000
13
0.5999552218
23
-0.5999552218
33
0.0000000000
40
0.0000000000
40
0.0000000000
40
0.0000000000
40
0.0000000000
40
0.0422771168
40
0.1441181202
40
0.2842576237
40
0.4489129753
40
0.6284578521
40
0.8148216501
40
1.0000000000
40
1.0000000000
40
1.0000000000
40
1.0000000000
10
18.4354850516
20
28.0309722195
30
0.0000000000
10
18.4439398440
20
28.0225174272
30
0.0000000000
10
18.4727613169
20
27.9936959542
30
0.0000000000
10
18.5296085988
20
27.9368486724
30
0.0000000000
10
18.6109297010
20
27.8555275701
30
0.0000000000
10
18.7077904181
20
27.7586668530
30
0.0000000000
10
18.8138953041
20
27.6525619670
30
0.0000000000
10
18.9241044835
20
27.5423527876
30
0.0000000000
10
18.9984073674
20
27.4680499037
30
0.0000000000
10
19.0354402734
20
27.4310169977
30
0.0000000000
11
18.4354850516
21
28.0309722195
31
0.0000000000
11
18.4608494286
21
28.0056078425
31
0.0000000000
11
18.5219494704
21
27.9445078007
31
0.0000000000
11
18.6060268973
21
27.8604303738
31
0.0000000000
11
18.7048127353
21
27.7616445358
31
0.0000000000
11
18.8125316217
21
27.6539256494
31
0.0000000000
11
18.9243415554
21
27.5421157157
31
0.0000000000
11
19.0354402734
21
27.4310169977
31
0.0000000000
0
SPLINE
5
53B
100
AcDbEntity
8
0
100
AcDbSpline
62
7
6
CONTINUOUS
70
0
71
3
72
14
73
10
74
8
42
0.0000001000
43
0.0000001000
44
0.0000000001
12
0.5999552218
22
0.5999552218
32
0.0000000000
13
0.5999552218
23
0.5999552218
33
0.0000000000
40
0.0000000000
40
0.0000000000
40
0.0000000000
40
0.0000000000
40
0.0422771168
40
0.1441181202
40
0.2842576237
40
0.4489129753
40
0.6284578521
40
0.8148216501
40
1.0000000000
40
1.0000000000
40
1.0000000000
40
1.0000000000
10
18.4354850516
20
28.5952917853
30
0.0000000000
10
18.4439398440
20
28.6037465776
30
0.0000000000
10
18.4727613169
20
28.6325680506
30
0.0000000000
10
18.5296085988
20
28.6894153324
30
0.0000000000
10
18.6109297010
20
28.7707364347
30
0.0000000000
10
18.7077904181
20
28.8675971518
30
0.0000000000
10
18.8138953041
20
28.9737020378
30
0.0000000000
10
18.9241044835
20
29.0839112172
30
0.0000000000
10
18.9984073674
20
29.1582141011
30
0.0000000000
10
19.0354402734
20
29.1952470071
30
0.0000000000
11
18.4354850516
21
28.5952917853
31
0.0000000000
11
18.4608494286
21
28.6206561623
31
0.0000000000
11
18.5219494704
21
28.6817562041
31
0.0000000000
11
18.6060268973
21
28.7658336309
31
0.0000000000
11
18.7048127353
21
28.8646194690
31
0.0000000000
11
18.8125316217
21
28.9723383553
31
0.0000000000
11
18.9243415554
21
29.0841482891
31
0.0000000000
11
19.0354402734
21
29.1952470071
31
0.0000000000
0
SPLINE
5
53C
100
AcDbEntity
8
0
100
AcDbSpline
62
7
6
CONTINUOUS
70
0
71
3
72
12
73
8
74
6
42
0.0000001000
43
0.0000001000
44
0.0000000001
12
-0.5408939396
22
-0.3869038346
32
0.0000000000
13
-0.0232091055
23
-0.6646218237
33
0.0000000000
40
0.0000000000
40
0.0000000000
40
0.0000000000
40
0.0000000000
40
0.3323540623
40
0.5905456759
40
0.8053457752
40
0.9559024698
40
1.0000000000
40
1.0000000000
40
1.0000000000
40
1.0000000000
10
17.7058071616
20
29.1952470071
30
0.0000000000
10
17.6458843956
20
29.1523839867
30
0.0000000000
10
17.5063246793
20
29.0399887116
30
0.0000000000
10
17.6503777442
20
28.8772838419
30
0.0000000000
10
17.6527912553
20
28.7383911269
30
0.0000000000
10
17.6605847112
20
28.6481371667
30
0.0000000000
10
17.6642943185
20
28.6050173146
30
0.0000000000
10
17.6639531638
20
28.5952479209
30
0.0000000000
11
17.7058071616
21
29.1952470071
31
0.0000000000
11
17.5664588258
21
29.0236841062
31
0.0000000000
11
17.6334748659
21
28.8655979144
31
0.0000000000
11
17.6549547952
21
28.7243742560
31
0.0000000000
11
17.6626137845
21
28.6245433645
31
0.0000000000
11
17.6639531638
21
28.5952479209
31
0.0000000000
0
SPLINE
5
53D
100
AcDbEntity
8
0
100
AcDbSpline
62
7
6
CONTINUOUS
70
0
71
3
72
14
73
10
74
8
42
0.0000001000
43
0.0000001000
44
0.0000000001
12
-0.8130620261
22
-0.6116829015
32
0.0000000000
13
-1.0151956447
23
0.0678500795
33
0.0000000000
40
0.0000000000
40
0.0000000000
40
0.0000000000
40
0.0000000000
40
0.1659950712
40
0.3305611632
40
0.4908678315
40
0.6423203133
40
0.7808895963
40
0.9024588422
40
1.0000000000
40
1.0000000000
40
1.0000000000
40
1.0000000000
10
17.2240762361
20
29.1939548272
30
0.0000000000
10
17.1790881398
20
29.1601093783
30
0.0000000000
10
17.0892320650
20
29.0930609220
30
0.0000000000
10
16.9544612058
20
28.9953204088
30
0.0000000000
10
16.8216476916
20
28.9032900973
30
0.0000000000
10
16.6932879390
20
28.8205516520
30
0.0000000000
10
16.5717077533
20
28.7513488376
30
0.0000000000
10
16.4612896280
20
28.7017885675
30
0.0000000000
10
16.3867330691
20
28.6848218072
30
0.0000000000
10
16.3537252829
20
28.6870278657
30
0.0000000000
11
17.2240762361
21
29.1939548272
31
0.0000000000
11
17.0886162799
21
29.0930807014
31
0.0000000000
11
16.9529355354
21
28.9949648509
31
0.0000000000
11
16.8186672922
21
28.9023608113
31
0.0000000000
11
16.6887967944
21
28.8194179814
31
0.0000000000
11
16.5657032167
21
28.7506734965
31
0.0000000000
11
16.4517430831
21
28.7025821780
31
0.0000000000
11
16.3537252829
21
28.6870278657
31
0.0000000000
0
SPLINE
5
53E
100
AcDbEntity
8
0
100
AcDbSpline
62
7
6
CONTINUOUS
70
0
71
3
72
12
73
8
74
6
42
0.0000001000
43
0.0000001000
44
0.0000000001
12
-0.5408856624
22
0.3869093738
32
0.0000000000
13
-0.0232089830
23
0.6646183163
33
0.0000000000
40
0.0000000000
40
0.0000000000
40
0.0000000000
40
0.0000000000
40
0.3323531927
40
0.5905455715
40
0.8053459721
40
0.9559022267
40
1.0000000000
40
1.0000000000
40
1.0000000000
40
1.0000000000
10
17.7058071616
20
-13.8689830023
30
0.0000000000
10
17.6458854693
20
-13.8261194804
30
0.0000000000
10
17.5063303108
20
-13.7137238516
30
0.0000000000
10
17.6503779285
20
-13.5510184185
30
0.0000000000
10
17.6527915549
20
-13.4121264381
30
0.0000000000
10
17.6605847732
20
-13.3218728932
30
0.0000000000
10
17.6642943186
20
-13.2787533121
30
0.0000000000
10
17.6639531638
20
-13.2689839162
30
0.0000000000
11
17.7058071616
21
-13.8689830023
31
0.0000000000
11
17.5664623112
21
-13.6974195182
31
0.0000000000
11
17.6334757321
21
-13.5393326476
31
0.0000000000
11
17.6549550187
21
-13.3981094513
31
0.0000000000
11
17.6626138046
21
-13.2982793676
31
0.0000000000
11
17.6639531638
21
-13.2689839162
31
0.0000000000
0
SPLINE
5
53F
100
AcDbEntity
8
0
100
AcDbSpline
62
7
6
CONTINUOUS
70
0
71
3
72
14
73
10
74
8
42
0.0000001000
43
0.0000001000
44
0.0000000001
12
1.0152064574
22
0.0678507992
32
0.0000000000
13
0.8130707581
23
-0.6116893202
33
0.0000000000
40
0.0000000000
40
0.0000000000
40
0.0000000000
40
0.0000000000
40
0.0964795081
40
0.2174668716
40
0.3559603842
40
0.5077699760
40
0.6685425425
40
0.8336061295
40
1.0000000000
40
1.0000000000
40
1.0000000000
40
1.0000000000
10
16.3537250872
20
-13.3607638740
30
0.0000000000
10
16.3863739604
20
-13.3585818034
30
0.0000000000
10
16.4603860755
20
-13.3752284412
30
0.0000000000
10
16.5703670230
20
-13.4243951643
30
0.0000000000
10
16.6919165592
20
-13.4934412796
30
0.0000000000
10
16.8205263394
20
-13.5762666891
30
0.0000000000
10
16.9537258320
20
-13.6685290660
30
0.0000000000
10
17.0888782774
20
-13.7665337326
30
0.0000000000
10
17.1789795726
20
-13.8337638358
30
0.0000000000
10
17.2240762361
20
-13.8676909537
30
0.0000000000
11
16.3537250872
21
-13.3607638740
31
0.0000000000
11
16.4507024905
21
-13.3759880798
31
0.0000000000
11
16.5642001113
21
-13.4236555599
31
0.0000000000
11
16.6872931642
21
-13.4922458194
31
0.0000000000
11
16.8175099386
21
-13.5753245285
31
0.0000000000
11
16.9521884988
21
-13.6681716308
31
0.0000000000
11
17.0882879492
21
-13.7665753436
31
0.0000000000
11
17.2240762361
21
-13.8676909537
31
0.0000000000
0
SPLINE
5
540
100
AcDbEntity
8
0
100
AcDbSpline
62
7
6
CONTINUOUS
70
0
71
3
72
14
73
10
74
8
42
0.0000001000
43
0.0000001000
44
0.0000000001
12
0.5999552218
22
-0.5999552218
32
0.0000000000
13
0.5999552218
23
-0.5999552218
33
0.0000000000
40
0.0000000000
40
0.0000000000
40
0.0000000000
40
0.0000000000
40
0.0422771168
40
0.1441181202
40
0.2842576237
40
0.4489129753
40
0.6284578521
40
0.8148216501
40
1.0000000000
40
1.0000000000
40
1.0000000000
40
1.0000000000
10
18.4354850516
20
-13.2690277805
30
0.0000000000
10
18.4439398440
20
-13.2774825728
30
0.0000000000
10
18.4727613169
20
-13.3063040458
30
0.0000000000
10
18.5296085988
20
-13.3631513276
30
0.0000000000
10
18.6109297010
20
-13.4444724299
30
0.0000000000
10
18.7077904181
20
-13.5413331470
30
0.0000000000
10
18.8138953041
20
-13.6474380330
30
0.0000000000
10
18.9241044835
20
-13.7576472124
30
0.0000000000
10
18.9984073674
20
-13.8319500963
30
0.0000000000
10
19.0354402734
20
-13.8689830023
30
0.0000000000
11
18.4354850516
21
-13.2690277805
31
0.0000000000
11
18.4608494286
21
-13.2943921575
31
0.0000000000
11
18.5219494704
21
-13.3554921993
31
0.0000000000
11
18.6060268973
21
-13.4395696262
31
0.0000000000
11
18.7048127353
21
-13.5383554642
31
0.0000000000
11
18.8125316217
21
-13.6460743506
31
0.0000000000
11
18.9243415554
21
-13.7578842843
31
0.0000000000
11
19.0354402734
21
-13.8689830023
31
0.0000000000
0
SPLINE
5
541
100
AcDbEntity
8
0
100
AcDbSpline
62
7
6
CONTINUOUS
70
0
71
3
72
11
73
7
74
5
42
0.0000001000
43
0.0000001000
44
0.0000000001
12
-0.7159553049
22
-0.5545765945
32
0.0000000000
13
-0.7871387831
23
-0.4478389599
33
0.0000000000
40
0.0000000000
40
0.0000000000
40
0.0000000000
40
0.0000000000
40
0.3093046583
40
0.5842837596
40
0.8159460628
40
1.0000000000
40
1.0000000000
40
1.0000000000
40
1.0000000000
10
18.3270273743
20
-12.1047529929
30
0.0000000000
10
18.2532112707
20
-12.1619307009
30
0.0000000000
10
18.1137789719
20
-12.2699466058
30
0.0000000000
10
17.9172770871
20
-12.4185028635
30
0.0000000000
10
17.7476954841
20
-12.5398202227
30
0.0000000000
10
17.6421167560
20
-12.6079320491
30
0.0000000000
10
17.5938247586
20
-12.6354075570
30
0.0000000000
11
18.3270273743
21
-12.1047529929
31
0.0000000000
11
18.1052291569
21
-12.2758334355
31
0.0000000000
11
17.9061443831
21
-12.4254310891
31
0.0000000000
11
17.7349162855
21
-12.5466586642
31
0.0000000000
11
17.5938247586
21
-12.6354075570
31
0.0000000000
0
SPLINE
5
542
100
AcDbEntity
8
0
100
AcDbSpline
62
7
6
CONTINUOUS
70
0
71
3
72
14
73
10
74
8
42
0.0000001000
43
0.0000001000
44
0.0000000001
12
0.5999552218
22
0.5999552218
32
0.0000000000
13
0.5999552218
23
0.5999552218
33
0.0000000000
40
0.0000000000
40
0.0000000000
40
0.0000000000
40
0.0000000000
40
0.0422771168
40
0.1441181202
40
0.2842576237
40
0.4489129753
40
0.6284578521
40
0.8148216501
40
1.0000000000
40
1.0000000000
40
1.0000000000
40
1.0000000000
10
18.4354850516
20
-12.7047082147
30
0.0000000000
10
18.4439398440
20
-12.6962534224
30
0.0000000000
10
18.4727613169
20
-12.6674319494
30
0.0000000000
10
18.5296085988
20
-12.6105846676
30
0.0000000000
10
18.6109297010
20
-12.5292635653
30
0.0000000000
10
18.7077904181
20
-12.4324028482
30
0.0000000000
10
18.8138953041
20
-12.3262979622
30
0.0000000000
10
18.9241044835
20
-12.2160887828
30
0.0000000000
10
18.9984073674
20
-12.1417858989
30
0.0000000000
10
19.0354402734
20
-12.1047529929
30
0.0000000000
11
18.4354850516
21
-12.7047082147
31
0.0000000000
11
18.4608494286
21
-12.6793438377
31
0.0000000000
11
18.5219494704
21
-12.6182437959
31
0.0000000000
11
18.6060268973
21
-12.5341663691
31
0.0000000000
11
18.7048127353
21
-12.4353805310
31
0.0000000000
11
18.8125316217
21
-12.3276616447
31
0.0000000000
11
18.9243415554
21
-12.2158517109
31
0.0000000000
11
19.0354402734
21
-12.1047529929
31
0.0000000000
0
SPLINE
5
543
100
AcDbEntity
8
0
100
AcDbSpline
62
7
6
CONTINUOUS
70
0
71
3
72
9
73
5
74
3
42
0.0000001000
43
0.0000001000
44
0.0000000001
12
-0.0024215641
22
-0.0693445220
32
0.0000000000
13
-0.0024215641
23
-0.0693445220
33
0.0000000000
40
0.0000000000
40
0.0000000000
40
0.0000000000
40
0.0000000000
40
0.7444406889
40
1.0000000000
40
1.0000000000
40
1.0000000000
40
1.0000000000
10
17.5938247586
20
-12.6354075570
30
0.0000000000
10
17.5932238550
20
-12.6526151850
30
0.0000000000
10
17.5924166669
20
-12.6757300256
30
0.0000000000
10
17.5916094789
20
-12.6988448663
30
0.0000000000
10
17.5914031945
20
-12.7047520791
30
0.0000000000
11
17.5938247586
21
-12.6354075570
31
0.0000000000
11
17.5920220478
21
-12.6870304408
31
0.0000000000
11
17.5914031945
21
-12.7047520791
31
0.0000000000
0
SPLINE
5
544
100
AcDbEntity
8
0
100
AcDbSpline
62
7
6
CONTINUOUS
70
0
71
3
72
8
73
4
74
2
42
0.0000001000
43
0.0000001000
44
0.0000000001
12
-0.0463874874
22
-0.0232126632
32
0.0000000000
13
-0.0475463281
23
-0.0207751684
33
0.0000000000
40
0.0000000000
40
0.0000000000
40
0.0000000000
40
0.0000000000
40
1.0000000000
40
1.0000000000
40
1.0000000000
40
1.0000000000
10
17.5938247586
20
-12.6354075570
30
0.0000000000
10
17.5783622628
20
-12.6431451114
30
0.0000000000
10
17.5627292652
20
-12.6505798592
30
0.0000000000
10
17.5468804892
20
-12.6575049154
30
0.0000000000
11
17.5938247586
21
-12.6354075570
31
0.0000000000
11
17.5468804892
21
-12.6575049154
31
0.0000000000
0
SPLINE
5
545
100
AcDbEntity
8
0
100
AcDbSpline
62
7
6
CONTINUOUS
70
0
71
3
72
9
73
5
74
3
42
0.0000001000
43
0.0000001000
44
0.0000000001
12
-0.0818926920
22
-0.0357826679
32
0.0000000000
13
-0.0875429357
23
-0.0201391435
33
0.0000000000
40
0.0000000000
40
0.0000000000
40
0.0000000000
40
0.0000000000
40
0.2707061515
40
1.0000000000
40
1.0000000000
40
1.0000000000
40
1.0000000000
10
17.5468804892
20
-12.6575049154
30
0.0000000000
10
17.5394908707
20
-12.6607337781
30
0.0000000000
10
17.5120200210
20
-12.6722520150
30
0.0000000000
10
17.4838464205
20
-12.6819720478
30
0.0000000000
10
17.4625649124
20
-12.6868678323
30
0.0000000000
11
17.5468804892
21
-12.6575049154
31
0.0000000000
11
17.5245663159
21
-12.6668381176
31
0.0000000000
11
17.4625649124
21
-12.6868678323
31
0.0000000000
0
SPLINE
5
546
100
AcDbEntity
8
0
100
AcDbSpline
62
7
6
CONTINUOUS
70
0
71
3
72
8
73
4
74
2
42
0.0000001000
43
0.0000001000
44
0.0000000001
12
-0.0508188171
22
-0.0116908056
32
0.0000000000
13
-0.0517507300
23
0.0034119492
33
0.0000000000
40
0.0000000000
40
0.0000000000
40
0.0000000000
40
0.0000000000
40
1.0000000000
40
1.0000000000
40
1.0000000000
40
1.0000000000
10
17.4625649124
20
-12.6868678323
30
0.0000000000
10
17.4456253067
20
-12.6907647675
30
0.0000000000
10
17.4282202255
20
-12.6932722761
30
0.0000000000
10
17.4109699822
20
-12.6921349597
30
0.0000000000
11
17.4625649124
21
-12.6868678323
31
0.0000000000
11
17.4109699822
21
-12.6921349597
31
0.0000000000
0
SPLINE
5
547
100
AcDbEntity
8
0
100
AcDbSpline
62
7
6
CONTINUOUS
70
0
71
3
72
14
73
10
74
8
42
0.0000001000
43
0.0000001000
44
0.0000000001
12
0.8130652936
22
0.6116852091
32
0.0000000000
13
1.0151996343
23
-0.0678503432
33
0.0000000000
40
0.0000000000
40
0.0000000000
40
0.0000000000
40
0.0000000000
40
0.1662773588
40
0.3321196228
40
0.4935363972
40
0.6449473026
40
0.7819295337
40
0.9026438745
40
1.0000000000
40
1.0000000000
40
1.0000000000
40
1.0000000000
10
7.2414538149
20
-13.8676909537
30
0.0000000000
10
7.2865185981
20
-13.8337878200
30
0.0000000000
10
7.3767991366
20
-13.7664236410
30
0.0000000000
10
7.5123111781
20
-13.6681621272
30
0.0000000000
10
7.6458097466
20
-13.5757220088
30
0.0000000000
10
7.7740831995
20
-13.4931707779
30
0.0000000000
10
7.8950010259
20
-13.4245129909
30
0.0000000000
10
8.0046522913
20
-13.3754139061
30
0.0000000000
10
8.0788596628
20
-13.3585619918
30
0.0000000000
10
8.1118049638
20
-13.3607638740
30
0.0000000000
11
7.2414538149
21
-13.8676909537
31
0.0000000000
11
7.3771456874
21
-13.7666462600
31
0.0000000000
11
7.5138894707
21
-13.6677834399
31
0.0000000000
11
7.6491232053
21
-13.5745887712
31
0.0000000000
11
7.7790239825
21
-13.4917709090
31
0.0000000000
11
7.9007752070
21
-13.4239335612
31
0.0000000000
11
8.0139682470
21
-13.3762605560
31
0.0000000000
11
8.1118049638
21
-13.3607638740
31
0.0000000000
0
SPLINE
5
548
100
AcDbEntity
8
0
100
AcDbSpline
62
7
6
CONTINUOUS
70
0
71
3
72
14
73
10
74
8
42
0.0000001000
43
0.0000001000
44
0.0000000001
12
-0.5999552218
22
-0.5999552218
32
0.0000000000
13
-0.5999552218
23
-0.5999552218
33
0.0000000000
40
0.0000000000
40
0.0000000000
40
0.0000000000
40
0.0000000000
40
0.0422771168
40
0.1441181202
40
0.2842576237
40
0.4489129753
40
0.6284578521
40
0.8148216501
40
1.0000000000
40
1.0000000000
40
1.0000000000
40
1.0000000000
10
6.0300449994
20
-13.2690277805
30
0.0000000000
10
6.0215902071
20
-13.2774825728
30
0.0000000000
10
5.9927687341
20
-13.3063040458
30
0.0000000000
10
5.9359214522
20
-13.3631513276
30
0.0000000000
10
5.8546003500
20
-13.4444724299
30
0.0000000000
10
5.7577396329
20
-13.5413331470
30
0.0000000000
10
5.6516347469
20
-13.6474380330
30
0.0000000000
10
5.5414255675
20
-13.7576472124
30
0.0000000000
10
5.4671226836
20
-13.8319500963
30
0.0000000000
10
5.4300897776
20
-13.8689830023
30
0.0000000000
11
6.0300449994
21
-13.2690277805
31
0.0000000000
11
6.0046806224
21
-13.2943921575
31
0.0000000000
11
5.9435805806
21
-13.3554921993
31
0.0000000000
11
5.8595031537
21
-13.4395696262
31
0.0000000000
11
5.7607173157
21
-13.5383554642
31
0.0000000000
11
5.6529984293
21
-13.6460743506
31
0.0000000000
11
5.5411884956
21
-13.7578842843
31
0.0000000000
11
5.4300897776
21
-13.8689830023
31
0.0000000000
0
SPLINE
5
549
100
AcDbEntity
8
0
100
AcDbSpline
62
7
6
CONTINUOUS
70
0
71
3
72
12
73
8
74
6
42
0.0000001000
43
0.0000001000
44
0.0000000001
12
0.4160809903
22
0.4780890576
32
0.0000000000
13
0.0221190284
23
0.6334060989
33
0.0000000000
40
0.0000000000
40
0.0000000000
40
0.0000000000
40
0.0000000000
40
0.3204749937
40
0.5894025526
40
0.8067496060
40
0.9534214152
40
1.0000000000
40
1.0000000000
40
1.0000000000
40
1.0000000000
10
6.8015768872
20
-13.8689830023
30
0.0000000000
10
6.8460247382
20
-13.8179111397
30
0.0000000000
10
6.9350189397
20
-13.6937011570
30
0.0000000000
10
6.8163486349
20
-13.5408444832
30
0.0000000000
10
6.8115964000
20
-13.4058010020
30
0.0000000000
10
6.8047884800
20
-13.3196230037
30
0.0000000000
10
6.8012334629
20
-13.2788183027
30
0.0000000000
10
6.8015768872
20
-13.2689839162
30
0.0000000000
11
6.8015768872
21
-13.8689830023
31
0.0000000000
11
6.8908599751
21
-13.6865438355
31
0.0000000000
11
6.8295218782
21
-13.5275191254
31
0.0000000000
11
6.8098884106
21
-13.3911725867
31
0.0000000000
11
6.8029267931
21
-13.2984741798
31
0.0000000000
11
6.8015768872
21
-13.2689839162
31
0.0000000000
0
SPLINE
5
54A
100
AcDbEntity
8
0
100
AcDbSpline
62
7
6
CONTINUOUS
70
0
71
3
72
14
73
10
74
8
42
0.0000001000
43
0.0000001000
44
0.0000000001
12
-0.5999552218
22
0.5999552218
32
0.0000000000
13
-0.5999552218
23
0.5999552218
33
0.0000000000
40
0.0000000000
40
0.0000000000
40
0.0000000000
40
0.0000000000
40
0.0422771168
40
0.1441181202
40
0.2842576237
40
0.4489129753
40
0.6284578521
40
0.8148216501
40
1.0000000000
40
1.0000000000
40
1.0000000000
40
1.0000000000
10
6.0300449994
20
-12.7047082147
30
0.0000000000
10
6.0215902071
20
-12.6962534224
30
0.0000000000
10
5.9927687341
20
-12.6674319494
30
0.0000000000
10
5.9359214522
20
-12.6105846676
30
0.0000000000
10
5.8546003500
20
-12.5292635653
30
0.0000000000
10
5.7577396329
20
-12.4324028482
30
0.0000000000
10
5.6516347469
20
-12.3262979622
30
0.0000000000
10
5.5414255675
20
-12.2160887828
30
0.0000000000
10
5.4671226836
20
-12.1417858989
30
0.0000000000
10
5.4300897776
20
-12.1047529929
30
0.0000000000
11
6.0300449994
21
-12.7047082147
31
0.0000000000
11
6.0046806224
21
-12.6793438377
31
0.0000000000
11
5.9435805806
21
-12.6182437959
31
0.0000000000
11
5.8595031537
21
-12.5341663691
31
0.0000000000
11
5.7607173157
21
-12.4353805310
31
0.0000000000
11
5.6529984293
21
-12.3276616447
31
0.0000000000
11
5.5411884956
21
-12.2158517109
31
0.0000000000
11
5.4300897776
21
-12.1047529929
31
0.0000000000
0
SPLINE
5
54B
100
AcDbEntity
8
0
100
AcDbSpline
62
7
6
CONTINUOUS
70
0
71
3
72
11
73
7
74
5
42
0.0000001000
43
0.0000001000
44
0.0000000001
12
-0.7871388291
22
0.4478389861
32
0.0000000000
13
-0.7159553468
23
0.5545766269
33
0.0000000000
40
0.0000000000
40
0.0000000000
40
0.0000000000
40
0.0000000000
40
0.1839640133
40
0.4154429851
40
0.6901908167
40
1.0000000000
40
1.0000000000
40
1.0000000000
40
1.0000000000
10
6.8717052924
20
-12.6354075570
30
0.0000000000
10
6.8234368864
20
-12.6079454713
30
0.0000000000
10
6.7179260343
20
-12.5398809267
30
0.0000000000
10
6.5484643593
20
-12.4186576309
30
0.0000000000
10
6.3519365987
20
-12.2700905569
30
0.0000000000
10
6.2124391904
20
-12.1620239702
30
0.0000000000
10
6.1385026767
20
-12.1047529929
30
0.0000000000
11
6.8717052924
21
-12.6354075570
31
0.0000000000
11
6.7306812973
21
-12.5467042349
31
0.0000000000
11
6.5595852181
21
-12.4255775004
31
0.0000000000
11
6.3606638754
21
-12.2761109746
31
0.0000000000
11
6.1385026767
21
-12.1047529929
31
0.0000000000
0
SPLINE
5
54C
100
AcDbEntity
8
0
100
AcDbSpline
62
7
6
CONTINUOUS
70
0
71
3
72
8
73
4
74
2
42
0.0000001000
43
0.0000001000
44
0.0000000001
12
-0.0516049234
22
-0.0034023361
32
0.0000000000
13
-0.0506809936
23
0.0116303686
33
0.0000000000
40
0.0000000000
40
0.0000000000
40
0.0000000000
40
0.0000000000
40
1.0000000000
40
1.0000000000
40
1.0000000000
40
1.0000000000
10
7.0545600688
20
-12.6921349597
30
0.0000000000
10
7.0373584277
20
-12.6932690718
30
0.0000000000
10
7.0200023296
20
-12.6907775292
30
0.0000000000
10
7.0031086651
20
-12.6869007397
30
0.0000000000
11
7.0545600688
21
-12.6921349597
31
0.0000000000
11
7.0031086651
21
-12.6869007397
31
0.0000000000
0
SPLINE
5
54D
100
AcDbEntity
8
0
100
AcDbSpline
62
7
6
CONTINUOUS
70
0
71
3
72
9
73
5
74
3
42
0.0000001000
43
0.0000001000
44
0.0000000001
12
-0.1125369414
22
0.0258251865
32
0.0000000000
13
-0.1039332010
23
0.0489740106
33
0.0000000000
40
0.0000000000
40
0.0000000000
40
0.0000000000
40
0.0000000000
40
0.5681431547
40
1.0000000000
40
1.0000000000
40
1.0000000000
40
1.0000000000
10
7.0031086651
20
-12.6869007397
30
0.0000000000
10
6.9817963008
20
-12.6820099387
30
0.0000000000
10
6.9455793964
20
-12.6695210675
30
0.0000000000
10
6.9105250605
20
-12.6540612405
30
0.0000000000
10
6.8955636391
20
-12.6470113199
30
0.0000000000
11
7.0031086651
21
-12.6869007397
31
0.0000000000
11
6.9410187898
21
-12.6668600205
31
0.0000000000
11
6.8955636391
21
-12.6470113199
31
0.0000000000
0
SPLINE
5
54E
100
AcDbEntity
8
0
100
AcDbSpline
62
7
6
CONTINUOUS
70
0
71
3
72
8
73
4
74
2
42
0.0000001000
43
0.0000001000
44
0.0000000001
12
-0.0240041623
22
0.0113109198
32
0.0000000000
13
-0.0237186166
23
0.0118689821
33
0.0000000000
40
0.0000000000
40
0.0000000000
40
0.0000000000
40
0.0000000000
40
1.0000000000
40
1.0000000000
40
1.0000000000
40
1.0000000000
10
6.8955636391
20
-12.6470113199
30
0.0000000000
10
6.8875622516
20
-12.6432410133
30
0.0000000000
10
6.8796114980
20
-12.6393638844
30
0.0000000000
10
6.8717052924
20
-12.6354075570
30
0.0000000000
11
6.8955636391
21
-12.6470113199
31
0.0000000000
11
6.8717052924
21
-12.6354075570
31
0.0000000000
0
SPLINE
5
54F
100
AcDbEntity
8
0
100
AcDbSpline
62
7
6
CONTINUOUS
70
0
71
3
72
9
73
5
74
3
42
0.0000001000
43
0.0000001000
44
0.0000000001
12
0.0024215641
22
-0.0693445220
32
0.0000000000
13
0.0024215641
23
-0.0693445220
33
0.0000000000
40
0.0000000000
40
0.0000000000
40
0.0000000000
40
0.0000000000
40
0.7444406889
40
1.0000000000
40
1.0000000000
40
1.0000000000
40
1.0000000000
10
6.8717052924
20
-12.6354075570
30
0.0000000000
10
6.8723061960
20
-12.6526151850
30
0.0000000000
10
6.8731133841
20
-12.6757300256
30
0.0000000000
10
6.8739205721
20
-12.6988448663
30
0.0000000000
10
6.8741268565
20
-12.7047520791
30
0.0000000000
11
6.8717052924
21
-12.6354075570
31
0.0000000000
11
6.8735080033
21
-12.6870304408
31
0.0000000000
11
6.8741268565
21
-12.7047520791
31
0.0000000000
0
SPLINE
5
550
100
AcDbEntity
8
0
100
AcDbSpline
62
7
6
CONTINUOUS
70
0
71
3
72
12
73
8
74
6
42
0.0000001000
43
0.0000001000
44
0.0000000001
12
0.9593254795
22
-0.6493051546
32
0.0000000000
13
0.8634242421
23
-0.7722701195
33
0.0000000000
40
0.0000000000
40
0.0000000000
40
0.0000000000
40
0.0000000000
40
0.1168748830
40
0.2782657764
40
0.4811670622
40
0.7238237238
40
1.0000000000
40
1.0000000000
40
1.0000000000
40
1.0000000000
10
16.3433448492
20
30.0856034125
30
0.0000000000
10
16.3807185336
20
30.0603075912
30
0.0000000000
10
16.4661792419
20
29.9949871020
30
0.0000000000
10
16.6093103944
20
29.8765486462
30
0.0000000000
10
16.7865752360
20
29.7232022224
30
0.0000000000
10
16.9952715932
20
29.5385117605
30
0.0000000000
10
17.1445904721
20
29.4049435445
30
0.0000000000
10
17.2240762361
20
29.3338493159
30
0.0000000000
11
16.3433448492
21
30.0856034125
31
0.0000000000
11
16.4520337062
21
30.0048768983
31
0.0000000000
11
16.5965757850
21
29.8863013911
31
0.0000000000
11
16.7746964238
21
29.7329464664
31
0.0000000000
11
16.9854245073
21
29.5469144151
31
0.0000000000
11
17.2240762361
21
29.3338493159
31
0.0000000000
0
SPLINE
5
551
100
AcDbEntity
8
0
100
AcDbSpline
62
7
6
CONTINUOUS
70
0
71
3
72
15
73
11
74
9
42
0.0000001000
43
0.0000001000
44
0.0000000001
12
0.0000000000
22
-0.3920575792
32
0.0000000000
13
0.3920575792
23
-0.0000000000
33
0.0000000000
40
0.0000000000
40
0.0000000000
40
0.0000000000
40
0.0000000000
40
0.1250002312
40
0.2500007204
40
0.3750012057
40
0.5000014296
40
0.6250009143
40
0.7500003490
40
0.8749997445
40
1.0000000000
40
1.0000000000
40
1.0000000000
40
1.0000000000
10
-0.0101393901
20
-16.0240594920
30
0.0000000000
10
-0.0101393901
20
-16.0403952546
30
0.0000000000
10
-0.0069161163
20
-16.0731573769
30
0.0000000000
10
0.0074033672
20
-16.1203410123
30
0.0000000000
10
0.0306570125
20
-16.1638429296
30
0.0000000000
10
0.0619511074
20
-16.2019663088
30
0.0000000000
10
0.1000804884
20
-16.2332527905
30
0.0000000000
10
0.1435857958
20
-16.2564989786
30
0.0000000000
10
0.1907705454
20
-16.2708131321
30
0.0000000000
10
0.2235324614
20
-16.2740351237
30
0.0000000000
10
0.2398682273
20
-16.2740351237
30
0.0000000000
11
-0.0101393901
21
-16.0240594920
31
0.0000000000
11
-0.0053353616
21
-16.0728307498
31
0.0000000000
11
0.0088923954
21
-16.1197273928
31
0.0000000000
11
0.0319971199
21
-16.1629465524
31
0.0000000000
11
0.0630904061
21
-16.2008269108
31
0.0000000000
11
0.1009764958
21
-16.2319127565
31
0.0000000000
11
0.1441990246
21
-16.2550103035
31
0.0000000000
11
0.1910967808
21
-16.2692329133
31
0.0000000000
11
0.2398682273
21
-16.2740351237
31
0.0000000000
0
SPLINE
5
552
100
AcDbEntity
8
0
100
AcDbSpline
62
7
6
CONTINUOUS
70
0
71
3
72
12
73
8
74
6
42
0.0000001000
43
0.0000001000
44
0.0000000001
12
0.8634242107
22
0.7722700914
32
0.0000000000
13
0.9593254445
23
0.6493051310
33
0.0000000000
40
0.0000000000
40
0.0000000000
40
0.0000000000
40
0.0000000000
40
0.2763239572
40
0.5186886933
40
0.7213387649
40
0.8830596669
40
1.0000000000
40
1.0000000000
40
1.0000000000
40
1.0000000000
10
7.2414538149
20
29.3338493159
30
0.0000000000
10
7.3209820798
20
29.4049815584
30
0.0000000000
10
7.4702594331
20
29.5385126380
30
0.0000000000
10
7.6788417135
20
29.7231016092
30
0.0000000000
10
7.8560421304
20
29.8763965454
30
0.0000000000
10
7.9992100743
20
29.9948778652
30
0.0000000000
10
8.0847905895
20
30.0602934264
30
0.0000000000
10
8.1221852018
20
30.0856034125
30
0.0000000000
11
7.2414538149
21
29.3338493159
31
0.0000000000
11
7.4802333653
21
29.5470280999
31
0.0000000000
11
7.6907077899
21
29.7328364956
31
0.0000000000
11
7.8686041697
21
29.8860058646
31
0.0000000000
11
8.0134367879
21
30.0048299372
31
0.0000000000
11
8.1221852018
21
30.0856034125
31
0.0000000000
0
SPLINE
5
553
100
AcDbEntity
8
0
100
AcDbSpline
62
7
6
CONTINUOUS
70
0
71
3
72
12
73
8
74
6
42
0.0000001000
43
0.0000001000
44
0.0000000001
12
-0.8634242421
22
-0.7722701195
32
0.0000000000
13
-0.9593254795
23
-0.6493051546
33
0.0000000000
40
0.0000000000
40
0.0000000000
40
0.0000000000
40
0.0000000000
40
0.2761762762
40
0.5188329378
40
0.7217342236
40
0.8831251170
40
1.0000000000
40
1.0000000000
40
1.0000000000
40
1.0000000000
10
17.2240762361
20
-14.0075853111
30
0.0000000000
10
17.1445904721
20
-14.0786795397
30
0.0000000000
10
16.9952715932
20
-14.2122477557
30
0.0000000000
10
16.7865752360
20
-14.3969382176
30
0.0000000000
10
16.6093103944
20
-14.5502846415
30
0.0000000000
10
16.4661792419
20
-14.6687230972
30
0.0000000000
10
16.3807185336
20
-14.7340435864
30
0.0000000000
10
16.3433448492
20
-14.7593394077
30
0.0000000000
11
17.2240762361
21
-14.0075853111
31
0.0000000000
11
16.9854245073
21
-14.2206504103
31
0.0000000000
11
16.7746964238
21
-14.4066824616
31
0.0000000000
11
16.5965757850
21
-14.5600373863
31
0.0000000000
11
16.4520337062
21
-14.6786128935
31
0.0000000000
11
16.3433448492
21
-14.7593394077
31
0.0000000000
0
SPLINE
5
554
100
AcDbEntity
8
0
100
AcDbSpline
62
7
6
CONTINUOUS
70
0
71
3
72
12
73
8
74
6
42
0.0000001000
43
0.0000001000
44
0.0000000001
12
-0.9593254445
22
0.6493051310
32
0.0000000000
13
-0.8634242107
23
0.7722700914
33
0.0000000000
40
0.0000000000
40
0.0000000000
40
0.0000000000
40
0.0000000000
40
0.1169403331
40
0.2786612351
40
0.4813113067
40
0.7236760428
40
1.0000000000
40
1.0000000000
40
1.0000000000
40
1.0000000000
10
8.1221852018
20
-14.7593394077
30
0.0000000000
10
8.0847905895
20
-14.7340294216
30
0.0000000000
10
7.9992100743
20
-14.6686138604
30
0.0000000000
10
7.8560421304
20
-14.5501325406
30
0.0000000000
10
7.6788417135
20
-14.3968376044
30
0.0000000000
10
7.4702594331
20
-14.2122486332
30
0.0000000000
10
7.3209820798
20
-14.0787175537
30
0.0000000000
10
7.2414538149
20
-14.0075853111
30
0.0000000000
11
8.1221852018
21
-14.7593394077
31
0.0000000000
11
8.0134367879
21
-14.6785659324
31
0.0000000000
11
7.8686041697
21
-14.5597418598
31
0.0000000000
11
7.6907077899
21
-14.4065724908
31
0.0000000000
11
7.4802333653
21
-14.2207640951
31
0.0000000000
11
7.2414538149
21
-14.0075853111
31
0.0000000000
0
SPLINE
5
555
100
AcDbEntity
8
0
100
AcDbSpline
62
7
6
CONTINUOUS
70
0
71
3
72
11
73
7
74
5
42
0.0000001000
43
0.0000001000
44
0.0000000001
12
0.1684198523
22
0.0000000000
32
0.0000000000
13
0.1317278358
23
0.1053776091
33
0.0000000000
40
0.0000000000
40
0.0000000000
40
0.0000000000
40
0.0000000000
40
0.2910165880
40
0.5820330923
40
0.8730493792
40
1.0000000000
40
1.0000000000
40
1.0000000000
40
1.0000000000
10
1.6612820849
20
-16.2740351237
30
0.0000000000
10
1.6776197418
20
-16.2740351237
30
0.0000000000
10
1.7103855960
20
-16.2708116204
30
0.0000000000
10
1.7575749535
20
-16.2564919673
30
0.0000000000
10
1.7929070517
20
-16.2376084178
30
0.0000000000
10
1.8118876449
20
-16.2237117160
30
0.0000000000
10
1.8174619551
20
-16.2192524650
30
0.0000000000
11
1.6612820849
21
-16.2740351237
31
0.0000000000
11
1.7100590323
21
-16.2692308857
31
0.0000000000
11
1.7569614561
21
-16.2550030060
31
0.0000000000
11
1.8001870012
21
-16.2318984916
31
0.0000000000
11
1.8174619551
21
-16.2192524650
31
0.0000000000
0
SPLINE
5
556
100
AcDbEntity
8
0
100
AcDbSpline
62
7
6
CONTINUOUS
70
0
71
3
72
15
73
11
74
9
42
0.0000001000
43
0.0000001000
44
0.0000000001
12
-0.3920575792
22
0.0000000000
32
0.0000000000
13
-0.0000000000
23
-0.3920575792
33
0.0000000000
40
0.0000000000
40
0.0000000000
40
0.0000000000
40
0.0000000000
40
0.1250004118
40
0.2500001462
40
0.3749999295
40
0.4999995608
40
0.6249996381
40
0.7499997748
40
0.8749999251
40
1.0000000000
40
1.0000000000
40
1.0000000000
40
1.0000000000
10
0.2398682273
20
31.6002991285
30
0.0000000000
10
0.2235324410
20
31.6002991285
30
0.0000000000
10
0.1907704599
20
31.5970771265
30
0.0000000000
10
0.1435856098
20
31.5827629160
30
0.0000000000
10
0.1000802286
20
31.5595166295
30
0.0000000000
10
0.0619508568
20
31.5282300630
30
0.0000000000
10
0.0306568466
20
31.4901066746
30
0.0000000000
10
0.0074032998
20
31.4466048311
30
0.0000000000
10
-0.0069161268
20
31.3994212962
30
0.0000000000
10
-0.0101393901
20
31.3666592390
30
0.0000000000
10
-0.0101393901
20
31.3503234967
30
0.0000000000
11
0.2398682273
21
31.6002991285
31
0.0000000000
11
0.1910967204
21
31.5954969061
31
0.0000000000
11
0.1441988444
21
31.5812742336
31
0.0000000000
11
0.1009762194
21
31.5581765766
31
0.0000000000
11
0.0630901301
21
31.5270906397
31
0.0000000000
11
0.0319969352
21
31.4892102808
31
0.0000000000
11
0.0088923208
21
31.4459912174
31
0.0000000000
11
-0.0053353736
21
31.3990946942
31
0.0000000000
11
-0.0101393901
21
31.3503234967
31
0.0000000000
0
SPLINE
5
557
100
AcDbEntity
8
0
100
AcDbSpline
62
7
6
CONTINUOUS
70
0
71
3
72
11
73
7
74
5
42
0.0000001000
43
0.0000001000
44
0.0000000001
12
-0.1684198523
22
0.0000000000
32
0.0000000000
13
-0.1317278358
23
-0.1053776091
33
0.0000000000
40
0.0000000000
40
0.0000000000
40
0.0000000000
40
0.0000000000
40
0.2910165880
40
0.5820330923
40
0.8730493792
40
1.0000000000
40
1.0000000000
40
1.0000000000
40
1.0000000000
10
22.8042479661
20
31.6002991285
30
0.0000000000
10
22.7879103092
20
31.6002991285
30
0.0000000000
10
22.7551444550
20
31.5970756252
30
0.0000000000
10
22.7079550975
20
31.5827559721
30
0.0000000000
10
22.6726229993
20
31.5638724226
30
0.0000000000
10
22.6536424061
20
31.5499757207
30
0.0000000000
10
22.6480680959
20
31.5455164698
30
0.0000000000
11
22.8042479661
21
31.6002991285
31
0.0000000000
11
22.7554710187
21
31.5954948905
31
0.0000000000
11
22.7085685949
21
31.5812670108
31
0.0000000000
11
22.6653430498
21
31.5581624964
31
0.0000000000
11
22.6480680959
21
31.5455164698
31
0.0000000000
0
SPLINE
5
558
100
AcDbEntity
8
0
100
AcDbSpline
62
7
6
CONTINUOUS
70
0
71
3
72
15
73
11
74
9
42
0.0000001000
43
0.0000001000
44
0.0000000001
12
0.0000000000
22
0.3920575792
32
0.0000000000
13
-0.3920575792
23
0.0000000000
33
0.0000000000
40
0.0000000000
40
0.0000000000
40
0.0000000000
40
0.0000000000
40
0.1250002312
40
0.2500007204
40
0.3750012057
40
0.5000014296
40
0.6250009143
40
0.7500003490
40
0.8749997445
40
1.0000000000
40
1.0000000000
40
1.0000000000
40
1.0000000000
10
24.4756694411
20
31.3503234967
30
0.0000000000
10
24.4756694411
20
31.3666592594
30
0.0000000000
10
24.4724461673
20
31.3994213816
30
0.0000000000
10
24.4581266839
20
31.4466050171
30
0.0000000000
10
24.4348730385
20
31.4901069344
30
0.0000000000
10
24.4035789436
20
31.5282303136
30
0.0000000000
10
24.3654495626
20
31.5595167953
30
0.0000000000
10
24.3219442552
20
31.5827629834
30
0.0000000000
10
24.2747595056
20
31.5970771369
30
0.0000000000
10
24.2419975896
20
31.6002991285
30
0.0000000000
10
24.2256618237
20
31.6002991285
30
0.0000000000
11
24.4756694411
21
31.3503234967
31
0.0000000000
11
24.4708654126
21
31.3990947546
31
0.0000000000
11
24.4566376556
21
31.4459913976
31
0.0000000000
11
24.4335329311
21
31.4892105572
31
0.0000000000
11
24.4024396449
21
31.5270909156
31
0.0000000000
11
24.3645535552
21
31.5581767613
31
0.0000000000
11
24.3213310264
21
31.5812743083
31
0.0000000000
11
24.2744332702
21
31.5954969181
31
0.0000000000
11
24.2256618237
21
31.6002991285
31
0.0000000000
0
SPLINE
5
559
100
AcDbEntity
8
0
100
AcDbSpline
62
3
6
CONTINUOUS
70
0
71
3
72
15
73
11
74
9
42
0.0000001000
43
0.0000001000
44
0.0000000001
12
0.2210488440
22
0.0000000000
32
0.0000000000
13
-0.0022434141
23
-0.2210374596
33
0.0000000000
40
0.0000000000
40
0.0000000000
40
0.0000000000
40
0.0000000000
40
0.2574315567
40
0.4532781548
40
0.6031980172
40
0.7185326510
40
0.8087415865
40
0.8808482422
40
0.9414468022
40
1.0000000000
40
1.0000000000
40
1.0000000000
40
1.0000000000
10
8.2827650255
20
-13.1213345515
30
0.0000000000
10
8.3017333415
20
-13.1213345515
30
0.0000000000
10
8.3351360001
20
-13.1216391896
30
0.0000000000
10
8.3795473819
20
-13.1237805804
30
0.0000000000
10
8.4133486170
20
-13.1274857247
30
0.0000000000
10
8.4390691345
20
-13.1327268382
30
0.0000000000
10
8.4584261138
20
-13.1396123274
30
0.0000000000
10
8.4725079566
20
-13.1485221513
30
0.0000000000
10
8.4811432482
20
-13.1601668511
30
0.0000000000
10
8.4828088119
20
-13.1691171932
30
0.0000000000
10
8.4827650255
20
-13.1734313433
30
0.0000000000
11
8.2827650255
21
-13.1213345515
31
0.0000000000
11
8.3396648069
21
-13.1221013520
31
0.0000000000
11
8.3828931930
21
-13.1244411849
31
0.0000000000
11
8.4158035955
21
-13.1283321115
31
0.0000000000
11
8.4407162841
21
-13.1337480085
31
0.0000000000
11
8.4593599938
21
-13.1408218231
31
0.0000000000
11
8.4725288527
21
-13.1498015690
31
0.0000000000
11
8.4802749135
21
-13.1607300200
31
0.0000000000
11
8.4827650255
21
-13.1734313433
31
0.0000000000
0
SPLINE
5
55A
100
AcDbEntity
8
0
100
AcDbSpline
62
3
6
CONTINUOUS
70
0
71
3
72
10
73
6
74
4
42
0.0000001000
43
0.0000001000
44
0.0000000001
12
0.1004640251
22
0.0000000000
32
0.0000000000
13
0.0989212013
23
0.0176644657
33
0.0000000000
40
0.0000000000
40
0.0000000000
40
0.0000000000
40
0.0000000000
40
0.3885583105
40
0.7636488026
40
1.0000000000
40
1.0000000000
40
1.0000000000
40
1.0000000000
10
8.2827650255
20
-14.7720834000
30
0.0000000000
10
8.2957770694
20
-14.7720834000
30
0.0000000000
10
8.3213574087
20
-14.7713184369
30
0.0000000000
10
8.3547261627
20
-14.7682475730
30
0.0000000000
10
8.3749856951
20
-14.7651937328
30
0.0000000000
10
8.3827790766
20
-14.7638020603
30
0.0000000000
11
8.2827650255
21
-14.7720834000
31
0.0000000000
11
8.3217830899
21
-14.7708958650
31
0.0000000000
11
8.3593017120
21
-14.7673788964
31
0.0000000000
11
8.3827790766
21
-14.7638020603
31
0.0000000000
0
SPLINE
5
55B
100
AcDbEntity
8
0
100
AcDbSpline
62
3
6
CONTINUOUS
70
0
71
3
72
13
73
9
74
7
42
0.0000001000
43
0.0000001000
44
0.0000000001
12
0.1175613476
22
0.0209930568
32
0.0000000000
13
0.0000000000
23
0.1193948922
33
0.0000000000
40
0.0000000000
40
0.0000000000
40
0.0000000000
40
0.0000000000
40
0.0946528397
40
0.3565294407
40
0.5791300100
40
0.7579347050
40
0.8940083991
40
1.0000000000
40
1.0000000000
40
1.0000000000
40
1.0000000000
10
8.3827790766
20
-14.7638020603
30
0.0000000000
10
8.3864882484
20
-14.7631397095
30
0.0000000000
10
8.4004272817
20
-14.7604646115
30
0.0000000000
10
8.4228305553
20
-14.7549285148
30
0.0000000000
10
8.4477228759
20
-14.7459102771
30
0.0000000000
10
8.4665548772
20
-14.7355604202
30
0.0000000000
10
8.4791824608
20
-14.7241132570
30
0.0000000000
10
8.4827650255
20
-14.7144982864
30
0.0000000000
10
8.4827650255
20
-14.7102800011
30
0.0000000000
11
8.3827790766
21
-14.7638020603
31
0.0000000000
11
8.3938790721
21
-14.7616676492
31
0.0000000000
11
8.4241863817
21
-14.7539816036
31
0.0000000000
11
8.4490589480
21
-14.7446161298
31
0.0000000000
11
8.4675409320
21
-14.7339311379
31
0.0000000000
11
8.4789220816
21
-14.7223372461
31
0.0000000000
11
8.4827650255
21
-14.7102800011
31
0.0000000000
0
SPLINE
5
55C
100
AcDbEntity
8
0
100
AcDbSpline
62
3
6
CONTINUOUS
70
0
71
3
72
15
73
11
74
9
42
0.0000001000
43
0.0000001000
44
0.0000000001
12
0.0000000000
22
-0.2066863661
32
0.0000000000
13
0.2066732478
23
-0.0042084686
33
0.0000000000
40
0.0000000000
40
0.0000000000
40
0.0000000000
40
0.0000000000
40
0.0612273369
40
0.1398319606
40
0.2431206666
40
0.3717085918
40
0.5229847942
40
0.6925453650
40
0.8748655698
40
1.0000000000
40
1.0000000000
40
1.0000000000
40
1.0000000000
10
15.9827650255
20
-14.7102800011
30
0.0000000000
10
15.9827650255
20
-14.7144982864
30
0.0000000000
10
15.9863475902
20
-14.7241132570
30
0.0000000000
10
15.9989751738
20
-14.7355604202
30
0.0000000000
10
16.0178071751
20
-14.7459102771
30
0.0000000000
10
16.0426994957
20
-14.7549285148
30
0.0000000000
10
16.0727961645
20
-14.7623657345
30
0.0000000000
10
16.1070502812
20
-14.7679021356
30
0.0000000000
10
16.1397974282
20
-14.7709157942
30
0.0000000000
10
16.1609716859
20
-14.7717741328
30
0.0000000000
10
16.1695923323
20
-14.7719496742
30
0.0000000000
11
15.9827650255
21
-14.7102800011
31
0.0000000000
11
15.9866079694
21
-14.7223372461
31
0.0000000000
11
15.9979891190
21
-14.7339311379
31
0.0000000000
11
16.0164711030
21
-14.7446161298
31
0.0000000000
11
16.0413436693
21
-14.7539816036
31
0.0000000000
11
16.0716509789
21
-14.7616676492
31
0.0000000000
11
16.1062283390
21
-14.7673788964
31
0.0000000000
11
16.1437469611
21
-14.7708958650
31
0.0000000000
11
16.1695923323
21
-14.7719496742
31
0.0000000000
0
SPLINE
5
55D
100
AcDbEntity
8
0
100
AcDbSpline
62
3
6
CONTINUOUS
70
0
71
3
72
8
73
4
74
2
42
0.0000001000
43
0.0000001000
44
0.0000000001
12
0.0131717151
22
-0.0002682144
32
0.0000000000
13
0.0131725512
23
0.0000000000
33
0.0000000000
40
0.0000000000
40
0.0000000000
40
0.0000000000
40
0.0000000000
40
1.0000000000
40
1.0000000000
40
1.0000000000
40
1.0000000000
10
16.1695923323
20
-14.7719496742
30
0.0000000000
10
16.1739829040
20
-14.7720390790
30
0.0000000000
10
16.1783741751
20
-14.7720834000
30
0.0000000000
10
16.1827650255
20
-14.7720834000
30
0.0000000000
11
16.1695923323
21
-14.7719496742
31
0.0000000000
11
16.1827650255
21
-14.7720834000
31
0.0000000000
0
SPLINE
5
55E
100
AcDbEntity
8
0
100
AcDbSpline
62
3
6
CONTINUOUS
70
0
71
3
72
15
73
11
74
9
42
0.0000001000
43
0.0000001000
44
0.0000000001
12
0.2198589173
22
0.0000000000
32
0.0000000000
13
0.0000000000
23
0.2198589173
33
0.0000000000
40
0.0000000000
40
0.0000000000
40
0.0000000000
40
0.0000000000
40
0.1775508236
40
0.3489475586
40
0.5083491360
40
0.6505618283
40
0.7714455810
40
0.8685458831
40
0.9424410166
40
1.0000000000
40
1.0000000000
40
1.0000000000
40
1.0000000000
10
16.5327650255
20
-16.8190774863
30
0.0000000000
10
16.5457770694
20
-16.8190774863
30
0.0000000000
10
16.5713574087
20
-16.8183125232
30
0.0000000000
10
16.6084797698
20
-16.8148962218
30
0.0000000000
10
16.6427338865
20
-16.8093598208
30
0.0000000000
10
16.6728305553
20
-16.8019226011
30
0.0000000000
10
16.6977228759
20
-16.7929043633
30
0.0000000000
10
16.7165548772
20
-16.7825545065
30
0.0000000000
10
16.7291824608
20
-16.7711073432
30
0.0000000000
10
16.7327650255
20
-16.7614923727
30
0.0000000000
10
16.7327650255
20
-16.7572740874
30
0.0000000000
11
16.5327650255
21
-16.8190774863
31
0.0000000000
11
16.5717830899
21
-16.8178899513
31
0.0000000000
11
16.6093017120
21
-16.8143729827
31
0.0000000000
11
16.6438790721
21
-16.8086617355
31
0.0000000000
11
16.6741863817
21
-16.8009756898
31
0.0000000000
11
16.6990589480
21
-16.7916102161
31
0.0000000000
11
16.7175409320
21
-16.7809252242
31
0.0000000000
11
16.7289220816
21
-16.7693313324
31
0.0000000000
11
16.7327650255
21
-16.7572740874
31
0.0000000000
0
SPLINE
5
55F
100
AcDbEntity
8
0
100
AcDbSpline
62
3
6
CONTINUOUS
70
0
71
3
72
15
73
11
74
9
42
0.0000001000
43
0.0000001000
44
0.0000000001
12
0.2198589173
22
0.0000000000
32
0.0000000000
13
0.0000000000
23
0.2198589173
33
0.0000000000
40
0.0000000000
40
0.0000000000
40
0.0000000000
40
0.0000000000
40
0.1775508236
40
0.3489475586
40
0.5083491360
40
0.6505618283
40
0.7714455810
40
0.8685458831
40
0.9424410166
40
1.0000000000
40
1.0000000000
40
1.0000000000
40
1.0000000000
10
10.8327650255
20
-16.8190774863
30
0.0000000000
10
10.8457770694
20
-16.8190774863
30
0.0000000000
10
10.8713574087
20
-16.8183125232
30
0.0000000000
10
10.9084797698
20
-16.8148962218
30
0.0000000000
10
10.9427338865
20
-16.8093598208
30
0.0000000000
10
10.9728305553
20
-16.8019226011
30
0.0000000000
10
10.9977228759
20
-16.7929043633
30
0.0000000000
10
11.0165548772
20
-16.7825545065
30
0.0000000000
10
11.0291824608
20
-16.7711073432
30
0.0000000000
10
11.0327650255
20
-16.7614923727
30
0.0000000000
10
11.0327650255
20
-16.7572740874
30
0.0000000000
11
10.8327650255
21
-16.8190774863
31
0.0000000000
11
10.8717830899
21
-16.8178899513
31
0.0000000000
11
10.9093017120
21
-16.8143729827
31
0.0000000000
11
10.9438790721
21
-16.8086617355
31
0.0000000000
11
10.9741863817
21
-16.8009756898
31
0.0000000000
11
10.9990589480
21
-16.7916102161
31
0.0000000000
11
11.0175409320
21
-16.7809252242
31
0.0000000000
11
11.0289220816
21
-16.7693313324
31
0.0000000000
11
11.0327650255
21
-16.7572740874
31
0.0000000000
0
SPLINE
5
560
100
AcDbEntity
8
0
100
AcDbSpline
62
3
6
CONTINUOUS
70
0
71
3
72
15
73
11
74
9
42
0.0000001000
43
0.0000001000
44
0.0000000001
12
-0.0022442467
22
0.2210374239
32
0.0000000000
13
0.2210488168
23
-0.0000000000
33
0.0000000000
40
0.0000000000
40
0.0000000000
40
0.0000000000
40
0.0000000000
40
0.0585566434
40
0.1191599879
40
0.1912724304
40
0.2814859815
40
0.3968218339
40
0.5467385255
40
0.7425779336
40
1.0000000000
40
1.0000000000
40
1.0000000000
40
1.0000000000
10
15.9827650255
20
-13.1734313433
30
0.0000000000
10
15.9827212203
20
-13.1691169400
30
0.0000000000
10
15.9843870385
20
-13.1601659566
30
0.0000000000
10
15.9930234989
20
-13.1485207577
30
0.0000000000
10
16.0071067066
20
-13.1396109996
30
0.0000000000
10
16.0264646910
20
-13.1327258381
30
0.0000000000
10
16.0521854828
20
-13.1274851524
30
0.0000000000
10
16.0859860679
20
-13.1237803648
30
0.0000000000
10
16.1303959863
20
-13.1216391691
30
0.0000000000
10
16.1637974111
20
-13.1213345515
30
0.0000000000
10
16.1827650255
20
-13.1213345515
30
0.0000000000
11
15.9827650255
21
-13.1734313433
31
0.0000000000
11
15.9852554426
21
-13.1607293053
31
0.0000000000
11
15.9930025371
21
-13.1498002927
31
0.0000000000
11
16.0061728521
21
-13.1408204151
31
0.0000000000
11
16.0248177497
21
-13.1337468620
31
0.0000000000
11
16.0497308060
21
-13.1283314035
31
0.0000000000
11
16.0826405461
21
-13.1244408787
31
0.0000000000
11
16.1258673482
21
-13.1221012859
31
0.0000000000
11
16.1827650255
21
-13.1213345515
31
0.0000000000
0
SPLINE
5
561
100
AcDbEntity
8
0
100
AcDbSpline
62
3
6
CONTINUOUS
70
0
71
3
72
15
73
11
74
9
42
0.0000001000
43
0.0000001000
44
0.0000000001
12
0.0000000000
22
-0.2198589173
32
0.0000000000
13
0.2198589173
23
0.0000000000
33
0.0000000000
40
0.0000000000
40
0.0000000000
40
0.0000000000
40
0.0000000000
40
0.0575589834
40
0.1314541169
40
0.2285544190
40
0.3494381717
40
0.4916508640
40
0.6510524414
40
0.8224491764
40
1.0000000000
40
1.0000000000
40
1.0000000000
40
1.0000000000
10
13.4327650255
20
-16.7572740874
30
0.0000000000
10
13.4327650255
20
-16.7614923727
30
0.0000000000
10
13.4363475902
20
-16.7711073432
30
0.0000000000
10
13.4489751738
20
-16.7825545065
30
0.0000000000
10
13.4678071751
20
-16.7929043633
30
0.0000000000
10
13.4926994957
20
-16.8019226011
30
0.0000000000
10
13.5227961645
20
-16.8093598208
30
0.0000000000
10
13.5570502812
20
-16.8148962218
30
0.0000000000
10
13.5941726423
20
-16.8183125232
30
0.0000000000
10
13.6197529816
20
-16.8190774863
30
0.0000000000
10
13.6327650255
20
-16.8190774863
30
0.0000000000
11
13.4327650255
21
-16.7572740874
31
0.0000000000
11
13.4366079694
21
-16.7693313324
31
0.0000000000
11
13.4479891190
21
-16.7809252242
31
0.0000000000
11
13.4664711030
21
-16.7916102161
31
0.0000000000
11
13.4913436693
21
-16.8009756898
31
0.0000000000
11
13.5216509789
21
-16.8086617355
31
0.0000000000
11
13.5562283390
21
-16.8143729827
31
0.0000000000
11
13.5937469611
21
-16.8178899513
31
0.0000000000
11
13.6327650255
21
-16.8190774863
31
0.0000000000
0
SPLINE
5
562
100
AcDbEntity
8
0
100
AcDbSpline
62
3
6
CONTINUOUS
70
0
71
3
72
15
73
11
74
9
42
0.0000001000
43
0.0000001000
44
0.0000000001
12
0.0000000000
22
-0.2198589173
32
0.0000000000
13
0.2198589173
23
-0.0000000000
33
0.0000000000
40
0.0000000000
40
0.0000000000
40
0.0000000000
40
0.0000000000
40
0.0575589834
40
0.1314541169
40
0.2285544190
40
0.3494381717
40
0.4916508640
40
0.6510524414
40
0.8224491764
40
1.0000000000
40
1.0000000000
40
1.0000000000
40
1.0000000000
10
7.7327650255
20
-16.7572740874
30
0.0000000000
10
7.7327650255
20
-16.7614923727
30
0.0000000000
10
7.7363475902
20
-16.7711073432
30
0.0000000000
10
7.7489751738
20
-16.7825545065
30
0.0000000000
10
7.7678071751
20
-16.7929043633
30
0.0000000000
10
7.7926994957
20
-16.8019226011
30
0.0000000000
10
7.8227961645
20
-16.8093598208
30
0.0000000000
10
7.8570502812
20
-16.8148962218
30
0.0000000000
10
7.8941726423
20
-16.8183125232
30
0.0000000000
10
7.9197529816
20
-16.8190774863
30
0.0000000000
10
7.9327650255
20
-16.8190774863
30
0.0000000000
11
7.7327650255
21
-16.7572740874
31
0.0000000000
11
7.7366079694
21
-16.7693313324
31
0.0000000000
11
7.7479891190
21
-16.7809252242
31
0.0000000000
11
7.7664711030
21
-16.7916102161
31
0.0000000000
11
7.7913436693
21
-16.8009756898
31
0.0000000000
11
7.8216509789
21
-16.8086617355
31
0.0000000000
11
7.8562283390
21
-16.8143729827
31
0.0000000000
11
7.8937469611
21
-16.8178899513
31
0.0000000000
11
7.9327650255
21
-16.8190774863
31
0.0000000000
0
SPLINE
5
563
100
AcDbEntity
8
0
100
AcDbSpline
62
3
6
CONTINUOUS
70
0
71
3
72
15
73
11
74
9
42
0.0000001000
43
0.0000001000
44
0.0000000001
12
-0.2210488440
22
0.0000000000
32
0.0000000000
13
0.0022434141
23
0.2210374596
33
0.0000000000
40
0.0000000000
40
0.0000000000
40
0.0000000000
40
0.0000000000
40
0.2574315567
40
0.4532781548
40
0.6031980172
40
0.7185326510
40
0.8087415865
40
0.8808482422
40
0.9414468022
40
1.0000000000
40
1.0000000000
40
1.0000000000
40
1.0000000000
10
16.1827650255
20
28.4475985563
30
0.0000000000
10
16.1637967095
20
28.4475985563
30
0.0000000000
10
16.1303940509
20
28.4479031944
30
0.0000000000
10
16.0859826691
20
28.4500445852
30
0.0000000000
10
16.0521814340
20
28.4537497295
30
0.0000000000
10
16.0264609165
20
28.4589908429
30
0.0000000000
10
16.0071039372
20
28.4658763322
30
0.0000000000
10
15.9930220944
20
28.4747861561
30
0.0000000000
10
15.9843868028
20
28.4864308559
30
0.0000000000
10
15.9827212391
20
28.4953811980
30
0.0000000000
10
15.9827650255
20
28.4996953480
30
0.0000000000
11
16.1827650255
21
28.4475985563
31
0.0000000000
11
16.1258652441
21
28.4483653567
31
0.0000000000
11
16.0826368580
21
28.4507051897
31
0.0000000000
11
16.0497264555
21
28.4545961163
31
0.0000000000
11
16.0248137669
21
28.4600120132
31
0.0000000000
11
16.0061700572
21
28.4670858279
31
0.0000000000
11
15.9930011983
21
28.4760655738
31
0.0000000000
11
15.9852551375
21
28.4869940248
31
0.0000000000
11
15.9827650255
21
28.4996953480
31
0.0000000000
0
SPLINE
5
564
100
AcDbEntity
8
0
100
AcDbSpline
62
3
6
CONTINUOUS
70
0
71
3
72
10
73
6
74
4
42
0.0000001000
43
0.0000001000
44
0.0000000001
12
-0.1004640251
22
0.0000000000
32
0.0000000000
13
-0.0989212013
23
-0.0176644657
33
0.0000000000
40
0.0000000000
40
0.0000000000
40
0.0000000000
40
0.0000000000
40
0.3885583105
40
0.7636488026
40
1.0000000000
40
1.0000000000
40
1.0000000000
40
1.0000000000
10
16.1827650255
20
30.0983474048
30
0.0000000000
10
16.1697529816
20
30.0983474048
30
0.0000000000
10
16.1441726423
20
30.0975824417
30
0.0000000000
10
16.1108038883
20
30.0945115778
30
0.0000000000
10
16.0905443559
20
30.0914577376
30
0.0000000000
10
16.0827509744
20
30.0900660651
30
0.0000000000
11
16.1827650255
21
30.0983474048
31
0.0000000000
11
16.1437469611
21
30.0971598698
31
0.0000000000
11
16.1062283390
21
30.0936429012
31
0.0000000000
11
16.0827509744
21
30.0900660651
31
0.0000000000
0
SPLINE
5
565
100
AcDbEntity
8
0
100
AcDbSpline
62
3
6
CONTINUOUS
70
0
71
3
72
13
73
9
74
7
42
0.0000001000
43
0.0000001000
44
0.0000000001
12
-0.1175613476
22
-0.0209930568
32
0.0000000000
13
0.0000000000
23
-0.1193948922
33
0.0000000000
40
0.0000000000
40
0.0000000000
40
0.0000000000
40
0.0000000000
40
0.0946528397
40
0.3565294407
40
0.5791300100
40
0.7579347050
40
0.8940083991
40
1.0000000000
40
1.0000000000
40
1.0000000000
40
1.0000000000
10
16.0827509744
20
30.0900660651
30
0.0000000000
10
16.0790418026
20
30.0894037142
30
0.0000000000
10
16.0651027693
20
30.0867286163
30
0.0000000000
10
16.0426994957
20
30.0811925196
30
0.0000000000
10
16.0178071751
20
30.0721742819
30
0.0000000000
10
15.9989751738
20
30.0618244250
30
0.0000000000
10
15.9863475902
20
30.0503772617
30
0.0000000000
10
15.9827650255
20
30.0407622912
30
0.0000000000
10
15.9827650255
20
30.0365440059
30
0.0000000000
11
16.0827509744
21
30.0900660651
31
0.0000000000
11
16.0716509789
21
30.0879316540
31
0.0000000000
11
16.0413436693
21
30.0802456084
31
0.0000000000
11
16.0164711030
21
30.0708801346
31
0.0000000000
11
15.9979891190
21
30.0601951427
31
0.0000000000
11
15.9866079694
21
30.0486012509
31
0.0000000000
11
15.9827650255
21
30.0365440059
31
0.0000000000
0
SPLINE
5
566
100
AcDbEntity
8
0
100
AcDbSpline
62
3
6
CONTINUOUS
70
0
71
3
72
15
73
11
74
9
42
0.0000001000
43
0.0000001000
44
0.0000000001
12
0.0000000000
22
0.2066863661
32
0.0000000000
13
-0.2066732478
23
0.0042084686
33
0.0000000000
40
0.0000000000
40
0.0000000000
40
0.0000000000
40
0.0000000000
40
0.0612273369
40
0.1398319606
40
0.2431206666
40
0.3717085918
40
0.5229847942
40
0.6925453650
40
0.8748655698
40
1.0000000000
40
1.0000000000
40
1.0000000000
40
1.0000000000
10
8.4827650255
20
30.0365440059
30
0.0000000000
10
8.4827650255
20
30.0407622912
30
0.0000000000
10
8.4791824608
20
30.0503772617
30
0.0000000000
10
8.4665548772
20
30.0618244250
30
0.0000000000
10
8.4477228759
20
30.0721742819
30
0.0000000000
10
8.4228305553
20
30.0811925196
30
0.0000000000
10
8.3927338865
20
30.0886297393
30
0.0000000000
10
8.3584797698
20
30.0941661403
30
0.0000000000
10
8.3257326228
20
30.0971797990
30
0.0000000000
10
8.3045583651
20
30.0980381376
30
0.0000000000
10
8.2959377187
20
30.0982136790
30
0.0000000000
11
8.4827650255
21
30.0365440059
31
0.0000000000
11
8.4789220816
21
30.0486012509
31
0.0000000000
11
8.4675409320
21
30.0601951427
31
0.0000000000
11
8.4490589480
21
30.0708801346
31
0.0000000000
11
8.4241863817
21
30.0802456084
31
0.0000000000
11
8.3938790721
21
30.0879316540
31
0.0000000000
11
8.3593017120
21
30.0936429012
31
0.0000000000
11
8.3217830899
21
30.0971598698
31
0.0000000000
11
8.2959377187
21
30.0982136790
31
0.0000000000
0
SPLINE
5
567
100
AcDbEntity
8
0
100
AcDbSpline
62
3
6
CONTINUOUS
70
0
71
3
72
8
73
4
74
2
42
0.0000001000
43
0.0000001000
44
0.0000000001
12
-0.0131717151
22
0.0002682144
32
0.0000000000
13
-0.0131725512
23
0.0000000000
33
0.0000000000
40
0.0000000000
40
0.0000000000
40
0.0000000000
40
0.0000000000
40
1.0000000000
40
1.0000000000
40
1.0000000000
40
1.0000000000
10
8.2959377187
20
30.0982136790
30
0.0000000000
10
8.2915471470
20
30.0983030838
30
0.0000000000
10
8.2871558759
20
30.0983474048
30
0.0000000000
10
8.2827650255
20
30.0983474048
30
0.0000000000
11
8.2959377187
21
30.0982136790
31
0.0000000000
11
8.2827650255
21
30.0983474048
31
0.0000000000
0
SPLINE
5
568
100
AcDbEntity
8
0
100
AcDbSpline
62
3
6
CONTINUOUS
70
0
71
3
72
15
73
11
74
9
42
0.0000001000
43
0.0000001000
44
0.0000000001
12
-0.2198589173
22
0.0000000000
32
0.0000000000
13
0.0000000000
23
-0.2198589173
33
0.0000000000
40
0.0000000000
40
0.0000000000
40
0.0000000000
40
0.0000000000
40
0.1775508236
40
0.3489475586
40
0.5083491360
40
0.6505618283
40
0.7714455810
40
0.8685458831
40
0.9424410166
40
1.0000000000
40
1.0000000000
40
1.0000000000
40
1.0000000000
10
7.9327650255
20
32.1453414911
30
0.0000000000
10
7.9197529816
20
32.1453414911
30
0.0000000000
10
7.8941726423
20
32.1445765280
30
0.0000000000
10
7.8570502812
20
32.1411602266
30
0.0000000000
10
7.8227961645
20
32.1356238256
30
0.0000000000
10
7.7926994957
20
32.1281866059
30
0.0000000000
10
7.7678071751
20
32.1191683681
30
0.0000000000
10
7.7489751738
20
32.1088185113
30
0.0000000000
10
7.7363475902
20
32.0973713480
30
0.0000000000
10
7.7327650255
20
32.0877563774
30
0.0000000000
10
7.7327650255
20
32.0835380922
30
0.0000000000
11
7.9327650255
21
32.1453414911
31
0.0000000000
11
7.8937469611
21
32.1441539561
31
0.0000000000
11
7.8562283390
21
32.1406369874
31
0.0000000000
11
7.8216509789
21
32.1349257403
31
0.0000000000
11
7.7913436693
21
32.1272396946
31
0.0000000000
11
7.7664711030
21
32.1178742209
31
0.0000000000
11
7.7479891190
21
32.1071892290
31
0.0000000000
11
7.7366079694
21
32.0955953372
31
0.0000000000
11
7.7327650255
21
32.0835380922
31
0.0000000000
0
SPLINE
5
569
100
AcDbEntity
8
0
100
AcDbSpline
62
3
6
CONTINUOUS
70
0
71
3
72
15
73
11
74
9
42
0.0000001000
43
0.0000001000
44
0.0000000001
12
-0.2198589173
22
0.0000000000
32
0.0000000000
13
0.0000000000
23
-0.2198589173
33
0.0000000000
40
0.0000000000
40
0.0000000000
40
0.0000000000
40
0.0000000000
40
0.1775508236
40
0.3489475586
40
0.5083491360
40
0.6505618283
40
0.7714455810
40
0.8685458831
40
0.9424410166
40
1.0000000000
40
1.0000000000
40
1.0000000000
40
1.0000000000
10
13.6327650255
20
32.1453414911
30
0.0000000000
10
13.6197529816
20
32.1453414911
30
0.0000000000
10
13.5941726423
20
32.1445765280
30
0.0000000000
10
13.5570502812
20
32.1411602266
30
0.0000000000
10
13.5227961645
20
32.1356238256
30
0.0000000000
10
13.4926994957
20
32.1281866059
30
0.0000000000
10
13.4678071751
20
32.1191683681
30
0.0000000000
10
13.4489751738
20
32.1088185113
30
0.0000000000
10
13.4363475902
20
32.0973713480
30
0.0000000000
10
13.4327650255
20
32.0877563774
30
0.0000000000
10
13.4327650255
20
32.0835380922
30
0.0000000000
11
13.6327650255
21
32.1453414911
31
0.0000000000
11
13.5937469611
21
32.1441539561
31
0.0000000000
11
13.5562283390
21
32.1406369874
31
0.0000000000
11
13.5216509789
21
32.1349257403
31
0.0000000000
11
13.4913436693
21
32.1272396946
31
0.0000000000
11
13.4664711030
21
32.1178742209
31
0.0000000000
11
13.4479891190
21
32.1071892290
31
0.0000000000
11
13.4366079694
21
32.0955953372
31
0.0000000000
11
13.4327650255
21
32.0835380922
31
0.0000000000
0
SPLINE
5
56A
100
AcDbEntity
8
0
100
AcDbSpline
62
3
6
CONTINUOUS
70
0
71
3
72
15
73
11
74
9
42
0.0000001000
43
0.0000001000
44
0.0000000001
12
0.0022442467
22
-0.2210374239
32
0.0000000000
13
-0.2210488168
23
0.0000000000
33
0.0000000000
40
0.0000000000
40
0.0000000000
40
0.0000000000
40
0.0000000000
40
0.0585566434
40
0.1191599879
40
0.1912724304
40
0.2814859815
40
0.3968218339
40
0.5467385255
40
0.7425779336
40
1.0000000000
40
1.0000000000
40
1.0000000000
40
1.0000000000
10
8.4827650255
20
28.4996953480
30
0.0000000000
10
8.4828088307
20
28.4953809448
30
0.0000000000
10
8.4811430125
20
28.4864299614
30
0.0000000000
10
8.4725065521
20
28.4747847625
30
0.0000000000
10
8.4584233444
20
28.4658750044
30
0.0000000000
10
8.4390653600
20
28.4589898429
30
0.0000000000
10
8.4133445682
20
28.4537491571
30
0.0000000000
10
8.3795439831
20
28.4500443696
30
0.0000000000
10
8.3351340647
20
28.4479031739
30
0.0000000000
10
8.3017326399
20
28.4475985563
30
0.0000000000
10
8.2827650255
20
28.4475985563
30
0.0000000000
11
8.4827650255
21
28.4996953480
31
0.0000000000
11
8.4802746084
21
28.4869933101
31
0.0000000000
11
8.4725275139
21
28.4760642975
31
0.0000000000
11
8.4593571989
21
28.4670844199
31
0.0000000000
11
8.4407123013
21
28.4600108668
31
0.0000000000
11
8.4157992450
21
28.4545954083
31
0.0000000000
11
8.3828895049
21
28.4507048835
31
0.0000000000
11
8.3396627028
21
28.4483652907
31
0.0000000000
11
8.2827650255
21
28.4475985563
31
0.0000000000
0
SPLINE
5
56B
100
AcDbEntity
8
0
100
AcDbSpline
62
3
6
CONTINUOUS
70
0
71
3
72
15
73
11
74
9
42
0.0000001000
43
0.0000001000
44
0.0000000001
12
0.0000000000
22
0.2198589173
32
0.0000000000
13
-0.2198589173
23
0.0000000000
33
0.0000000000
40
0.0000000000
40
0.0000000000
40
0.0000000000
40
0.0000000000
40
0.0575589834
40
0.1314541169
40
0.2285544190
40
0.3494381717
40
0.4916508640
40
0.6510524414
40
0.8224491764
40
1.0000000000
40
1.0000000000
40
1.0000000000
40
1.0000000000
10
11.0327650255
20
32.0835380922
30
0.0000000000
10
11.0327650255
20
32.0877563774
30
0.0000000000
10
11.0291824608
20
32.0973713480
30
0.0000000000
10
11.0165548772
20
32.1088185113
30
0.0000000000
10
10.9977228759
20
32.1191683681
30
0.0000000000
10
10.9728305553
20
32.1281866059
30
0.0000000000
10
10.9427338865
20
32.1356238256
30
0.0000000000
10
10.9084797698
20
32.1411602266
30
0.0000000000
10
10.8713574087
20
32.1445765280
30
0.0000000000
10
10.8457770694
20
32.1453414911
30
0.0000000000
10
10.8327650255
20
32.1453414911
30
0.0000000000
11
11.0327650255
21
32.0835380922
31
0.0000000000
11
11.0289220816
21
32.0955953372
31
0.0000000000
11
11.0175409320
21
32.1071892290
31
0.0000000000
11
10.9990589480
21
32.1178742209
31
0.0000000000
11
10.9741863817
21
32.1272396946
31
0.0000000000
11
10.9438790721
21
32.1349257403
31
0.0000000000
11
10.9093017120
21
32.1406369874
31
0.0000000000
11
10.8717830899
21
32.1441539561
31
0.0000000000
11
10.8327650255
21
32.1453414911
31
0.0000000000
0
SPLINE
5
56C
100
AcDbEntity
8
0
100
AcDbSpline
62
3
6
CONTINUOUS
70
0
71
3
72
15
73
11
74
9
42
0.0000001000
43
0.0000001000
44
0.0000000001
12
0.0000000000
22
0.2198589173
32
0.0000000000
13
-0.2198589173
23
0.0000000000
33
0.0000000000
40
0.0000000000
40
0.0000000000
40
0.0000000000
40
0.0000000000
40
0.0575589834
40
0.1314541169
40
0.2285544190
40
0.3494381717
40
0.4916508640
40
0.6510524414
40
0.8224491764
40
1.0000000000
40
1.0000000000
40
1.0000000000
40
1.0000000000
10
16.7327650255
20
32.0835380922
30
0.0000000000
10
16.7327650255
20
32.0877563774
30
0.0000000000
10
16.7291824608
20
32.0973713480
30
0.0000000000
10
16.7165548772
20
32.1088185113
30
0.0000000000
10
16.6977228759
20
32.1191683681
30
0.0000000000
10
16.6728305553
20
32.1281866059
30
0.0000000000
10
16.6427338865
20
32.1356238256
30
0.0000000000
10
16.6084797698
20
32.1411602266
30
0.0000000000
10
16.5713574087
20
32.1445765280
30
0.0000000000
10
16.5457770694
20
32.1453414911
30
0.0000000000
10
16.5327650255
20
32.1453414911
30
0.0000000000
11
16.7327650255
21
32.0835380922
31
0.0000000000
11
16.7289220816
21
32.0955953372
31
0.0000000000
11
16.7175409320
21
32.1071892290
31
0.0000000000
11
16.6990589480
21
32.1178742209
31
0.0000000000
11
16.6741863817
21
32.1272396946
31
0.0000000000
11
16.6438790721
21
32.1349257403
31
0.0000000000
11
16.6093017120
21
32.1406369874
31
0.0000000000
11
16.5717830899
21
32.1441539561
31
0.0000000000
11
16.5327650255
21
32.1453414911
31
0.0000000000
0
ENDSEC
0
SECTION
2
OBJECTS
0
DICTIONARY
5
C
100
AcDbDictionary
280
0
281
1
3
ACAD_GROUP
350
D
3
ACAD_MLINESTYLE
350
17
3
ACAD_LAYOUT
350
1A
3
ACAD_PLOTSETTINGS
350
19
3
ACAD_PLOTSTYLENAME
350
E
0
DICTIONARY
5
D
102
{ACAD_REACTORS
330
C
102
}
100
AcDbDictionary
280
0
281
1
0
ACDBDICTIONARYWDFLT
5
E
102
{ACAD_REACTORS
330
C
102
}
100
AcDbDictionary
281
1
3
Normal
350
F
100
AcDbDictionaryWithDefault
340
F
0
DICTIONARY
5
17
102
{ACAD_REACTORS
330
C
102
}
100
AcDbDictionary
280
0
281
1
3
Standard
350
18
0
DICTIONARY
5
19
102
{ACAD_REACTORS
330
C
102
}
100
AcDbDictionary
281
1
0
DICTIONARY
5
1A
102
{ACAD_REACTORS
330
C
102
}
100
AcDbDictionary
281
1
3
Layout1
350
1E
3
Model
350
22
0
ACDBPLACEHOLDER
5
F
102
{ACAD_REACTORS
330
E
102
}
0
MLINESTYLE
5
18
102
{ACAD_REACTORS
330
17
102
}
100
AcDbMlineStyle
2
STANDARD
70
0
3

62
256
51
90.0
52
90.0
71
2
49
0.5
62
256
6
BYLAYER
49
-0.5
62
256
6
BYLAYER
0
LAYOUT
5
1E
102
{ACAD_REACTORS
330
1A
102
}
100
AcDbPlotSettings
1

2

4

6

40
0.0
41
0.0
42
0.0
43
0.0
44
0.0
45
0.0
46
0.0
47
0.0
48
0.0
49
0.0
140
0.0
141
0.0
142
1.0
143
1.0
70
0
72
0
73
0
74
0
7

75
0
147
1.0
148
0.0
149
0.0
100
AcDbLayout
1
Layout1
70
0
71
0
10
0.0
20
0.0
11
0.0
21
0.0
12
0.0
22
0.0
32
0.0
14
0.0
24
0.0
34
0.0
15
0.0
25
0.0
35
0.0
146
0.0
13
0.0
23
0.0
33
0.0
16
0.0
26
0.0
36
0.0
17
0.0
27
0.0
37
0.0
76
0
330
1B
331
0
345
0
346
0
0
LAYOUT
5
22
102
{ACAD_REACTORS
330
1A
102
}
100
AcDbPlotSettings
1

2

4

6

40
0.0
41
0.0
42
0.0
43
0.0
44
0.0
45
0.0
46
0.0
47
0.0
48
0.0
49
0.0
140
0.0
141
0.0
142
1.0
143
1.0
70
0
72
0
73
0
74
0
7

75
0
147
1.0
148
0.0
149
0.0
100
AcDbLayout
1
Model
70
0
71
0
10
0.0
20
0.0
11
0.0
21
0.0
12
0.0
22
0.0
32
0.0
14
0.0
24
0.0
34
0.0
15
0.0
25
0.0
35
0.0
146
0.0
13
0.0
23
0.0
33
0.0
16
0.0
26
0.0
36
0.0
17
0.0
27
0.0
37
0.0
76
0
330
1F
331
0
345
0
346
0
0
ENDSEC
0
EOF
