  0
SECTION
  2
HEADER
  9
$ACADVER
  1
AC1015
  9
$DWGCODEPAGE
  3
ANSI_1252
  9
$EXTMAX
 10
558.8
 20
431.8
 30
0.0
  9
$EXTMIN
 10
0.0
 20
0.0
 30
0.0
  9
$LIMMIN
 10
0.0
 20
0.0
  9
$LIMMAX
 10
558.8
 20
431.8
  9
$VIEWCTR
 10
279.4
 20
215.9
  9
$VIEWSIZE
 40
431.8
  9
$CLAYER
  8
0
  9
$LTSCALE
 40
30.734
  9
$CELTYPE
  6
BYLAYER
  9
$DIMSCALE
 40
1.0
  9
$DIMASZ
 40
3.0
  9
$DIMEXO
 40
3.4925
  9
$DIMDLI
 40
21.2344
  9
$DIMEXE
 40
10.0584
  9
$DIMCEN
 40
5.0292
  9
$DIMLFAC
 40
1.0
  9
$DIMBLK
  1
_FILLED
  9
$DIMTXT
 40
3.0
  9
$DIMTOL
 70
1
  9
$DIMLIM
 70
0
  9
$DIMTFAC
 40
1.0
  9
$DIMTP
 40
0.01
  9
$DIMTM
 40
0.01
  9
$PDMODE
 70
3
  9
$PDSIZE
 40
3.0
  9
$HANDSEED
  5
52F
  9
$TILEMODE
 70
1
  9
$MEASUREMENT
 70
1
  9
$INSUNITS
 70
4
  0
ENDSEC
  0
SECTION
  2
CLASSES
  0
CLASS
  1
ACDBDICTIONARYWDFLT
  2
AcDbDictionaryWithDefault
  3
AutoCAD 2000
 90
0
280
0
281
0
  0
CLASS
  1
ACDBPLACEHOLDER
  2
AcDbPlaceHolder
  3
AutoCAD 2000
 90
0
280
0
281
0
  0
CLASS
  1
LAYOUT
  2
AcDbLayout
  3
AutoCAD 2000
 90
0
280
0
281
0
  0
ENDSEC
  0
SECTION
  2
TABLES
  0
TABLE
  2
VPORT
  5
8
100
AcDbSymbolTable
 70
2
  0
VPORT
  5
1F4
100
AcDbSymbolTableRecord
100
AcDbViewportTableRecord
  2
*ACTIVE
 70
0
 10
0.0
 20
0.0
 11
1.0
 21
1.0
 12
279.4
 22
215.9
 13
0.0
 23
0.0
 14
1.0
 24
1.0
 15
0.0
 25
0.0
 16
0.0
 26
0.0
 36
1.0
 17
0.0
 27
0.0
 37
0.0
 40
431.8
 41
1.2941176471
 42
50.0
 43
0.0
 44
0.0
 50
0.0
 51
0.0
 71
0
 72
100
 73
1
 74
1
 75
0
 76
0
 77
0
 78
0
  0
ENDTAB
  0
TABLE
  2
LTYPE
  5
5
100
AcDbSymbolTable
 70
6
  0
LTYPE
  5
14
100
AcDbSymbolTableRecord
100
AcDbLinetypeTableRecord
  2
BYBLOCK
 70
0
  3

 72
65
 73
0
 40
0.0
  0
LTYPE
  5
15
100
AcDbSymbolTableRecord
100
AcDbLinetypeTableRecord
  2
BYLAYER
 70
0
  3

 72
65
 73
0
 40
0.0
  0
LTYPE
  5
16
100
AcDbSymbolTableRecord
100
AcDbLinetypeTableRecord
  2
CONTINUOUS
 70
64
  3
Solid line
 72
65
 73
0
 40
0.0
  0
LTYPE
  5
1F5
100
AcDbSymbolTableRecord
100
AcDbLinetypeTableRecord
  2
CENTER
 70
64
  3
____ _ ____ _ ____ _ ____ _ ____ _ ____ _ ____
 72
65
 73
4
 40
0.6
 49
0.375
 74
0
 49
-0.075
 74
0
 49
0.075
 74
0
 49
-0.075
 74
0
  0
LTYPE
  5
1F6
100
AcDbSymbolTableRecord
100
AcDbLinetypeTableRecord
  2
HIDDEN
 70
64
  3
- - - - - - - - - - - - - - - - - - - -
 72
65
 73
2
 40
0.2
 49
0.1
 74
0
 49
-0.1
 74
0
  0
LTYPE
  5
1F7
100
AcDbSymbolTableRecord
100
AcDbLinetypeTableRecord
  2
PHANTOM
 70
64
  3
_____ _ _ _____ _ _ _____ _ _ _____
 72
65
 73
6
 40
0.8
 49
0.45
 74
0
 49
-0.05
 74
0
 49
0.1
 74
0
 49
-0.05
 74
0
 49
0.1
 74
0
 49
-0.05
 74
0
  0
LTYPE
  5
1F8
100
AcDbSymbolTableRecord
100
AcDbLinetypeTableRecord
  2
DOT
 70
64
  3
. . . . . . . . . . . . . . . . . . . .
 72
65
 73
2
 40
0.2
 49
0.1
 74
0
 49
-0.1
 74
0
  0
LTYPE
  5
1F9
100
AcDbSymbolTableRecord
100
AcDbLinetypeTableRecord
  2
DASHED
 70
64
  3
- - - - - - - - - - - - - - - - - - - -
 72
65
 73
2
 40
0.2
 49
0.1
 74
0
 49
-0.1
 74
0
  0
ENDTAB
  0
TABLE
  2
LAYER
  5
2
100
AcDbSymbolTable
 70
36
  0
LAYER
  5
10
100
AcDbSymbolTableRecord
100
AcDbLayerTableRecord
  2
0
 70
0
 62
7
  6
CONTINUOUS
370
-3
390
F
  0
LAYER
  5
1FA
100
AcDbSymbolTableRecord
100
AcDbLayerTableRecord
  2
DEFAULT_1
 70
0
 62
7
  6
CENTER
370
-3
390
F
  0
LAYER
  5
1FB
100
AcDbSymbolTableRecord
100
AcDbLayerTableRecord
  2
DEFAULT_2
 70
0
 62
7
  6
HIDDEN
370
-3
390
F
  0
LAYER
  5
1FC
100
AcDbSymbolTableRecord
100
AcDbLayerTableRecord
  2
DEFAULT_3
 70
0
 62
7
  6
PHANTOM
370
-3
390
F
  0
LAYER
  5
1FD
100
AcDbSymbolTableRecord
100
AcDbLayerTableRecord
  2
ASSI
 70
0
 62
7
  6
CONTINUOUS
370
-3
390
F
  0
LAYER
  5
1FE
100
AcDbSymbolTableRecord
100
AcDbLayerTableRecord
  2
COORDINATE
 70
0
 62
7
  6
CONTINUOUS
370
-3
390
F
  0
LAYER
  5
1FF
100
AcDbSymbolTableRecord
100
AcDbLayerTableRecord
  2
COORD_ORIGINE
 70
0
 62
7
  6
CONTINUOUS
370
-3
390
F
  0
LAYER
  5
200
100
AcDbSymbolTableRecord
100
AcDbLayerTableRecord
  2
COPY_PUBLISH
 70
0
 62
7
  6
CONTINUOUS
370
-3
390
F
  0
LAYER
  5
201
100
AcDbSymbolTableRecord
100
AcDbLayerTableRecord
  2
COSMETIC
 70
0
 62
7
  6
CONTINUOUS
370
-3
390
F
  0
LAYER
  5
202
100
AcDbSymbolTableRecord
100
AcDbLayerTableRecord
  2
CURVE
 70
0
 62
7
  6
CONTINUOUS
370
-3
390
F
  0
LAYER
  5
203
100
AcDbSymbolTableRecord
100
AcDbLayerTableRecord
  2
DRAFT
 70
0
 62
7
  6
CONTINUOUS
370
-3
390
F
  0
LAYER
  5
204
100
AcDbSymbolTableRecord
100
AcDbLayerTableRecord
  2
IMPORT_IGES
 70
0
 62
7
  6
CONTINUOUS
370
-3
390
F
  0
LAYER
  5
205
100
AcDbSymbolTableRecord
100
AcDbLayerTableRecord
  2
NOTE
 70
0
 62
7
  6
CONTINUOUS
370
-3
390
F
  0
LAYER
  5
206
100
AcDbSymbolTableRecord
100
AcDbLayerTableRecord
  2
PIANI
 70
0
 62
7
  6
CONTINUOUS
370
-3
390
F
  0
LAYER
  5
207
100
AcDbSymbolTableRecord
100
AcDbLayerTableRecord
  2
PIANI_ORIGINE
 70
0
 62
7
  6
CONTINUOUS
370
-3
390
F
  0
LAYER
  5
208
100
AcDbSymbolTableRecord
100
AcDbLayerTableRecord
  2
PUNTI
 70
0
 62
7
  6
CONTINUOUS
370
-3
390
F
  0
LAYER
  5
209
100
AcDbSymbolTableRecord
100
AcDbLayerTableRecord
  2
RACCORDO
 70
0
 62
7
  6
CONTINUOUS
370
-3
390
F
  0
LAYER
  5
20A
100
AcDbSymbolTableRecord
100
AcDbLayerTableRecord
  2
SMUSSO
 70
0
 62
7
  6
CONTINUOUS
370
-3
390
F
  0
LAYER
  5
20B
100
AcDbSymbolTableRecord
100
AcDbLayerTableRecord
  2
SNAPLINE
 70
0
 62
7
  6
CONTINUOUS
370
-3
390
F
  0
LAYER
  5
20C
100
AcDbSymbolTableRecord
100
AcDbLayerTableRecord
  2
TRASH
 70
0
 62
7
  6
CONTINUOUS
370
-3
390
F
  0
LAYER
  5
20D
100
AcDbSymbolTableRecord
100
AcDbLayerTableRecord
  2
XSEC_DATUMS
 70
0
 62
7
  6
CONTINUOUS
370
-3
390
F
  0
ENDTAB
  0
TABLE
  2
STYLE
  5
3
100
AcDbSymbolTable
 70
1
  0
STYLE
  5
11
100
AcDbSymbolTableRecord
100
AcDbTextStyleTableRecord
  2
STANDARD
 70
0
 40
0.0
 41
0.8
 50
0.0
 71
0
 42
0.2
  3
txt
  4

  0
STYLE
  5
20E
100
AcDbSymbolTableRecord
100
AcDbTextStyleTableRecord
  2
TEXTSTYLE_1
 70
0
 40
0.0
 41
0.8
 50
0.0
 71
0
 42
0.2
  3
gdt
  4

  0
ENDTAB
  0
TABLE
  2
VIEW
  5
6
100
AcDbSymbolTable
 70
0
  0
ENDTAB
  0
TABLE
  2
UCS
  5
7
100
AcDbSymbolTable
 70
0
  0
ENDTAB
  0
TABLE
  2
APPID
  5
9
100
AcDbSymbolTable
 70
1
  0
APPID
  5
20F
100
AcDbSymbolTableRecord
100
AcDbRegAppTableRecord
  2
ACAD
 70
0
  0
ENDTAB
  0
TABLE
  2
BLOCK_RECORD
  5
1
100
AcDbSymbolTable
 70
0
  0
BLOCK_RECORD
  5
210
100
AcDbSymbolTableRecord
100
AcDbBlockTableRecord
  2
*Model_Space
  0
BLOCK_RECORD
  5
211
100
AcDbSymbolTableRecord
100
AcDbBlockTableRecord
  2
*Paper_Space
  0
ENDTAB
  0
TABLE
  2
DIMSTYLE
  5
A
100
AcDbSymbolTable
 70
1
100
AcDbDimStyleTable
 71
0
  0
DIMSTYLE
105
212
100
AcDbSymbolTableRecord
100
AcDbDimStyleTableRecord
  2
STANDARD
 70
0
  3

  4

 40
1.0
 41
3.0
 42
0.0625
 43
0.38
 44
0.18
 45
0.0
 46
0.0
 47
0.01
 48
0.01
140
3.0
141
0.09
142
0.0
143
25.4
144
1.0
145
0.0
146
1.0
147
0.09
 71
1.0
 72
0.0
 73
0
 74
0
 75
0
 76
0
 77
1
 78
8
170
0
171
2
172
0
173
0
174
0
175
0
176
0
177
0
178
0
270
2
271
2
272
2
273
2
274
2
275
0
280
0
281
0
282
0
283
1
284
8
285
0
286
0
287
3
288
0
340
11
  0
ENDTAB
  0
ENDSEC
  0
SECTION
  2
BLOCKS
  0
BLOCK
  5
20
100
AcDbEntity
  8
0
100
AcDbBlockBegin
  2
*Model_Space
 70
0
 10
0.0
 20
0.0
 30
0.0
  3
*Model_Space
  1

  0
ENDBLK
  5
21
100
AcDbEntity
  8
0
100
AcDbBlockEnd
  0
BLOCK
  5
1C
100
AcDbEntity
  8
0
100
AcDbBlockBegin
  2
*Paper_Space
 70
0
 10
0.0
 20
0.0
 30
0.0
  3
*Paper_Space
  1

  0
ENDBLK
  5
1D
100
AcDbEntity
  8
0
100
AcDbBlockEnd
  0
ENDSEC
  0
SECTION
  2
ENTITIES
  0
LINE
  5
213
100
AcDbEntity
  8
0
100
AcDbLine
 62
7
  6
CONTINUOUS
 10
-6.0
 20
-25.05
 11
6.0
 21
-25.05
  0
LINE
  5
214
100
AcDbEntity
  8
0
100
AcDbLine
 62
253
  6
CONTINUOUS
 10
6.0
 20
-24.0784623642
 11
-6.0
 21
-24.0784623642
  0
LINE
  5
215
100
AcDbEntity
  8
SMUSSO
100
AcDbLine
 62
7
  6
CONTINUOUS
 10
5.7
 20
-23.55
 11
-5.7
 21
-23.55
  0
LINE
  5
216
100
AcDbEntity
  8
0
100
AcDbLine
 62
7
  6
CONTINUOUS
 10
-2.5
 20
-23.35
 11
2.5
 21
-23.35
  0
LINE
  5
217
100
AcDbEntity
  8
RACCORDO
100
AcDbLine
 62
7
  6
CONTINUOUS
 10
2.2
 20
-23.1371921251
 11
-2.2
 21
-23.1371921251
  0
LINE
  5
218
100
AcDbEntity
  8
RACCORDO
100
AcDbLine
 62
7
  6
CONTINUOUS
 10
5.5
 20
-21.9320454786
 11
3.05
 21
-21.9320454786
  0
LINE
  5
219
100
AcDbEntity
  8
RACCORDO
100
AcDbLine
 62
7
  6
CONTINUOUS
 10
-5.5
 20
-21.9320454786
 11
-3.05
 21
-21.9320454786
  0
LINE
  5
21A
100
AcDbEntity
  8
0
100
AcDbLine
 62
253
  6
CONTINUOUS
 10
2.9
 20
-21.864175586
 11
-2.9
 21
-21.864175586
  0
LINE
  5
21B
100
AcDbEntity
  8
0
100
AcDbLine
 62
253
  6
CONTINUOUS
 10
2.9
 20
-21.8494925247
 11
-2.9
 21
-21.8494925247
  0
LINE
  5
21C
100
AcDbEntity
  8
RACCORDO
100
AcDbLine
 62
253
  6
CONTINUOUS
 10
-5.9746920834
 20
-21.7913112106
 11
-3.0794144969
 21
-21.7913112106
  0
LINE
  5
21D
100
AcDbEntity
  8
ASSI
100
AcDbLine
 62
253
  6
CONTINUOUS
 10
-5.9746920834
 20
-21.7913112106
 11
-3.0794144969
 21
-21.7913112106
  0
LINE
  5
21E
100
AcDbEntity
  8
RACCORDO
100
AcDbLine
 62
253
  6
CONTINUOUS
 10
3.0794144969
 20
-21.7913112106
 11
5.9746920834
 21
-21.7913112106
  0
LINE
  5
21F
100
AcDbEntity
  8
ASSI
100
AcDbLine
 62
253
  6
CONTINUOUS
 10
3.0794144969
 20
-21.7913112106
 11
5.9746920834
 21
-21.7913112106
  0
LINE
  5
220
100
AcDbEntity
  8
0
100
AcDbLine
 62
7
  6
CONTINUOUS
 10
-9.8829824944
 20
18.4170175306
 11
-8.5462459094
 21
19.7537540906
  0
LINE
  5
221
100
AcDbEntity
  8
0
100
AcDbLine
 62
253
  6
CONTINUOUS
 10
2.9
 20
-21.5336107006
 11
-2.9
 21
-21.5336107006
  0
LINE
  5
222
100
AcDbEntity
  8
0
100
AcDbLine
 62
7
  6
CONTINUOUS
 10
-0.8961801625
 20
-21.0
 11
0.8961801625
 21
-21.0
  0
LINE
  5
223
100
AcDbEntity
  8
RACCORDO
100
AcDbLine
 62
7
  6
CONTINUOUS
 10
-5.9660413709
 20
-20.7913492875
 11
-3.0707637844
 21
-20.7913492875
  0
LINE
  5
224
100
AcDbEntity
  8
ASSI
100
AcDbLine
 62
7
  6
CONTINUOUS
 10
-5.9660413709
 20
-20.7913492875
 11
-3.0707637844
 21
-20.7913492875
  0
LINE
  5
225
100
AcDbEntity
  8
RACCORDO
100
AcDbLine
 62
7
  6
CONTINUOUS
 10
3.0707637844
 20
-20.7913492875
 11
5.9660413709
 21
-20.7913492875
  0
LINE
  5
226
100
AcDbEntity
  8
ASSI
100
AcDbLine
 62
7
  6
CONTINUOUS
 10
3.0707637844
 20
-20.7913492875
 11
5.9660413709
 21
-20.7913492875
  0
LINE
  5
227
100
AcDbEntity
  8
RACCORDO
100
AcDbLine
 62
7
  6
CONTINUOUS
 10
-2.0086887894
 20
-20.7205855031
 11
-1.7291616466
 21
-20.7205855031
  0
LINE
  5
228
100
AcDbEntity
  8
ASSI
100
AcDbLine
 62
7
  6
CONTINUOUS
 10
-2.0086887894
 20
-20.7205855031
 11
-1.7291616466
 21
-20.7205855031
  0
LINE
  5
229
100
AcDbEntity
  8
RACCORDO
100
AcDbLine
 62
7
  6
CONTINUOUS
 10
1.7291616466
 20
-20.7205855031
 11
2.0086887894
 21
-20.7205855031
  0
LINE
  5
22A
100
AcDbEntity
  8
ASSI
100
AcDbLine
 62
7
  6
CONTINUOUS
 10
1.7291616466
 20
-20.7205855031
 11
2.0086887894
 21
-20.7205855031
  0
LINE
  5
22B
100
AcDbEntity
  8
DRAFT
100
AcDbLine
 62
7
  6
CONTINUOUS
 10
5.8690969831
 20
-20.6944048997
 11
-5.8690969831
 21
-20.6944048997
  0
LINE
  5
22C
100
AcDbEntity
  8
ASSI
100
AcDbLine
 62
7
  6
CONTINUOUS
 10
5.8690969831
 20
-20.6944048997
 11
-5.8690969831
 21
-20.6944048997
  0
LINE
  5
22D
100
AcDbEntity
  8
RACCORDO
100
AcDbLine
 62
7
  6
CONTINUOUS
 10
7.7929011048
 20
-20.0
 11
7.3
 21
-20.0
  0
LINE
  5
22E
100
AcDbEntity
  8
ASSI
100
AcDbLine
 62
7
  6
CONTINUOUS
 10
7.7929011048
 20
-20.0
 11
7.3
 21
-20.0
  0
LINE
  5
22F
100
AcDbEntity
  8
DRAFT
100
AcDbLine
 62
7
  6
CONTINUOUS
 10
7.2334890005
 20
-20.0
 11
5.9389119255
 21
-20.0
  0
LINE
  5
230
100
AcDbEntity
  8
ASSI
100
AcDbLine
 62
7
  6
CONTINUOUS
 10
7.2334890005
 20
-20.0
 11
5.9389119255
 21
-20.0
  0
LINE
  5
231
100
AcDbEntity
  8
DRAFT
100
AcDbLine
 62
7
  6
CONTINUOUS
 10
-5.9389119255
 20
-20.0
 11
-7.2334890005
 21
-20.0
  0
LINE
  5
232
100
AcDbEntity
  8
ASSI
100
AcDbLine
 62
7
  6
CONTINUOUS
 10
-5.9389119255
 20
-20.0
 11
-7.2334890005
 21
-20.0
  0
LINE
  5
233
100
AcDbEntity
  8
RACCORDO
100
AcDbLine
 62
7
  6
CONTINUOUS
 10
-7.3
 20
-20.0
 11
-7.7929011048
 21
-20.0
  0
LINE
  5
234
100
AcDbEntity
  8
ASSI
100
AcDbLine
 62
7
  6
CONTINUOUS
 10
-7.3
 20
-20.0
 11
-7.7929011048
 21
-20.0
  0
LINE
  5
235
100
AcDbEntity
  8
ASSI
100
AcDbLine
 62
7
  6
CONTINUOUS
 10
-6.45
 20
-19.9650931934
 11
-5.8690969831
 21
-19.9650931934
  0
LINE
  5
236
100
AcDbEntity
  8
ASSI
100
AcDbLine
 62
7
  6
CONTINUOUS
 10
6.45
 20
-19.9650931934
 11
5.8690969831
 21
-19.9650931934
  0
LINE
  5
237
100
AcDbEntity
  8
0
100
AcDbLine
 62
7
  6
CONTINUOUS
 10
-8.1931770515
 20
-19.9
 11
-7.8993147674
 21
-19.9
  0
LINE
  5
238
100
AcDbEntity
  8
0
100
AcDbLine
 62
7
  6
CONTINUOUS
 10
7.8993147674
 20
-19.9
 11
8.1931770515
 21
-19.9
  0
LINE
  5
239
100
AcDbEntity
  8
0
100
AcDbLine
 62
7
  6
CONTINUOUS
 10
-8.5462459094
 20
-19.7537540906
 11
-9.883010839
 21
-18.416989161
  0
LINE
  5
23A
100
AcDbEntity
  8
RACCORDO
100
AcDbLine
 62
7
  6
CONTINUOUS
 10
-10.0304789799
 20
17.9695210201
 11
-10.8535589668
 21
17.1464410332
  0
LINE
  5
23B
100
AcDbEntity
  8
ASSI
100
AcDbLine
 62
7
  6
CONTINUOUS
 10
-10.0304789799
 20
17.9695210201
 11
-10.8535589668
 21
17.1464410332
  0
LINE
  5
23C
100
AcDbEntity
  8
SMUSSO
100
AcDbLine
 62
7
  6
CONTINUOUS
 10
6.0
 20
22.0948295558
 11
5.5
 21
21.9320454786
  0
LINE
  5
23D
100
AcDbEntity
  8
ASSI
100
AcDbLine
 62
7
  6
CONTINUOUS
 10
6.518337521
 20
-19.0
 11
-6.518337521
 21
-19.0
  0
LINE
  5
23E
100
AcDbEntity
  8
0
100
AcDbLine
 62
7
  6
CONTINUOUS
 10
-7.4
 20
-18.9
 11
-1.9
 21
-18.9
  0
LINE
  5
23F
100
AcDbEntity
  8
0
100
AcDbLine
 62
7
  6
CONTINUOUS
 10
1.9
 20
-18.9
 11
7.4
 21
-18.9
  0
LINE
  5
240
100
AcDbEntity
  8
SMUSSO
100
AcDbLine
 62
7
  6
CONTINUOUS
 10
5.5
 20
-21.9320454786
 11
6.0
 21
-22.0948295558
  0
LINE
  5
241
100
AcDbEntity
  8
RACCORDO
100
AcDbLine
 62
7
  6
CONTINUOUS
 10
-10.8535589668
 20
-17.1464410332
 11
-10.0304838625
 21
-17.9695161375
  0
LINE
  5
242
100
AcDbEntity
  8
ASSI
100
AcDbLine
 62
7
  6
CONTINUOUS
 10
-10.8535589668
 20
-17.1464410332
 11
-10.0304838625
 21
-17.9695161375
  0
LINE
  5
243
100
AcDbEntity
  8
0
100
AcDbLine
 62
7
  6
CONTINUOUS
 10
9.0309053367
 20
-17.505548107
 11
-9.0307981361
 21
-17.505548107
  0
LINE
  5
244
100
AcDbEntity
  8
0
100
AcDbLine
 62
7
  6
CONTINUOUS
 10
9.0003111936
 20
-17.4749999999
 11
-9.0002964086
 21
-17.4749999999
  0
LINE
  5
245
100
AcDbEntity
  8
0
100
AcDbLine
 62
253
  6
CONTINUOUS
 10
8.9607609241
 20
-17.4156773038
 11
-8.9607616356
 21
-17.4156773038
  0
LINE
  5
246
100
AcDbEntity
  8
0
100
AcDbLine
 62
253
  6
CONTINUOUS
 10
-7.0140516173
 20
13.6359512113
 11
-7.0157478368
 21
13.6342225882
  0
LINE
  5
247
100
AcDbEntity
  8
RACCORDO
100
AcDbLine
 62
7
  6
CONTINUOUS
 10
-3.043634339
 20
19.0
 11
-3.0086507125
 21
19.0349836265
  0
LINE
  5
248
100
AcDbEntity
  8
ASSI
100
AcDbLine
 62
7
  6
CONTINUOUS
 10
-3.043634339
 20
19.0
 11
-3.0086507125
 21
19.0349836265
  0
LINE
  5
249
100
AcDbEntity
  8
DRAFT
100
AcDbLine
 62
7
  6
CONTINUOUS
 10
5.8690969831
 20
19.9650931934
 11
5.9389119255
 21
20.0
  0
LINE
  5
24A
100
AcDbEntity
  8
ASSI
100
AcDbLine
 62
7
  6
CONTINUOUS
 10
5.8690969831
 20
19.9650931934
 11
5.9389119255
 21
20.0
  0
LINE
  5
24B
100
AcDbEntity
  8
ASSI
100
AcDbLine
 62
7
  6
CONTINUOUS
 10
7.2334890005
 20
19.9667451334
 11
7.3
 21
20.0
  0
LINE
  5
24C
100
AcDbEntity
  8
ASSI
100
AcDbLine
 62
7
  6
CONTINUOUS
 10
7.3
 20
19.8968626967
 11
7.2334890005
 21
19.8708728895
  0
LINE
  5
24D
100
AcDbEntity
  8
0
100
AcDbLine
 62
253
  6
CONTINUOUS
 10
-9.9351102326
 20
-14.9165339913
 11
-2.373278655
 21
-14.9165339881
  0
LINE
  5
24E
100
AcDbEntity
  8
0
100
AcDbLine
 62
253
  6
CONTINUOUS
 10
2.3732786531
 20
-14.9165339942
 11
9.9351102337
 21
-14.9165339913
  0
LINE
  5
24F
100
AcDbEntity
  8
DRAFT
100
AcDbLine
 62
7
  6
CONTINUOUS
 10
5.8690969831
 20
-19.9650931934
 11
5.9389119255
 21
-20.0
  0
LINE
  5
250
100
AcDbEntity
  8
ASSI
100
AcDbLine
 62
7
  6
CONTINUOUS
 10
5.8690969831
 20
-19.9650931934
 11
5.9389119255
 21
-20.0
  0
LINE
  5
251
100
AcDbEntity
  8
RACCORDO
100
AcDbLine
 62
7
  6
CONTINUOUS
 10
3.0707637844
 20
20.7913492875
 11
3.0086507125
 21
20.7292362156
  0
LINE
  5
252
100
AcDbEntity
  8
ASSI
100
AcDbLine
 62
7
  6
CONTINUOUS
 10
3.0707637844
 20
20.7913492875
 11
3.0086507125
 21
20.7292362156
  0
LINE
  5
253
100
AcDbEntity
  8
SMUSSO
100
AcDbLine
 62
7
  6
CONTINUOUS
 10
5.7
 20
23.55
 11
6.0
 21
23.8488584094
  0
LINE
  5
254
100
AcDbEntity
  8
0
100
AcDbLine
 62
253
  6
CONTINUOUS
 10
-2.5437666661
 20
-14.0
 11
-1.4602933676
 21
-14.0
  0
LINE
  5
255
100
AcDbEntity
  8
0
100
AcDbLine
 62
253
  6
CONTINUOUS
 10
1.4602933676
 20
-14.0
 11
2.5441081201
 21
-14.0
  0
LINE
  5
256
100
AcDbEntity
  8
0
100
AcDbLine
 62
253
  6
CONTINUOUS
 10
10.0000642172
 20
-16.4754508128
 11
10.0005936174
 21
-16.4756092048
  0
LINE
  5
257
100
AcDbEntity
  8
0
100
AcDbLine
 62
253
  6
CONTINUOUS
 10
1.6740651758
 20
-14.6465054724
 11
2.373278654
 21
-14.9165339913
  0
LINE
  5
258
100
AcDbEntity
  8
SMUSSO
100
AcDbLine
 62
7
  6
CONTINUOUS
 10
6.0
 20
-23.8488584094
 11
5.7
 21
-23.55
  0
LINE
  5
259
100
AcDbEntity
  8
RACCORDO
100
AcDbLine
 62
7
  6
CONTINUOUS
 10
3.0707637844
 20
-20.7913492875
 11
3.0086507125
 21
-20.7292362156
  0
LINE
  5
25A
100
AcDbEntity
  8
ASSI
100
AcDbLine
 62
7
  6
CONTINUOUS
 10
3.0707637844
 20
-20.7913492875
 11
3.0086507125
 21
-20.7292362156
  0
LINE
  5
25B
100
AcDbEntity
  8
RACCORDO
100
AcDbLine
 62
7
  6
CONTINUOUS
 10
-11.0
 20
-16.7929011048
 11
-11.0
 21
16.7929011048
  0
LINE
  5
25C
100
AcDbEntity
  8
ASSI
100
AcDbLine
 62
7
  6
CONTINUOUS
 10
-11.0
 20
-16.7929011048
 11
-11.0
 21
16.7929011048
  0
LINE
  5
25D
100
AcDbEntity
  8
0
100
AcDbLine
 62
7
  6
CONTINUOUS
 10
-8.2000109679
 20
-8.0217709222
 11
-8.2108930979
 21
-8.0000000248
  0
LINE
  5
25E
100
AcDbEntity
  8
0
100
AcDbLine
 62
7
  6
CONTINUOUS
 10
-9.5064639373
 20
14.1806893009
 11
-9.5070321341
 21
14.6273195287
  0
LINE
  5
25F
100
AcDbEntity
  8
0
100
AcDbLine
 62
7
  6
CONTINUOUS
 10
-10.0304838649
 20
-18.0622282529
 11
-10.0304789799
 21
18.0623294373
  0
LINE
  5
260
100
AcDbEntity
  8
0
100
AcDbLine
 62
7
  6
CONTINUOUS
 10
-9.9999999981
 20
-16.4752225241
 11
-9.9999999981
 21
16.4751683849
  0
LINE
  5
261
100
AcDbEntity
  8
0
100
AcDbLine
 62
253
  6
CONTINUOUS
 10
-9.9351102358
 20
-14.9158299302
 11
-9.9351102358
 21
-7.9318963079
  0
LINE
  5
262
100
AcDbEntity
  8
0
100
AcDbLine
 62
253
  6
CONTINUOUS
 10
-9.7564249003
 20
11.4000000322
 11
-9.756425434
 21
14.1785873956
  0
LINE
  5
263
100
AcDbEntity
  8
0
100
AcDbLine
 62
253
  6
CONTINUOUS
 10
-9.5064942846
 20
14.1806873678
 11
-9.5064942846
 21
11.4000011727
  0
LINE
  5
264
100
AcDbEntity
  8
0
100
AcDbLine
 62
253
  6
CONTINUOUS
 10
-9.2456309171
 20
11.4000011727
 11
-9.2456309171
 21
14.1806873678
  0
LINE
  5
265
100
AcDbEntity
  8
0
100
AcDbLine
 62
7
  6
CONTINUOUS
 10
-8.9955839395
 20
14.1806842101
 11
-8.9955839395
 21
11.4000011097
  0
LINE
  5
266
100
AcDbEntity
  8
0
100
AcDbLine
 62
253
  6
CONTINUOUS
 10
-8.935266513
 20
-8.1475094854
 11
-8.935266513
 21
-14.9165339881
  0
LINE
  5
267
100
AcDbEntity
  8
0
100
AcDbLine
 62
7
  6
CONTINUOUS
 10
-8.8999882648
 20
11.3999814389
 11
-8.8999882648
 21
12.1252353855
  0
LINE
  5
268
100
AcDbEntity
  8
RACCORDO
100
AcDbLine
 62
7
  6
CONTINUOUS
 10
5.9660413709
 20
20.7913492875
 11
5.8690969831
 21
20.6944048997
  0
LINE
  5
269
100
AcDbEntity
  8
ASSI
100
AcDbLine
 62
7
  6
CONTINUOUS
 10
5.9660413709
 20
20.7913492875
 11
5.8690969831
 21
20.6944048997
  0
LINE
  5
26A
100
AcDbEntity
  8
RACCORDO
100
AcDbLine
 62
7
  6
CONTINUOUS
 10
5.8690969831
 20
-20.6944048997
 11
5.9660413709
 21
-20.7913492875
  0
LINE
  5
26B
100
AcDbEntity
  8
ASSI
100
AcDbLine
 62
7
  6
CONTINUOUS
 10
5.8690969831
 20
-20.6944048997
 11
5.9660413709
 21
-20.7913492875
  0
LINE
  5
26C
100
AcDbEntity
  8
0
100
AcDbLine
 62
7
  6
CONTINUOUS
 10
-8.2000109679
 20
-8.0217709222
 11
-8.2000097564
 21
-7.9709756306
  0
LINE
  5
26D
100
AcDbEntity
  8
0
100
AcDbLine
 62
7
  6
CONTINUOUS
 10
-7.925
 20
6.860254706
 11
-7.925
 21
10.1318587994
  0
LINE
  5
26E
100
AcDbEntity
  8
0
100
AcDbLine
 62
7
  6
CONTINUOUS
 10
-7.4
 20
-19.2607260603
 11
-7.4
 21
-18.9
  0
LINE
  5
26F
100
AcDbEntity
  8
0
100
AcDbLine
 62
7
  6
CONTINUOUS
 10
-7.3999999942
 20
18.9
 11
-7.3999999942
 21
19.4007065734
  0
LINE
  5
270
100
AcDbEntity
  8
DRAFT
100
AcDbLine
 62
7
  6
CONTINUOUS
 10
-7.3
 20
-20.0
 11
-7.3
 21
-19.8968626967
  0
LINE
  5
271
100
AcDbEntity
  8
ASSI
100
AcDbLine
 62
7
  6
CONTINUOUS
 10
-7.3
 20
-20.0
 11
-7.3
 21
-19.8968626967
  0
LINE
  5
272
100
AcDbEntity
  8
DRAFT
100
AcDbLine
 62
7
  6
CONTINUOUS
 10
-7.3
 20
19.8968626967
 11
-7.3
 21
20.0
  0
LINE
  5
273
100
AcDbEntity
  8
ASSI
100
AcDbLine
 62
7
  6
CONTINUOUS
 10
-7.3
 20
19.8968626967
 11
-7.3
 21
20.0
  0
LINE
  5
274
100
AcDbEntity
  8
0
100
AcDbLine
 62
7
  6
CONTINUOUS
 10
-7.2465977891
 20
9.5478052248
 11
-7.2465977891
 21
7.5194801825
  0
LINE
  5
275
100
AcDbEntity
  8
ASSI
100
AcDbLine
 62
7
  6
CONTINUOUS
 10
-7.2334890005
 20
19.8708728895
 11
-7.2334890005
 21
19.9667451334
  0
LINE
  5
276
100
AcDbEntity
  8
0
100
AcDbLine
 62
7
  6
CONTINUOUS
 10
9.0380396245
 20
17.5055481033
 11
9.0003024347
 21
17.475
  0
LINE
  5
277
100
AcDbEntity
  8
0
100
AcDbLine
 62
7
  6
CONTINUOUS
 10
2.2647803135
 20
-7.9494249663
 11
2.3272107911
 21
-7.9325438888
  0
LINE
  5
278
100
AcDbEntity
  8
0
100
AcDbLine
 62
7
  6
CONTINUOUS
 10
1.7735621141
 20
-8.0542974371
 11
1.7724086522
 21
-8.0545986999
  0
LINE
  5
279
100
AcDbEntity
  8
0
100
AcDbLine
 62
7
  6
CONTINUOUS
 10
1.7951395785
 20
-8.0488246524
 11
1.7735621141
 21
-8.0542974371
  0
LINE
  5
27A
100
AcDbEntity
  8
0
100
AcDbLine
 62
7
  6
CONTINUOUS
 10
8.9352688606
 20
-8.147507635
 11
2.5440017401
 21
-8.147507635
  0
LINE
  5
27B
100
AcDbEntity
  8
0
100
AcDbLine
 62
7
  6
CONTINUOUS
 10
-2.5432821155
 20
-8.1475076374
 11
-8.935269518
 21
-8.1475076374
  0
LINE
  5
27C
100
AcDbEntity
  8
0
100
AcDbLine
 62
7
  6
CONTINUOUS
 10
-1.4603015567
 20
-8.0776660962
 11
1.4603014626
 21
-8.0776660962
  0
LINE
  5
27D
100
AcDbEntity
  8
0
100
AcDbLine
 62
7
  6
CONTINUOUS
 10
1.7724086522
 20
-8.0545986999
 11
-1.772431238
 21
-8.0545986999
  0
LINE
  5
27E
100
AcDbEntity
  8
0
100
AcDbLine
 62
7
  6
CONTINUOUS
 10
2.2000596863
 20
-8.0217928646
 11
1.9203072839
 21
-8.021792865
  0
LINE
  5
27F
100
AcDbEntity
  8
0
100
AcDbLine
 62
7
  6
CONTINUOUS
 10
-1.9212502822
 20
-8.021792865
 11
-2.2000496937
 21
-8.021792865
  0
LINE
  5
280
100
AcDbEntity
  8
0
100
AcDbLine
 62
7
  6
CONTINUOUS
 10
9.5953368399
 20
-8.0
 11
8.2108931126
 21
-8.0
  0
LINE
  5
281
100
AcDbEntity
  8
0
100
AcDbLine
 62
7
  6
CONTINUOUS
 10
2.0457959269
 20
-8.0
 11
-2.0453870455
 21
-8.0
  0
LINE
  5
282
100
AcDbEntity
  8
0
100
AcDbLine
 62
7
  6
CONTINUOUS
 10
-8.2108931161
 20
-8.0
 11
-9.5942076016
 21
-8.0
  0
LINE
  5
283
100
AcDbEntity
  8
0
100
AcDbLine
 62
7
  6
CONTINUOUS
 10
8.8403315762
 20
-7.5618971329
 11
8.9295245984
 21
-7.5618972241
  0
LINE
  5
284
100
AcDbEntity
  8
0
100
AcDbLine
 62
7
  6
CONTINUOUS
 10
-8.9294985393
 20
-7.5619050528
 11
-8.8403316398
 21
-7.5618980206
  0
LINE
  5
285
100
AcDbEntity
  8
0
100
AcDbLine
 62
7
  6
CONTINUOUS
 10
6.9622730145
 20
-7.4392304845
 11
3.4420635112
 21
-7.4392304845
  0
LINE
  5
286
100
AcDbEntity
  8
0
100
AcDbLine
 62
7
  6
CONTINUOUS
 10
-3.4187123586
 20
-7.4392305419
 11
-6.9765795141
 21
-7.4392304845
  0
LINE
  5
287
100
AcDbEntity
  8
0
100
AcDbLine
 62
7
  6
CONTINUOUS
 10
-2.3383089604
 20
-7.93350913
 11
-2.1518058476
 21
-7.9838274014
  0
LINE
  5
288
100
AcDbEntity
  8
0
100
AcDbLine
 62
7
  6
CONTINUOUS
 10
-7.0140535086
 20
13.9637409222
 11
-7.0140516173
 21
13.6359512113
  0
LINE
  5
289
100
AcDbEntity
  8
0
100
AcDbLine
 62
7
  6
CONTINUOUS
 10
-6.9674395314
 20
7.7491398461
 11
-6.9674395314
 21
8.4385360929
  0
LINE
  5
28A
100
AcDbEntity
  8
0
100
AcDbLine
 62
7
  6
CONTINUOUS
 10
-6.9674395314
 20
8.6684740941
 11
-6.9674395314
 21
9.2819830565
  0
LINE
  5
28B
100
AcDbEntity
  8
0
100
AcDbLine
 62
7
  6
CONTINUOUS
 10
-6.8
 20
14.6989204637
 11
-6.8
 21
15.6759497752
  0
LINE
  5
28C
100
AcDbEntity
  8
0
100
AcDbLine
 62
7
  6
CONTINUOUS
 10
-6.795012649
 20
13.6497690516
 11
-6.795012649
 21
14.1903443114
  0
LINE
  5
28D
100
AcDbEntity
  8
0
100
AcDbLine
 62
7
  6
CONTINUOUS
 10
-6.65
 20
-1.8369263228
 11
-6.65
 21
-1.8722803023
  0
LINE
  5
28E
100
AcDbEntity
  8
0
100
AcDbLine
 62
253
  6
CONTINUOUS
 10
-6.5000000007
 20
14.2000000412
 11
-6.5000000007
 21
13.6500000071
  0
LINE
  5
28F
100
AcDbEntity
  8
0
100
AcDbLine
 62
253
  6
CONTINUOUS
 10
-6.5
 20
-1.8722803023
 11
-6.5
 21
-1.8369263228
  0
LINE
  5
290
100
AcDbEntity
  8
ASSI
100
AcDbLine
 62
253
  6
CONTINUOUS
 10
-6.45
 20
-19.9650931934
 11
-6.45
 21
-19.0
  0
LINE
  5
291
100
AcDbEntity
  8
ASSI
100
AcDbLine
 62
253
  6
CONTINUOUS
 10
-6.45
 20
19.0698149423
 11
-6.45
 21
19.9650931934
  0
LINE
  5
292
100
AcDbEntity
  8
0
100
AcDbLine
 62
7
  6
CONTINUOUS
 10
-6.25
 20
-0.7198292179
 11
-6.25
 21
-1.6239977632
  0
LINE
  5
293
100
AcDbEntity
  8
SMUSSO
100
AcDbLine
 62
7
  6
CONTINUOUS
 10
-6.0
 20
23.8488584094
 11
-6.0
 21
22.0948295558
  0
LINE
  5
294
100
AcDbEntity
  8
SMUSSO
100
AcDbLine
 62
7
  6
CONTINUOUS
 10
-6.0
 20
-23.8488584094
 11
-6.0
 21
-22.0948295558
  0
LINE
  5
295
100
AcDbEntity
  8
SMUSSO
100
AcDbLine
 62
7
  6
CONTINUOUS
 10
-6.0
 20
-23.8488584094
 11
-6.0
 21
-24.0784623642
  0
LINE
  5
296
100
AcDbEntity
  8
0
100
AcDbLine
 62
7
  6
CONTINUOUS
 10
-6.0
 20
-24.0784623642
 11
-6.0
 21
-25.0499370253
  0
LINE
  5
297
100
AcDbEntity
  8
SMUSSO
100
AcDbLine
 62
7
  6
CONTINUOUS
 10
-6.0
 20
23.8488584094
 11
-6.0
 21
24.0784623642
  0
LINE
  5
298
100
AcDbEntity
  8
0
100
AcDbLine
 62
7
  6
CONTINUOUS
 10
-6.0
 20
24.0784623642
 11
-6.0
 21
25.0499370253
  0
LINE
  5
299
100
AcDbEntity
  8
RACCORDO
100
AcDbLine
 62
7
  6
CONTINUOUS
 10
-5.9746920834
 20
22.0948295558
 11
-5.9746920834
 21
21.7913112106
  0
LINE
  5
29A
100
AcDbEntity
  8
ASSI
100
AcDbLine
 62
7
  6
CONTINUOUS
 10
-5.9746920834
 20
22.0948295558
 11
-5.9746920834
 21
21.7913112106
  0
LINE
  5
29B
100
AcDbEntity
  8
RACCORDO
100
AcDbLine
 62
7
  6
CONTINUOUS
 10
-5.9746920834
 20
-21.7913112106
 11
-5.9746920834
 21
-22.0948295558
  0
LINE
  5
29C
100
AcDbEntity
  8
ASSI
100
AcDbLine
 62
7
  6
CONTINUOUS
 10
-5.9746920834
 20
-21.7913112106
 11
-5.9746920834
 21
-22.0948295558
  0
LINE
  5
29D
100
AcDbEntity
  8
0
100
AcDbLine
 62
7
  6
CONTINUOUS
 10
-5.9269405707
 20
8.4385360928
 11
-5.9269405707
 21
8.7040685345
  0
LINE
  5
29E
100
AcDbEntity
  8
DRAFT
100
AcDbLine
 62
7
  6
CONTINUOUS
 10
-5.8690969831
 20
20.6944048997
 11
-5.8690969831
 21
19.9650931934
  0
LINE
  5
29F
100
AcDbEntity
  8
ASSI
100
AcDbLine
 62
7
  6
CONTINUOUS
 10
-5.8690969831
 20
20.6944048997
 11
-5.8690969831
 21
19.9650931934
  0
LINE
  5
2A0
100
AcDbEntity
  8
DRAFT
100
AcDbLine
 62
7
  6
CONTINUOUS
 10
-5.8690969831
 20
-20.6944048997
 11
-5.8690969831
 21
-19.9650931934
  0
LINE
  5
2A1
100
AcDbEntity
  8
ASSI
100
AcDbLine
 62
7
  6
CONTINUOUS
 10
-5.8690969831
 20
-20.6944048997
 11
-5.8690969831
 21
-19.9650931934
  0
LINE
  5
2A2
100
AcDbEntity
  8
0
100
AcDbLine
 62
7
  6
CONTINUOUS
 10
-5.8000504536
 20
7.5194801825
 11
-5.8000504536
 21
7.784699893
  0
LINE
  5
2A3
100
AcDbEntity
  8
0
100
AcDbLine
 62
7
  6
CONTINUOUS
 10
-5.75
 20
-1.6239977632
 11
-5.75
 21
-0.719829218
  0
LINE
  5
2A4
100
AcDbEntity
  8
0
100
AcDbLine
 62
253
  6
CONTINUOUS
 10
-5.5
 20
-1.8369263228
 11
-5.5
 21
-1.8722803023
  0
LINE
  5
2A5
100
AcDbEntity
  8
0
100
AcDbLine
 62
7
  6
CONTINUOUS
 10
-5.35
 20
-1.8722803024
 11
-5.35
 21
-1.8369263229
  0
LINE
  5
2A6
100
AcDbEntity
  8
0
100
AcDbLine
 62
253
  6
CONTINUOUS
 10
-9.8442289186
 20
-7.7506693966
 11
-9.9351102358
 21
-7.9318963079
  0
LINE
  5
2A7
100
AcDbEntity
  8
0
100
AcDbLine
 62
7
  6
CONTINUOUS
 10
8.0284245206
 20
-7.919988811
 11
8.099928166
 21
-7.9398404253
  0
LINE
  5
2A8
100
AcDbEntity
  8
0
100
AcDbLine
 62
253
  6
CONTINUOUS
 10
9.0003111938
 20
-17.4749999999
 11
9.0309053367
 21
-17.505548107
  0
LINE
  5
2A9
100
AcDbEntity
  8
0
100
AcDbLine
 62
7
  6
CONTINUOUS
 10
-4.9371976569
 20
9.2819830565
 11
-4.9371976569
 21
7.5194801825
  0
LINE
  5
2AA
100
AcDbEntity
  8
0
100
AcDbLine
 62
7
  6
CONTINUOUS
 10
-4.6580393992
 20
7.5194801825
 11
-4.6580393992
 21
9.2819830565
  0
LINE
  5
2AB
100
AcDbEntity
  8
0
100
AcDbLine
 62
7
  6
CONTINUOUS
 10
-4.0235888134
 20
9.2819830565
 11
-4.0235888134
 21
9.5478052248
  0
LINE
  5
2AC
100
AcDbEntity
  8
0
100
AcDbLine
 62
253
  6
CONTINUOUS
 10
-4.0
 20
10.95
 11
-4.0
 21
10.85
  0
LINE
  5
2AD
100
AcDbEntity
  8
0
100
AcDbLine
 62
253
  6
CONTINUOUS
 10
-4.0
 20
10.622007492
 11
-4.0
 21
10.6134313985
  0
LINE
  5
2AE
100
AcDbEntity
  8
0
100
AcDbLine
 62
7
  6
CONTINUOUS
 10
-3.425
 20
10.1318587994
 11
-3.425
 21
6.860254706
  0
LINE
  5
2AF
100
AcDbEntity
  8
0
100
AcDbLine
 62
253
  6
CONTINUOUS
 10
-9.6737622714
 20
-8.1588829294
 11
-9.5942306449
 21
-8.0000000874
  0
LINE
  5
2B0
100
AcDbEntity
  8
0
100
AcDbLine
 62
253
  6
CONTINUOUS
 10
8.8800184988
 20
-4.4256704023
 11
1.4435536434
 21
-4.4256704023
  0
LINE
  5
2B1
100
AcDbEntity
  8
0
100
AcDbLine
 62
253
  6
CONTINUOUS
 10
-1.4435694249
 20
-4.4256607049
 11
-8.8800137004
 21
-4.4256607049
  0
LINE
  5
2B2
100
AcDbEntity
  8
0
100
AcDbLine
 62
253
  6
CONTINUOUS
 10
9.5263436082
 20
-4.4256559757
 11
9.2258129614
 21
-4.4256559757
  0
LINE
  5
2B3
100
AcDbEntity
  8
0
100
AcDbLine
 62
253
  6
CONTINUOUS
 10
-9.2258407536
 20
-4.425655355
 11
-9.5262969767
 21
-4.425655355
  0
LINE
  5
2B4
100
AcDbEntity
  8
0
100
AcDbLine
 62
253
  6
CONTINUOUS
 10
-8.8757713671
 20
-4.3897055752
 11
-8.9752515091
 21
-4.3897055752
  0
LINE
  5
2B5
100
AcDbEntity
  8
0
100
AcDbLine
 62
253
  6
CONTINUOUS
 10
-1.4959195733
 20
-4.3896881644
 11
1.4959195733
 21
-4.3896881644
  0
LINE
  5
2B6
100
AcDbEntity
  8
0
100
AcDbLine
 62
253
  6
CONTINUOUS
 10
8.8757716756
 20
-4.3896683796
 11
8.9753360696
 21
-4.3896683796
  0
LINE
  5
2B7
100
AcDbEntity
  8
0
100
AcDbLine
 62
7
  6
CONTINUOUS
 10
1.7601106157
 20
-8.0877767119
 11
1.7945682313
 21
-8.1222343626
  0
LINE
  5
2B8
100
AcDbEntity
  8
RACCORDO
100
AcDbLine
 62
7
  6
CONTINUOUS
 10
-3.0794144969
 20
21.9320454786
 11
-3.0794144969
 21
21.7913112106
  0
LINE
  5
2B9
100
AcDbEntity
  8
ASSI
100
AcDbLine
 62
7
  6
CONTINUOUS
 10
-3.0794144969
 20
21.9320454786
 11
-3.0794144969
 21
21.7913112106
  0
LINE
  5
2BA
100
AcDbEntity
  8
RACCORDO
100
AcDbLine
 62
7
  6
CONTINUOUS
 10
-3.0794144969
 20
-21.7913112106
 11
-3.0794144969
 21
-21.9320454786
  0
LINE
  5
2BB
100
AcDbEntity
  8
ASSI
100
AcDbLine
 62
7
  6
CONTINUOUS
 10
-3.0794144969
 20
-21.7913112106
 11
-3.0794144969
 21
-21.9320454786
  0
LINE
  5
2BC
100
AcDbEntity
  8
0
100
AcDbLine
 62
7
  6
CONTINUOUS
 10
-2.9
 20
-20.7254268155
 11
-2.9
 21
-21.864175586
  0
LINE
  5
2BD
100
AcDbEntity
  8
RACCORDO
100
AcDbLine
 62
7
  6
CONTINUOUS
 10
-2.9
 20
-21.864175586
 11
-2.9
 21
-21.8832102554
  0
LINE
  5
2BE
100
AcDbEntity
  8
0
100
AcDbLine
 62
7
  6
CONTINUOUS
 10
-2.9
 20
20.7254268155
 11
-2.9
 21
21.864175586
  0
LINE
  5
2BF
100
AcDbEntity
  8
RACCORDO
100
AcDbLine
 62
7
  6
CONTINUOUS
 10
-2.9
 20
21.864175586
 11
-2.9
 21
21.8832102554
  0
LINE
  5
2C0
100
AcDbEntity
  8
0
100
AcDbLine
 62
253
  6
CONTINUOUS
 10
-2.5439373931
 20
-14.0
 11
-2.543766666
 21
-8.1475094854
  0
LINE
  5
2C1
100
AcDbEntity
  8
RACCORDO
100
AcDbLine
 62
7
  6
CONTINUOUS
 10
-2.5
 20
23.35
 11
-2.5
 21
23.2348625715
  0
LINE
  5
2C2
100
AcDbEntity
  8
0
100
AcDbLine
 62
7
  6
CONTINUOUS
 10
-2.5
 20
-23.35
 11
-2.5
 21
-23.55
  0
LINE
  5
2C3
100
AcDbEntity
  8
RACCORDO
100
AcDbLine
 62
7
  6
CONTINUOUS
 10
-2.5
 20
-23.2348625715
 11
-2.5
 21
-23.35
  0
LINE
  5
2C4
100
AcDbEntity
  8
0
100
AcDbLine
 62
7
  6
CONTINUOUS
 10
-2.5
 20
23.35
 11
-2.5
 21
23.55
  0
LINE
  5
2C5
100
AcDbEntity
  8
RACCORDO
100
AcDbLine
 62
253
  6
CONTINUOUS
 10
-2.2
 20
23.35
 11
-2.2
 21
23.1371921251
  0
LINE
  5
2C6
100
AcDbEntity
  8
RACCORDO
100
AcDbLine
 62
253
  6
CONTINUOUS
 10
-2.2
 20
-23.35
 11
-2.2
 21
-23.1371921251
  0
LINE
  5
2C7
100
AcDbEntity
  8
0
100
AcDbLine
 62
7
  6
CONTINUOUS
 10
-1.9
 20
19.043634339
 11
-1.9
 21
18.9
  0
LINE
  5
2C8
100
AcDbEntity
  8
0
100
AcDbLine
 62
7
  6
CONTINUOUS
 10
-1.9
 20
-18.9
 11
-1.9
 21
-19.0
  0
LINE
  5
2C9
100
AcDbEntity
  8
0
100
AcDbLine
 62
253
  6
CONTINUOUS
 10
-1.7945604417
 20
-8.1222264887
 11
-1.7945604417
 21
-14.0
  0
LINE
  5
2CA
100
AcDbEntity
  8
0
100
AcDbLine
 62
253
  6
CONTINUOUS
 10
-1.7601106157
 20
-14.0
 11
-1.7601106157
 21
-8.0877767119
  0
LINE
  5
2CB
100
AcDbEntity
  8
0
100
AcDbLine
 62
7
  6
CONTINUOUS
 10
-2.2000496937
 20
-8.021792865
 11
-2.2000169619
 21
-7.9708103948
  0
LINE
  5
2CC
100
AcDbEntity
  8
0
100
AcDbLine
 62
253
  6
CONTINUOUS
 10
9.0003024346
 20
17.475
 11
8.8034364381
 21
17.1796612801
  0
LINE
  5
2CD
100
AcDbEntity
  8
0
100
AcDbLine
 62
7
  6
CONTINUOUS
 10
10.0000642172
 20
16.4752225408
 11
10.03060582
 21
16.5156298388
  0
LINE
  5
2CE
100
AcDbEntity
  8
0
100
AcDbLine
 62
7
  6
CONTINUOUS
 10
6.25
 20
-2.9397891191
 11
5.75
 21
-2.9397891191
  0
LINE
  5
2CF
100
AcDbEntity
  8
0
100
AcDbLine
 62
7
  6
CONTINUOUS
 10
6.65
 20
-1.8739346322
 11
6.5
 21
-1.8739346322
  0
LINE
  5
2D0
100
AcDbEntity
  8
0
100
AcDbLine
 62
7
  6
CONTINUOUS
 10
5.5
 20
-1.8739346322
 11
5.35
 21
-1.8739346322
  0
LINE
  5
2D1
100
AcDbEntity
  8
0
100
AcDbLine
 62
7
  6
CONTINUOUS
 10
-6.65
 20
-1.8722803023
 11
-6.5
 21
-1.8722803023
  0
LINE
  5
2D2
100
AcDbEntity
  8
0
100
AcDbLine
 62
7
  6
CONTINUOUS
 10
-5.5
 20
-1.8722803023
 11
-5.35
 21
-1.8722803023
  0
LINE
  5
2D3
100
AcDbEntity
  8
0
100
AcDbLine
 62
7
  6
CONTINUOUS
 10
-5.35
 20
-1.8369263228
 11
-5.5
 21
-1.8369263228
  0
LINE
  5
2D4
100
AcDbEntity
  8
0
100
AcDbLine
 62
7
  6
CONTINUOUS
 10
-6.5
 20
-1.8369263228
 11
-6.65
 21
-1.8369263228
  0
LINE
  5
2D5
100
AcDbEntity
  8
0
100
AcDbLine
 62
7
  6
CONTINUOUS
 10
-0.8866073694
 20
-2.5938132256
 11
-0.1476249523
 21
-2.900252432
  0
LINE
  5
2D6
100
AcDbEntity
  8
0
100
AcDbLine
 62
7
  6
CONTINUOUS
 10
-0.2429612503
 20
-2.669832384
 11
-0.6561873214
 21
-2.4984769276
  0
LINE
  5
2D7
100
AcDbEntity
  8
0
100
AcDbLine
 62
7
  6
CONTINUOUS
 10
-0.421136949
 20
-1.839584707
 11
-2.5901827007
 21
-0.9401307503
  0
LINE
  5
2D8
100
AcDbEntity
  8
0
100
AcDbLine
 62
7
  6
CONTINUOUS
 10
-1.2159163936
 20
-1.2761060093
 11
-0.3383747733
 21
-1.640002567
  0
LINE
  5
2D9
100
AcDbEntity
  8
0
100
AcDbLine
 62
7
  6
CONTINUOUS
 10
0.140002567
 20
-1.8383747733
 11
1.0175441872
 21
-2.202271331
  0
LINE
  5
2DA
100
AcDbEntity
  8
0
100
AcDbLine
 62
7
  6
CONTINUOUS
 10
0.9984769276
 20
-2.1561873214
 11
0.1209353074
 21
-1.7922907637
  0
LINE
  5
2DB
100
AcDbEntity
  8
0
100
AcDbLine
 62
7
  6
CONTINUOUS
 10
-0.2922907637
 20
-1.6209353074
 11
-1.169832384
 21
-1.2570387497
  0
LINE
  5
2DC
100
AcDbEntity
  8
0
100
AcDbLine
 62
7
  6
CONTINUOUS
 10
0.0572403913
 20
-2.0379569133
 11
2.2262861431
 21
-2.93741087
  0
LINE
  5
2DD
100
AcDbEntity
  8
0
100
AcDbLine
 62
7
  6
CONTINUOUS
 10
10.03060582
 20
-16.5116851777
 11
10.0005936174
 21
-16.4756092048
  0
LINE
  5
2DE
100
AcDbEntity
  8
0
100
AcDbLine
 62
253
  6
CONTINUOUS
 10
8.9607609241
 20
-17.4156773038
 11
9.0003111936
 21
-17.4749999999
  0
LINE
  5
2DF
100
AcDbEntity
  8
0
100
AcDbLine
 62
253
  6
CONTINUOUS
 10
-1.4603015567
 20
-8.0776660962
 11
-1.4603015567
 21
-14.0005189917
  0
LINE
  5
2E0
100
AcDbEntity
  8
0
100
AcDbLine
 62
7
  6
CONTINUOUS
 10
-0.4230974353
 20
3.2243062185
 11
-0.4230974353
 21
3.5531260462
  0
LINE
  5
2E1
100
AcDbEntity
  8
0
100
AcDbLine
 62
7
  6
CONTINUOUS
 10
-0.4230974353
 20
5.9282999878
 11
-0.4230974353
 21
6.2582493056
  0
LINE
  5
2E2
100
AcDbEntity
  8
0
100
AcDbLine
 62
7
  6
CONTINUOUS
 10
-1.0175441872
 20
-0.797728669
 11
-1.2159163936
 21
-1.2761060093
  0
LINE
  5
2E3
100
AcDbEntity
  8
0
100
AcDbLine
 62
7
  6
CONTINUOUS
 10
-1.169832384
 20
-1.2570387497
 11
-0.9984769276
 21
-0.8438126786
  0
LINE
  5
2E4
100
AcDbEntity
  8
0
100
AcDbLine
 62
7
  6
CONTINUOUS
 10
0.1476249523
 20
-0.099747568
 11
-0.1875429297
 21
-0.9080095867
  0
LINE
  5
2E5
100
AcDbEntity
  8
0
100
AcDbLine
 62
7
  6
CONTINUOUS
 10
-0.5514394873
 20
-1.7855512069
 11
-0.8866073694
 21
-2.5938132256
  0
LINE
  5
2E6
100
AcDbEntity
  8
0
100
AcDbLine
 62
253
  6
CONTINUOUS
 10
9.7705833576
 20
16.130961403
 11
10.000000005
 21
16.475222541
  0
LINE
  5
2E7
100
AcDbEntity
  8
0
100
AcDbLine
 62
7
  6
CONTINUOUS
 10
-6.25
 20
-0.7551927941
 11
-5.75
 21
-0.7551927941
  0
LINE
  5
2E8
100
AcDbEntity
  8
0
100
AcDbLine
 62
7
  6
CONTINUOUS
 10
-5.75
 20
-0.7198292179
 11
-6.25
 21
-0.7198292179
  0
LINE
  5
2E9
100
AcDbEntity
  8
0
100
AcDbLine
 62
7
  6
CONTINUOUS
 10
0.8775416203
 20
-1.8638965577
 11
-0.8775416203
 21
-1.1361034423
  0
LINE
  5
2EA
100
AcDbEntity
  8
0
100
AcDbLine
 62
7
  6
CONTINUOUS
 10
-0.9984769276
 20
-0.8438126786
 11
-0.1209353074
 21
-1.2077092363
  0
LINE
  5
2EB
100
AcDbEntity
  8
0
100
AcDbLine
 62
7
  6
CONTINUOUS
 10
0.2922907637
 20
-1.3790646926
 11
1.169832384
 21
-1.7429612503
  0
LINE
  5
2EC
100
AcDbEntity
  8
0
100
AcDbLine
 62
7
  6
CONTINUOUS
 10
1.2159163936
 20
-1.7238939907
 11
0.3383747733
 21
-1.359997433
  0
LINE
  5
2ED
100
AcDbEntity
  8
0
100
AcDbLine
 62
7
  6
CONTINUOUS
 10
-0.140002567
 20
-1.1616252267
 11
-1.0175441872
 21
-0.797728669
  0
LINE
  5
2EE
100
AcDbEntity
  8
0
100
AcDbLine
 62
7
  6
CONTINUOUS
 10
0.4211369492
 20
-1.1604152931
 11
2.5901827007
 21
-2.0598692497
  0
LINE
  5
2EF
100
AcDbEntity
  8
0
100
AcDbLine
 62
7
  6
CONTINUOUS
 10
0.2429612503
 20
-0.330167616
 11
0.6561873214
 21
-0.5015230724
  0
LINE
  5
2F0
100
AcDbEntity
  8
0
100
AcDbLine
 62
7
  6
CONTINUOUS
 10
0.8866073694
 20
-0.4061867744
 11
0.1476249523
 21
-0.099747568
  0
LINE
  5
2F1
100
AcDbEntity
  8
0
100
AcDbLine
 62
7
  6
CONTINUOUS
 10
-0.0572403913
 20
-0.9620430867
 11
-2.2262861431
 21
-0.06258913
  0
LINE
  5
2F2
100
AcDbEntity
  8
0
100
AcDbLine
 62
253
  6
CONTINUOUS
 10
10.000000005
 20
-16.4751340294
 11
9.9606088435
 21
-16.4160207716
  0
LINE
  5
2F3
100
AcDbEntity
  8
0
100
AcDbLine
 62
7
  6
CONTINUOUS
 10
-1.0175441872
 20
-0.797728669
 11
-0.8775416203
 21
-1.1361034423
  0
LINE
  5
2F4
100
AcDbEntity
  8
0
100
AcDbLine
 62
7
  6
CONTINUOUS
 10
-0.3638965577
 20
-2.3775416203
 11
-0.1476249523
 21
-2.900252432
  0
LINE
  5
2F5
100
AcDbEntity
  8
0
100
AcDbLine
 62
7
  6
CONTINUOUS
 10
0.140002567
 20
-1.8383747733
 11
-0.140002567
 21
-1.1616252267
  0
LINE
  5
2F6
100
AcDbEntity
  8
0
100
AcDbLine
 62
7
  6
CONTINUOUS
 10
1.0175441872
 20
-2.202271331
 11
0.8775416203
 21
-1.8638965577
  0
LINE
  5
2F7
100
AcDbEntity
  8
0
100
AcDbLine
 62
7
  6
CONTINUOUS
 10
0.3638965577
 20
-0.6224583797
 11
0.1476249523
 21
-0.099747568
  0
LINE
  5
2F8
100
AcDbEntity
  8
ASSI
100
AcDbLine
 62
7
  6
CONTINUOUS
 10
-6.518337521
 20
19.0
 11
-6.5400901601
 21
19.0697794555
  0
LINE
  5
2F9
100
AcDbEntity
  8
0
100
AcDbLine
 62
253
  6
CONTINUOUS
 10
1.4603014626
 20
-14.0002676025
 11
1.4603014626
 21
-8.0776660962
  0
LINE
  5
2FA
100
AcDbEntity
  8
0
100
AcDbLine
 62
253
  6
CONTINUOUS
 10
1.7601106157
 20
-8.0877767119
 11
1.7601106157
 21
-14.0
  0
LINE
  5
2FB
100
AcDbEntity
  8
0
100
AcDbLine
 62
253
  6
CONTINUOUS
 10
1.7945682313
 20
-14.0
 11
1.7945682313
 21
-8.1222343626
  0
LINE
  5
2FC
100
AcDbEntity
  8
0
100
AcDbLine
 62
7
  6
CONTINUOUS
 10
1.9
 20
-18.9
 11
1.9
 21
-19.0
  0
LINE
  5
2FD
100
AcDbEntity
  8
0
100
AcDbLine
 62
7
  6
CONTINUOUS
 10
1.9
 20
18.9
 11
1.9
 21
19.043634339
  0
LINE
  5
2FE
100
AcDbEntity
  8
ASSI
100
AcDbLine
 62
7
  6
CONTINUOUS
 10
6.518337521
 20
19.0
 11
6.5400901601
 21
19.0697794555
  0
LINE
  5
2FF
100
AcDbEntity
  8
0
100
AcDbLine
 62
7
  6
CONTINUOUS
 10
-0.0572403914
 20
-0.9620430868
 11
-0.140002567
 21
-1.1616252267
  0
LINE
  5
300
100
AcDbEntity
  8
0
100
AcDbLine
 62
7
  6
CONTINUOUS
 10
-0.3383747733
 20
-1.640002567
 11
-0.4211369489
 21
-1.8395847068
  0
LINE
  5
301
100
AcDbEntity
  8
0
100
AcDbLine
 62
7
  6
CONTINUOUS
 10
-0.6561873214
 20
-2.4984769276
 11
-0.2922907637
 21
-1.6209353074
  0
LINE
  5
302
100
AcDbEntity
  8
0
100
AcDbLine
 62
7
  6
CONTINUOUS
 10
-0.1209353074
 20
-1.2077092363
 11
0.2429612503
 21
-0.330167616
  0
LINE
  5
303
100
AcDbEntity
  8
0
100
AcDbLine
 62
7
  6
CONTINUOUS
 10
-0.3638965577
 20
-2.3775416203
 11
0.3638965577
 21
-0.6224583797
  0
LINE
  5
304
100
AcDbEntity
  8
0
100
AcDbLine
 62
7
  6
CONTINUOUS
 10
0.6561873214
 20
-0.5015230724
 11
0.2922907637
 21
-1.3790646926
  0
LINE
  5
305
100
AcDbEntity
  8
0
100
AcDbLine
 62
7
  6
CONTINUOUS
 10
0.1209353074
 20
-1.7922907637
 11
-0.2429612503
 21
-2.669832384
  0
LINE
  5
306
100
AcDbEntity
  8
0
100
AcDbLine
 62
7
  6
CONTINUOUS
 10
0.0572403914
 20
-2.0379569132
 11
0.140002567
 21
-1.8383747733
  0
LINE
  5
307
100
AcDbEntity
  8
0
100
AcDbLine
 62
7
  6
CONTINUOUS
 10
-0.1476249523
 20
-2.900252432
 11
0.1875429297
 21
-2.0919904133
  0
LINE
  5
308
100
AcDbEntity
  8
0
100
AcDbLine
 62
7
  6
CONTINUOUS
 10
0.5514394874
 20
-1.2144487931
 11
0.8866073694
 21
-0.4061867744
  0
LINE
  5
309
100
AcDbEntity
  8
0
100
AcDbLine
 62
7
  6
CONTINUOUS
 10
1.169832384
 20
-1.7429612503
 11
0.9984769276
 21
-2.1561873214
  0
LINE
  5
30A
100
AcDbEntity
  8
0
100
AcDbLine
 62
7
  6
CONTINUOUS
 10
1.0175441872
 20
-2.202271331
 11
1.2159163936
 21
-1.7238939907
  0
LINE
  5
30B
100
AcDbEntity
  8
0
100
AcDbLine
 62
7
  6
CONTINUOUS
 10
0.3383747733
 20
-1.359997433
 11
0.4211369492
 21
-1.1604152931
  0
LINE
  5
30C
100
AcDbEntity
  8
0
100
AcDbLine
 62
253
  6
CONTINUOUS
 10
-9.9606088343
 20
-16.4160405963
 11
-9.9999999981
 21
-16.4752225241
  0
LINE
  5
30D
100
AcDbEntity
  8
0
100
AcDbLine
 62
7
  6
CONTINUOUS
 10
0.8866073694
 20
-0.4061867744
 11
0.3638965577
 21
-0.6224583797
  0
LINE
  5
30E
100
AcDbEntity
  8
0
100
AcDbLine
 62
7
  6
CONTINUOUS
 10
-1.2159163936
 20
-1.2761060093
 11
-0.8775416203
 21
-1.1361034423
  0
LINE
  5
30F
100
AcDbEntity
  8
0
100
AcDbLine
 62
7
  6
CONTINUOUS
 10
-0.3383747733
 20
-1.640002567
 11
0.3383747733
 21
-1.359997433
  0
LINE
  5
310
100
AcDbEntity
  8
0
100
AcDbLine
 62
7
  6
CONTINUOUS
 10
1.2159163936
 20
-1.7238939907
 11
0.8775416203
 21
-1.8638965577
  0
LINE
  5
311
100
AcDbEntity
  8
0
100
AcDbLine
 62
7
  6
CONTINUOUS
 10
-0.8866073694
 20
-2.5938132256
 11
-0.3638965577
 21
-2.3775416203
  0
LINE
  5
312
100
AcDbEntity
  8
0
100
AcDbLine
 62
253
  6
CONTINUOUS
 10
-9.9999999981
 20
16.4751683849
 11
-9.7705832361
 21
16.1309532285
  0
LINE
  5
313
100
AcDbEntity
  8
0
100
AcDbLine
 62
7
  6
CONTINUOUS
 10
2.2000596863
 20
-8.0217928646
 11
2.2000170499
 21
-7.9665056908
  0
LINE
  5
314
100
AcDbEntity
  8
0
100
AcDbLine
 62
7
  6
CONTINUOUS
 10
2.1993809797
 20
3.2243062185
 11
2.1993809797
 21
3.5531260514
  0
LINE
  5
315
100
AcDbEntity
  8
0
100
AcDbLine
 62
7
  6
CONTINUOUS
 10
2.1993809797
 20
4.5751011834
 11
2.1993809797
 21
4.9044827207
  0
LINE
  5
316
100
AcDbEntity
  8
0
100
AcDbLine
 62
7
  6
CONTINUOUS
 10
2.1993809797
 20
5.9282999878
 11
2.1993809797
 21
6.2582492986
  0
LINE
  5
317
100
AcDbEntity
  8
RACCORDO
100
AcDbLine
 62
253
  6
CONTINUOUS
 10
2.2
 20
23.35
 11
2.2
 21
23.1371921251
  0
LINE
  5
318
100
AcDbEntity
  8
RACCORDO
100
AcDbLine
 62
253
  6
CONTINUOUS
 10
2.2
 20
-23.35
 11
2.2
 21
-23.1371921251
  0
LINE
  5
319
100
AcDbEntity
  8
RACCORDO
100
AcDbLine
 62
7
  6
CONTINUOUS
 10
2.5
 20
-23.35
 11
2.5
 21
-23.2348625715
  0
LINE
  5
31A
100
AcDbEntity
  8
0
100
AcDbLine
 62
7
  6
CONTINUOUS
 10
2.5
 20
-23.35
 11
2.5
 21
-23.55
  0
LINE
  5
31B
100
AcDbEntity
  8
0
100
AcDbLine
 62
7
  6
CONTINUOUS
 10
2.5
 20
23.35
 11
2.5
 21
23.55
  0
LINE
  5
31C
100
AcDbEntity
  8
RACCORDO
100
AcDbLine
 62
7
  6
CONTINUOUS
 10
2.5
 20
23.2348625715
 11
2.5
 21
23.35
  0
LINE
  5
31D
100
AcDbEntity
  8
0
100
AcDbLine
 62
253
  6
CONTINUOUS
 10
2.5441267035
 20
-8.1475074857
 11
2.5441174118
 21
-14.0
  0
LINE
  5
31E
100
AcDbEntity
  8
0
100
AcDbLine
 62
7
  6
CONTINUOUS
 10
2.9
 20
-20.7254268154
 11
2.9
 21
-21.864175586
  0
LINE
  5
31F
100
AcDbEntity
  8
RACCORDO
100
AcDbLine
 62
7
  6
CONTINUOUS
 10
2.9
 20
-21.864175586
 11
2.9
 21
-21.8832102554
  0
LINE
  5
320
100
AcDbEntity
  8
0
100
AcDbLine
 62
7
  6
CONTINUOUS
 10
2.9
 20
20.7254268154
 11
2.9
 21
21.864175586
  0
LINE
  5
321
100
AcDbEntity
  8
RACCORDO
100
AcDbLine
 62
7
  6
CONTINUOUS
 10
2.9
 20
21.864175586
 11
2.9
 21
21.8832102554
  0
LINE
  5
322
100
AcDbEntity
  8
RACCORDO
100
AcDbLine
 62
7
  6
CONTINUOUS
 10
3.0794144969
 20
21.9320454786
 11
3.0794144969
 21
21.7913112106
  0
LINE
  5
323
100
AcDbEntity
  8
ASSI
100
AcDbLine
 62
7
  6
CONTINUOUS
 10
3.0794144969
 20
21.9320454786
 11
3.0794144969
 21
21.7913112106
  0
LINE
  5
324
100
AcDbEntity
  8
RACCORDO
100
AcDbLine
 62
7
  6
CONTINUOUS
 10
3.0794144969
 20
-21.7913112106
 11
3.0794144969
 21
-21.9320454786
  0
LINE
  5
325
100
AcDbEntity
  8
ASSI
100
AcDbLine
 62
7
  6
CONTINUOUS
 10
3.0794144969
 20
-21.7913112106
 11
3.0794144969
 21
-21.9320454786
  0
LINE
  5
326
100
AcDbEntity
  8
0
100
AcDbLine
 62
253
  6
CONTINUOUS
 10
-9.0002964086
 20
-17.4749999999
 11
-8.9607616356
 21
-17.4156773038
  0
LINE
  5
327
100
AcDbEntity
  8
0
100
AcDbLine
 62
7
  6
CONTINUOUS
 10
-10.0304838735
 20
16.512939088
 11
-10.0002309579
 21
16.4754421043
  0
LINE
  5
328
100
AcDbEntity
  8
0
100
AcDbLine
 62
253
  6
CONTINUOUS
 10
-8.8034371069
 20
17.1796612801
 11
-9.0003045923
 21
17.475
  0
LINE
  5
329
100
AcDbEntity
  8
0
100
AcDbLine
 62
253
  6
CONTINUOUS
 10
4.0
 20
10.6134313985
 11
4.0
 21
10.622007492
  0
LINE
  5
32A
100
AcDbEntity
  8
0
100
AcDbLine
 62
253
  6
CONTINUOUS
 10
4.0
 20
10.85
 11
4.0
 21
10.95
  0
LINE
  5
32B
100
AcDbEntity
  8
0
100
AcDbLine
 62
7
  6
CONTINUOUS
 10
5.35
 20
-1.8739346322
 11
5.35
 21
-1.8385806641
  0
LINE
  5
32C
100
AcDbEntity
  8
0
100
AcDbLine
 62
253
  6
CONTINUOUS
 10
-9.9999357866
 20
-16.4752225245
 11
-10.0304838735
 21
-16.5057861063
  0
LINE
  5
32D
100
AcDbEntity
  8
0
100
AcDbLine
 62
7
  6
CONTINUOUS
 10
-1.7945604417
 20
-8.1222264887
 11
-1.7601106157
 21
-8.0877767119
  0
LINE
  5
32E
100
AcDbEntity
  8
0
100
AcDbLine
 62
7
  6
CONTINUOUS
 10
2.1993809797
 20
4.5751011834
 11
1.0087928897
 21
4.5751011834
  0
LINE
  5
32F
100
AcDbEntity
  8
0
100
AcDbLine
 62
7
  6
CONTINUOUS
 10
1.0087928897
 20
4.8756040284
 11
2.1993809797
 21
4.8756040284
  0
LINE
  5
330
100
AcDbEntity
  8
0
100
AcDbLine
 62
7
  6
CONTINUOUS
 10
2.1993809797
 20
4.9044827207
 11
1.0087928897
 21
4.9044827207
  0
LINE
  5
331
100
AcDbEntity
  8
0
100
AcDbLine
 62
253
  6
CONTINUOUS
 10
9.9351102369
 20
-7.9318962684
 11
9.8442289351
 21
-7.75066809
  0
LINE
  5
332
100
AcDbEntity
  8
0
100
AcDbLine
 62
253
  6
CONTINUOUS
 10
9.5943126134
 20
-8.0000001062
 11
9.6737550165
 21
-8.1588826163
  0
LINE
  5
333
100
AcDbEntity
  8
0
100
AcDbLine
 62
7
  6
CONTINUOUS
 10
5.75
 20
-2.1221348147
 11
5.75
 21
-2.9397891191
  0
LINE
  5
334
100
AcDbEntity
  8
DRAFT
100
AcDbLine
 62
7
  6
CONTINUOUS
 10
5.8690969831
 20
20.6944048997
 11
5.8690969831
 21
19.9650931934
  0
LINE
  5
335
100
AcDbEntity
  8
ASSI
100
AcDbLine
 62
7
  6
CONTINUOUS
 10
5.8690969831
 20
20.6944048997
 11
5.8690969831
 21
19.9650931934
  0
LINE
  5
336
100
AcDbEntity
  8
DRAFT
100
AcDbLine
 62
7
  6
CONTINUOUS
 10
5.8690969831
 20
-20.6944048997
 11
5.8690969831
 21
-19.9650931934
  0
LINE
  5
337
100
AcDbEntity
  8
ASSI
100
AcDbLine
 62
7
  6
CONTINUOUS
 10
5.8690969831
 20
-20.6944048997
 11
5.8690969831
 21
-19.9650931934
  0
LINE
  5
338
100
AcDbEntity
  8
RACCORDO
100
AcDbLine
 62
7
  6
CONTINUOUS
 10
5.9746920834
 20
22.0948295558
 11
5.9746920834
 21
21.7913112106
  0
LINE
  5
339
100
AcDbEntity
  8
ASSI
100
AcDbLine
 62
7
  6
CONTINUOUS
 10
5.9746920834
 20
22.0948295558
 11
5.9746920834
 21
21.7913112106
  0
LINE
  5
33A
100
AcDbEntity
  8
RACCORDO
100
AcDbLine
 62
7
  6
CONTINUOUS
 10
5.9746920834
 20
-21.7913112106
 11
5.9746920834
 21
-22.0948295558
  0
LINE
  5
33B
100
AcDbEntity
  8
ASSI
100
AcDbLine
 62
7
  6
CONTINUOUS
 10
5.9746920834
 20
-21.7913112106
 11
5.9746920834
 21
-22.0948295558
  0
LINE
  5
33C
100
AcDbEntity
  8
SMUSSO
100
AcDbLine
 62
7
  6
CONTINUOUS
 10
6.0
 20
23.8488584094
 11
6.0
 21
22.0948295558
  0
LINE
  5
33D
100
AcDbEntity
  8
SMUSSO
100
AcDbLine
 62
7
  6
CONTINUOUS
 10
6.0
 20
-23.8488584094
 11
6.0
 21
-22.0948295558
  0
LINE
  5
33E
100
AcDbEntity
  8
SMUSSO
100
AcDbLine
 62
7
  6
CONTINUOUS
 10
6.0
 20
-23.8488584094
 11
6.0
 21
-24.0784623642
  0
LINE
  5
33F
100
AcDbEntity
  8
0
100
AcDbLine
 62
7
  6
CONTINUOUS
 10
6.0
 20
-24.0784623642
 11
6.0
 21
-25.0499370253
  0
LINE
  5
340
100
AcDbEntity
  8
SMUSSO
100
AcDbLine
 62
7
  6
CONTINUOUS
 10
6.0
 20
23.8488584094
 11
6.0
 21
24.0784623642
  0
LINE
  5
341
100
AcDbEntity
  8
0
100
AcDbLine
 62
7
  6
CONTINUOUS
 10
6.0
 20
24.0784623642
 11
6.0
 21
25.0499370253
  0
LINE
  5
342
100
AcDbEntity
  8
0
100
AcDbLine
 62
7
  6
CONTINUOUS
 10
6.0
 20
-0.719829218
 11
5.9999999374
 21
-0.755192902
  0
LINE
  5
343
100
AcDbEntity
  8
0
100
AcDbLine
 62
7
  6
CONTINUOUS
 10
6.25
 20
-2.9397891191
 11
6.25
 21
-2.1221348148
  0
LINE
  5
344
100
AcDbEntity
  8
ASSI
100
AcDbLine
 62
253
  6
CONTINUOUS
 10
6.45
 20
-19.9650931934
 11
6.45
 21
-19.0
  0
LINE
  5
345
100
AcDbEntity
  8
ASSI
100
AcDbLine
 62
253
  6
CONTINUOUS
 10
6.45
 20
19.0698149423
 11
6.45
 21
19.9650931934
  0
LINE
  5
346
100
AcDbEntity
  8
0
100
AcDbLine
 62
253
  6
CONTINUOUS
 10
6.5000000038
 20
13.6500000195
 11
6.5000000038
 21
14.2000000412
  0
LINE
  5
347
100
AcDbEntity
  8
0
100
AcDbLine
 62
7
  6
CONTINUOUS
 10
6.65
 20
-1.8385806641
 11
6.65
 21
-1.8739346322
  0
LINE
  5
348
100
AcDbEntity
  8
0
100
AcDbLine
 62
7
  6
CONTINUOUS
 10
6.7950128531
 20
14.190344491
 11
6.7950128531
 21
13.6497730543
  0
LINE
  5
349
100
AcDbEntity
  8
0
100
AcDbLine
 62
7
  6
CONTINUOUS
 10
6.8
 20
14.6989235089
 11
6.8
 21
15.6760119459
  0
LINE
  5
34A
100
AcDbEntity
  8
0
100
AcDbLine
 62
7
  6
CONTINUOUS
 10
7.0140471239
 20
13.6352293087
 11
7.0140517193
 21
13.9637409229
  0
LINE
  5
34B
100
AcDbEntity
  8
ASSI
100
AcDbLine
 62
7
  6
CONTINUOUS
 10
7.2334890005
 20
19.8708728895
 11
7.2334890005
 21
19.9667451334
  0
LINE
  5
34C
100
AcDbEntity
  8
DRAFT
100
AcDbLine
 62
7
  6
CONTINUOUS
 10
7.3
 20
-20.0
 11
7.3
 21
-19.8968626967
  0
LINE
  5
34D
100
AcDbEntity
  8
ASSI
100
AcDbLine
 62
7
  6
CONTINUOUS
 10
7.3
 20
-20.0
 11
7.3
 21
-19.8968626967
  0
LINE
  5
34E
100
AcDbEntity
  8
DRAFT
100
AcDbLine
 62
7
  6
CONTINUOUS
 10
7.3
 20
19.8968626967
 11
7.3
 21
20.0
  0
LINE
  5
34F
100
AcDbEntity
  8
ASSI
100
AcDbLine
 62
7
  6
CONTINUOUS
 10
7.3
 20
19.8968626967
 11
7.3
 21
20.0
  0
LINE
  5
350
100
AcDbEntity
  8
0
100
AcDbLine
 62
7
  6
CONTINUOUS
 10
7.3999999981
 20
19.4006922705
 11
7.3999999981
 21
18.9
  0
LINE
  5
351
100
AcDbEntity
  8
0
100
AcDbLine
 62
7
  6
CONTINUOUS
 10
7.4
 20
-18.9
 11
7.4
 21
-19.2602580074
  0
LINE
  5
352
100
AcDbEntity
  8
0
100
AcDbLine
 62
253
  6
CONTINUOUS
 10
-9.0307981361
 20
-17.505548107
 11
-9.0002964084
 21
-17.4749999999
  0
LINE
  5
353
100
AcDbEntity
  8
0
100
AcDbLine
 62
7
  6
CONTINUOUS
 10
-7.925
 20
6.860254706
 11
-3.425
 21
6.860254706
  0
LINE
  5
354
100
AcDbEntity
  8
0
100
AcDbLine
 62
7
  6
CONTINUOUS
 10
-3.425
 20
6.8957839611
 11
-7.925
 21
6.8957839611
  0
LINE
  5
355
100
AcDbEntity
  8
0
100
AcDbLine
 62
7
  6
CONTINUOUS
 10
-4.6580393992
 20
7.5194801825
 11
-4.9371976569
 21
7.5194801825
  0
LINE
  5
356
100
AcDbEntity
  8
0
100
AcDbLine
 62
7
  6
CONTINUOUS
 10
-5.8000504536
 20
7.5194803482
 11
-7.2465977891
 21
7.5194803482
  0
LINE
  5
357
100
AcDbEntity
  8
0
100
AcDbLine
 62
7
  6
CONTINUOUS
 10
8.2000081153
 20
-7.9708077622
 11
8.2000091268
 21
-8.0217746058
  0
LINE
  5
358
100
AcDbEntity
  8
0
100
AcDbLine
 62
7
  6
CONTINUOUS
 10
8.8999884939
 20
12.1252411332
 11
8.8999884939
 21
11.4000103346
  0
LINE
  5
359
100
AcDbEntity
  8
0
100
AcDbLine
 62
253
  6
CONTINUOUS
 10
8.9352617703
 20
-14.9165339942
 11
8.9352617703
 21
-8.1475074857
  0
LINE
  5
35A
100
AcDbEntity
  8
0
100
AcDbLine
 62
7
  6
CONTINUOUS
 10
8.9955671711
 20
11.400000014
 11
8.9955671711
 21
14.1806893403
  0
LINE
  5
35B
100
AcDbEntity
  8
0
100
AcDbLine
 62
253
  6
CONTINUOUS
 10
9.2456311812
 20
14.1806847079
 11
9.2456311812
 21
11.400001175
  0
LINE
  5
35C
100
AcDbEntity
  8
0
100
AcDbLine
 62
7
  6
CONTINUOUS
 10
-6.9674395314
 20
7.7491396804
 11
-5.8000504536
 21
7.7491396804
  0
LINE
  5
35D
100
AcDbEntity
  8
0
100
AcDbLine
 62
7
  6
CONTINUOUS
 10
-5.8000504536
 20
7.7846990452
 11
-6.9674395314
 21
7.7846990452
  0
LINE
  5
35E
100
AcDbEntity
  8
0
100
AcDbLine
 62
7
  6
CONTINUOUS
 10
-5.9269405707
 20
8.4385362717
 11
-6.9674395314
 21
8.4385362717
  0
LINE
  5
35F
100
AcDbEntity
  8
0
100
AcDbLine
 62
7
  6
CONTINUOUS
 10
-6.9674395314
 20
8.6684739153
 11
-5.9269405707
 21
8.6684739153
  0
LINE
  5
360
100
AcDbEntity
  8
0
100
AcDbLine
 62
7
  6
CONTINUOUS
 10
-5.9269405707
 20
8.7040685346
 11
-6.9674395314
 21
8.7040685346
  0
LINE
  5
361
100
AcDbEntity
  8
0
100
AcDbLine
 62
7
  6
CONTINUOUS
 10
-4.0235888134
 20
9.2819832475
 11
-4.6580393992
 21
9.2819832475
  0
LINE
  5
362
100
AcDbEntity
  8
0
100
AcDbLine
 62
7
  6
CONTINUOUS
 10
-4.9371976569
 20
9.2819830565
 11
-6.9674395314
 21
9.2819830565
  0
LINE
  5
363
100
AcDbEntity
  8
0
100
AcDbLine
 62
7
  6
CONTINUOUS
 10
-9.0003045923
 20
17.475
 11
-9.0378405358
 21
17.5055481033
  0
LINE
  5
364
100
AcDbEntity
  8
0
100
AcDbLine
 62
253
  6
CONTINUOUS
 10
9.5065021094
 20
11.400001175
 11
9.5065021094
 21
14.1806847079
  0
LINE
  5
365
100
AcDbEntity
  8
0
100
AcDbLine
 62
253
  6
CONTINUOUS
 10
9.756425462
 20
14.1789290082
 11
9.756424931
 21
11.4000031361
  0
LINE
  5
366
100
AcDbEntity
  8
0
100
AcDbLine
 62
253
  6
CONTINUOUS
 10
9.9351102369
 20
-7.9318962684
 11
9.9351102369
 21
-14.9158304034
  0
LINE
  5
367
100
AcDbEntity
  8
0
100
AcDbLine
 62
7
  6
CONTINUOUS
 10
10.000000005
 20
16.475222541
 11
10.000000005
 21
-16.4751340294
  0
LINE
  5
368
100
AcDbEntity
  8
0
100
AcDbLine
 62
7
  6
CONTINUOUS
 10
10.0306303255
 20
-18.0620926476
 11
10.0306021161
 21
18.062171798
  0
LINE
  5
369
100
AcDbEntity
  8
RACCORDO
100
AcDbLine
 62
7
  6
CONTINUOUS
 10
11.0
 20
16.7929011048
 11
11.0
 21
-16.7929011048
  0
LINE
  5
36A
100
AcDbEntity
  8
ASSI
100
AcDbLine
 62
7
  6
CONTINUOUS
 10
11.0
 20
16.7929011048
 11
11.0
 21
-16.7929011048
  0
LINE
  5
36B
100
AcDbEntity
  8
0
100
AcDbLine
 62
7
  6
CONTINUOUS
 10
9.5067372264
 20
14.4963634539
 11
9.5064395438
 21
14.1806893009
  0
LINE
  5
36C
100
AcDbEntity
  8
0
100
AcDbLine
 62
7
  6
CONTINUOUS
 10
8.2108930838
 20
-8.0000000462
 11
8.2000091268
 21
-8.0217746058
  0
LINE
  5
36D
100
AcDbEntity
  8
RACCORDO
100
AcDbLine
 62
7
  6
CONTINUOUS
 10
-5.8690969831
 20
-20.6944048997
 11
-5.9660413709
 21
-20.7913492875
  0
LINE
  5
36E
100
AcDbEntity
  8
ASSI
100
AcDbLine
 62
7
  6
CONTINUOUS
 10
-5.8690969831
 20
-20.6944048997
 11
-5.9660413709
 21
-20.7913492875
  0
LINE
  5
36F
100
AcDbEntity
  8
0
100
AcDbLine
 62
7
  6
CONTINUOUS
 10
-7.2465977891
 20
9.5121767397
 11
-4.0235888134
 21
9.5121767397
  0
LINE
  5
370
100
AcDbEntity
  8
0
100
AcDbLine
 62
7
  6
CONTINUOUS
 10
-4.0235888134
 20
9.5478052248
 11
-7.2465977891
 21
9.5478052248
  0
LINE
  5
371
100
AcDbEntity
  8
0
100
AcDbLine
 62
7
  6
CONTINUOUS
 10
-3.425
 20
10.1318587994
 11
-7.925
 21
10.1318587994
  0
LINE
  5
372
100
AcDbEntity
  8
0
100
AcDbLine
 62
7
  6
CONTINUOUS
 10
-4.0
 20
10.6134313985
 11
4.0
 21
10.6134313985
  0
LINE
  5
373
100
AcDbEntity
  8
0
100
AcDbLine
 62
7
  6
CONTINUOUS
 10
4.0
 20
10.622007492
 11
-4.0
 21
10.622007492
  0
LINE
  5
374
100
AcDbEntity
  8
0
100
AcDbLine
 62
7
  6
CONTINUOUS
 10
4.0000028998
 20
10.85
 11
-4.0000016653
 21
10.85
  0
LINE
  5
375
100
AcDbEntity
  8
0
100
AcDbLine
 62
253
  6
CONTINUOUS
 10
-4.0
 20
10.95
 11
4.0
 21
10.95
  0
LINE
  5
376
100
AcDbEntity
  8
RACCORDO
100
AcDbLine
 62
7
  6
CONTINUOUS
 10
-5.9660413709
 20
20.7913492875
 11
-5.8690969831
 21
20.6944048997
  0
LINE
  5
377
100
AcDbEntity
  8
ASSI
100
AcDbLine
 62
7
  6
CONTINUOUS
 10
-5.9660413709
 20
20.7913492875
 11
-5.8690969831
 21
20.6944048997
  0
LINE
  5
378
100
AcDbEntity
  8
RACCORDO
100
AcDbLine
 62
7
  6
CONTINUOUS
 10
-3.0707637844
 20
-20.7913492875
 11
-3.0086507125
 21
-20.7292362156
  0
LINE
  5
379
100
AcDbEntity
  8
ASSI
100
AcDbLine
 62
7
  6
CONTINUOUS
 10
-3.0707637844
 20
-20.7913492875
 11
-3.0086507125
 21
-20.7292362156
  0
LINE
  5
37A
100
AcDbEntity
  8
SMUSSO
100
AcDbLine
 62
7
  6
CONTINUOUS
 10
-5.7
 20
-23.55
 11
-6.0
 21
-23.8488584094
  0
LINE
  5
37B
100
AcDbEntity
  8
0
100
AcDbLine
 62
253
  6
CONTINUOUS
 10
-6.0210817571
 20
11.3999982851
 11
-5.6665824523
 21
11.3999982851
  0
LINE
  5
37C
100
AcDbEntity
  8
0
100
AcDbLine
 62
253
  6
CONTINUOUS
 10
-9.7564254337
 20
11.4000000212
 11
-6.0322408801
 21
11.3999814389
  0
LINE
  5
37D
100
AcDbEntity
  8
0
100
AcDbLine
 62
253
  6
CONTINUOUS
 10
6.0321508785
 20
11.4000103346
 11
9.7564254621
 21
11.4000093923
  0
LINE
  5
37E
100
AcDbEntity
  8
0
100
AcDbLine
 62
253
  6
CONTINUOUS
 10
5.6665973444
 20
11.4000110859
 11
6.0208627509
 21
11.4000110859
  0
LINE
  5
37F
100
AcDbEntity
  8
0
100
AcDbLine
 62
253
  6
CONTINUOUS
 10
-6.6153594506
 20
12.1252353855
 11
-8.8999882648
 21
12.1252353855
  0
LINE
  5
380
100
AcDbEntity
  8
0
100
AcDbLine
 62
253
  6
CONTINUOUS
 10
8.8999884939
 20
12.1252411332
 11
6.6153589588
 21
12.1252411332
  0
LINE
  5
381
100
AcDbEntity
  8
0
100
AcDbLine
 62
253
  6
CONTINUOUS
 10
-9.9999357866
 20
16.4753508643
 11
-10.0002309579
 21
16.4754421043
  0
LINE
  5
382
100
AcDbEntity
  8
SMUSSO
100
AcDbLine
 62
7
  6
CONTINUOUS
 10
-6.0
 20
23.8488584094
 11
-5.7
 21
23.55
  0
LINE
  5
383
100
AcDbEntity
  8
RACCORDO
100
AcDbLine
 62
7
  6
CONTINUOUS
 10
-3.0707637844
 20
20.7913492875
 11
-3.0086507125
 21
20.7292362156
  0
LINE
  5
384
100
AcDbEntity
  8
ASSI
100
AcDbLine
 62
7
  6
CONTINUOUS
 10
-3.0707637844
 20
20.7913492875
 11
-3.0086507125
 21
20.7292362156
  0
LINE
  5
385
100
AcDbEntity
  8
0
100
AcDbLine
 62
253
  6
CONTINUOUS
 10
-2.373278654
 20
-14.9165339913
 11
-1.6740651758
 21
-14.6465054724
  0
LINE
  5
386
100
AcDbEntity
  8
0
100
AcDbLine
 62
253
  6
CONTINUOUS
 10
-6.795012649
 20
14.1903443114
 11
-8.9955839395
 21
14.1806842101
  0
LINE
  5
387
100
AcDbEntity
  8
0
100
AcDbLine
 62
253
  6
CONTINUOUS
 10
-6.7950341407
 20
13.65
 11
-6.5
 21
13.65
  0
LINE
  5
388
100
AcDbEntity
  8
0
100
AcDbLine
 62
253
  6
CONTINUOUS
 10
6.5000000038
 20
13.65
 11
6.7950336386
 21
13.65
  0
LINE
  5
389
100
AcDbEntity
  8
0
100
AcDbLine
 62
7
  6
CONTINUOUS
 10
-8.8957007538
 20
13.9637404715
 11
-7.0140457511
 21
13.9637404715
  0
LINE
  5
38A
100
AcDbEntity
  8
0
100
AcDbLine
 62
7
  6
CONTINUOUS
 10
7.0140447134
 20
13.9637404719
 11
8.8957007972
 21
13.9637404719
  0
LINE
  5
38B
100
AcDbEntity
  8
0
100
AcDbLine
 62
253
  6
CONTINUOUS
 10
-9.7564254337
 20
14.1806895397
 11
-8.9957123294
 21
14.1806714936
  0
LINE
  5
38C
100
AcDbEntity
  8
0
100
AcDbLine
 62
253
  6
CONTINUOUS
 10
9.7564254621
 20
14.180649359
 11
8.9957123426
 21
14.1806893044
  0
LINE
  5
38D
100
AcDbEntity
  8
0
100
AcDbLine
 62
253
  6
CONTINUOUS
 10
6.7950336386
 20
14.1999999489
 11
-6.7950341407
 21
14.2
  0
LINE
  5
38E
100
AcDbEntity
  8
0
100
AcDbLine
 62
7
  6
CONTINUOUS
 10
8.9955671711
 20
14.1806893403
 11
6.7950128531
 21
14.190344491
  0
LINE
  5
38F
100
AcDbEntity
  8
ASSI
100
AcDbLine
 62
7
  6
CONTINUOUS
 10
-7.2334890005
 20
19.9667451334
 11
-7.3
 21
20.0
  0
LINE
  5
390
100
AcDbEntity
  8
DRAFT
100
AcDbLine
 62
7
  6
CONTINUOUS
 10
-5.8690969831
 20
-19.9650931934
 11
-5.9389119255
 21
-20.0
  0
LINE
  5
391
100
AcDbEntity
  8
ASSI
100
AcDbLine
 62
7
  6
CONTINUOUS
 10
-5.8690969831
 20
-19.9650931934
 11
-5.9389119255
 21
-20.0
  0
LINE
  5
392
100
AcDbEntity
  8
0
100
AcDbLine
 62
7
  6
CONTINUOUS
 10
8.8936543769
 20
14.977100855
 11
7.0119954595
 21
14.9771008552
  0
LINE
  5
393
100
AcDbEntity
  8
0
100
AcDbLine
 62
7
  6
CONTINUOUS
 10
-7.0119954418
 20
14.977100858
 11
-8.8936543733
 21
14.977100858
  0
LINE
  5
394
100
AcDbEntity
  8
0
100
AcDbLine
 62
253
  6
CONTINUOUS
 10
-8.8936543733
 20
15.05
 11
-7.0119954418
 21
15.05
  0
LINE
  5
395
100
AcDbEntity
  8
0
100
AcDbLine
 62
253
  6
CONTINUOUS
 10
7.0119954595
 20
15.0500000001
 11
8.8936543769
 21
15.0499999999
  0
LINE
  5
396
100
AcDbEntity
  8
0
100
AcDbLine
 62
7
  6
CONTINUOUS
 10
-8.8887780254
 20
15.6033911211
 11
-7.0071183488
 21
15.6033911211
  0
LINE
  5
397
100
AcDbEntity
  8
0
100
AcDbLine
 62
7
  6
CONTINUOUS
 10
7.0071183533
 20
15.6033911211
 11
8.8887781494
 21
15.6033911211
  0
LINE
  5
398
100
AcDbEntity
  8
0
100
AcDbLine
 62
7
  6
CONTINUOUS
 10
6.6991417927
 20
15.7270949504
 11
-6.6992561091
 21
15.7270949504
  0
LINE
  5
399
100
AcDbEntity
  8
0
100
AcDbLine
 62
7
  6
CONTINUOUS
 10
6.699460456
 20
15.7760534563
 11
-6.6997680811
 21
15.7760534563
  0
LINE
  5
39A
100
AcDbEntity
  8
0
100
AcDbLine
 62
7
  6
CONTINUOUS
 10
-8.9867538781
 20
15.7923321441
 11
8.9867593209
 21
15.7923321441
  0
LINE
  5
39B
100
AcDbEntity
  8
0
100
AcDbLine
 62
7
  6
CONTINUOUS
 10
9.2381411349
 20
15.8000004987
 11
-9.2380873719
 21
15.8000004987
  0
LINE
  5
39C
100
AcDbEntity
  8
ASSI
100
AcDbLine
 62
7
  6
CONTINUOUS
 10
-7.3
 20
19.8968626967
 11
-7.2334890005
 21
19.8708728895
  0
LINE
  5
39D
100
AcDbEntity
  8
DRAFT
100
AcDbLine
 62
7
  6
CONTINUOUS
 10
-5.8690969831
 20
19.9650931934
 11
-5.9389119255
 21
20.0
  0
LINE
  5
39E
100
AcDbEntity
  8
ASSI
100
AcDbLine
 62
7
  6
CONTINUOUS
 10
-5.8690969831
 20
19.9650931934
 11
-5.9389119255
 21
20.0
  0
LINE
  5
39F
100
AcDbEntity
  8
RACCORDO
100
AcDbLine
 62
7
  6
CONTINUOUS
 10
3.043634339
 20
19.0
 11
3.0086507125
 21
19.0349836265
  0
LINE
  5
3A0
100
AcDbEntity
  8
ASSI
100
AcDbLine
 62
7
  6
CONTINUOUS
 10
3.043634339
 20
19.0
 11
3.0086507125
 21
19.0349836265
  0
LINE
  5
3A1
100
AcDbEntity
  8
0
100
AcDbLine
 62
253
  6
CONTINUOUS
 10
-8.8034371069
 20
17.1796612801
 11
8.8034364381
 21
17.1796612801
  0
LINE
  5
3A2
100
AcDbEntity
  8
0
100
AcDbLine
 62
7
  6
CONTINUOUS
 10
-9.0003045923
 20
17.475
 11
9.0003024346
 21
17.475
  0
LINE
  5
3A3
100
AcDbEntity
  8
0
100
AcDbLine
 62
7
  6
CONTINUOUS
 10
-9.0378405358
 20
17.5055481033
 11
9.0380396245
 21
17.5055481033
  0
LINE
  5
3A4
100
AcDbEntity
  8
RACCORDO
100
AcDbLine
 62
7
  6
CONTINUOUS
 10
10.0306308709
 20
-17.9693691291
 11
10.8535589668
 21
-17.1464410332
  0
LINE
  5
3A5
100
AcDbEntity
  8
ASSI
100
AcDbLine
 62
7
  6
CONTINUOUS
 10
10.0306308709
 20
-17.9693691291
 11
10.8535589668
 21
-17.1464410332
  0
LINE
  5
3A6
100
AcDbEntity
  8
0
100
AcDbLine
 62
7
  6
CONTINUOUS
 10
9.8831393162
 20
-18.4168606838
 11
8.5462459095
 21
-19.7537540905
  0
LINE
  5
3A7
100
AcDbEntity
  8
SMUSSO
100
AcDbLine
 62
7
  6
CONTINUOUS
 10
-6.0
 20
-22.0948295558
 11
-5.5
 21
-21.9320454786
  0
LINE
  5
3A8
100
AcDbEntity
  8
0
100
AcDbLine
 62
7
  6
CONTINUOUS
 10
7.4
 20
18.9
 11
1.9
 21
18.9
  0
LINE
  5
3A9
100
AcDbEntity
  8
0
100
AcDbLine
 62
7
  6
CONTINUOUS
 10
-1.9
 20
18.9
 11
-7.4
 21
18.9
  0
LINE
  5
3AA
100
AcDbEntity
  8
DRAFT
100
AcDbLine
 62
7
  6
CONTINUOUS
 10
6.518337521
 20
19.0
 11
1.9
 21
19.0
  0
LINE
  5
3AB
100
AcDbEntity
  8
ASSI
100
AcDbLine
 62
7
  6
CONTINUOUS
 10
6.518337521
 20
19.0
 11
1.9
 21
19.0
  0
LINE
  5
3AC
100
AcDbEntity
  8
DRAFT
100
AcDbLine
 62
7
  6
CONTINUOUS
 10
-1.9
 20
19.0
 11
-6.518337521
 21
19.0
  0
LINE
  5
3AD
100
AcDbEntity
  8
ASSI
100
AcDbLine
 62
7
  6
CONTINUOUS
 10
-1.9
 20
19.0
 11
-6.518337521
 21
19.0
  0
LINE
  5
3AE
100
AcDbEntity
  8
RACCORDO
100
AcDbLine
 62
7
  6
CONTINUOUS
 10
2.0086887894
 20
19.043634339
 11
1.7291616466
 21
19.043634339
  0
LINE
  5
3AF
100
AcDbEntity
  8
ASSI
100
AcDbLine
 62
7
  6
CONTINUOUS
 10
2.0086887894
 20
19.043634339
 11
1.7291616466
 21
19.043634339
  0
LINE
  5
3B0
100
AcDbEntity
  8
RACCORDO
100
AcDbLine
 62
7
  6
CONTINUOUS
 10
-1.7291616466
 20
19.043634339
 11
-2.0086887894
 21
19.043634339
  0
LINE
  5
3B1
100
AcDbEntity
  8
ASSI
100
AcDbLine
 62
7
  6
CONTINUOUS
 10
-1.7291616466
 20
19.043634339
 11
-2.0086887894
 21
19.043634339
  0
LINE
  5
3B2
100
AcDbEntity
  8
ASSI
100
AcDbLine
 62
7
  6
CONTINUOUS
 10
6.45
 20
19.0698149423
 11
-6.45
 21
19.0698149423
  0
LINE
  5
3B3
100
AcDbEntity
  8
0
100
AcDbLine
 62
7
  6
CONTINUOUS
 10
8.1931770539
 20
19.9000000058
 11
7.899293443
 21
19.9000000058
  0
LINE
  5
3B4
100
AcDbEntity
  8
0
100
AcDbLine
 62
7
  6
CONTINUOUS
 10
-7.8993077111
 20
19.9000000019
 11
-8.1931770522
 21
19.9000000019
  0
LINE
  5
3B5
100
AcDbEntity
  8
ASSI
100
AcDbLine
 62
7
  6
CONTINUOUS
 10
-6.45
 20
19.9650931934
 11
-5.8690969831
 21
19.9650931934
  0
LINE
  5
3B6
100
AcDbEntity
  8
ASSI
100
AcDbLine
 62
7
  6
CONTINUOUS
 10
6.45
 20
19.9650931934
 11
5.8690969831
 21
19.9650931934
  0
LINE
  5
3B7
100
AcDbEntity
  8
RACCORDO
100
AcDbLine
 62
7
  6
CONTINUOUS
 10
-7.7929011048
 20
20.0
 11
-7.3
 21
20.0
  0
LINE
  5
3B8
100
AcDbEntity
  8
ASSI
100
AcDbLine
 62
7
  6
CONTINUOUS
 10
-7.7929011048
 20
20.0
 11
-7.3
 21
20.0
  0
LINE
  5
3B9
100
AcDbEntity
  8
DRAFT
100
AcDbLine
 62
7
  6
CONTINUOUS
 10
-7.2334890005
 20
20.0
 11
-5.9389119255
 21
20.0
  0
LINE
  5
3BA
100
AcDbEntity
  8
ASSI
100
AcDbLine
 62
7
  6
CONTINUOUS
 10
-7.2334890005
 20
20.0
 11
-5.9389119255
 21
20.0
  0
LINE
  5
3BB
100
AcDbEntity
  8
DRAFT
100
AcDbLine
 62
7
  6
CONTINUOUS
 10
5.9389119255
 20
20.0
 11
7.2334890005
 21
20.0
  0
LINE
  5
3BC
100
AcDbEntity
  8
ASSI
100
AcDbLine
 62
7
  6
CONTINUOUS
 10
5.9389119255
 20
20.0
 11
7.2334890005
 21
20.0
  0
LINE
  5
3BD
100
AcDbEntity
  8
RACCORDO
100
AcDbLine
 62
7
  6
CONTINUOUS
 10
7.3
 20
20.0
 11
7.7929011048
 21
20.0
  0
LINE
  5
3BE
100
AcDbEntity
  8
ASSI
100
AcDbLine
 62
7
  6
CONTINUOUS
 10
7.3
 20
20.0
 11
7.7929011048
 21
20.0
  0
LINE
  5
3BF
100
AcDbEntity
  8
SMUSSO
100
AcDbLine
 62
7
  6
CONTINUOUS
 10
-5.5
 20
21.9320454786
 11
-6.0
 21
22.0948295558
  0
LINE
  5
3C0
100
AcDbEntity
  8
RACCORDO
100
AcDbLine
 62
7
  6
CONTINUOUS
 10
10.8535589668
 20
17.1464410332
 11
10.0306021161
 21
17.9693978839
  0
LINE
  5
3C1
100
AcDbEntity
  8
ASSI
100
AcDbLine
 62
7
  6
CONTINUOUS
 10
10.8535589668
 20
17.1464410332
 11
10.0306021161
 21
17.9693978839
  0
LINE
  5
3C2
100
AcDbEntity
  8
0
100
AcDbLine
 62
7
  6
CONTINUOUS
 10
8.5462459094
 20
19.7537540906
 11
9.8831393161
 21
18.4168606839
  0
LINE
  5
3C3
100
AcDbEntity
  8
DRAFT
100
AcDbLine
 62
7
  6
CONTINUOUS
 10
5.8690969831
 20
20.6944048997
 11
-5.8690969831
 21
20.6944048997
  0
LINE
  5
3C4
100
AcDbEntity
  8
ASSI
100
AcDbLine
 62
7
  6
CONTINUOUS
 10
5.8690969831
 20
20.6944048997
 11
-5.8690969831
 21
20.6944048997
  0
LINE
  5
3C5
100
AcDbEntity
  8
RACCORDO
100
AcDbLine
 62
7
  6
CONTINUOUS
 10
-2.0086887894
 20
20.7205855031
 11
-1.7291616466
 21
20.7205855031
  0
LINE
  5
3C6
100
AcDbEntity
  8
ASSI
100
AcDbLine
 62
7
  6
CONTINUOUS
 10
-2.0086887894
 20
20.7205855031
 11
-1.7291616466
 21
20.7205855031
  0
LINE
  5
3C7
100
AcDbEntity
  8
RACCORDO
100
AcDbLine
 62
7
  6
CONTINUOUS
 10
1.7291616466
 20
20.7205855031
 11
2.0086887894
 21
20.7205855031
  0
LINE
  5
3C8
100
AcDbEntity
  8
ASSI
100
AcDbLine
 62
7
  6
CONTINUOUS
 10
1.7291616466
 20
20.7205855031
 11
2.0086887894
 21
20.7205855031
  0
LINE
  5
3C9
100
AcDbEntity
  8
RACCORDO
100
AcDbLine
 62
7
  6
CONTINUOUS
 10
-5.9660413709
 20
20.7913492875
 11
-3.0707637844
 21
20.7913492875
  0
LINE
  5
3CA
100
AcDbEntity
  8
ASSI
100
AcDbLine
 62
7
  6
CONTINUOUS
 10
-5.9660413709
 20
20.7913492875
 11
-3.0707637844
 21
20.7913492875
  0
LINE
  5
3CB
100
AcDbEntity
  8
RACCORDO
100
AcDbLine
 62
7
  6
CONTINUOUS
 10
3.0707637844
 20
20.7913492875
 11
5.9660413709
 21
20.7913492875
  0
LINE
  5
3CC
100
AcDbEntity
  8
ASSI
100
AcDbLine
 62
7
  6
CONTINUOUS
 10
3.0707637844
 20
20.7913492875
 11
5.9660413709
 21
20.7913492875
  0
LINE
  5
3CD
100
AcDbEntity
  8
0
100
AcDbLine
 62
7
  6
CONTINUOUS
 10
0.8961801625
 20
21.0
 11
-0.8961801625
 21
21.0
  0
LINE
  5
3CE
100
AcDbEntity
  8
0
100
AcDbLine
 62
253
  6
CONTINUOUS
 10
-2.9
 20
21.5336107006
 11
2.9
 21
21.5336107006
  0
LINE
  5
3CF
100
AcDbEntity
  8
RACCORDO
100
AcDbLine
 62
253
  6
CONTINUOUS
 10
-5.9746920834
 20
21.7913112106
 11
-3.0794144969
 21
21.7913112106
  0
LINE
  5
3D0
100
AcDbEntity
  8
ASSI
100
AcDbLine
 62
253
  6
CONTINUOUS
 10
-5.9746920834
 20
21.7913112106
 11
-3.0794144969
 21
21.7913112106
  0
LINE
  5
3D1
100
AcDbEntity
  8
RACCORDO
100
AcDbLine
 62
253
  6
CONTINUOUS
 10
3.0794144969
 20
21.7913112106
 11
5.9746920834
 21
21.7913112106
  0
LINE
  5
3D2
100
AcDbEntity
  8
ASSI
100
AcDbLine
 62
253
  6
CONTINUOUS
 10
3.0794144969
 20
21.7913112106
 11
5.9746920834
 21
21.7913112106
  0
LINE
  5
3D3
100
AcDbEntity
  8
0
100
AcDbLine
 62
253
  6
CONTINUOUS
 10
-2.9
 20
21.8494925247
 11
2.9
 21
21.8494925247
  0
LINE
  5
3D4
100
AcDbEntity
  8
0
100
AcDbLine
 62
253
  6
CONTINUOUS
 10
-2.9
 20
21.864175586
 11
2.9
 21
21.864175586
  0
LINE
  5
3D5
100
AcDbEntity
  8
RACCORDO
100
AcDbLine
 62
7
  6
CONTINUOUS
 10
-5.5
 20
21.9320454786
 11
-3.05
 21
21.9320454786
  0
LINE
  5
3D6
100
AcDbEntity
  8
RACCORDO
100
AcDbLine
 62
7
  6
CONTINUOUS
 10
5.5
 20
21.9320454786
 11
3.05
 21
21.9320454786
  0
LINE
  5
3D7
100
AcDbEntity
  8
RACCORDO
100
AcDbLine
 62
7
  6
CONTINUOUS
 10
-2.2
 20
23.1371921251
 11
2.2
 21
23.1371921251
  0
LINE
  5
3D8
100
AcDbEntity
  8
0
100
AcDbLine
 62
7
  6
CONTINUOUS
 10
-2.5
 20
23.35
 11
2.5
 21
23.35
  0
LINE
  5
3D9
100
AcDbEntity
  8
SMUSSO
100
AcDbLine
 62
7
  6
CONTINUOUS
 10
-5.7
 20
23.55
 11
5.7
 21
23.55
  0
LINE
  5
3DA
100
AcDbEntity
  8
0
100
AcDbLine
 62
253
  6
CONTINUOUS
 10
-6.0
 20
24.0784623642
 11
6.0
 21
24.0784623642
  0
LINE
  5
3DB
100
AcDbEntity
  8
0
100
AcDbLine
 62
7
  6
CONTINUOUS
 10
6.0
 20
25.05
 11
-6.0
 21
25.05
  0
ARC
  5
3DC
100
AcDbEntity
  8
ASSI
100
AcDbCircle
 62
7
  6
CONTINUOUS
 10
-6.5485851414
 20
-159.0067678436
 40
139.0417096003
100
AcDbArc
 50
89.959375406
 51
90.2822337219
  0
ARC
  5
3DD
100
AcDbEntity
  8
0
100
AcDbCircle
 62
7
  6
CONTINUOUS
 10
-6522.2503434386
 20
11.6240388492
 40
6512.7438225411
100
AcDbArc
 50
359.85880288
 51
359.9980290314
  0
ARC
  5
3DE
100
AcDbEntity
  8
0
100
AcDbCircle
 62
7
  6
CONTINUOUS
 10
-6485.0859472051
 20
11.6019278966
 40
6494.3315377091
100
AcDbArc
 50
359.8585976342
 51
359.9982185158
  0
ARC
  5
3DF
100
AcDbEntity
  8
0
100
AcDbCircle
 62
253
  6
CONTINUOUS
 10
-6248.4978293698
 20
11.3791449407
 40
6238.7414045043
100
AcDbArc
 50
359.8551739042
 51
0.0001915304
  0
ARC
  5
3E0
100
AcDbEntity
  8
0
100
AcDbCircle
 62
7
  6
CONTINUOUS
 10
-6217.4940044792
 20
11.3460591873
 40
6226.3939932882
100
AcDbArc
 50
359.8548669801
 51
0.0004964051
  0
ARC
  5
3E1
100
AcDbEntity
  8
0
100
AcDbCircle
 62
7
  6
CONTINUOUS
 10
-6171.9381571933
 20
11.3553180228
 40
6180.9336788604
100
AcDbArc
 50
359.8540475773
 51
0.0004141913
  0
ARC
  5
3E2
100
AcDbEntity
  8
0
100
AcDbCircle
 62
7
  6
CONTINUOUS
 10
-6.6045028836
 20
-14.8960698999
 40
8.1073535915
100
AcDbArc
 50
66.1814914379
 51
66.8059947752
  0
ARC
  5
3E3
100
AcDbEntity
  8
0
100
AcDbCircle
 62
7
  6
CONTINUOUS
 10
-6.160214978
 20
-14.5918940918
 40
7.6602724571
100
AcDbArc
 50
68.5357964627
 51
69.3922442337
  0
ARC
  5
3E4
100
AcDbEntity
  8
0
100
AcDbCircle
 62
7
  6
CONTINUOUS
 10
-9.0002047635
 20
-16.4752185384
 40
0.9997883509
100
AcDbArc
 50
179.9977164749
 51
269.9942790811
  0
ARC
  5
3E5
100
AcDbEntity
  8
0
100
AcDbCircle
 62
7
  6
CONTINUOUS
 10
-9.0308173171
 20
-16.5058815498
 40
0.9996635283
100
AcDbArc
 50
179.9935043298
 51
270.0021224851
  0
ARC
  5
3E6
100
AcDbEntity
  8
ASSI
100
AcDbCircle
 62
7
  6
CONTINUOUS
 10
-6.85
 20
-19.5
 40
0.6
100
AcDbArc
 50
56.4426902381
 51
230.2716578013
  0
ARC
  5
3E7
100
AcDbEntity
  8
0
100
AcDbCircle
 62
7
  6
CONTINUOUS
 10
-7.7203131412
 20
-3.8100881397
 40
4.1903681112
100
AcDbArc
 50
249.5865367569
 51
254.6841104452
  0
ARC
  5
3E8
100
AcDbEntity
  8
0
100
AcDbCircle
 62
7
  6
CONTINUOUS
 10
-9.5940825447
 20
-7.7498508553
 40
0.2501496051
100
AcDbArc
 50
180.0888419984
 51
269.9529688096
  0
ARC
  5
3E9
100
AcDbEntity
  8
0
100
AcDbCircle
 62
7
  6
CONTINUOUS
 10
-3.7211040236
 20
-15.9242852512
 40
9.0883503725
100
AcDbArc
 50
110.8615717421
 51
111.4259777691
  0
ARC
  5
3EA
100
AcDbEntity
  8
0
100
AcDbCircle
 62
7
  6
CONTINUOUS
 10
-3.6062159873
 20
-15.3343114013
 40
8.5836746179
100
AcDbArc
 50
113.4311644089
 51
114.0264044661
  0
ARC
  5
3EB
100
AcDbEntity
  8
0
100
AcDbCircle
 62
7
  6
CONTINUOUS
 10
-2.7875686653
 20
-12.6169711234
 40
4.676243288
100
AcDbArc
 50
80.0064623227
 51
80.8676543477
  0
ARC
  5
3EC
100
AcDbEntity
  8
0
100
AcDbCircle
 62
253
  6
CONTINUOUS
 10
0.0
 20
-14.0
 40
2.5441081201
100
AcDbArc
 50
180.0
 51
201.1160097825
  0
ARC
  5
3ED
100
AcDbEntity
  8
0
100
AcDbCircle
 62
253
  6
CONTINUOUS
 10
0.0
 20
-14.0
 40
2.5441081201
100
AcDbArc
 50
338.8839900717
 51
360.0
  0
ARC
  5
3EE
100
AcDbEntity
  8
0
100
AcDbCircle
 62
253
  6
CONTINUOUS
 10
0.0
 20
-14.0
 40
1.7945649998
100
AcDbArc
 50
180.0
 51
201.1160096946
  0
ARC
  5
3EF
100
AcDbEntity
  8
0
100
AcDbCircle
 62
253
  6
CONTINUOUS
 10
0.0
 20
-14.0
 40
1.7945649998
100
AcDbArc
 50
338.8839899765
 51
360.0
  0
ARC
  5
3F0
100
AcDbEntity
  8
0
100
AcDbCircle
 62
253
  6
CONTINUOUS
 10
-0.0
 20
-14.0
 40
1.7601106157
100
AcDbArc
 50
180.0
 51
360.0
  0
ARC
  5
3F1
100
AcDbEntity
  8
0
100
AcDbCircle
 62
253
  6
CONTINUOUS
 10
-0.0
 20
-14.0
 40
1.4603178982
100
AcDbArc
 50
180.0203629407
 51
359.9895004597
  0
ARC
  5
3F2
100
AcDbEntity
  8
0
100
AcDbCircle
 62
7
  6
CONTINUOUS
 10
0.4960455361
 20
-3.3969116922
 40
4.8745429022
100
AcDbArc
 50
292.2029737473
 51
292.8039696334
  0
ARC
  5
3F3
100
AcDbEntity
  8
0
100
AcDbCircle
 62
7
  6
CONTINUOUS
 10
0.889062836
 20
-4.3603037486
 40
3.8340685818
100
AcDbArc
 50
291.500890794
 51
292.2056585255
  0
ARC
  5
3F4
100
AcDbEntity
  8
0
100
AcDbCircle
 62
7
  6
CONTINUOUS
 10
-0.0008499486
 20
-1.482341686
 40
3.2778885694
100
AcDbArc
 50
243.8874751612
 51
270.0148566704
  0
ARC
  5
3F5
100
AcDbEntity
  8
0
100
AcDbCircle
 62
7
  6
CONTINUOUS
 10
0.0008553787
 20
-1.4823842601
 40
3.2778459968
100
AcDbArc
 50
269.9850482463
 51
296.1123123411
  0
ARC
  5
3F6
100
AcDbEntity
  8
0
100
AcDbCircle
 62
7
  6
CONTINUOUS
 10
0.0009239561
 20
-1.4817888249
 40
3.2696927171
100
AcDbArc
 50
269.9838091882
 51
297.2083904984
  0
ARC
  5
3F7
100
AcDbEntity
  8
0
100
AcDbCircle
 62
7
  6
CONTINUOUS
 10
-0.0009239741
 20
-1.4817888994
 40
3.2696926426
100
AcDbArc
 50
242.7916091855
 51
270.0161910104
  0
ARC
  5
3F8
100
AcDbEntity
  8
0
100
AcDbCircle
 62
7
  6
CONTINUOUS
 10
1.2168122234
 20
-5.1938156507
 40
2.938433973
100
AcDbArc
 50
290.6690651699
 51
291.5116788927
  0
CIRCLE
  5
3F9
100
AcDbEntity
  8
0
100
AcDbCircle
 62
7
  6
CONTINUOUS
 10
0.0
 20
-1.5
 40
2.65
  0
ARC
  5
3FA
100
AcDbEntity
  8
0
100
AcDbCircle
 62
7
  6
CONTINUOUS
 10
-2.2719773956
 20
-10.0003187838
 40
2.0088237874
100
AcDbArc
 50
75.600824619
 51
77.121515931
  0
ARC
  5
3FB
100
AcDbEntity
  8
0
100
AcDbCircle
 62
253
  6
CONTINUOUS
 10
-0.0
 20
-1.5
 40
1.850084982
100
AcDbArc
 50
352.3543634343
 51
142.600290104
  0
ARC
  5
3FC
100
AcDbEntity
  8
0
100
AcDbCircle
 62
253
  6
CONTINUOUS
 10
0.0
 20
-1.5
 40
1.85
100
AcDbArc
 50
172.3550518249
 51
322.5995890992
  0
ARC
  5
3FD
100
AcDbEntity
  8
0
100
AcDbCircle
 62
7
  6
CONTINUOUS
 10
-343.6320810115
 20
12.2223861258
 40
352.5320818106
100
AcDbArc
 50
359.9842113062
 51
0.2830172578
  0
ARC
  5
3FE
100
AcDbEntity
  8
0
100
AcDbCircle
 62
7
  6
CONTINUOUS
 10
-153.1255037888
 20
14.2354057907
 40
162.3711875003
100
AcDbArc
 50
359.9806922395
 51
0.5521039909
  0
ARC
  5
3FF
100
AcDbEntity
  8
0
100
AcDbCircle
 62
7
  6
CONTINUOUS
 10
-123.0180637297
 20
14.2615363423
 40
132.0136962196
100
AcDbArc
 50
359.964911258
 51
0.6644020264
  0
ARC
  5
400
100
AcDbEntity
  8
0
100
AcDbCircle
 62
7
  6
CONTINUOUS
 10
-15.3154928616
 20
18.2435619851
 40
27.1626505483
100
AcDbArc
 50
285.4049796803
 51
285.5616398897
  0
ARC
  5
401
100
AcDbEntity
  8
0
100
AcDbCircle
 62
7
  6
CONTINUOUS
 10
-4.0
 20
13.65
 40
2.8
100
AcDbArc
 50
210.7843369585
 51
269.9999659228
  0
ARC
  5
402
100
AcDbEntity
  8
0
100
AcDbCircle
 62
7
  6
CONTINUOUS
 10
-0.4228316377
 20
4.7244688832
 40
1.200221337
100
AcDbArc
 50
179.9591671727
 51
269.9873111449
  0
ARC
  5
403
100
AcDbEntity
  8
0
100
AcDbCircle
 62
7
  6
CONTINUOUS
 10
-0.4228581334
 20
4.7532666639
 40
1.2001655583
100
AcDbArc
 50
182.2144169999
 51
269.988575514
  0
ARC
  5
404
100
AcDbEntity
  8
0
100
AcDbCircle
 62
7
  6
CONTINUOUS
 10
-9.0002035041
 20
16.4752144254
 40
0.999791715
100
AcDbArc
 50
90.00579317
 51
180.0039656788
  0
ARC
  5
405
100
AcDbEntity
  8
0
100
AcDbCircle
 62
7
  6
CONTINUOUS
 10
-9.0307652412
 20
16.5058234108
 40
0.9997359098
100
AcDbArc
 50
90.4044220387
 51
179.5951895234
  0
ARC
  5
406
100
AcDbEntity
  8
DRAFT
100
AcDbCircle
 62
7
  6
CONTINUOUS
 10
-6.85
 20
19.5
 40
0.6
100
AcDbArc
 50
161.4540952248
 51
170.6444285841
  0
ARC
  5
407
100
AcDbEntity
  8
DRAFT
100
AcDbCircle
 62
7
  6
CONTINUOUS
 10
-6.85
 20
19.5
 40
0.6
100
AcDbArc
 50
204.8303569123
 51
215.501540222
  0
ARC
  5
408
100
AcDbEntity
  8
ASSI
100
AcDbCircle
 62
7
  6
CONTINUOUS
 10
-6.85
 20
19.5
 40
0.6
100
AcDbArc
 50
204.8303569123
 51
215.501540222
  0
ARC
  5
409
100
AcDbEntity
  8
0
100
AcDbCircle
 62
7
  6
CONTINUOUS
 10
-8.1932630975
 20
19.4008929728
 40
0.4991070365
100
AcDbArc
 50
89.9901205545
 51
135.009878327
  0
ARC
  5
40A
100
AcDbEntity
  8
0
100
AcDbCircle
 62
7
  6
CONTINUOUS
 10
-7.8990895807
 20
19.4009104219
 40
0.4990890755
100
AcDbArc
 50
359.9746479412
 51
90.0269952879
  0
ARC
  5
40B
100
AcDbEntity
  8
0
100
AcDbCircle
 62
7
  6
CONTINUOUS
 10
-6.6947055449
 20
15.514531142
 40
0.2124702595
100
AcDbArc
 50
91.2270962409
 51
94.9385926753
  0
ARC
  5
40C
100
AcDbEntity
  8
0
100
AcDbCircle
 62
7
  6
CONTINUOUS
 10
-6.6999673143
 20
15.6759741819
 40
0.1000326611
100
AcDbArc
 50
89.9030624242
 51
180.0139794666
  0
ARC
  5
40D
100
AcDbEntity
  8
ASSI
100
AcDbCircle
 62
7
  6
CONTINUOUS
 10
6.475635486
 20
-193.6056359926
 40
173.6405446916
100
AcDbArc
 50
89.7499319885
 51
90.0084588836
  0
ARC
  5
40E
100
AcDbEntity
  8
0
100
AcDbCircle
 62
7
  6
CONTINUOUS
 10
7.7996626476
 20
-17.6680490799
 40
11.1207825172
100
AcDbArc
 50
114.0962870354
 51
114.3805663372
  0
ARC
  5
40F
100
AcDbEntity
  8
0
100
AcDbCircle
 62
7
  6
CONTINUOUS
 10
7.4434109696
 20
-17.1682913282
 40
10.5202394263
100
AcDbArc
 50
113.3012204809
 51
113.4329102527
  0
ARC
  5
410
100
AcDbEntity
  8
0
100
AcDbCircle
 62
7
  6
CONTINUOUS
 10
7.2176185927
 20
-16.643477533
 40
9.9489149431
100
AcDbArc
 50
113.0169491985
 51
113.3024973366
  0
ARC
  5
411
100
AcDbEntity
  8
0
100
AcDbCircle
 62
7
  6
CONTINUOUS
 10
3.3614875409
 20
-15.9126745682
 40
9.206962331
100
AcDbArc
 50
66.0499828958
 51
66.6036761818
  0
ARC
  5
412
100
AcDbEntity
  8
0
100
AcDbCircle
 62
7
  6
CONTINUOUS
 10
6.9262026701
 20
-15.957017821
 40
9.2031602003
100
AcDbArc
 50
112.6011135085
 51
113.0181446221
  0
ARC
  5
413
100
AcDbEntity
  8
0
100
AcDbCircle
 62
7
  6
CONTINUOUS
 10
6.5966693328
 20
-15.6883525209
 40
8.8342184265
100
AcDbArc
 50
110.8648434808
 51
111.9458643623
  0
ARC
  5
414
100
AcDbEntity
  8
0
100
AcDbCircle
 62
7
  6
CONTINUOUS
 10
6.2539977761
 20
-14.7962097442
 40
7.878532392
100
AcDbArc
 50
110.2694564676
 51
110.8470226359
  0
ARC
  5
415
100
AcDbEntity
  8
0
100
AcDbCircle
 62
7
  6
CONTINUOUS
 10
6.1332885642
 20
-14.4700832281
 40
7.5307837014
100
AcDbArc
 50
109.9139971317
 51
110.2675369275
  0
ARC
  5
416
100
AcDbEntity
  8
0
100
AcDbCircle
 62
7
  6
CONTINUOUS
 10
4.3073660158
 20
-14.296574196
 40
7.3551813215
100
AcDbArc
 50
68.2912923424
 51
69.2314795151
  0
ARC
  5
417
100
AcDbEntity
  8
0
100
AcDbCircle
 62
7
  6
CONTINUOUS
 10
2.9801036323
 20
-13.8262420534
 40
5.9006782423
100
AcDbArc
 50
99.1105114295
 51
99.7964723962
  0
ARC
  5
418
100
AcDbEntity
  8
0
100
AcDbCircle
 62
7
  6
CONTINUOUS
 10
7.7155568197
 20
-3.795326862
 40
4.2058626306
100
AcDbArc
 50
285.3251496324
 51
290.4106566695
  0
ARC
  5
419
100
AcDbEntity
  8
0
100
AcDbCircle
 62
7
  6
CONTINUOUS
 10
9.0002033768
 20
-16.4752142423
 40
0.9997918869
100
AcDbArc
 50
270.0059831543
 51
0.0051417152
  0
ARC
  5
41A
100
AcDbEntity
  8
0
100
AcDbCircle
 62
7
  6
CONTINUOUS
 10
9.0309258739
 20
-16.5058453202
 40
0.9997011759
100
AcDbArc
 50
269.9988237217
 51
359.6635270176
  0
ARC
  5
41B
100
AcDbEntity
  8
0
100
AcDbCircle
 62
7
  6
CONTINUOUS
 10
2.0840961164
 20
-7.2670248192
 40
0.7059080235
100
AcDbArc
 50
285.1749515118
 51
286.2703249072
  0
ARC
  5
41C
100
AcDbEntity
  8
ASSI
100
AcDbCircle
 62
7
  6
CONTINUOUS
 10
6.85
 20
-19.5
 40
0.6
100
AcDbArc
 50
309.7283421987
 51
123.5573097619
  0
ARC
  5
41D
100
AcDbEntity
  8
0
100
AcDbCircle
 62
7
  6
CONTINUOUS
 10
9.5941984851
 20
-7.7499770846
 40
0.2500285114
100
AcDbArc
 50
270.0290642476
 51
359.9400865729
  0
ARC
  5
41E
100
AcDbEntity
  8
0
100
AcDbCircle
 62
7
  6
CONTINUOUS
 10
5.5016804263
 20
-2.1224545773
 40
0.2483197654
100
AcDbArc
 50
0.0711999927
 51
18.1230798671
  0
ARC
  5
41F
100
AcDbEntity
  8
0
100
AcDbCircle
 62
7
  6
CONTINUOUS
 10
6.4954830386
 20
-2.1221960187
 40
0.2454830457
100
AcDbArc
 50
173.783570825
 51
179.9862619774
  0
ARC
  5
420
100
AcDbEntity
  8
0
100
AcDbCircle
 62
7
  6
CONTINUOUS
 10
279.6421436423
 20
12.3716287941
 40
288.5422356346
100
AcDbArc
 50
179.6838536823
 51
180.0489252177
  0
ARC
  5
421
100
AcDbEntity
  8
0
100
AcDbCircle
 62
7
  6
CONTINUOUS
 10
139.7232654835
 20
14.2921342992
 40
148.9689816007
100
AcDbArc
 50
179.4200432628
 51
180.0428634779
  0
ARC
  5
422
100
AcDbEntity
  8
0
100
AcDbCircle
 62
7
  6
CONTINUOUS
 10
135.2967317065
 20
14.1937706476
 40
144.2923407968
100
AcDbArc
 50
179.3652278209
 51
180.0051943562
  0
ARC
  5
423
100
AcDbEntity
  8
0
100
AcDbCircle
 62
7
  6
CONTINUOUS
 10
4.0014182519
 20
13.6301767423
 40
3.0162090788
100
AcDbArc
 50
312.3201945385
 51
330.0694850437
  0
ARC
  5
424
100
AcDbEntity
  8
0
100
AcDbCircle
 62
7
  6
CONTINUOUS
 10
4.000266181
 20
13.6360994201
 40
3.0137976006
100
AcDbArc
 50
312.1019143854
 51
359.9733646795
  0
ARC
  5
425
100
AcDbEntity
  8
0
100
AcDbCircle
 62
7
  6
CONTINUOUS
 10
4.0
 20
13.65
 40
2.8
100
AcDbArc
 50
270.000059338
 51
329.2366405677
  0
ARC
  5
426
100
AcDbEntity
  8
0
100
AcDbCircle
 62
7
  6
CONTINUOUS
 10
2.2010579628
 20
4.7269929569
 40
1.2014014734
100
AcDbArc
 50
90.0799828802
 51
172.8949552248
  0
ARC
  5
427
100
AcDbEntity
  8
0
100
AcDbCircle
 62
7
  6
CONTINUOUS
 10
2.1995248303
 20
4.7531179779
 40
1.2000038249
100
AcDbArc
 50
188.4983212554
 51
269.993131593
  0
ARC
  5
428
100
AcDbEntity
  8
0
100
AcDbCircle
 62
7
  6
CONTINUOUS
 10
9.0002049691
 20
16.4752187315
 40
0.9997883865
100
AcDbArc
 50
359.9975691123
 51
89.9943717571
  0
ARC
  5
429
100
AcDbEntity
  8
0
100
AcDbCircle
 62
7
  6
CONTINUOUS
 10
9.0308719026
 20
16.5057884313
 40
0.999773494
100
AcDbArc
 50
0.5654304661
 51
89.5892214247
  0
ARC
  5
42A
100
AcDbEntity
  8
DRAFT
100
AcDbCircle
 62
7
  6
CONTINUOUS
 10
6.85
 20
19.5
 40
0.6
100
AcDbArc
 50
324.5160580802
 51
336.7290062194
  0
ARC
  5
42B
100
AcDbEntity
  8
ASSI
100
AcDbCircle
 62
7
  6
CONTINUOUS
 10
6.85
 20
19.5
 40
0.6
100
AcDbArc
 50
324.5160580802
 51
336.7290062194
  0
ARC
  5
42C
100
AcDbEntity
  8
0
100
AcDbCircle
 62
7
  6
CONTINUOUS
 10
9.5287689353
 20
18.0615318445
 40
0.5018335889
100
AcDbArc
 50
0.073065347
 51
45.0773786899
  0
ARC
  5
42D
100
AcDbEntity
  8
0
100
AcDbCircle
 62
7
  6
CONTINUOUS
 10
8.1932630824
 20
19.4008929494
 40
0.4991070639
100
AcDbArc
 50
44.9901223414
 51
90.0098810342
  0
ARC
  5
42E
100
AcDbEntity
  8
0
100
AcDbCircle
 62
7
  6
CONTINUOUS
 10
7.8990895548
 20
19.4009104425
 40
0.4990890325
100
AcDbArc
 50
89.9746433739
 51
180.0270000587
  0
ARC
  5
42F
100
AcDbEntity
  8
0
100
AcDbCircle
 62
7
  6
CONTINUOUS
 10
6.6993635184
 20
15.6758561417
 40
0.1001428485
100
AcDbArc
 50
81.97879795
 51
89.9378453616
  0
ARC
  5
430
100
AcDbEntity
  8
0
100
AcDbCircle
 62
7
  6
CONTINUOUS
 10
6.700186284
 20
15.6759218427
 40
0.0998137764
100
AcDbArc
 50
0.0630342366
 51
16.8031231999
  0
ARC
  5
431
100
AcDbEntity
  8
0
100
AcDbCircle
 62
7
  6
CONTINUOUS
 10
6.7009683025
 20
15.6760356903
 40
0.0990323048
100
AcDbArc
 50
16.8708619528
 51
25.1248959662
  0
ARC
  5
432
100
AcDbEntity
  8
0
100
AcDbCircle
 62
7
  6
CONTINUOUS
 10
6525.9357253234
 20
11.6411748747
 40
6516.4291888395
100
AcDbArc
 50
180.0021205226
 51
180.1412679404
  0
ARC
  5
433
100
AcDbEntity
  8
0
100
AcDbCircle
 62
7
  6
CONTINUOUS
 10
6474.2246683983
 20
11.5845517239
 40
6483.4702768928
100
AcDbArc
 50
180.0016309117
 51
180.141485684
  0
ARC
  5
434
100
AcDbEntity
  8
0
100
AcDbCircle
 62
7
  6
CONTINUOUS
 10
6217.5142353546
 20
11.3460684232
 40
6226.4142241611
100
AcDbArc
 50
179.999503731
 51
180.1451324579
  0
ARC
  5
435
100
AcDbEntity
  8
0
100
AcDbCircle
 62
253
  6
CONTINUOUS
 10
6216.7474105302
 20
11.3390600032
 40
6206.9909858983
100
AcDbArc
 50
179.9994374433
 51
180.1451966952
  0
ARC
  5
436
100
AcDbEntity
  8
0
100
AcDbCircle
 62
7
  6
CONTINUOUS
 10
6007.5000076514
 20
11.2430600383
 40
6016.4955686389
100
AcDbArc
 50
179.9985054427
 51
180.148872793
  0
SPLINE
  5
437
100
AcDbEntity
  8
RACCORDO
100
AcDbSpline
 62
7
  6
CONTINUOUS
 70
0
 71
3
 72
14
 73
10
 74
8
 42
0.0000001
 43
0.0000001
 44
0.0000000001
 12
0.0
 22
0.1661475956
 32
0.0
 13
0.1661475956
 23
0.0
 33
0.0
 40
0.0
 40
0.0
 40
0.0
 40
0.0
 40
0.0599087912
 40
0.1352724281
 40
0.2329588124
 40
0.353747138
 40
0.4953552542
 40
0.6537852024
 40
1.0
 40
1.0
 40
1.0
 40
1.0
 10
2.9
 20
21.8832102554
 30
0.0
 10
2.9
 20
21.886528156
 30
0.0
 10
2.9026172931
 20
21.894027338
 30
0.0
 10
2.912076192
 20
21.9031399651
 30
0.0
 10
2.9262295711
 20
21.9113386639
 30
0.0
 10
2.9449154132
 20
21.918480386
 30
0.0
 10
2.9675025239
 20
21.9243634468
 30
0.0
 10
3.0028158067
 20
21.9303711669
 30
0.0
 10
3.0308257479
 20
21.9320454786
 30
0.0
 10
3.05
 20
21.9320454786
 30
0.0
 11
2.9
 21
21.8832102554
 31
0.0
 11
2.9028822079
 21
21.8927375348
 31
0.0
 11
2.9114180701
 21
21.9018986863
 31
0.0
 11
2.9252795582
 21
21.9103416517
 31
0.0
 11
2.9439339828
 21
21.9177419729
 31
0.0
 11
2.966664465
 21
21.9238152595
 31
0.0
 11
2.9925974851
 21
21.9283281186
 31
0.0
 11
3.05
 21
21.9320454786
 31
0.0
  0
SPLINE
  5
438
100
AcDbEntity
  8
RACCORDO
100
AcDbSpline
 62
7
  6
CONTINUOUS
 70
0
 71
3
 72
14
 73
10
 74
8
 42
0.0000001
 43
0.0000001
 44
0.0000000001
 12
0.1661475956
 22
0.0
 32
0.0
 13
0.0
 23
-0.1661475956
 33
0.0
 40
0.0
 40
0.0
 40
0.0
 40
0.0
 40
0.3462147976
 40
0.5046447458
 40
0.646252862
 40
0.7670411876
 40
0.8647275719
 40
0.9400912088
 40
1.0
 40
1.0
 40
1.0
 40
1.0
 10
-3.05
 20
21.9320454786
 30
0.0
 10
-3.0308257479
 20
21.9320454786
 30
0.0
 10
-3.0028158067
 20
21.9303711669
 30
0.0
 10
-2.9675025239
 20
21.9243634468
 30
0.0
 10
-2.9449154132
 20
21.918480386
 30
0.0
 10
-2.9262295711
 20
21.9113386639
 30
0.0
 10
-2.912076192
 20
21.9031399651
 30
0.0
 10
-2.9026172931
 20
21.894027338
 30
0.0
 10
-2.9
 20
21.886528156
 30
0.0
 10
-2.9
 20
21.8832102554
 30
0.0
 11
-3.05
 21
21.9320454786
 31
0.0
 11
-2.9925974851
 21
21.9283281186
 31
0.0
 11
-2.966664465
 21
21.9238152595
 31
0.0
 11
-2.9439339828
 21
21.9177419729
 31
0.0
 11
-2.9252795582
 21
21.9103416517
 31
0.0
 11
-2.9114180701
 21
21.9018986863
 31
0.0
 11
-2.9028822079
 21
21.8927375348
 31
0.0
 11
-2.9
 21
21.8832102554
 31
0.0
  0
SPLINE
  5
439
100
AcDbEntity
  8
RACCORDO
100
AcDbSpline
 62
7
  6
CONTINUOUS
 70
0
 71
3
 72
14
 73
10
 74
8
 42
0.0000001
 43
0.0000001
 44
0.0000000001
 12
0.0
 22
-0.3322951911
 32
0.0
 13
-0.3322951911
 23
0.0
 33
0.0
 40
0.0
 40
0.0
 40
0.0
 40
0.0
 40
0.0599087912
 40
0.1352724281
 40
0.2329588124
 40
0.353747138
 40
0.4953552542
 40
0.6537852024
 40
1.0
 40
1.0
 40
1.0
 40
1.0
 10
2.5
 20
23.2348625715
 30
0.0
 10
2.5
 20
23.2282267704
 30
0.0
 10
2.4947654138
 20
23.2132284063
 30
0.0
 10
2.4758476159
 20
23.1950031521
 30
0.0
 10
2.4475408577
 20
23.1786057545
 30
0.0
 10
2.4101691736
 20
23.1643223104
 30
0.0
 10
2.3649949523
 20
23.1525561888
 30
0.0
 10
2.2943683865
 20
23.1405407486
 30
0.0
 10
2.2383485041
 20
23.1371921251
 30
0.0
 10
2.2
 20
23.1371921251
 30
0.0
 11
2.5
 21
23.2348625715
 31
0.0
 11
2.4942355841
 21
23.2158080126
 31
0.0
 11
2.4771638598
 21
23.1974857098
 31
0.0
 11
2.4494408837
 21
23.1805997788
 31
0.0
 11
2.4121320344
 21
23.1657991365
 31
0.0
 11
2.3666710699
 21
23.1536525633
 31
0.0
 11
2.3148050297
 21
23.1446268451
 31
0.0
 11
2.2
 21
23.1371921251
 31
0.0
  0
SPLINE
  5
43A
100
AcDbEntity
  8
RACCORDO
100
AcDbSpline
 62
7
  6
CONTINUOUS
 70
0
 71
3
 72
14
 73
10
 74
8
 42
0.0000001
 43
0.0000001
 44
0.0000000001
 12
-0.3322951911
 22
0.0
 32
0.0
 13
0.0
 23
0.3322951911
 33
0.0
 40
0.0
 40
0.0
 40
0.0
 40
0.0
 40
0.3462147976
 40
0.5046447458
 40
0.646252862
 40
0.7670411876
 40
0.8647275719
 40
0.9400912088
 40
1.0
 40
1.0
 40
1.0
 40
1.0
 10
-2.2
 20
23.1371921251
 30
0.0
 10
-2.2383485041
 20
23.1371921251
 30
0.0
 10
-2.2943683865
 20
23.1405407486
 30
0.0
 10
-2.3649949523
 20
23.1525561888
 30
0.0
 10
-2.4101691736
 20
23.1643223104
 30
0.0
 10
-2.4475408577
 20
23.1786057545
 30
0.0
 10
-2.4758476159
 20
23.1950031521
 30
0.0
 10
-2.4947654138
 20
23.2132284063
 30
0.0
 10
-2.5
 20
23.2282267704
 30
0.0
 10
-2.5
 20
23.2348625715
 30
0.0
 11
-2.2
 21
23.1371921251
 31
0.0
 11
-2.3148050297
 21
23.1446268451
 31
0.0
 11
-2.3666710699
 21
23.1536525633
 31
0.0
 11
-2.4121320344
 21
23.1657991365
 31
0.0
 11
-2.4494408837
 21
23.1805997788
 31
0.0
 11
-2.4771638598
 21
23.1974857098
 31
0.0
 11
-2.4942355841
 21
23.2158080126
 31
0.0
 11
-2.5
 21
23.2348625715
 31
0.0
  0
SPLINE
  5
43B
100
AcDbEntity
  8
RACCORDO
100
AcDbSpline
 62
7
  6
CONTINUOUS
 70
0
 71
3
 72
14
 73
10
 74
8
 42
0.0000001
 43
0.0000001
 44
0.0000000001
 12
0.0
 22
-0.1661475956
 32
0.0
 13
-0.1661475956
 23
-0.0
 33
0.0
 40
0.0
 40
0.0
 40
0.0
 40
0.0
 40
0.0599087912
 40
0.1352724281
 40
0.2329588124
 40
0.353747138
 40
0.4953552542
 40
0.6537852024
 40
1.0
 40
1.0
 40
1.0
 40
1.0
 10
-2.9
 20
-21.8832102554
 30
0.0
 10
-2.9
 20
-21.886528156
 30
0.0
 10
-2.9026172931
 20
-21.894027338
 30
0.0
 10
-2.912076192
 20
-21.9031399651
 30
0.0
 10
-2.9262295711
 20
-21.9113386639
 30
0.0
 10
-2.9449154132
 20
-21.918480386
 30
0.0
 10
-2.9675025239
 20
-21.9243634468
 30
0.0
 10
-3.0028158067
 20
-21.9303711669
 30
0.0
 10
-3.0308257479
 20
-21.9320454786
 30
0.0
 10
-3.05
 20
-21.9320454786
 30
0.0
 11
-2.9
 21
-21.8832102554
 31
0.0
 11
-2.9028822079
 21
-21.8927375348
 31
0.0
 11
-2.9114180701
 21
-21.9018986863
 31
0.0
 11
-2.9252795582
 21
-21.9103416517
 31
0.0
 11
-2.9439339828
 21
-21.9177419729
 31
0.0
 11
-2.966664465
 21
-21.9238152595
 31
0.0
 11
-2.9925974851
 21
-21.9283281186
 31
0.0
 11
-3.05
 21
-21.9320454786
 31
0.0
  0
SPLINE
  5
43C
100
AcDbEntity
  8
RACCORDO
100
AcDbSpline
 62
7
  6
CONTINUOUS
 70
0
 71
3
 72
14
 73
10
 74
8
 42
0.0000001
 43
0.0000001
 44
0.0000000001
 12
-0.1661475956
 22
0.0
 32
0.0
 13
0.0
 23
0.1661475956
 33
0.0
 40
0.0
 40
0.0
 40
0.0
 40
0.0
 40
0.3462147976
 40
0.5046447458
 40
0.646252862
 40
0.7670411876
 40
0.8647275719
 40
0.9400912088
 40
1.0
 40
1.0
 40
1.0
 40
1.0
 10
3.05
 20
-21.9320454786
 30
0.0
 10
3.0308257479
 20
-21.9320454786
 30
0.0
 10
3.0028158067
 20
-21.9303711669
 30
0.0
 10
2.9675025239
 20
-21.9243634468
 30
0.0
 10
2.9449154132
 20
-21.918480386
 30
0.0
 10
2.9262295711
 20
-21.9113386639
 30
0.0
 10
2.912076192
 20
-21.9031399651
 30
0.0
 10
2.9026172931
 20
-21.894027338
 30
0.0
 10
2.9
 20
-21.886528156
 30
0.0
 10
2.9
 20
-21.8832102554
 30
0.0
 11
3.05
 21
-21.9320454786
 31
0.0
 11
2.9925974851
 21
-21.9283281186
 31
0.0
 11
2.966664465
 21
-21.9238152595
 31
0.0
 11
2.9439339828
 21
-21.9177419729
 31
0.0
 11
2.9252795582
 21
-21.9103416517
 31
0.0
 11
2.9114180701
 21
-21.9018986863
 31
0.0
 11
2.9028822079
 21
-21.8927375348
 31
0.0
 11
2.9
 21
-21.8832102554
 31
0.0
  0
SPLINE
  5
43D
100
AcDbEntity
  8
RACCORDO
100
AcDbSpline
 62
7
  6
CONTINUOUS
 70
0
 71
3
 72
14
 73
10
 74
8
 42
0.0000001
 43
0.0000001
 44
0.0000000001
 12
0.0
 22
0.3322951911
 32
0.0
 13
0.3322951911
 23
0.0
 33
0.0
 40
0.0
 40
0.0
 40
0.0
 40
0.0
 40
0.0599087912
 40
0.1352724281
 40
0.2329588124
 40
0.353747138
 40
0.4953552542
 40
0.6537852024
 40
1.0
 40
1.0
 40
1.0
 40
1.0
 10
-2.5
 20
-23.2348625715
 30
0.0
 10
-2.5
 20
-23.2282267704
 30
0.0
 10
-2.4947654138
 20
-23.2132284063
 30
0.0
 10
-2.4758476159
 20
-23.1950031521
 30
0.0
 10
-2.4475408577
 20
-23.1786057545
 30
0.0
 10
-2.4101691736
 20
-23.1643223104
 30
0.0
 10
-2.3649949523
 20
-23.1525561888
 30
0.0
 10
-2.2943683865
 20
-23.1405407486
 30
0.0
 10
-2.2383485041
 20
-23.1371921251
 30
0.0
 10
-2.2
 20
-23.1371921251
 30
0.0
 11
-2.5
 21
-23.2348625715
 31
0.0
 11
-2.4942355841
 21
-23.2158080126
 31
0.0
 11
-2.4771638598
 21
-23.1974857098
 31
0.0
 11
-2.4494408837
 21
-23.1805997788
 31
0.0
 11
-2.4121320344
 21
-23.1657991365
 31
0.0
 11
-2.3666710699
 21
-23.1536525633
 31
0.0
 11
-2.3148050297
 21
-23.1446268451
 31
0.0
 11
-2.2
 21
-23.1371921251
 31
0.0
  0
SPLINE
  5
43E
100
AcDbEntity
  8
RACCORDO
100
AcDbSpline
 62
7
  6
CONTINUOUS
 70
0
 71
3
 72
14
 73
10
 74
8
 42
0.0000001
 43
0.0000001
 44
0.0000000001
 12
0.3322951911
 22
0.0
 32
0.0
 13
0.0
 23
-0.3322951911
 33
0.0
 40
0.0
 40
0.0
 40
0.0
 40
0.0
 40
0.3462147976
 40
0.5046447458
 40
0.646252862
 40
0.7670411876
 40
0.8647275719
 40
0.9400912088
 40
1.0
 40
1.0
 40
1.0
 40
1.0
 10
2.2
 20
-23.1371921251
 30
0.0
 10
2.2383485041
 20
-23.1371921251
 30
0.0
 10
2.2943683865
 20
-23.1405407486
 30
0.0
 10
2.3649949523
 20
-23.1525561888
 30
0.0
 10
2.4101691736
 20
-23.1643223104
 30
0.0
 10
2.4475408577
 20
-23.1786057545
 30
0.0
 10
2.4758476159
 20
-23.1950031521
 30
0.0
 10
2.4947654138
 20
-23.2132284063
 30
0.0
 10
2.5
 20
-23.2282267704
 30
0.0
 10
2.5
 20
-23.2348625715
 30
0.0
 11
2.2
 21
-23.1371921251
 31
0.0
 11
2.3148050297
 21
-23.1446268451
 31
0.0
 11
2.3666710699
 21
-23.1536525633
 31
0.0
 11
2.4121320344
 21
-23.1657991365
 31
0.0
 11
2.4494408837
 21
-23.1805997788
 31
0.0
 11
2.4771638598
 21
-23.1974857098
 31
0.0
 11
2.4942355841
 21
-23.2158080126
 31
0.0
 11
2.5
 21
-23.2348625715
 31
0.0
  0
SPLINE
  5
43F
100
AcDbEntity
  8
ASSI
100
AcDbSpline
 62
7
  6
CONTINUOUS
 70
0
 71
3
 72
12
 73
8
 74
6
 42
0.0000001
 43
0.0000001
 44
0.0000000001
 12
-1.2595225199
 22
-0.908523822
 32
0.0
 13
1.0881960555
 23
1.1079900081
 33
0.0
 40
0.0
 40
0.0
 40
0.0
 40
0.0
 40
0.1470573537
 40
0.2832660279
 40
0.5147250782
 40
0.7626202463
 40
1.0
 40
1.0
 40
1.0
 40
1.0
 10
-6.5400901601
 20
19.0697794555
 30
0.0
 10
-6.601830843
 20
19.0252444192
 30
0.0
 10
-6.7415988091
 20
18.9650727499
 30
0.0
 10
-7.0141200036
 20
18.9659437638
 30
0.0
 10
-7.310040738
 20
19.1447151734
 30
0.0
 10
-7.4351469223
 20
19.5317644461
 30
0.0
 10
-7.3195942377
 20
19.7832014244
 30
0.0
 10
-7.2334890005
 20
19.8708728895
 30
0.0
 11
-6.5400901601
 21
19.0697794555
 31
0.0
 11
-6.7497027327
 21
18.9791146779
 31
0.0
 11
-6.9612313391
 21
18.9803519845
 31
0.0
 11
-7.2679200971
 21
19.1678372949
 31
0.0
 11
-7.3847247938
 21
19.53467159
 31
0.0
 11
-7.2334890005
 21
19.8708728895
 31
0.0
  0
SPLINE
  5
440
100
AcDbEntity
  8
ASSI
100
AcDbSpline
 62
7
  6
CONTINUOUS
 70
0
 71
3
 72
14
 73
10
 74
8
 42
0.0000001
 43
0.0000001
 44
0.0000000001
 12
1.0968225331
 22
-1.1167733986
 32
0.0
 13
-1.269507157
 23
0.9157259804
 33
0.0
 40
0.0
 40
0.0
 40
0.0
 40
0.0
 40
0.1107412333
 40
0.2399167855
 40
0.3765621423
 40
0.4894083062
 40
0.7189073679
 40
0.8540498156
 40
1.0
 40
1.0
 40
1.0
 40
1.0
 10
7.2334890005
 20
19.8708728895
 30
0.0
 10
7.2739768272
 20
19.8296486017
 30
0.0
 10
7.3483315111
 20
19.7255986594
 30
0.0
 10
7.3977344629
 20
19.530482465
 30
0.0
 10
7.3703696078
 20
19.3290333011
 30
0.0
 10
7.2459919442
 20
19.1077711228
 30
0.0
 10
7.014119048
 20
18.9653350321
 30
0.0
 10
6.7417940953
 20
18.9655218306
 30
0.0
 10
6.6018517613
 20
19.0252293303
 30
0.0
 10
6.5400901601
 20
19.0697794555
 30
0.0
 11
7.2334890005
 21
19.8708728895
 31
0.0
 11
7.3334826928
 21
19.7292762242
 31
0.0
 11
7.3839826503
 21
19.533483923
 31
0.0
 11
7.3546247119
 21
19.3216156181
 31
0.0
 11
7.2678782915
 21
19.1677437038
 31
0.0
 11
6.9614026005
 21
18.9803287271
 31
0.0
 11
6.7498649942
 21
18.9792952006
 31
0.0
 11
6.5400901601
 21
19.0697794555
 31
0.0
  0
SPLINE
  5
441
100
AcDbEntity
  8
0
100
AcDbSpline
 62
7
  6
CONTINUOUS
 70
0
 71
3
 72
14
 73
10
 74
8
 42
0.0000001
 43
0.0000001
 44
0.0000000001
 12
0.0001843843
 22
0.048959549
 32
0.0
 13
0.0485979447
 23
0.0059423235
 33
0.0
 40
0.0
 40
0.0
 40
0.0
 40
0.0
 40
0.4144135369
 40
0.5872872235
 40
0.7325300277
 40
0.8480408065
 40
0.9318982986
 40
0.9827809641
 40
1.0
 40
1.0
 40
1.0
 40
1.0
 10
6.6991417927
 20
15.7270949504
 30
0.0
 10
6.6991672631
 20
15.733858117
 30
0.0
 10
6.6991951098
 20
15.7434529177
 30
0.0
 10
6.6992706671
 20
15.7553839459
 30
0.0
 10
6.699251612
 20
15.7625123831
 30
0.0
 10
6.6994219092
 20
15.7679988694
 30
0.0
 10
6.6991378993
 20
15.7724007224
 30
0.0
 10
6.6997422448
 20
15.7743144026
 30
0.0
 10
6.6991803545
 20
15.7760183685
 30
0.0
 10
6.6994592911
 20
15.7760524755
 30
0.0
 11
6.6991417927
 21
15.7270949504
 31
0.0
 11
6.6992228595
 21
15.7473844322
 31
0.0
 11
6.6992596989
 21
15.7558482298
 31
0.0
 11
6.6992938401
 21
15.7629592205
 31
0.0
 11
6.6993285256
 21
15.7686145099
 31
0.0
 11
6.6993672671
 21
15.7727199812
 31
0.0
 11
6.6994112583
 21
15.7752108028
 31
0.0
 11
6.6994592911
 21
15.7760524755
 31
0.0
  0
SPLINE
  5
442
100
AcDbEntity
  8
0
100
AcDbSpline
 62
7
  6
CONTINUOUS
 70
0
 71
3
 72
8
 73
4
 74
2
 42
0.0000001
 43
0.0000001
 44
0.0000000001
 12
-0.0207711676
 22
0.0443378943
 32
0.0
 13
-0.0393166093
 23
0.0291803787
 33
0.0
 40
0.0
 40
0.0
 40
0.0
 40
0.0
 40
1.0
 40
1.0
 40
1.0
 40
1.0
 10
6.7906306056
 20
15.7180841005
 30
0.0
 10
6.7837068831
 20
15.7328633986
 30
0.0
 10
6.7727173265
 20
15.7462403296
 30
0.0
 10
6.75961179
 20
15.7559671225
 30
0.0
 11
6.7906306056
 21
15.7180841005
 31
0.0
 11
6.75961179
 21
15.7559671225
 31
0.0
  0
SPLINE
  5
443
100
AcDbEntity
  8
0
100
AcDbSpline
 62
7
  6
CONTINUOUS
 70
0
 71
3
 72
8
 73
4
 74
2
 42
0.0000001
 43
0.0000001
 44
0.0000000001
 12
-0.0401845487
 22
0.0298245543
 32
0.0
 13
-0.0495551297
 23
0.0069707329
 33
0.0
 40
0.0
 40
0.0
 40
0.0
 40
0.0
 40
1.0
 40
1.0
 40
1.0
 40
1.0
 10
6.75961179
 20
15.7559671225
 30
0.0
 10
6.7462169405
 20
15.7659086406
 30
0.0
 10
6.7298557816
 20
15.7726956651
 30
0.0
 10
6.713337405
 20
15.7750192427
 30
0.0
 11
6.75961179
 21
15.7559671225
 31
0.0
 11
6.713337405
 21
15.7750192427
 31
0.0
  0
SPLINE
  5
444
100
AcDbEntity
  8
0
100
AcDbSpline
 62
7
  6
CONTINUOUS
 70
0
 71
3
 72
10
 73
6
 74
4
 42
0.0000001
 43
0.0000001
 44
0.0000000001
 12
-0.1056206362
 22
-0.0091575893
 32
0.0
 13
0.0000829679
 23
-0.1060168541
 33
0.0
 40
0.0
 40
0.0
 40
0.0
 40
0.0
 40
0.3277457375
 40
0.6140782021
 40
1.0
 40
1.0
 40
1.0
 40
1.0
 10
-6.712996687
 20
15.7262126133
 30
0.0
 10
-6.7245355914
 20
15.7252121597
 30
0.0
 10
-6.7462886135
 20
15.721260273
 30
0.0
 10
-6.7785229655
 20
15.7095981678
 30
0.0
 10
-6.8000106434
 20
15.6895878468
 30
0.0
 10
-6.7999999703
 20
15.6759497752
 30
0.0
 11
-6.712996687
 21
15.7262126133
 31
0.0
 11
-6.7471977082
 21
15.7200794941
 31
0.0
 11
-6.7752797498
 21
15.7085516878
 31
0.0
 11
-6.7999999703
 21
15.6759497752
 31
0.0
  0
SPLINE
  5
445
100
AcDbEntity
  8
0
100
AcDbSpline
 62
7
  6
CONTINUOUS
 70
0
 71
3
 72
9
 73
5
 74
3
 42
0.0000001
 43
0.0000001
 44
0.0000000001
 12
0.0183260685
 22
0.2876173268
 32
0.0
 13
0.0101159849
 23
0.2880229823
 33
0.0
 40
0.0
 40
0.0
 40
0.0
 40
0.0
 40
0.202042812
 40
1.0
 40
1.0
 40
1.0
 40
1.0
 10
8.827151229
 20
-7.8516340799
 30
0.0
 10
8.8283854458
 20
-7.832263742
 30
0.0
 10
8.8338682643
 20
-7.7363516156
 30
0.0
 10
8.8376393325
 20
-7.6403505401
 30
0.0
 10
8.8403300401
 20
-7.5637405371
 30
0.0
 11
8.827151229
 21
-7.8516340799
 31
0.0
 11
8.8305310981
 21
-7.7935033996
 31
0.0
 11
8.8403300401
 21
-7.5637405371
 31
0.0
  0
LINE
  5
446
100
AcDbEntity
  8
0
100
AcDbLine
 62
7
  6
CONTINUOUS
 10
8.8403300401
 20
-7.5637405371
 11
8.840454006
 21
-7.5602025419
  0
SPLINE
  5
447
100
AcDbEntity
  8
0
100
AcDbSpline
 62
7
  6
CONTINUOUS
 70
0
 71
3
 72
10
 73
6
 74
4
 42
0.0000001
 43
0.0000001
 44
0.0000000001
 12
0.1095121464
 22
3.1329390328
 32
0.0
 13
0.0079553435
 23
3.1348423574
 33
0.0
 40
0.0
 40
0.0
 40
0.0
 40
0.0
 40
0.176340915
 40
0.4112495447
 40
1.0
 40
1.0
 40
1.0
 40
1.0
 10
8.840454006
 20
-7.5602025419
 30
0.0
 10
8.8468911633
 20
-7.37604743
 30
0.0
 10
8.8572148713
 20
-6.9464176631
 30
0.0
 10
8.8733018757
 20
-5.901590223
 30
0.0
 10
8.8784522597
 20
-5.0408986335
 30
0.0
 10
8.8800134971
 20
-4.4256853451
 30
0.0
 11
8.840454006
 21
-7.5602025419
 31
0.0
 11
8.8550628767
 21
-7.0075928595
 31
0.0
 11
8.8669507829
 21
-6.2712849264
 31
0.0
 11
8.8800134971
 21
-4.4256853451
 31
0.0
  0
SPLINE
  5
448
100
AcDbEntity
  8
0
100
AcDbSpline
 62
7
  6
CONTINUOUS
 70
0
 71
3
 72
10
 73
6
 74
4
 42
0.0000001
 43
0.0000001
 44
0.0000000001
 12
0.0079552832
 22
-3.1348702635
 32
0.0
 13
0.1095148228
 23
-3.1329668621
 33
0.0
 40
0.0
 40
0.0
 40
0.0
 40
0.0
 40
0.5887515817
 40
0.8236601115
 40
1.0
 40
1.0
 40
1.0
 40
1.0
 10
-8.8800135843
 20
-4.4256662808
 30
0.0
 10
-8.8784523558
 20
-5.0408862228
 30
0.0
 10
-8.8733020704
 20
-5.9015865482
 30
0.0
 10
-8.8572148854
 20
-6.9464232882
 30
0.0
 10
-8.8468910708
 20
-7.3760557029
 30
0.0
 10
-8.8404537936
 20
-7.5602113786
 30
0.0
 11
-8.8800135843
 21
-4.4256662808
 31
0.0
 11
-8.8669508747
 21
-6.2712858233
 31
0.0
 11
-8.8550628432
 21
-7.0075999974
 31
0.0
 11
-8.8404537936
 21
-7.5602113786
 31
0.0
  0
LINE
  5
449
100
AcDbEntity
  8
0
100
AcDbLine
 62
7
  6
CONTINUOUS
 10
-8.8404537936
 20
-7.5602113786
 11
-8.8403301338
 21
-7.5637406028
  0
SPLINE
  5
44A
100
AcDbEntity
  8
0
100
AcDbSpline
 62
7
  6
CONTINUOUS
 70
0
 71
3
 72
9
 73
5
 74
3
 42
0.0000001
 43
0.0000001
 44
0.0000000001
 12
0.0101159295
 22
-0.2880202884
 32
0.0
 13
0.0183255915
 23
-0.2876146575
 33
0.0
 40
0.0
 40
0.0
 40
0.0
 40
0.0
 40
0.297332585
 40
1.0
 40
1.0
 40
1.0
 40
1.0
 10
-8.8403301338
 20
-7.5637406028
 30
0.0
 10
-8.8393275353
 20
-7.5922865417
 30
0.0
 10
-8.8357360632
 20
-7.6882836246
 30
0.0
 10
-8.8314436366
 20
-7.7842668939
 30
0.0
 10
-8.8271513713
 20
-7.8516327099
 30
0.0
 11
-8.8403301338
 21
-7.5637406028
 31
0.0
 11
-8.8371298429
 21
-7.6493714421
 31
0.0
 11
-8.8271513713
 21
-7.8516327099
 31
0.0
  0
SPLINE
  5
44B
100
AcDbEntity
  8
0
100
AcDbSpline
 62
7
  6
CONTINUOUS
 70
0
 71
3
 72
9
 73
5
 74
3
 42
0.0000001
 43
0.0000001
 44
0.0000000001
 12
0.0005422216
 22
0.018372874
 32
0.0
 13
0.0032868679
 23
0.0180846068
 33
0.0
 40
0.0
 40
0.0
 40
0.0
 40
0.0
 40
0.2031285122
 40
1.0
 40
1.0
 40
1.0
 40
1.0
 10
-8.2154968939
 20
-7.9891476107
 30
0.0
 10
-8.2154601804
 20
-7.9879035925
 30
0.0
 10
-8.2149489577
 20
-7.9817898406
 30
0.0
 10
-8.2136919561
 20
-7.9757790276
 30
0.0
 10
-8.2128188857
 20
-7.9709753251
 30
0.0
 11
-8.2154968939
 21
-7.9891476107
 31
0.0
 11
-8.2152217209
 21
-7.9854240852
 31
0.0
 11
-8.2128188857
 21
-7.9709753251
 31
0.0
  0
SPLINE
  5
44C
100
AcDbEntity
  8
0
100
AcDbSpline
 62
7
  6
CONTINUOUS
 70
0
 71
3
 72
11
 73
7
 74
5
 42
0.0000001
 43
0.0000001
 44
0.0000000001
 12
-0.0001701891
 22
2.7231238473
 32
0.0
 13
2.7231238526
 23
0.0
 33
0.0
 40
0.0
 40
0.0
 40
0.0
 40
0.0
 40
0.2491578237
 40
0.4988654129
 40
0.7492468806
 40
1.0
 40
1.0
 40
1.0
 40
1.0
 10
-7.7500000031
 20
-1.8483795856
 30
0.0
 10
-7.7500141378
 20
-1.6222170485
 30
0.0
 10
-7.6586594728
 20
-1.1644185082
 30
0.0
 10
-7.2689552026
 20
-0.5862352707
 30
0.0
 10
-6.6874421369
 20
-0.1990502734
 30
0.0
 10
-6.2276106002
 20
-0.1085307483
 30
0.0
 10
-6.0
 20
-0.1085307483
 30
0.0
 11
-7.7500000031
 21
-1.8483795856
 31
0.0
 11
-7.6168229346
 21
-1.1830906942
 31
0.0
 11
-7.2375915486
 21
-0.6186770712
 31
0.0
 11
-6.6698284868
 21
-0.241154525
 31
0.0
 11
-6.0
 21
-0.1085307483
 31
0.0
  0
SPLINE
  5
44D
100
AcDbEntity
  8
0
100
AcDbSpline
 62
7
  6
CONTINUOUS
 70
0
 71
3
 72
9
 73
5
 74
3
 42
0.0000001
 43
0.0000001
 44
0.0000000001
 12
-0.1122820895
 22
-0.0297166387
 32
0.0
 13
-0.1123356049
 23
-0.0295136935
 33
0.0
 40
0.0
 40
0.0
 40
0.0
 40
0.0
 40
0.2528772234
 40
1.0
 40
1.0
 40
1.0
 40
1.0
 10
-8.0999301917
 20
-7.9437375538
 30
0.0
 10
-8.1093947193
 20
-7.9462424409
 30
0.0
 10
-8.146951339
 20
-7.9556547006
 30
0.0
 10
-8.1847685284
 20
-7.9640095488
 30
0.0
 10
-8.2127446914
 20
-7.9713596663
 30
0.0
 11
-8.0999301917
 21
-7.9437375538
 31
0.0
 11
-8.1284058093
 21
-7.9509351149
 31
0.0
 11
-8.2127446914
 21
-7.9713596663
 31
0.0
  0
SPLINE
  5
44E
100
AcDbEntity
  8
0
100
AcDbSpline
 62
7
  6
CONTINUOUS
 70
0
 71
3
 72
11
 73
7
 74
5
 42
0.0000001
 43
0.0000001
 44
0.0000000001
 12
0.0001299435
 22
2.7230761786
 32
0.0
 13
-2.7230761817
 23
0.0
 33
0.0
 40
0.0
 40
0.0
 40
0.0
 40
0.0
 40
0.2491413863
 40
0.4988644377
 40
0.7492281766
 40
1.0
 40
1.0
 40
1.0
 40
1.0
 10
-4.2500026744
 20
-1.8483207235
 30
0.0
 10
-4.249991883
 20
-1.6221770655
 30
0.0
 10
-4.3413173728
 20
-1.1643768269
 30
0.0
 10
-4.7310759711
 20
-0.5862632483
 30
0.0
 10
-5.3125544949
 20
-0.1990418688
 30
0.0
 10
-5.7723879376
 20
-0.1085308085
 30
0.0
 10
-6.0000115307
 20
-0.1085308085
 30
0.0
 11
-4.2500026744
 21
-1.8483207235
 31
0.0
 11
-4.3831605222
 21
-1.1830857462
 31
0.0
 11
-4.7624423929
 21
-0.6186696604
 31
0.0
 11
-5.3301455115
 21
-0.2411657114
 31
0.0
 11
-6.0000115307
 21
-0.1085308085
 31
0.0
  0
SPLINE
  5
44F
100
AcDbEntity
  8
0
100
AcDbSpline
 62
7
  6
CONTINUOUS
 70
0
 71
3
 72
9
 73
5
 74
3
 42
0.0000001
 43
0.0000001
 44
0.0000000001
 12
-0.09600409
 22
0.2925953879
 32
0.0
 13
-0.307942927
 23
0.0
 33
0.0
 40
0.0
 40
0.0
 40
0.0
 40
0.0
 40
0.4989523687
 40
1.0
 40
1.0
 40
1.0
 40
1.0
 10
5.7376811743
 20
-2.0452124072
 30
0.0
 10
5.7217140183
 20
-1.9965486866
 30
0.0
 10
5.6567578919
 20
-1.9070848364
 30
0.0
 10
5.5514272369
 20
-1.8739346323
 30
0.0
 10
5.4999958788
 20
-1.8739346323
 30
0.0
 11
5.7376811743
 21
-2.0452124072
 31
0.0
 11
5.6468426132
 21
-1.921291764
 31
0.0
 11
5.4999958788
 21
-1.8739346323
 31
0.0
  0
SPLINE
  5
450
100
AcDbEntity
  8
0
100
AcDbSpline
 62
7
  6
CONTINUOUS
 70
0
 71
3
 72
11
 73
7
 74
5
 42
0.0000001
 43
0.0000001
 44
0.0000000001
 12
-0.0001700295
 22
2.7231237344
 32
0.0
 13
2.7231237397
 23
0.0
 33
0.0
 40
0.0
 40
0.0
 40
0.0
 40
0.0
 40
0.2491577744
 40
0.4988654306
 40
0.7492468518
 40
1.0
 40
1.0
 40
1.0
 40
1.0
 10
4.2499999969
 20
-1.8483794431
 30
0.0
 10
4.2499858756
 20
-1.6222169601
 30
0.0
 10
4.3413405317
 20
-1.1644184303
 30
0.0
 10
4.7310448032
 20
-0.5862352328
 30
0.0
 10
5.3125579001
 20
-0.1990503014
 30
0.0
 10
5.7723893831
 20
-0.1085306832
 30
0.0
 10
6.0
 20
-0.1085306832
 30
0.0
 11
4.2499999969
 21
-1.8483794431
 31
0.0
 11
4.3831770362
 21
-1.1830907115
 31
0.0
 11
4.7624085281
 21
-0.6186769737
 31
0.0
 11
5.3301714777
 21
-0.2411545384
 31
0.0
 11
6.0
 21
-0.1085306832
 31
0.0
  0
SPLINE
  5
451
100
AcDbEntity
  8
0
100
AcDbSpline
 62
7
  6
CONTINUOUS
 70
0
 71
3
 72
11
 73
7
 74
5
 42
0.0000001
 43
0.0000001
 44
0.0000000001
 12
0.0001309513
 22
2.7231222859
 32
0.0
 13
-2.7231222891
 23
0.0
 33
0.0
 40
0.0
 40
0.0
 40
0.0
 40
0.0
 40
0.2491412598
 40
0.4988641836
 40
0.7492279464
 40
1.0
 40
1.0
 40
1.0
 40
1.0
 10
7.7499973614
 20
-1.848321482
 30
0.0
 10
7.7500082365
 20
-1.6221741097
 30
0.0
 10
7.658679746
 20
-1.1643659944
 30
0.0
 10
7.2689091174
 20
-0.5862467877
 30
0.0
 10
6.6874138246
 20
-0.1990244397
 30
0.0
 10
6.2275698653
 20
-0.1085308067
 30
0.0
 10
5.9999422091
 20
-0.1085308067
 30
0.0
 11
7.7499973614
 21
-1.848321482
 31
0.0
 11
7.6168353634
 21
-1.1830759714
 31
0.0
 11
7.2375420642
 21
-0.6186541119
 31
0.0
 11
6.669823193
 21
-0.2411528876
 31
0.0
 11
5.9999422091
 21
-0.1085308067
 31
0.0
  0
SPLINE
  5
452
100
AcDbEntity
  8
0
100
AcDbSpline
 62
7
  6
CONTINUOUS
 70
0
 71
3
 72
11
 73
7
 74
5
 42
0.0000001
 43
0.0000001
 44
0.0000000001
 12
-0.0000247597
 22
1.8750756344
 32
0.0
 13
1.8750756345
 23
0.0
 33
0.0
 40
0.0
 40
0.0
 40
0.0
 40
0.0
 40
0.2497979843
 40
0.4997428147
 40
0.7498192978
 40
1.0
 40
1.0
 40
1.0
 40
1.0
 10
-1.6230867251
 20
4.7253242659
 30
0.0
 10
-1.6230887868
 20
4.8814543039
 30
0.0
 10
-1.560828867
 20
5.197194906
 30
0.0
 10
-1.2943881744
 20
5.5969337387
 30
0.0
 10
-0.8955901311
 20
5.8653853088
 30
0.0
 10
-0.5794666816
 20
5.9282999704
 30
0.0
 10
-0.4230974353
 20
5.9282999704
 30
0.0
 11
-1.6230867251
 21
4.7253242659
 31
0.0
 11
-1.5320344451
 21
5.1847791398
 31
0.0
 11
-1.2724146585
 21
5.5749648407
 31
0.0
 11
-0.8831025196
 21
5.8363358847
 31
0.0
 11
-0.4230974353
 21
5.9282999704
 31
0.0
  0
SPLINE
  5
453
100
AcDbEntity
  8
0
100
AcDbSpline
 62
7
  6
CONTINUOUS
 70
0
 71
3
 72
11
 73
7
 74
5
 42
0.0000001
 43
0.0000001
 44
0.0000000001
 12
0.9329927695
 22
-0.4143321812
 32
0.0
 13
0.9676936222
 23
-0.3251395361
 33
0.0
 40
0.0
 40
0.0
 40
0.0
 40
0.0
 40
0.3158368467
 40
0.5936266548
 40
0.8246254113
 40
1.0
 40
1.0
 40
1.0
 40
1.0
 10
7.0989576157
 20
-7.4984323086
 30
0.0
 10
7.1971821138
 20
-7.5420527651
 30
0.0
 10
7.380354991
 20
-7.6272605678
 30
0.0
 10
7.6331615054
 20
-7.7490943936
 30
0.0
 10
7.8441556504
 20
-7.8473340306
 30
0.0
 10
7.9718561871
 20
-7.9009823011
 30
0.0
 10
8.0284258107
 20
-7.9199893719
 30
0.0
 11
7.0989576157
 21
-7.4984323086
 31
0.0
 11
7.391759858
 21
-7.6334286537
 31
0.0
 11
7.6477832584
 21
-7.755377557
 31
0.0
 11
7.8620777577
 21
-7.8538014215
 31
0.0
 11
8.0284258107
 21
-7.9199893719
 31
0.0
  0
SPLINE
  5
454
100
AcDbEntity
  8
0
100
AcDbSpline
 62
7
  6
CONTINUOUS
 70
0
 71
3
 72
11
 73
7
 74
5
 42
0.0000001
 43
0.0000001
 44
0.0000000001
 12
-0.8800657485
 22
-0.3988195799
 32
0.0
 13
-0.9327491728
 23
-0.2520947435
 33
0.0
 40
0.0
 40
0.0
 40
0.0
 40
0.0
 40
0.3249689121
 40
0.6064631601
 40
0.8346287838
 40
1.0
 40
1.0
 40
1.0
 40
1.0
 10
3.2090534555
 20
-7.5389765141
 30
0.0
 10
3.1137221192
 20
-7.5821778358
 30
0.0
 10
2.9369313176
 20
-7.6652180085
 30
0.0
 10
2.6947224972
 20
-7.7819608549
 30
0.0
 10
2.4970667702
 20
-7.8721559248
 30
0.0
 10
2.3786598573
 20
-7.9186363895
 30
0.0
 10
2.3272432356
 20
-7.9325327943
 30
0.0
 11
3.2090534555
 21
-7.5389765141
 31
0.0
 11
2.9244863824
 21
-7.6716842446
 31
0.0
 11
2.6788407161
 21
-7.7884472139
 31
0.0
 11
2.4776125277
 21
-7.8784949606
 31
0.0
 11
2.3272432356
 21
-7.9325327943
 31
0.0
  0
SPLINE
  5
455
100
AcDbEntity
  8
0
100
AcDbSpline
 62
7
  6
CONTINUOUS
 70
0
 71
3
 72
14
 73
10
 74
8
 42
0.0000001
 43
0.0000001
 44
0.0000000001
 12
3.2244096341
 22
1.1680511723
 32
0.0
 13
3.2067153814
 23
-1.2157867791
 33
0.0
 40
0.0
 40
0.0
 40
0.0
 40
0.0
 40
0.1181629634
 40
0.2423353372
 40
0.3709117311
 40
0.5018282549
 40
0.6323960931
 40
0.7603316432
 40
1.0
 40
1.0
 40
1.0
 40
1.0
 10
3.5682339854
 20
-7.3896031479
 30
0.0
 10
3.6952359179
 20
-7.343596352
 30
0.0
 10
3.9583591735
 20
-7.2563075501
 30
0.0
 10
4.3694979556
 20
-7.151000852
 30
0.0
 10
4.8033192294
 20
-7.0808353867
 30
0.0
 10
5.2500195875
 20
-7.0635080992
 30
0.0
 10
5.6947371884
 20
-7.0975167484
 30
0.0
 10
6.2563156178
 20
-7.1962882485
 30
0.0
 10
6.6592812665
 20
-7.3221993201
 30
0.0
 10
6.9154640019
 20
-7.4193278599
 30
0.0
 11
3.5682339854
 21
-7.3896031479
 31
0.0
 11
3.9531405961
 21
-7.2628674138
 31
0.0
 11
4.3659751091
 21
-7.1584145507
 31
0.0
 11
4.8015955898
 21
-7.0900844218
 31
0.0
 11
5.2502087021
 21
-7.0721284709
 31
0.0
 11
5.6967724052
 21
-7.1050627412
 31
0.0
 11
6.1289776081
 21
-7.1805579355
 31
0.0
 11
6.9154640019
 21
-7.4193278599
 31
0.0
  0
SPLINE
  5
456
100
AcDbEntity
  8
0
100
AcDbSpline
 62
7
  6
CONTINUOUS
 70
0
 71
3
 72
9
 73
5
 74
3
 42
0.0000001
 43
0.0000001
 44
0.0000000001
 12
-0.2769322694
 22
-0.2769591526
 32
0.0
 13
0.0000038102
 23
-0.391660381
 33
0.0
 40
0.0
 40
0.0
 40
0.0
 40
0.0
 40
0.5000284662
 40
1.0
 40
1.0
 40
1.0
 40
1.0
 10
-9.8829824944
 20
18.4170175306
 30
0.0
 10
-9.9291405003
 20
18.3708550439
 30
0.0
 10
-10.004210239
 20
18.2594516213
 30
0.0
 10
-10.0304796149
 20
18.1276024511
 30
0.0
 10
-10.0304789799
 20
18.0623294373
 30
0.0
 11
-9.8829824944
 21
18.4170175306
 31
0.0
 11
-9.992013033
 21
18.2543332599
 31
0.0
 11
-10.0304789799
 21
18.0623294373
 31
0.0
  0
SPLINE
  5
457
100
AcDbEntity
  8
0
100
AcDbSpline
 62
7
  6
CONTINUOUS
 70
0
 71
3
 72
9
 73
5
 74
3
 42
0.0000001
 43
0.0000001
 44
0.0000000001
 12
0.0
 22
-0.3917273413
 32
0.0
 13
0.2769930594
 23
-0.2769930594
 33
0.0
 40
0.0
 40
0.0
 40
0.0
 40
0.0
 40
0.4999699739
 40
1.0
 40
1.0
 40
1.0
 40
1.0
 10
-10.0304838649
 20
-18.0622282899
 30
0.0
 10
-10.0304838649
 20
-18.1275122594
 30
0.0
 10
-10.0042727567
 20
-18.2593942222
 30
0.0
 10
-9.9291791213
 20
-18.3708208787
 30
0.0
 10
-9.883010839
 20
-18.416989161
 30
0.0
 11
-10.0304838649
 21
-18.0622282899
 31
0.0
 11
-9.9920551666
 21
-18.25427309
 31
0.0
 11
-9.883010839
 21
-18.416989161
 31
0.0
  0
SPLINE
  5
458
100
AcDbEntity
  8
0
100
AcDbSpline
 62
7
  6
CONTINUOUS
 70
0
 71
3
 72
12
 73
8
 74
6
 42
0.0000001
 43
0.0000001
 44
0.0000000001
 12
3.3403349665
 22
1.2727040986
 32
0.0
 13
3.3459792549
 23
-1.2577902198
 33
0.0
 40
0.0
 40
0.0
 40
0.0
 40
0.0
 40
0.1167152605
 40
0.240468455
 40
0.3692030644
 40
0.5006076793
 40
1.0
 40
1.0
 40
1.0
 40
1.0
 10
-6.9575687307
 20
-7.4317350634
 30
0.0
 10
-6.8276127088
 20
-7.3822203999
 30
0.0
 10
-6.5572567234
 20
-7.2866820087
 30
0.0
 10
-6.1319994295
 20
-7.1721307543
 30
0.0
 10
-5.6808623844
 20
-7.0924132081
 30
0.0
 10
-4.7759912062
 20
-7.0301262846
 30
0.0
 10
-4.0210269414
 20
-7.2124109846
 30
0.0
 10
-3.464041493
 20
-7.4217879102
 30
0.0
 11
-6.9575687307
 21
-7.4317350634
 31
0.0
 11
-6.5636094804
 21
-7.2944086826
 31
0.0
 11
-6.136321419
 21
-7.179900231
 31
0.0
 11
-5.6829687339
 21
-7.1009723234
 31
0.0
 11
-5.2142447271
 21
-7.0704589765
 31
0.0
 11
-3.464041493
 21
-7.4217879102
 31
0.0
  0
SPLINE
  5
459
100
AcDbEntity
  8
0
100
AcDbSpline
 62
7
  6
CONTINUOUS
 70
0
 71
3
 72
12
 73
8
 74
6
 42
0.0000001
 43
0.0000001
 44
0.0000000001
 12
0.9988729031
 22
-0.4408498452
 32
0.0
 13
1.0542060418
 23
-0.2841571466
 33
0.0
 40
0.0
 40
0.0
 40
0.0
 40
0.0
 40
0.3229878313
 40
0.6046017371
 40
0.8342168095
 40
0.9257689601
 40
1.0
 40
1.0
 40
1.0
 40
1.0
 10
-3.3304224022
 20
-7.4792256074
 30
0.0
 10
-3.2228811379
 20
-7.5266886525
 30
0.0
 10
-3.0234431859
 20
-7.619798869
 30
0.0
 10
-2.7512388773
 20
-7.7541774614
 30
0.0
 10
-2.5539914368
 20
-7.8504085613
 30
0.0
 10
-2.421490421
 20
-7.9065919881
 30
0.0
 10
-2.3643942222
 20
-7.9264778942
 30
0.0
 10
-2.3383092852
 20
-7.9335089877
 30
0.0
 11
-3.3304224022
 21
-7.4792256074
 31
0.0
 11
-3.0104108483
 21
-7.6273923475
 31
0.0
 11
-2.734127471
 21
-7.7623304864
 31
0.0
 11
-2.5075198643
 21
-7.8695683029
 31
0.0
 11
-2.4152160345
 21
-7.9079337298
 31
0.0
 11
-2.3383092852
 21
-7.9335089877
 31
0.0
  0
SPLINE
  5
45A
100
AcDbEntity
  8
0
100
AcDbSpline
 62
7
  6
CONTINUOUS
 70
0
 71
3
 72
9
 73
5
 74
3
 42
0.0000001
 43
0.0000001
 44
0.0000000001
 12
0.1045632054
 22
-0.0280113476
 32
0.0
 13
0.1082501709
 23
-0.0000000282
 33
0.0
 40
0.0
 40
0.0
 40
0.0
 40
0.0
 40
0.2756044462
 40
1.0
 40
1.0
 40
1.0
 40
1.0
 10
-2.1522629617
 20
-7.9838329168
 30
0.0
 10
-2.1426569335
 20
-7.9864062674
 30
0.0
 10
-2.1076259699
 20
-7.9949548928
 30
0.0
 10
-2.0715243384
 20
-7.9999999932
 30
0.0
 10
-2.0453856909
 20
-8.0
 30
0.0
 11
-2.1522629617
 21
-7.9838329168
 31
0.0
 11
-2.1232662293
 21
-7.9908522257
 31
0.0
 11
-2.0453856909
 21
-8.0
 31
0.0
  0
SPLINE
  5
45B
100
AcDbEntity
  8
0
100
AcDbSpline
 62
7
  6
CONTINUOUS
 70
0
 71
3
 72
9
 73
5
 74
3
 42
0.0000001
 43
0.0000001
 44
0.0000000001
 12
0.0755084369
 22
-0.0000000173
 32
0.0
 13
0.0730052392
 23
0.0192810551
 33
0.0
 40
0.0
 40
0.0
 40
0.0
 40
0.0
 40
0.2004227796
 40
1.0
 40
1.0
 40
1.0
 40
1.0
 10
2.0457946803
 20
-8.0
 30
0.0
 10
2.0508392172
 20
-8.0000000012
 30
0.0
 10
2.0760045077
 20
-7.99844019
 30
0.0
 10
2.1006949676
 20
-7.9927222836
 30
0.0
 10
2.120152743
 20
-7.9875833861
 30
0.0
 11
2.0457946803
 21
-8.0
 31
0.0
 11
2.0609075386
 21
-7.9992077301
 31
0.0
 11
2.120152743
 21
-7.9875833861
 31
0.0
  0
SPLINE
  5
45C
100
AcDbEntity
  8
0
100
AcDbSpline
 62
7
  6
CONTINUOUS
 70
0
 71
3
 72
9
 73
5
 74
3
 42
0.0000001
 43
0.0000001
 44
0.0000000001
 12
0.2770158812
 22
0.2770158905
 32
0.0
 13
0.0
 23
0.3917596228
 33
0.0
 40
0.0
 40
0.0
 40
0.0
 40
0.0
 40
0.5000293665
 40
1.0
 40
1.0
 40
1.0
 40
1.0
 10
9.8831393162
 20
-18.4168606838
 30
0.0
 10
9.9293113414
 20
-18.3706886571
 30
0.0
 10
10.0044095108
 20
-18.2592505376
 30
0.0
 10
10.0306166363
 20
-18.1273571227
 30
0.0
 10
10.0306166363
 20
-18.0620676871
 30
0.0
 11
9.8831393162
 21
-18.4168606838
 31
0.0
 11
9.9921897247
 21
-18.254129568
 31
0.0
 11
10.0306166363
 21
-18.0620676871
 31
0.0
  0
SPLINE
  5
45D
100
AcDbEntity
  8
0
100
AcDbSpline
 62
7
  6
CONTINUOUS
 70
0
 71
3
 72
9
 73
5
 74
3
 42
0.0000001
 43
0.0000001
 44
0.0000000001
 12
-0.1818691536
 22
-0.0315761418
 32
0.0
 13
-0.1792438098
 23
-0.04410327
 33
0.0
 40
0.0
 40
0.0
 40
0.0
 40
0.0
 40
0.2774116625
 40
1.0
 40
1.0
 40
1.0
 40
1.0
 10
1.9761101393
 20
-8.0116052818
 30
0.0
 10
1.9592925979
 20
-8.0145251451
 30
0.0
 10
1.8987351778
 20
-8.0254147973
 30
0.0
 10
1.8385071561
 20
-8.0382078182
 30
0.0
 10
1.7953339939
 20
-8.0488306544
 30
0.0
 11
1.9761101393
 21
-8.0116052818
 31
0.0
 11
1.9257192783
 21
-8.0207134561
 31
0.0
 11
1.7953339939
 21
-8.0488306544
 31
0.0
  0
SPLINE
  5
45E
100
AcDbEntity
  8
0
100
AcDbSpline
 62
7
  6
CONTINUOUS
 70
0
 71
3
 72
9
 73
5
 74
3
 42
0.0000001
 43
0.0000001
 44
0.0000000001
 12
0.1524769472
 22
-0.0269269477
 32
0.0
 13
0.1509311909
 23
-0.0345551086
 33
0.0
 40
0.0
 40
0.0
 40
0.0
 40
0.0
 40
0.2693730688
 40
1.0
 40
1.0
 40
1.0
 40
1.0
 10
-1.9760669603
 20
-8.0116789207
 30
0.0
 10
-1.9623758992
 20
-8.0140967189
 30
0.0
 10
-1.9115969833
 20
-8.0233287427
 30
0.0
 10
-1.8610007366
 20
-8.0336114058
 30
0.0
 10
-1.8242426057
 20
-8.0420270368
 30
0.0
 11
-1.9760669603
 21
-8.0116789207
 31
0.0
 11
-1.9350322092
 21
-8.0191466724
 31
0.0
 11
-1.8242426057
 21
-8.0420270368
 31
0.0
  0
LINE
  5
45F
100
AcDbEntity
  8
0
100
AcDbLine
 62
7
  6
CONTINUOUS
 10
-8.8936591308
 20
15.0500000001
 11
-8.8936439378
 21
14.977100844
  0
SPLINE
  5
460
100
AcDbEntity
  8
0
100
AcDbSpline
 62
7
  6
CONTINUOUS
 70
0
 71
3
 72
9
 73
5
 74
3
 42
0.0000001
 43
0.0000001
 44
0.0000000001
 12
-0.0131067336
 22
-0.5532640374
 32
0.0
 13
-0.0
 23
-0.5534192638
 33
0.0
 40
0.0
 40
0.0
 40
0.0
 40
0.0
 40
0.1980656947
 40
1.0
 40
1.0
 40
1.0
 40
1.0
 10
-8.8887780215
 20
15.6033911211
 30
0.0
 10
-8.8896433529
 20
15.5668635791
 30
0.0
 10
-8.8928616631
 20
15.3824160898
 30
0.0
 10
-8.8936591308
 20
15.1979352977
 30
0.0
 10
-8.8936591308
 20
15.0500000001
 30
0.0
 11
-8.8887780215
 21
15.6033911211
 31
0.0
 11
-8.8908232569
 21
15.4937968324
 31
0.0
 11
-8.8936591308
 21
15.0500000001
 31
0.0
  0
SPLINE
  5
461
100
AcDbEntity
  8
0
100
AcDbSpline
 62
7
  6
CONTINUOUS
 70
0
 71
3
 72
9
 73
5
 74
3
 42
0.0000001
 43
0.0000001
 44
0.0000000001
 12
-0.0
 22
0.5534177732
 32
0.0
 13
-0.0131066983
 23
0.5532625472
 33
0.0
 40
0.0
 40
0.0
 40
0.0
 40
0.0
 40
0.2879432108
 40
1.0
 40
1.0
 40
1.0
 40
1.0
 10
8.8936591308
 20
15.05
 30
0.0
 10
8.8936591308
 20
15.1031176302
 30
0.0
 10
8.8932196801
 20
15.2875873426
 30
0.0
 10
8.8918889261
 20
15.4720730036
 30
0.0
 10
8.8887780216
 20
15.6033911212
 30
0.0
 11
8.8936591308
 21
15.05
 31
0.0
 11
8.893332158
 21
15.2093525551
 31
0.0
 11
8.8887780216
 21
15.6033911212
 31
0.0
  0
LINE
  5
462
100
AcDbEntity
  8
0
100
AcDbLine
 62
7
  6
CONTINUOUS
 10
8.893643938
 20
14.9771008548
 11
8.8936591308
 21
15.05
  0
SPLINE
  5
463
100
AcDbEntity
  8
0
100
AcDbSpline
 62
7
  6
CONTINUOUS
 70
0
 71
3
 72
11
 73
7
 74
5
 42
0.0000001
 43
0.0000001
 44
0.0000000001
 12
-0.3626765624
 22
0.0
 32
0.0
 13
-0.0392144033
 23
-0.3605503009
 33
0.0
 40
0.0
 40
0.0
 40
0.0
 40
0.0
 40
0.2508022531
 40
0.5010942981
 40
0.7507225222
 40
1.0
 40
1.0
 40
1.0
 40
1.0
 10
6.5000151039
 20
-1.8739346323
 30
0.0
 10
6.4696950709
 20
-1.8739346323
 30
0.0
 10
6.4085446874
 20
-1.8851182721
 30
0.0
 10
6.3293218466
 20
-1.9332814508
 30
0.0
 10
6.2724728295
 20
-2.0063258442
 30
0.0
 10
6.2547018668
 20
-2.0656550069
 30
0.0
 10
6.2514434443
 20
-2.0956140302
 30
0.0
 11
6.5000151039
 21
-1.8739346323
 31
0.0
 11
6.4105542644
 21
-1.8903814497
 31
0.0
 11
6.3329671677
 21
-1.9375020787
 31
0.0
 11
6.2774747604
 21
-2.0090356606
 31
0.0
 11
6.2514434443
 21
-2.0956140302
 31
0.0
  0
SPLINE
  5
464
100
AcDbEntity
  8
0
100
AcDbSpline
 62
7
  6
CONTINUOUS
 70
0
 71
3
 72
14
 73
10
 74
8
 42
0.0000001
 43
0.0000001
 44
0.0000000001
 12
-2.3499911017
 22
-0.0
 32
0.0
 13
-0.0018637455
 23
2.3499903627
 33
0.0
 40
0.0
 40
0.0
 40
0.0
 40
0.0
 40
0.2494530791
 40
0.3745498273
 40
0.4998324525
 40
0.6248520451
 40
0.7498872114
 40
0.8749836773
 40
1.0
 40
1.0
 40
1.0
 40
1.0
 10
2.1993809797
 20
3.2243062099
 30
0.0
 10
2.0039768076
 20
3.2243062099
 30
0.0
 10
1.7061765302
 20
3.2826539635
 30
0.0
 10
1.3601576675
 20
3.47003669
 30
0.0
 10
1.1321760456
 20
3.6583923417
 30
0.0
 10
0.9410961664
 20
3.8846851634
 30
0.0
 10
0.8066102792
 20
4.1483486367
 30
0.0
 10
0.7191477529
 20
4.4303263363
 30
0.0
 10
0.6987932417
 20
4.6268522895
 30
0.0
 10
0.6987155755
 20
4.7247813406
 30
0.0
 11
2.1993809797
 21
3.2243062099
 31
0.0
 11
1.62438432
 21
3.3384287558
 31
0.0
 11
1.365596811
 21
3.4778958053
 31
0.0
 11
1.1381751837
 21
3.6648675947
 31
0.0
 11
0.9505177246
 21
3.8909209935
 31
0.0
 11
0.8144664783
 21
4.1513572146
 31
0.0
 11
0.7286244352
 21
4.4325204881
 31
0.0
 11
0.6987155755
 21
4.7247813406
 31
0.0
  0
SPLINE
  5
465
100
AcDbEntity
  8
0
100
AcDbSpline
 62
7
  6
CONTINUOUS
 70
0
 71
3
 72
11
 73
7
 74
5
 42
0.0000001
 43
0.0000001
 44
0.0000000001
 12
0.9715931513
 22
0.3171031872
 32
0.0
 13
0.9335112106
 23
0.4160582924
 33
0.0
 40
0.0
 40
0.0
 40
0.0
 40
0.0
 40
0.1753598901
 40
0.4069165111
 40
0.6847199393
 40
1.0
 40
1.0
 40
1.0
 40
1.0
 10
-8.0284279413
 20
-7.9233692541
 30
0.0
 10
-7.9716351185
 20
-7.9048335274
 30
0.0
 10
-7.8441104958
 20
-7.8495647312
 30
0.0
 10
-7.6343594177
 20
-7.7477894497
 30
0.0
 10
-7.3822827004
 20
-7.6236598658
 30
0.0
 10
-7.1992301899
 20
-7.5380691835
 30
0.0
 10
-7.1011243662
 20
-7.4943442223
 30
0.0
 11
-8.0284279413
 21
-7.9233692541
 31
0.0
 11
-7.8622557726
 21
-7.8562291673
 31
0.0
 11
-7.6485947136
 21
-7.7544647377
 31
0.0
 11
-7.3933528297
 21
-7.6301092733
 31
0.0
 11
-7.1011243662
 21
-7.4943442223
 31
0.0
  0
SPLINE
  5
466
100
AcDbEntity
  8
0
100
AcDbSpline
 62
7
  6
CONTINUOUS
 70
0
 71
3
 72
14
 73
10
 74
8
 42
0.0000001
 43
0.0000001
 44
0.0000000001
 12
-2.3499911009
 22
-0.0
 32
0.0
 13
-0.0018637137
 23
2.3499903619
 33
0.0
 40
0.0
 40
0.0
 40
0.0
 40
0.0
 40
0.249453079
 40
0.3745498272
 40
0.4998324525
 40
0.6248520451
 40
0.7498872114
 40
0.8749836776
 40
1.0
 40
1.0
 40
1.0
 40
1.0
 10
-0.4230974353
 20
3.2243062099
 30
0.0
 10
-0.6185016072
 20
3.2243062099
 30
0.0
 10
-0.9163018846
 20
3.2826539629
 30
0.0
 10
-1.2623207467
 20
3.4700366902
 30
0.0
 10
-1.4903023694
 20
3.6583923408
 30
0.0
 10
-1.6813822479
 20
3.8846851632
 30
0.0
 10
-1.8158681346
 20
4.1483486366
 30
0.0
 10
-1.9033306646
 20
4.4303263352
 30
0.0
 10
-1.9236851732
 20
4.6268522889
 30
0.0
 10
-1.923762838
 20
4.7247813398
 30
0.0
 11
-0.4230974353
 21
3.2243062099
 31
0.0
 11
-0.9980940946
 21
3.3384287555
 31
0.0
 11
-1.2568816034
 21
3.4778958052
 31
0.0
 11
-1.4843032311
 21
3.6648675941
 31
0.0
 11
-1.6719606896
 21
3.8909209932
 31
0.0
 11
-1.8080119361
 21
4.1513572143
 31
0.0
 11
-1.8938539811
 21
4.4325204877
 31
0.0
 11
-1.923762838
 21
4.7247813398
 31
0.0
  0
LINE
  5
467
100
AcDbEntity
  8
0
100
AcDbLine
 62
7
  6
CONTINUOUS
 10
8.0998199444
 20
-7.9398403339
 11
8.2184062856
 21
-7.970807397
  0
SPLINE
  5
468
100
AcDbEntity
  8
0
100
AcDbSpline
 62
7
  6
CONTINUOUS
 70
0
 71
3
 72
13
 73
9
 74
7
 42
0.0000001
 43
0.0000001
 44
0.0000000001
 12
-0.030570749
 22
-0.2545980751
 32
0.0
 13
-0.2564261515
 23
-0.0006159584
 33
0.0
 40
0.0
 40
0.0
 40
0.0
 40
0.0
 40
0.0346065714
 40
0.0976446746
 40
0.1918307486
 40
0.315008275
 40
0.6306029172
 40
1.0
 40
1.0
 40
1.0
 40
1.0
 10
-8.9761502085
 20
-4.3896993112
 30
0.0
 10
-8.9765028581
 20
-4.3926362333
 30
0.0
 10
-8.9837554775
 20
-4.3988877087
 30
0.0
 10
-8.9986732991
 20
-4.4043993044
 30
0.0
 10
-9.0221689971
 20
-4.4104225708
 30
0.0
 10
-9.067027759
 20
-4.4177782131
 30
0.0
 10
-9.1359959307
 20
-4.42388605
 30
0.0
 10
-9.194524141
 20
-4.4255680491
 30
0.0
 10
-9.2260984984
 20
-4.4256438936
 30
0.0
 11
-8.9761502085
 21
-4.3896993112
 31
0.0
 11
-8.9816865115
 21
-4.3966345985
 31
0.0
 11
-8.9964034028
 21
-4.403321115
 31
0.0
 11
-9.0197550773
 21
-4.4094864027
 31
0.0
 11
-9.0508725684
 21
-4.4149066473
 31
0.0
 11
-9.1314197497
 21
-4.4227375673
 31
0.0
 11
-9.2260984984
 21
-4.4256438936
 31
0.0
  0
SPLINE
  5
469
100
AcDbEntity
  8
0
100
AcDbSpline
 62
7
  6
CONTINUOUS
 70
0
 71
3
 72
9
 73
5
 74
3
 42
0.0000001
 43
0.0000001
 44
0.0000000001
 12
-0.0228614714
 22
0.4412592167
 32
0.0
 13
-0.0113776961
 23
0.4417045293
 33
0.0
 40
0.0
 40
0.0
 40
0.0
 40
0.0
 40
0.1973864641
 40
1.0
 40
1.0
 40
1.0
 40
1.0
 10
-8.9295339905
 20
-7.5618858296
 30
0.0
 10
-8.9310381722
 20
-7.5328529641
 30
0.0
 10
-8.9384556069
 20
-7.385753884
 30
0.0
 10
-8.9424014381
 20
-7.2385036248
 30
0.0
 10
-8.9454454024
 20
-7.1203309468
 30
0.0
 11
-8.9295339905
 21
-7.5618858296
 31
0.0
 11
-8.933831116
 21
-7.4747763393
 31
0.0
 11
-8.9454454024
 21
-7.1203309468
 31
0.0
  0
SPLINE
  5
46A
100
AcDbEntity
  8
0
100
AcDbSpline
 62
7
  6
CONTINUOUS
 70
0
 71
3
 72
9
 73
5
 74
3
 42
0.0000001
 43
0.0000001
 44
0.0000000001
 12
-0.0703188481
 22
2.7299159261
 32
0.0
 13
-0.0067848475
 23
2.7308130053
 33
0.0
 40
0.0
 40
0.0
 40
0.0
 40
0.0
 40
0.4306272851
 40
1.0
 40
1.0
 40
1.0
 40
1.0
 10
-8.9454454024
 20
-7.1203309468
 30
0.0
 10
-8.9555391406
 20
-6.7284721855
 30
0.0
 10
-8.9677669979
 20
-5.8182389873
 30
0.0
 10
-8.9739818556
 20
-4.9079890468
 30
0.0
 10
-8.975269558
 20
-4.3897055752
 30
0.0
 11
-8.9454454024
 21
-7.1203309468
 31
0.0
 11
-8.9649553888
 21
-5.9445265789
 31
0.0
 11
-8.975269558
 21
-4.3897055752
 31
0.0
  0
SPLINE
  5
46B
100
AcDbEntity
  8
0
100
AcDbSpline
 62
7
  6
CONTINUOUS
 70
0
 71
3
 72
11
 73
7
 74
5
 42
0.0000001
 43
0.0000001
 44
0.0000000001
 12
0.7892919721
 22
1.3667182745
 32
0.0
 13
-0.0070450564
 23
1.5782430188
 33
0.0
 40
0.0
 40
0.0
 40
0.0
 40
0.0
 40
0.251639357
 40
0.5029600245
 40
0.7532336512
 40
1.0
 40
1.0
 40
1.0
 40
1.0
 10
6.6153589589
 20
12.1252411036
 30
0.0
 10
6.6815646004
 20
12.2398811396
 30
0.0
 10
6.7994350691
 20
12.4778177055
 30
0.0
 10
6.9250563781
 20
12.8549354021
 30
0.0
 10
6.9992018236
 20
13.2426044761
 30
0.0
 10
7.0163234687
 20
13.5043953928
 30
0.0
 10
7.0157439744
 20
13.6342144819
 30
0.0
 11
6.6153589589
 21
12.1252411036
 31
0.0
 11
6.7910017839
 21
12.4814423406
 31
0.0
 11
6.9167061802
 21
12.8576455653
 31
0.0
 11
6.9914046615
 21
13.2455146193
 31
0.0
 11
7.0157439744
 21
13.6342144819
 31
0.0
  0
LINE
  5
46C
100
AcDbEntity
  8
0
100
AcDbLine
 62
7
  6
CONTINUOUS
 10
7.0140517193
 20
13.9637409229
 11
7.0156329916
 21
13.6600576093
  0
SPLINE
  5
46D
100
AcDbEntity
  8
0
100
AcDbSpline
 62
7
  6
CONTINUOUS
 70
0
 71
3
 72
14
 73
10
 74
8
 42
0.0000001
 43
0.0000001
 44
0.0000000001
 12
0.0001532229
 22
-0.3681383769
 32
0.0
 13
-0.345360892
 23
0.1274823214
 33
0.0
 40
0.0
 40
0.0
 40
0.0
 40
0.0
 40
0.0777789585
 40
0.154717338
 40
0.3010143671
 40
0.4339993939
 40
0.5550528957
 40
0.7778180585
 40
1.0
 40
1.0
 40
1.0
 40
1.0
 10
-8.92926214
 20
-7.5619026493
 30
0.0
 10
-8.9292581675
 20
-7.5714471225
 30
0.0
 10
-8.9310895188
 20
-7.5904105357
 30
0.0
 10
-8.9372775758
 20
-7.6268397682
 30
0.0
 10
-8.9527982133
 20
-7.6683717378
 30
0.0
 10
-8.9829164618
 20
-7.7080933542
 30
0.0
 10
-9.030934144
 20
-7.7428754269
 30
0.0
 10
-9.1016919113
 20
-7.7585079025
 30
0.0
 10
-9.1563035304
 20
-7.7467427951
 30
0.0
 10
-9.1818811815
 20
-7.7373013719
 30
0.0
 11
-8.92926214
 21
-7.5619026493
 31
0.0
 11
-8.9314404504
 21
-7.5904530927
 31
0.0
 11
-8.9364619789
 21
-7.6183283807
 31
0.0
 11
-8.9558046581
 21
-7.6685926527
 31
0.0
 11
-8.9855875507
 21
-7.7074482442
 31
0.0
 11
-9.0217269784
 21
-7.7335237384
 31
0.0
 11
-9.1015109538
 21
-7.7524946896
 31
0.0
 11
-9.1818811815
 21
-7.7373013719
 31
0.0
  0
LINE
  5
46E
100
AcDbEntity
  8
0
100
AcDbLine
 62
7
  6
CONTINUOUS
 10
7.0156329916
 20
13.6600576093
 11
7.0157498774
 21
13.6342223902
  0
LINE
  5
46F
100
AcDbEntity
  8
0
100
AcDbLine
 62
253
  6
CONTINUOUS
 10
7.0157499903
 20
13.6338803864
 11
7.0140422345
 21
13.6355731167
  0
SPLINE
  5
470
100
AcDbEntity
  8
0
100
AcDbSpline
 62
7
  6
CONTINUOUS
 70
0
 71
3
 72
9
 73
5
 74
3
 42
0.0000001
 43
0.0000001
 44
0.0000000001
 12
0.0
 22
-0.0097796206
 32
0.0
 13
-0.0086419037
 23
-0.0045780432
 33
0.0
 40
0.0
 40
0.0
 40
0.0
 40
0.0
 40
0.1813371951
 40
1.0
 40
1.0
 40
1.0
 40
1.0
 10
-2.2001248786
 20
-8.021792865
 30
0.0
 10
-2.2001248786
 20
-8.0223840013
 30
0.0
 10
-2.2010372354
 20
-8.0256453753
 30
0.0
 10
-2.2042812489
 20
-8.0274466788
 30
0.0
 10
-2.2066395173
 20
-8.02869597
 30
0.0
 11
-2.2001248786
 21
-8.021792865
 31
0.0
 11
-2.2005324393
 21
-8.0235188064
 31
0.0
 11
-2.2066395173
 21
-8.02869597
 31
0.0
  0
SPLINE
  5
471
100
AcDbEntity
  8
0
100
AcDbSpline
 62
7
  6
CONTINUOUS
 70
0
 71
3
 72
18
 73
14
 74
12
 42
0.0000001
 43
0.0000001
 44
0.0000000001
 12
-2.6487606095
 22
-1.4031793072
 32
0.0
 13
-2.9974730916
 23
-0.0000006273
 33
0.0
 40
0.0
 40
0.0
 40
0.0
 40
0.0
 40
0.0110725463
 40
0.0306611337
 40
0.0587319751
 40
0.0950678104
 40
0.1393617796
 40
0.1912363621
 40
0.3158663273
 40
0.4646019238
 40
0.6322130666
 40
0.8128092813
 40
1.0
 40
1.0
 40
1.0
 40
1.0
 10
-2.2066395173
 20
-8.02869597
 30
0.0
 10
-2.2164156921
 20
-8.0338748926
 30
0.0
 10
-2.246854123
 20
-8.0405890989
 30
0.0
 10
-2.304475608
 20
-8.0499058455
 30
0.0
 10
-2.3881269465
 20
-8.0586605314
 30
0.0
 10
-2.4963093126
 20
-8.0675559341
 30
0.0
 10
-2.6284601363
 20
-8.0760324578
 30
0.0
 10
-2.8487653451
 20
-8.0875329142
 30
0.0
 10
-3.1735199995
 20
-8.099827308
 30
0.0
 10
-3.6139752825
 20
-8.1114275317
 30
0.0
 10
-4.1104317611
 20
-8.1200474223
 30
0.0
 10
-4.6453561199
 20
-8.1253632479
 30
0.0
 10
-5.0128345649
 20
-8.1265594332
 30
0.0
 10
-5.1998676123
 20
-8.1265594723
 30
0.0
 11
-2.2066395173
 21
-8.02869597
 31
0.0
 11
-2.2383533757
 21
-8.038482935
 31
0.0
 11
-2.2962729974
 21
-8.0481222837
 31
0.0
 11
-2.379887556
 21
-8.0575251047
 31
0.0
 11
-2.4884235037
 21
-8.0666121979
 31
0.0
 11
-2.6209086069
 21
-8.0753050268
 31
0.0
 11
-2.7761838172
 21
-8.0835256111
 31
0.0
 11
-3.1494679814
 21
-8.0982629333
 31
0.0
 11
-3.5951362851
 21
-8.1103044251
 31
0.0
 11
-4.097466996
 21
-8.119223771
 31
0.0
 11
-4.6387715322
 21
-8.1247057206
 31
0.0
 11
-5.1998676123
 21
-8.1265594723
 31
0.0
  0
SPLINE
  5
472
100
AcDbEntity
  8
0
100
AcDbSpline
 62
7
  6
CONTINUOUS
 70
0
 71
3
 72
13
 73
9
 74
7
 42
0.0000001
 43
0.0000001
 44
0.0000000001
 12
-0.2564073875
 22
0.0006186515
 32
0.0
 13
-0.0305817191
 23
0.2545778654
 33
0.0
 40
0.0
 40
0.0
 40
0.0
 40
0.0
 40
0.3694062398
 40
0.6849953865
 40
0.8081707342
 40
0.9023550012
 40
0.9653926273
 40
1.0
 40
1.0
 40
1.0
 40
1.0
 10
9.2260799358
 20
-4.4256466076
 30
0.0
 10
9.1945071061
 20
-4.4255704297
 30
0.0
 10
9.1359828744
 20
-4.4238880265
 30
0.0
 10
9.0670197006
 20
-4.4177799343
 30
0.0
 10
9.0221650667
 20
-4.410424486
 30
0.0
 10
8.9986715802
 20
-4.4044015053
 30
0.0
 10
8.9837549408
 20
-4.3988900897
 30
0.0
 10
8.9765030188
 20
-4.3926390932
 30
0.0
 10
8.9761502345
 20
-4.3897023362
 30
0.0
 11
9.2260799358
 21
-4.4256466076
 31
0.0
 11
9.1314057946
 21
-4.4227394866
 31
0.0
 11
9.0508659875
 21
-4.4149084555
 31
0.0
 11
9.0197513803
 21
-4.4094883745
 31
0.0
 11
8.9964019354
 21
-4.4033233775
 31
0.0
 11
8.9816863041
 21
-4.3966372422
 31
0.0
 11
8.9761502345
 21
-4.3897023362
 31
0.0
  0
SPLINE
  5
473
100
AcDbEntity
  8
0
100
AcDbSpline
 62
7
  6
CONTINUOUS
 70
0
 71
3
 72
13
 73
9
 74
7
 42
0.0000001
 43
0.0000001
 44
0.0000000001
 12
-0.0326094515
 22
-0.254254606
 32
0.0
 13
-0.256336483
 23
-0.0006232777
 33
0.0
 40
0.0
 40
0.0
 40
0.0
 40
0.0
 40
0.0347136698
 40
0.0978656246
 40
0.1921179568
 40
0.3153092685
 40
0.6308004021
 40
1.0
 40
1.0
 40
1.0
 40
1.0
 10
9.7759826064
 20
-4.3897397018
 30
0.0
 10
9.7756052751
 20
-4.3926817386
 30
0.0
 10
9.7683243762
 20
-4.3989062848
 30
0.0
 10
9.7533870365
 20
-4.4044254367
 30
0.0
 10
9.7298806809
 20
-4.410435847
 30
0.0
 10
9.6850388443
 20
-4.4177847793
 30
0.0
 10
9.6161190386
 20
-4.4238833723
 30
0.0
 10
9.5576370942
 20
-4.4255651022
 30
0.0
 10
9.526090652
 20
-4.4256418068
 30
0.0
 11
9.7759826064
 21
-4.3897397018
 31
0.0
 11
9.7703987982
 21
-4.3966681014
 31
0.0
 11
9.7556525331
 21
-4.40334683
 31
0.0
 11
9.7322899436
 21
-4.4095042246
 31
0.0
 11
9.7011788016
 21
-4.4149171559
 31
0.0
 11
9.6206856871
 21
-4.4227376032
 31
0.0
 11
9.526090652
 21
-4.4256418068
 31
0.0
  0
SPLINE
  5
474
100
AcDbEntity
  8
0
100
AcDbSpline
 62
253
  6
CONTINUOUS
 70
0
 71
3
 72
19
 73
15
 74
13
 42
0.0000001
 43
0.0000001
 44
0.0000000001
 12
-0.757513741
 22
1.2957309128
 32
0.0
 13
-0.0000837936
 23
1.5009149407
 33
0.0
 40
0.0
 40
0.0
 40
0.0
 40
0.0
 40
0.0077318226
 40
0.0244381041
 40
0.0500321832
 40
0.084368702
 40
0.1272344379
 40
0.1781829953
 40
0.2367093415
 40
0.3023078086
 40
0.4523136285
 40
0.6222401974
 40
0.8061855322
 40
1.0
 40
1.0
 40
1.0
 40
1.0
 10
9.9606088237
 20
-16.4160574882
 30
0.0
 10
9.958656503
 20
-16.4127180344
 30
0.0
 10
9.9577921937
 20
-16.3999812454
 30
0.0
 10
9.9547757508
 20
-16.3755415536
 30
0.0
 10
9.9528912972
 20
-16.3370133949
 30
0.0
 10
9.9504593018
 20
-16.2857373467
 30
0.0
 10
9.9483293252
 20
-16.2216205669
 30
0.0
 10
9.9462118633
 20
-16.1454457903
 30
0.0
 10
9.9442476239
 20
-16.0578731538
 30
0.0
 10
9.9417021184
 20
-15.9207493291
 30
0.0
 10
9.9390943823
 20
-15.7278818108
 30
0.0
 10
9.9368275091
 20
-15.4757992338
 30
0.0
 10
9.9354295734
 20
-15.2017918438
 30
0.0
 10
9.9351163503
 20
-15.0127966185
 30
0.0
 10
9.9351109368
 20
-14.915830275
 30
0.0
 11
9.9606088237
 21
-16.4160574882
 31
0.0
 11
9.9580486292
 21
-16.4047386113
 31
0.0
 11
9.9555471513
 21
-16.3797889907
 31
0.0
 11
9.9531164444
 21
-16.3414514345
 31
0.0
 11
9.9507685631
 21
-16.2899687503
 31
0.0
 11
9.9485169695
 21
-16.2256703377
 31
0.0
 11
9.9463807363
 21
-16.149230731
 31
0.0
 11
9.9443803341
 21
-16.0614104434
 31
0.0
 11
9.9425362331
 21
-15.9629699953
 31
0.0
 11
9.9393884415
 21
-15.7378460246
 31
0.0
 11
9.9370494002
 21
-15.4828114242
 31
0.0
 11
9.9356091176
 21
-15.2067288793
 31
0.0
 11
9.9351109368
 21
-14.915830275
 31
0.0
  0
SPLINE
  5
475
100
AcDbEntity
  8
0
100
AcDbSpline
 62
7
  6
CONTINUOUS
 70
0
 71
3
 72
23
 73
19
 74
17
 42
0.0000001
 43
0.0000001
 44
0.0000000001
 12
-3.3628907811
 22
0.021865058
 32
0.0
 13
-0.008626769
 23
3.3629507973
 33
0.0
 40
0.0
 40
0.0
 40
0.0
 40
0.0
 40
0.0014554167
 40
0.0049850101
 40
0.0107557688
 40
0.0188089954
 40
0.0291604234
 40
0.0417870951
 40
0.0737306612
 40
0.1143542064
 40
0.1633317408
 40
0.2203016007
 40
0.2848004119
 40
0.3563220818
 40
0.4342928446
 40
0.6070702589
 40
0.7976532995
 40
1.0
 40
1.0
 40
1.0
 40
1.0
 10
9.8442289351
 20
-7.75066809
 30
0.0
 10
9.842597466
 20
-7.7506574824
 30
0.0
 10
9.8399345337
 20
-7.74382735
 30
0.0
 10
9.8375745811
 20
-7.7334677706
 30
0.0
 10
9.8345545835
 20
-7.713439944
 30
0.0
 10
9.8317206647
 20
-7.6868332566
 30
0.0
 10
9.8287699345
 20
-7.6520366266
 30
0.0
 10
9.82456114
 20
-7.5906760982
 30
0.0
 10
9.8196014685
 20
-7.4952574645
 30
0.0
 10
9.8141225099
 20
-7.3591342311
 30
0.0
 10
9.8088367492
 20
-7.1949072812
 30
0.0
 10
9.8038020771
 20
-7.003907015
 30
0.0
 10
9.7990660745
 20
-6.7876178619
 30
0.0
 10
9.7946741705
 20
-6.5477764038
 30
0.0
 10
9.7891366122
 20
-6.1865579362
 30
0.0
 10
9.7834840299
 20
-5.6918616845
 30
0.0
 10
9.7787278344
 20
-5.0577277563
 30
0.0
 10
9.7769370388
 20
-4.6172612183
 30
0.0
 10
9.7763551727
 20
-4.3904338857
 30
0.0
 11
9.8442289351
 21
-7.75066809
 31
0.0
 11
9.8411762886
 21
-7.7468421802
 31
0.0
 11
9.838127116
 21
-7.7353706159
 31
0.0
 11
9.8350886354
 21
-7.716203114
 31
0.0
 11
9.8320680646
 21
-7.6892893915
 31
0.0
 11
9.8290723494
 21
-7.6546070722
 31
0.0
 11
9.8261073227
 21
-7.6122477015
 31
0.0
 11
9.8202915318
 21
-7.5049802504
 31
0.0
 11
9.8146651259
 21
-7.3684807262
 31
0.0
 11
9.8092727018
 21
-7.2038594407
 31
0.0
 11
9.8041580143
 21
-7.0123402587
 31
0.0
 11
9.7993612534
 21
-6.7954862614
 31
0.0
 11
9.7949208449
 21
-6.5550026046
 31
0.0
 11
9.7908717453
 21
-6.292821168
 31
0.0
 11
9.7840736102
 21
-5.7118170831
 31
0.0
 11
9.7791826242
 21
-5.0709122484
 31
0.0
 11
9.7763551727
 21
-4.3904338857
 31
0.0
  0
SPLINE
  5
476
100
AcDbEntity
  8
0
100
AcDbSpline
 62
253
  6
CONTINUOUS
 70
0
 71
3
 72
9
 73
5
 74
3
 42
0.0000001
 43
0.0000001
 44
0.0000000001
 12
0.0000788466
 22
1.9521001552
 32
0.0
 13
0.0341305768
 23
1.951801764
 33
0.0
 40
0.0
 40
0.0
 40
0.0
 40
0.0
 40
0.5414906268
 40
1.0
 40
1.0
 40
1.0
 40
1.0
 10
9.756425462
 20
14.1789290082
 30
0.0
 10
9.7564396936
 20
14.531276987
 30
0.0
 10
9.7585445308
 20
15.1819772437
 30
0.0
 10
9.7653669612
 20
15.8326549352
 30
0.0
 10
9.7705833576
 20
16.130961403
 30
0.0
 11
9.756425462
 21
14.1789290082
 31
0.0
 11
9.7601024482
 21
15.2359665503
 31
0.0
 11
9.7705833576
 21
16.130961403
 31
0.0
  0
SPLINE
  5
477
100
AcDbEntity
  8
0
100
AcDbSpline
 62
253
  6
CONTINUOUS
 70
0
 71
3
 72
11
 73
7
 74
5
 42
0.0000001
 43
0.0000001
 44
0.0000000001
 12
-0.000729093
 22
-1.5598293485
 32
0.0
 13
-1.5598293538
 23
-0.0007174667
 33
0.0
 40
0.0
 40
0.0
 40
0.0
 40
0.0
 40
0.2527453989
 40
0.5005688785
 40
0.7477613823
 40
1.0
 40
1.0
 40
1.0
 40
1.0
 10
9.9606088393
 20
-16.4160302721
 30
0.0
 10
9.9605474143
 20
-16.5474435024
 30
0.0
 10
9.9067630991
 20
-16.8103256974
 30
0.0
 10
9.6852395471
 20
-17.1413331574
 30
0.0
 10
9.354332558
 20
-17.3627540769
 30
0.0
 10
9.0919140698
 20
-17.4156169787
 30
0.0
 10
8.9607643365
 20
-17.4156773029
 30
0.0
 11
9.9606088393
 21
-16.4160302721
 31
0.0
 11
9.8821401598
 21
-16.8023819696
 31
0.0
 11
9.6668663222
 21
-17.1234546213
 31
0.0
 11
9.346460681
 21
-17.3379557773
 31
0.0
 11
8.9607643365
 21
-17.4156773029
 31
0.0
  0
SPLINE
  5
478
100
AcDbEntity
  8
0
100
AcDbSpline
 62
7
  6
CONTINUOUS
 70
0
 71
3
 72
10
 73
6
 74
4
 42
0.0000001
 43
0.0000001
 44
0.0000000001
 12
0.9936892098
 22
-0.390588395
 32
0.0
 13
0.9738528815
 23
-0.4377077851
 33
0.0
 40
0.0
 40
0.0
 40
0.0
 40
0.0
 40
0.5640812183
 40
0.8014191455
 40
1.0
 40
1.0
 40
1.0
 40
1.0
 10
-3.3571691388
 20
-7.4628893828
 30
0.0
 10
-3.1703286654
 20
-7.5363305754
 30
0.0
 10
-2.9090032099
 20
-7.6511021025
 30
0.0
 10
-2.5862158059
 20
-7.8009411688
 30
0.0
 10
-2.4456781512
 20
-7.8666825893
 30
0.0
 10
-2.3812153054
 20
-7.8956560513
 30
0.0
 11
-3.3571691388
 21
-7.4628893828
 31
0.0
 11
-2.8037659037
 21
-7.7005269234
 31
0.0
 11
-2.5737563302
 21
-7.806874107
 31
0.0
 11
-2.3812153054
 21
-7.8956560513
 31
0.0
  0
SPLINE
  5
479
100
AcDbEntity
  8
0
100
AcDbSpline
 62
7
  6
CONTINUOUS
 70
0
 71
3
 72
9
 73
5
 74
3
 42
0.0000001
 43
0.0000001
 44
0.0000000001
 12
0.0848817324
 22
-0.0381509321
 32
0.0
 13
0.0859035305
 23
-0.0357908588
 33
0.0
 40
0.0
 40
0.0
 40
0.0
 40
0.0
 40
0.2618997701
 40
1.0
 40
1.0
 40
1.0
 40
1.0
 10
-2.3812153054
 20
-7.8956560513
 30
0.0
 10
-2.3738051367
 20
-7.8989866248
 30
0.0
 10
-2.3454823924
 20
-7.9116386867
 30
0.0
 10
-2.3170222297
 20
-7.9239882157
 30
0.0
 10
-2.2958870912
 20
-7.9327939627
 30
0.0
 11
-2.3812153054
 21
-7.8956560513
 31
0.0
 11
-2.3589602705
 21
-7.9055930178
 31
0.0
 11
-2.2958870912
 21
-7.9327939627
 31
0.0
  0
SPLINE
  5
47A
100
AcDbEntity
  8
0
100
AcDbSpline
 62
7
  6
CONTINUOUS
 70
0
 71
3
 72
9
 73
5
 74
3
 42
0.0000001
 43
0.0000001
 44
0.0000000001
 12
0.1407493721
 22
-0.0586418378
 32
0.0
 13
0.1472837317
 23
-0.0394557128
 33
0.0
 40
0.0
 40
0.0
 40
0.0
 40
0.0
 40
0.2769784032
 40
1.0
 40
1.0
 40
1.0
 40
1.0
 10
-2.2958870912
 20
-7.9327939627
 30
0.0
 10
-2.2828922458
 20
-7.9382081369
 30
0.0
 10
-2.2358074713
 20
-7.9573095086
 30
0.0
 10
-2.1877594013
 20
-7.974323806
 30
0.0
 10
-2.1522629617
 20
-7.9838329168
 30
0.0
 11
-2.2958870912
 21
-7.9327939627
 31
0.0
 11
-2.2567354133
 21
-7.9486293576
 31
0.0
 11
-2.1522629617
 21
-7.9838329168
 31
0.0
  0
SPLINE
  5
47B
100
AcDbEntity
  8
0
100
AcDbSpline
 62
7
  6
CONTINUOUS
 70
0
 71
3
 72
23
 73
19
 74
17
 42
0.0000001
 43
0.0000001
 44
0.0000000001
 12
3.5768851964
 22
0.0000003727
 32
0.0
 13
0.0091139599
 23
3.5768735851
 33
0.0
 40
0.0
 40
0.0
 40
0.0
 40
0.0
 40
0.0014416125
 40
0.0050206148
 40
0.0108654034
 40
0.0189899172
 40
0.0293898008
 40
0.0420442536
 40
0.0740139988
 40
0.1146658226
 40
0.1636698714
 40
0.2206503549
 40
0.2851454629
 40
0.3566536612
 40
0.4346012062
 40
0.6073047568
 40
0.7977837636
 40
1.0
 40
1.0
 40
1.0
 40
1.0
 10
-9.5942076012
 20
-8.0
 30
0.0
 10
-9.5924887737
 20
-7.9999999998
 30
0.0
 10
-9.5899561302
 20
-7.9924068083
 30
0.0
 10
-9.5875367132
 20
-7.9814264605
 30
0.0
 10
-9.58459157
 20
-7.9597451529
 30
0.0
 10
-9.5817595873
 20
-7.9312421223
 30
0.0
 10
-9.5788295333
 20
-7.8940215389
 30
0.0
 10
-9.5746302555
 20
-7.8286252284
 30
0.0
 10
-9.5696763798
 20
-7.7270180589
 30
0.0
 10
-9.5642098791
 20
-7.582127451
 30
0.0
 10
-9.5589342386
 20
-7.407364369
 30
0.0
 10
-9.5539019947
 20
-7.2041665053
 30
0.0
 10
-9.5491631923
 20
-6.9741203233
 30
0.0
 10
-9.5447644448
 20
-6.7190655734
 30
0.0
 10
-9.5392115121
 20
-6.3349962823
 30
0.0
 10
-9.533527214
 20
-5.8090680435
 30
0.0
 10
-9.5287132784
 20
-5.1349618723
 30
0.0
 10
-9.5268835196
 20
-4.6667559931
 30
0.0
 10
-9.5262691894
 20
-4.425655355
 30
0.0
 11
-9.5942076012
 21
-8.0
 31
0.0
 11
-9.5911509737
 21
-7.9958471287
 31
0.0
 11
-9.5881157819
 21
-7.9834104638
 31
0.0
 11
-9.5851004107
 21
-7.9627229285
 31
0.0
 11
-9.5821032447
 21
-7.9338174454
 31
0.0
 11
-9.5791242519
 21
-7.8967377298
 31
0.0
 11
-9.5761697428
 21
-7.8515707336
 31
0.0
 11
-9.5703657693
 21
-7.7373660115
 31
0.0
 11
-9.5647505665
 21
-7.5920675665
 31
0.0
 11
-9.5593675731
 21
-7.4168683867
 31
0.0
 11
-9.5542564548
 21
-7.2131198359
 31
0.0
 11
-9.5494576129
 21
-6.9824781569
 31
0.0
 11
-9.5450105276
 21
-6.7267402038
 31
0.0
 11
-9.540950249
 21
-6.4479603503
 31
0.0
 11
-9.5341152782
 21
-5.8302573904
 31
0.0
 11
-9.5291693627
 21
-5.1489538029
 31
0.0
 11
-9.5262691894
 21
-4.425655355
 31
0.0
  0
SPLINE
  5
47C
100
AcDbEntity
  8
0
100
AcDbSpline
 62
7
  6
CONTINUOUS
 70
0
 71
3
 72
9
 73
5
 74
3
 42
0.0000001
 43
0.0000001
 44
0.0000000001
 12
-0.0126127366
 22
0.0000000002
 32
0.0
 13
0.000372066
 23
0.0126072476
 33
0.0
 40
0.0
 40
0.0
 40
0.0
 40
0.0
 40
0.1673186186
 40
1.0
 40
1.0
 40
1.0
 40
1.0
 10
-8.2108931264
 20
-8.0
 30
0.0
 10
-8.211596575
 20
-8.0
 30
0.0
 10
-8.2158415112
 20
-7.9983044976
 30
0.0
 10
-8.2156001647
 20
-7.9926468842
 30
0.0
 10
-8.2154968939
 20
-7.9891476107
 30
0.0
 11
-8.2108931264
 21
-8.0
 31
0.0
 11
-8.2128914929
 21
-7.9993217004
 31
0.0
 11
-8.2154968939
 21
-7.9891476107
 31
0.0
  0
SPLINE
  5
47D
100
AcDbEntity
  8
0
100
AcDbSpline
 62
253
  6
CONTINUOUS
 70
0
 71
3
 72
11
 73
7
 74
5
 42
0.0000001
 43
0.0000001
 44
0.0000000001
 12
1.5663873129
 22
-0.0613122948
 32
0.0
 13
-0.0198993383
 23
-1.5674605028
 33
0.0
 40
0.0
 40
0.0
 40
0.0
 40
0.0
 40
0.2209351727
 40
0.4547951302
 40
0.7105711091
 40
1.0
 40
1.0
 40
1.0
 40
1.0
 10
8.8034357152
 20
17.1796613123
 30
0.0
 10
8.918792399
 20
17.1751459648
 30
0.0
 10
9.1565444658
 20
17.1218560743
 30
0.0
 10
9.4730302827
 20
16.9126818
 30
0.0
 10
9.7130464843
 20
16.571862402
 30
0.0
 10
9.7725057499
 20
16.2822342997
 30
0.0
 10
9.7705859355
 20
16.1310115148
 30
0.0
 11
8.8034357152
 21
17.1796613123
 31
0.0
 11
9.1414837188
 21
17.1043517976
 31
0.0
 11
9.447931517
 21
16.9031498676
 31
0.0
 11
9.6787969276
 21
16.5753345115
 31
0.0
 11
9.7705859355
 21
16.1310115148
 31
0.0
  0
SPLINE
  5
47E
100
AcDbEntity
  8
0
100
AcDbSpline
 62
253
  6
CONTINUOUS
 70
0
 71
3
 72
11
 73
7
 74
5
 42
0.0000001
 43
0.0000001
 44
0.0000000001
 12
-0.0057797332
 22
0.3342640134
 32
0.0
 13
-0.3342998468
 23
0.0030738233
 33
0.0
 40
0.0
 40
0.0
 40
0.0
 40
0.0
 40
0.209846208
 40
0.4458024849
 40
0.713116521
 40
1.0
 40
1.0
 40
1.0
 40
1.0
 10
9.77029621
 20
16.1310634166
 30
0.0
 10
9.769891925
 20
16.1544447618
 30
0.0
 10
9.7540391188
 20
16.2043968396
 30
0.0
 10
9.6959074827
 20
16.2617373981
 30
0.0
 10
9.6146557879
 20
16.299050218
 30
0.0
 10
9.5525947879
 20
16.3079517545
 30
0.0
 10
9.5206264202
 20
16.3082456975
 30
0.0
 11
9.77029621
 21
16.1310634166
 31
0.0
 11
9.7504280052
 21
16.1983457411
 31
0.0
 11
9.6961059542
 21
16.2555446786
 31
0.0
 11
9.6154879138
 21
16.2941083903
 31
0.0
 11
9.5206264202
 21
16.3082456975
 31
0.0
  0
SPLINE
  5
47F
100
AcDbEntity
  8
0
100
AcDbSpline
 62
253
  6
CONTINUOUS
 70
0
 71
3
 72
12
 73
8
 74
6
 42
0.0000001
 43
0.0000001
 44
0.0000000001
 12
0.0428964232
 22
1.2372138304
 32
0.0
 13
-1.2360596383
 23
0.0685181415
 33
0.0
 40
0.0
 40
0.0
 40
0.0
 40
0.0
 40
0.1621402303
 40
0.3097976768
 40
0.5677400075
 40
0.7924893023
 40
1.0
 40
1.0
 40
1.0
 40
1.0
 10
9.5206268306
 20
16.3082116192
 30
0.0
 10
9.5229452426
 20
16.3750789977
 30
0.0
 10
9.5100166296
 20
16.5037668783
 30
0.0
 10
9.4411243674
 20
16.7285318526
 30
0.0
 10
9.3001725326
 20
16.9546509311
 30
0.0
 10
9.066681892
 20
17.1286882778
 30
0.0
 10
8.888935047
 20
17.1749218643
 30
0.0
 10
8.8034365144
 20
17.1796612801
 30
0.0
 11
9.5206268306
 21
16.3082116192
 31
0.0
 11
9.5026563221
 21
16.508128234
 31
0.0
 11
9.4490097072
 21
16.6828724571
 31
0.0
 11
9.2769422337
 21
16.9518688433
 31
0.0
 11
9.0523301513
 21
17.1160679799
 31
0.0
 11
8.8034365144
 21
17.1796612801
 31
0.0
  0
SPLINE
  5
480
100
AcDbEntity
  8
0
100
AcDbSpline
 62
7
  6
CONTINUOUS
 70
0
 71
3
 72
16
 73
12
 74
10
 42
0.0000001
 43
0.0000001
 44
0.0000000001
 12
-0.2517716658
 22
-0.0000017143
 32
0.0
 13
-0.1372099669
 23
-0.2110980736
 33
0.0
 40
0.0
 40
0.0
 40
0.0
 40
0.0
 40
0.4077495549
 40
0.5831571543
 40
0.7301249168
 40
0.8456327102
 40
0.9287694389
 40
0.9582469015
 40
0.9798225272
 40
0.9936478648
 40
1.0
 40
1.0
 40
1.0
 40
1.0
 10
9.2381411349
 20
15.8000004987
 30
0.0
 10
9.2039212066
 20
15.8000002657
 30
0.0
 10
9.1549775349
 20
15.7997136794
 30
0.0
 10
9.0937149299
 20
15.7986558133
 30
0.0
 10
9.0569698487
 20
15.797695251
 30
0.0
 10
9.0280068948
 20
15.796563191
 30
0.0
 10
9.0088459872
 20
15.7955053111
 30
0.0
 10
8.9976848957
 20
15.7944975842
 30
0.0
 10
8.9921761257
 20
15.7938968516
 30
0.0
 10
8.9889207914
 20
15.7931879804
 30
0.0
 10
8.9870498463
 20
15.7927791186
 30
0.0
 10
8.9867593209
 20
15.7923321441
 30
0.0
 11
9.2381411349
 21
15.8000004987
 31
0.0
 11
9.1354835626
 21
15.7993265274
 31
0.0
 11
9.0913278409
 21
15.7985435261
 31
0.0
 11
9.054339209
 21
15.79753721
 31
0.0
 11
9.0252812256
 21
15.7963656914
 31
0.0
 11
9.0043892651
 21
15.7950801825
 31
0.0
 11
8.9969981358
 21
15.7944084648
 31
0.0
 11
8.9916093508
 21
15.7937235961
 31
0.0
 11
8.9881983304
 21
15.7930299785
 31
0.0
 11
8.9867593209
 21
15.7923321441
 31
0.0
  0
SPLINE
  5
481
100
AcDbEntity
  8
0
100
AcDbSpline
 62
7
  6
CONTINUOUS
 70
0
 71
3
 72
16
 73
12
 74
10
 42
0.0000001
 43
0.0000001
 44
0.0000000001
 12
0.251723628
 22
-0.0000035862
 32
0.0
 13
0.1371798694
 23
-0.2110603429
 33
0.0
 40
0.0
 40
0.0
 40
0.0
 40
0.0
 40
0.4080678648
 40
0.5834381741
 40
0.7303132403
 40
0.8457426835
 40
0.9287972044
 40
0.9582981076
 40
0.9798824049
 40
0.9936748509
 40
1.0
 40
1.0
 40
1.0
 40
1.0
 10
-9.2380873719
 20
15.8000004987
 30
0.0
 10
-9.2038472641
 20
15.8000000109
 30
0.0
 10
-9.1548893545
 20
15.7997131842
 30
0.0
 10
-9.0936226401
 20
15.7986539586
 30
0.0
 10
-9.0569021357
 20
15.7976921601
 30
0.0
 10
-9.027965819
 20
15.7965619946
 30
0.0
 10
-9.0088203281
 20
15.7955030314
 30
0.0
 10
-8.9976653865
 20
15.7944961035
 30
0.0
 10
-8.9921580034
 20
15.7938953663
 30
0.0
 10
-8.9889064742
 20
15.7931878915
 30
0.0
 10
-8.9870431058
 20
15.7927771402
 30
0.0
 10
-8.9867538781
 20
15.7923321441
 30
0.0
 11
-9.2380873719
 21
15.8000004987
 31
0.0
 11
-9.1353692686
 21
15.7993251474
 31
0.0
 11
-9.0912313773
 21
15.7985413231
 31
0.0
 11
-9.0542731601
 21
15.797534655
 31
0.0
 11
-9.0252404371
 21
15.7963639192
 31
0.0
 11
-9.0043731804
 21
15.7950789008
 31
0.0
 11
-8.9969775818
 21
15.7944068127
 31
0.0
 11
-8.9915876668
 21
15.7937217423
 31
0.0
 11
-8.9881856845
 21
15.793028562
 31
0.0
 11
-8.9867538781
 21
15.7923321441
 31
0.0
  0
SPLINE
  5
482
100
AcDbEntity
  8
0
100
AcDbSpline
 62
253
  6
CONTINUOUS
 70
0
 71
3
 72
13
 73
9
 74
7
 42
0.0000001
 43
0.0000001
 44
0.0000000001
 12
0.0488570761
 22
-0.0033841416
 32
0.0
 13
0.0001647425
 23
-0.048973862
 33
0.0
 40
0.0
 40
0.0
 40
0.0
 40
0.0
 40
0.0175569066
 40
0.0685522654
 40
0.1524344946
 40
0.267930652
 40
0.5858614564
 40
1.0
 40
1.0
 40
1.0
 40
1.0
 10
-6.6997574414
 20
15.7760523918
 30
0.0
 10
-6.6994715151
 20
15.7760325868
 30
0.0
 10
-6.6998107359
 20
15.7743071974
 30
0.0
 10
-6.6993079195
 20
15.7723962047
 30
0.0
 10
-6.6994776449
 20
15.7679889605
 30
0.0
 10
-6.6993026434
 20
15.7597323296
 30
0.0
 10
-6.6993677031
 20
15.7457599106
 30
0.0
 10
-6.6992788511
 20
15.733855605
 30
0.0
 10
-6.6992561091
 20
15.7270949504
 30
0.0
 11
-6.6997574414
 21
15.7760523918
 31
0.0
 11
-6.6996081883
 21
15.7752056105
 31
0.0
 11
-6.699493068
 21
15.7727108113
 31
0.0
 11
-6.6994203523
 21
15.768603395
 31
0.0
 11
-6.6993838992
 21
15.7629471876
 31
0.0
 11
-6.6993329612
 21
15.7473768834
 31
0.0
 11
-6.6992561091
 21
15.7270949504
 31
0.0
  0
SPLINE
  5
483
100
AcDbEntity
  8
0
100
AcDbSpline
 62
7
  6
CONTINUOUS
 70
0
 71
3
 72
9
 73
5
 74
3
 42
0.0000001
 43
0.0000001
 44
0.0000000001
 12
-0.0291732141
 22
-1.8116749088
 32
0.0
 13
-0.0032897888
 23
-1.8119067936
 33
0.0
 40
0.0
 40
0.0
 40
0.0
 40
0.0
 40
0.2154121259
 40
1.0
 40
1.0
 40
1.0
 40
1.0
 10
9.5206268306
 20
16.3082116192
 30
0.0
 10
9.5185320759
 20
16.178126038
 30
0.0
 10
9.5106780743
 20
15.5742049216
 30
0.0
 10
9.5075976025
 20
14.9702301537
 30
0.0
 10
9.5067372264
 20
14.4963634539
 30
0.0
 11
9.5206268306
 21
16.3082116192
 31
0.0
 11
9.5153698847
 21
15.9179396853
 31
0.0
 11
9.5067372264
 21
14.4963634539
 31
0.0
  0
SPLINE
  5
484
100
AcDbEntity
  8
0
100
AcDbSpline
 62
7
  6
CONTINUOUS
 70
0
 71
3
 72
9
 73
5
 74
3
 42
0.0000001
 43
0.0000001
 44
0.0000000001
 12
-0.0044307693
 22
1.6808005197
 32
0.0
 13
-0.0269186764
 23
1.68059079
 33
0.0
 40
0.0
 40
0.0
 40
0.0
 40
0.0
 40
0.2773054859
 40
1.0
 40
1.0
 40
1.0
 40
1.0
 10
-9.5070321341
 20
14.6273195287
 30
0.0
 10
-9.507441693
 20
14.782684597
 30
0.0
 10
-9.5096300016
 20
15.3429476561
 30
0.0
 10
-9.5141724821
 20
15.9032136308
 30
0.0
 10
-9.520657142
 20
16.3080648789
 30
0.0
 11
-9.5070321341
 21
14.6273195287
 31
0.0
 11
-9.5088363849
 21
15.0934128609
 31
0.0
 11
-9.520657142
 21
16.3080648789
 31
0.0
  0
SPLINE
  5
485
100
AcDbEntity
  8
0
100
AcDbSpline
 62
253
  6
CONTINUOUS
 70
0
 71
3
 72
12
 73
8
 74
6
 42
0.0000001
 43
0.0000001
 44
0.0000000001
 12
-1.2362033012
 22
-0.0685297019
 32
0.0
 13
0.043087724
 23
-1.2373513527
 33
0.0
 40
0.0
 40
0.0
 40
0.0
 40
0.0
 40
0.2075021365
 40
0.4322502741
 40
0.6901928841
 40
0.8378529586
 40
1.0
 40
1.0
 40
1.0
 40
1.0
 10
-8.8034370307
 20
17.1796612801
 30
0.0
 10
-8.8889419727
 20
17.1749212602
 30
0.0
 10
-9.0667044688
 20
17.1286766736
 30
0.0
 10
-9.3002124047
 20
16.9546115375
 30
0.0
 10
-9.4411603483
 20
16.7284483287
 30
0.0
 10
-9.5100317961
 20
16.5036483437
 30
0.0
 10
-9.522985991
 20
16.3749424992
 30
0.0
 10
-9.520657142
 20
16.3080648789
 30
0.0
 11
-8.8034370307
 21
17.1796612801
 31
0.0
 11
-9.0523477649
 21
17.1160569366
 31
0.0
 11
-9.2769769189
 21
16.9518287097
 31
0.0
 11
-9.4490392575
 21
16.6827845122
 31
0.0
 11
-9.5026799617
 21
16.5080128165
 31
0.0
 11
-9.520657142
 21
16.3080648789
 31
0.0
  0
SPLINE
  5
486
100
AcDbEntity
  8
0
100
AcDbSpline
 62
253
  6
CONTINUOUS
 70
0
 71
3
 72
11
 73
7
 74
5
 42
0.0000001
 43
0.0000001
 44
0.0000000001
 12
-0.3342672821
 22
-0.0031044312
 32
0.0
 13
-0.0057795208
 23
-0.3342317318
 33
0.0
 40
0.0
 40
0.0
 40
0.0
 40
0.0
 40
0.2868878837
 40
0.5542016147
 40
0.7901557062
 40
1.0
 40
1.0
 40
1.0
 40
1.0
 10
-9.520659014
 20
16.3082453039
 30
0.0
 10
-9.5526247584
 20
16.3079484294
 30
0.0
 10
-9.6146794005
 20
16.2990426665
 30
0.0
 10
-9.6959207078
 20
16.2617274593
 30
0.0
 10
-9.754042479
 20
16.2043891314
 30
0.0
 10
-9.76989194
 20
16.1544423358
 30
0.0
 10
-9.7702962065
 20
16.1310634619
 30
0.0
 11
-9.520659014
 21
16.3082453039
 31
0.0
 11
-9.6155116187
 21
16.2941011916
 31
0.0
 11
-9.6961189537
 21
16.2555353336
 31
0.0
 11
-9.7504318172
 21
16.1983391828
 31
0.0
 11
-9.7702962065
 21
16.1310634619
 31
0.0
  0
SPLINE
  5
487
100
AcDbEntity
  8
0
100
AcDbSpline
 62
253
  6
CONTINUOUS
 70
0
 71
3
 72
11
 73
7
 74
5
 42
0.0000001
 43
0.0000001
 44
0.0000000001
 12
-0.0199833343
 22
1.5674916524
 32
0.0
 13
1.5664194907
 23
0.0613138911
 33
0.0
 40
0.0
 40
0.0
 40
0.0
 40
0.0
 40
0.2894139701
 40
0.5451616063
 40
0.7790609961
 40
1.0
 40
1.0
 40
1.0
 40
1.0
 10
-9.7705854887
 20
16.1309797716
 30
0.0
 10
-9.7725133074
 20
16.2821977657
 30
0.0
 10
-9.7130630184
 20
16.5718101714
 30
0.0
 10
-9.4730708954
 20
16.9126499516
 30
0.0
 10
-9.1565779445
 20
17.1218507166
 30
0.0
 10
-8.9187981581
 20
17.1751457325
 30
0.0
 10
-8.8034371041
 20
17.1796612759
 30
0.0
 11
-9.7705854887
 21
16.1309797716
 31
0.0
 11
-9.678816303
 21
16.5752924999
 31
0.0
 11
-9.4479941155
 21
16.9030940301
 31
0.0
 11
-9.1414978127
 21
17.1043484381
 31
0.0
 11
-8.8034371041
 21
17.1796612759
 31
0.0
  0
SPLINE
  5
488
100
AcDbEntity
  8
0
100
AcDbSpline
 62
7
  6
CONTINUOUS
 70
0
 71
3
 72
21
 73
17
 74
15
 42
0.0000001
 43
0.0000001
 44
0.0000000001
 12
-3.0074910989
 22
-0.0000006294
 32
0.0
 13
0.0
 23
3.0074910989
 33
0.0
 40
0.0
 40
0.0
 40
0.0
 40
0.0
 40
0.19466906
 40
0.3818597423
 40
0.5543762528
 40
0.6330324125
 40
0.7056011068
 40
0.7713793975
 40
0.8297490267
 40
0.8801415043
 40
0.9220998791
 40
0.9552244319
 40
0.9792267306
 40
0.9939431469
 40
0.9979149859
 40
1.0
 40
1.0
 40
1.0
 40
1.0
 10
5.2002161267
 20
-8.1265594687
 30
0.0
 10
5.0050609716
 20
-8.1265595095
 30
0.0
 10
4.6222462639
 20
-8.1252636932
 30
0.0
 10
4.0665112751
 20
-8.1194947761
 30
0.0
 10
3.6271197689
 20
-8.1114975194
 30
0.0
 10
3.3026755361
 20
-8.1031570004
 30
0.0
 10
3.0852369183
 20
-8.0963341455
 30
0.0
 10
2.8881681786
 20
-8.0888159503
 30
0.0
 10
2.7133855524
 20
-8.0806989495
 30
0.0
 10
2.5625094965
 20
-8.0720449579
 30
0.0
 10
2.4371036669
 20
-8.0630469894
 30
0.0
 10
2.3380257538
 20
-8.0536675839
 30
0.0
 10
2.2669680976
 20
-8.0446015339
 30
0.0
 10
2.2242693204
 20
-8.0357618308
 30
0.0
 10
2.2053221312
 20
-8.0288014965
 30
0.0
 10
2.2001541386
 20
-8.0238830854
 30
0.0
 10
2.2001541386
 20
-8.021792865
 30
0.0
 11
5.2002161267
 21
-8.1265594687
 31
0.0
 11
4.6147541362
 21
-8.1245423698
 31
0.0
 11
4.0518114142
 21
-8.1185786152
 31
0.0
 11
3.5330599345
 21
-8.1088941871
 31
0.0
 11
3.2965815768
 21
-8.1027678608
 31
0.0
 11
3.0784411386
 21
-8.0958626732
 31
0.0
 11
2.8807602731
 21
-8.0882440001
 31
0.0
 11
2.7054084695
 21
-8.0799861342
 31
0.0
 11
2.554110318
 21
-8.0711676591
 31
0.0
 11
2.4282634723
 21
-8.0618754117
 31
0.0
 11
2.3291127855
 21
-8.0521984345
 31
0.0
 11
2.2576181838
 21
-8.042226396
 31
0.0
 11
2.2145436152
 21
-8.0320536828
 31
0.0
 11
2.2037544409
 21
-8.0269269683
 31
0.0
 11
2.2001541386
 21
-8.021792865
 31
0.0
  0
SPLINE
  5
489
100
AcDbEntity
  8
0
100
AcDbSpline
 62
7
  6
CONTINUOUS
 70
0
 71
3
 72
11
 73
7
 74
5
 42
0.0000001
 43
0.0000001
 44
0.0000000001
 12
-1.8630753517
 22
1.68884425
 32
0.0
 13
-0.0014512517
 23
2.514605846
 33
0.0
 40
0.0
 40
0.0
 40
0.0
 40
0.0
 40
0.2500121088
 40
0.4999990952
 40
0.749993288
 40
1.0
 40
1.0
 40
1.0
 40
1.0
 10
-6.0210817571
 20
11.3999982851
 30
0.0
 10
-6.1763455563
 20
11.5407421226
 30
0.0
 10
-6.4581713788
 20
11.8557142694
 30
0.0
 10
-6.7746660078
 20
12.4038519427
 30
0.0
 10
-6.971028065
 20
13.0058776896
 30
0.0
 10
-7.0139248102
 20
13.426398877
 30
0.0
 10
-7.0140457511
 20
13.6359549902
 30
0.0
 11
-6.0210817571
 21
11.3999982851
 31
0.0
 11
-6.4404767856
 21
11.8683452572
 31
0.0
 11
-6.7546422585
 21
12.4128282268
 31
0.0
 11
-6.9490224782
 21
13.0106582713
 31
0.0
 11
-7.0140457511
 21
13.6359549902
 31
0.0
  0
SPLINE
  5
48A
100
AcDbEntity
  8
0
100
AcDbSpline
 62
7
  6
CONTINUOUS
 70
0
 71
3
 72
9
 73
5
 74
3
 42
0.0000001
 43
0.0000001
 44
0.0000000001
 12
0.0027378916
 22
-1.4984272168
 32
0.0
 13
0.7688985181
 23
-1.2861130156
 33
0.0
 40
0.0
 40
0.0
 40
0.0
 40
0.0
 40
0.5000689431
 40
1.0
 40
1.0
 40
1.0
 40
1.0
 10
-6.795012649
 20
13.6497690516
 30
0.0
 10
-6.7945562708
 20
13.3999967468
 30
0.0
 10
-6.7307703062
 20
12.8981725333
 30
0.0
 10
-6.53363433
 20
12.4312616467
 30
0.0
 10
-6.4055022471
 20
12.2169390337
 30
0.0
 11
-6.795012649
 21
13.6497690516
 31
0.0
 11
-6.6974148139
 21
12.9068340776
 31
0.0
 11
-6.4055022471
 21
12.2169390337
 31
0.0
  0
SPLINE
  5
48B
100
AcDbEntity
  8
0
100
AcDbSpline
 62
7
  6
CONTINUOUS
 70
0
 71
3
 72
9
 73
5
 74
3
 42
0.0000001
 43
0.0000001
 44
0.0000000001
 12
-0.6909871733
 22
0.6276343934
 32
0.0
 13
-0.4650265292
 23
0.809406284
 33
0.0
 40
0.0
 40
0.0
 40
0.0
 40
0.0
 40
0.4999975524
 40
1.0
 40
1.0
 40
1.0
 40
1.0
 10
-6.0322408801
 20
11.3999814389
 30
0.0
 10
-6.1474048452
 20
11.5045866591
 30
0.0
 10
-6.3620672601
 20
11.7318478273
 30
0.0
 10
-6.5378546497
 20
11.9903336778
 30
0.0
 10
-6.6153594506
 20
12.1252353855
 30
0.0
 11
-6.0322408801
 21
11.3999814389
 31
0.0
 11
-6.3523475481
 21
11.739652809
 31
0.0
 11
-6.6153594506
 21
12.1252353855
 31
0.0
  0
SPLINE
  5
48C
100
AcDbEntity
  8
0
100
AcDbSpline
 62
7
  6
CONTINUOUS
 70
0
 71
3
 72
11
 73
7
 74
5
 42
0.0000001
 43
0.0000001
 44
0.0000000001
 12
-0.7862001233
 22
1.368427962
 32
0.0
 13
0.007052804
 23
1.5781812251
 33
0.0
 40
0.0
 40
0.0
 40
0.0
 40
0.0
 40
0.2516441904
 40
0.5029752487
 40
0.7532435034
 40
1.0
 40
1.0
 40
1.0
 40
1.0
 10
-6.615387592
 20
12.1252312521
 30
0.0
 10
-6.6813351565
 20
12.240016901
 30
0.0
 10
-6.7990346473
 20
12.4779990545
 30
0.0
 10
-6.9248922384
 20
12.8550221881
 30
0.0
 10
-6.9992040031
 20
13.2426489511
 30
0.0
 10
-7.0163301989
 20
13.5044243691
 30
0.0
 10
-7.0157500905
 20
13.6342331924
 30
0.0
 11
-6.615387592
 21
12.1252312521
 31
0.0
 11
-6.7906827911
 21
12.4815948743
 31
0.0
 11
-6.9165332209
 21
12.8577501973
 31
0.0
 11
-6.9913813669
 21
13.2455660216
 31
0.0
 11
-7.0157500905
 21
13.6342331924
 31
0.0
  0
SPLINE
  5
48D
100
AcDbEntity
  8
0
100
AcDbSpline
 62
253
  6
CONTINUOUS
 70
0
 71
3
 72
11
 73
7
 74
5
 42
0.0000001
 43
0.0000001
 44
0.0000000001
 12
-0.0698205244
 22
-1.5395199724
 32
0.0
 13
-0.027960945
 23
-1.540848739
 33
0.0
 40
0.0
 40
0.0
 40
0.0
 40
0.0
 40
0.2340729523
 40
0.481958369
 40
0.7387540409
 40
1.0
 40
1.0
 40
1.0
 40
1.0
 10
6.6991295842
 20
15.727095017
 30
0.0
 10
6.6936818854
 20
15.606975022
 30
0.0
 10
6.6624978501
 20
15.3607330136
 30
0.0
 10
6.5923530421
 20
14.9878913713
 30
0.0
 10
6.5270195367
 20
14.599851749
 30
0.0
 10
6.5024349033
 20
14.3341802101
 30
0.0
 10
6.5000000087
 20
14.2000000412
 30
0.0
 11
6.6991295842
 21
15.727095017
 31
0.0
 11
6.6599529606
 21
15.3684982968
 31
0.0
 11
6.5943740327
 21
14.9921523781
 31
0.0
 11
6.5322163686
 21
14.6013157823
 31
0.0
 11
6.5000000087
 21
14.2000000412
 31
0.0
  0
LINE
  5
48E
100
AcDbEntity
  8
0
100
AcDbLine
 62
7
  6
CONTINUOUS
 10
-7.0157478368
 20
13.6342225882
 11
-7.0156309876
 21
13.660064788
  0
LINE
  5
48F
100
AcDbEntity
  8
0
100
AcDbLine
 62
7
  6
CONTINUOUS
 10
-7.0156309876
 20
13.660064788
 11
-7.0140535086
 21
13.9637409222
  0
SPLINE
  5
490
100
AcDbEntity
  8
0
100
AcDbSpline
 62
7
  6
CONTINUOUS
 70
0
 71
3
 72
10
 73
6
 74
4
 42
0.0000001
 43
0.0000001
 44
0.0000000001
 12
-0.0895478638
 22
-0.0362531384
 32
0.0
 13
-0.0941897487
 23
-0.0214802511
 33
0.0
 40
0.0
 40
0.0
 40
0.0
 40
0.0
 40
0.3707887184
 40
0.7274323818
 40
1.0
 40
1.0
 40
1.0
 40
1.0
 10
-8.1214986218
 20
-7.9398014455
 30
0.0
 10
-8.1325664011
 20
-7.9442821971
 30
0.0
 10
-8.1544049903
 20
-7.9527295814
 30
0.0
 10
-8.1845530734
 20
-7.9641787354
 30
0.0
 10
-8.2042611938
 20
-7.9690237181
 30
0.0
 10
-8.2128188857
 20
-7.9709753251
 30
0.0
 11
-8.1214986218
 21
-7.9398014455
 31
0.0
 11
-8.1548535755
 21
-7.9528629503
 31
0.0
 11
-8.1873251003
 21
-7.9643834636
 31
0.0
 11
-8.2128188857
 21
-7.9709753251
 31
0.0
  0
SPLINE
  5
491
100
AcDbEntity
  8
0
100
AcDbSpline
 62
253
  6
CONTINUOUS
 70
0
 71
3
 72
11
 73
7
 74
5
 42
0.0000001
 43
0.0000001
 44
0.0000000001
 12
-0.0193492954
 22
1.5412285638
 32
0.0
 13
-0.0639429613
 23
1.5400231099
 33
0.0
 40
0.0
 40
0.0
 40
0.0
 40
0.0
 40
0.2617295967
 40
0.5195043202
 40
0.767297355
 40
1.0
 40
1.0
 40
1.0
 40
1.0
 10
-6.5000000006
 20
14.2000000412
 30
0.0
 10
-6.501688095
 20
14.3344617513
 30
0.0
 10
-6.5235752486
 20
14.6012231485
 30
0.0
 10
-6.5911427677
 20
14.9897603495
 30
0.0
 10
-6.6628790994
 20
15.3620651714
 30
0.0
 10
-6.6943016575
 20
15.6076395122
 30
0.0
 10
-6.6992615562
 20
15.7270953293
 30
0.0
 11
-6.5000000006
 21
14.2000000412
 31
0.0
 11
-6.5297980198
 21
14.6023149532
 31
0.0
 11
-6.59321896
 21
14.9945417002
 31
0.0
 11
-6.6602853404
 21
15.3705431032
 31
0.0
 11
-6.6992615562
 21
15.7270953293
 31
0.0
  0
SPLINE
  5
492
100
AcDbEntity
  8
0
100
AcDbSpline
 62
7
  6
CONTINUOUS
 70
0
 71
3
 72
11
 73
7
 74
5
 42
0.0000001
 43
0.0000001
 44
0.0000000001
 12
0.0091483984
 22
-3.3119657804
 32
0.0
 13
0.1443635859
 23
-3.3088306362
 33
0.0
 40
0.0
 40
0.0
 40
0.0
 40
0.0
 40
0.3232331921
 40
0.6105715393
 40
0.8416234019
 40
1.0
 40
1.0
 40
1.0
 40
1.0
 10
-9.2258237565
 20
-4.425655355
 30
0.0
 10
-9.2248380678
 20
-4.7825011121
 30
0.0
 10
-9.221614421
 20
-5.4565603618
 30
0.0
 10
-9.2127701785
 20
-6.385676959
 30
0.0
 10
-9.2004006261
 20
-7.1327090395
 30
0.0
 10
-9.189495308
 20
-7.5625380539
 30
0.0
 10
-9.1818740368
 20
-7.7372185005
 30
0.0
 11
-9.2258237565
 21
-4.425655355
 31
0.0
 11
-9.2205301599
 21
-5.4961836223
 31
0.0
 11
-9.2109413513
 21
-6.447793717
 31
0.0
 11
-9.1977390209
 21
-7.2129186033
 31
0.0
 11
-9.1818740368
 21
-7.7372185005
 31
0.0
  0
SPLINE
  5
493
100
AcDbEntity
  8
0
100
AcDbSpline
 62
7
  6
CONTINUOUS
 70
0
 71
3
 72
9
 73
5
 74
3
 42
0.0000001
 43
0.0000001
 44
0.0000000001
 12
0.0067574993
 22
-2.4233016427
 32
0.0
 13
0.0427916807
 23
-2.4229332197
 33
0.0
 40
0.0
 40
0.0
 40
0.0
 40
0.0
 40
0.543412688
 40
1.0
 40
1.0
 40
1.0
 40
1.0
 10
9.5263426842
 20
-4.4256559757
 30
0.0
 10
9.5275667211
 20
-4.8646069288
 30
0.0
 10
9.5318973854
 20
-5.6723684125
 30
0.0
 10
9.5411838784
 20
-6.480098026
 30
0.0
 10
9.5476965912
 20
-6.8488582146
 30
0.0
 11
9.5263426842
 21
-4.4256559757
 31
0.0
 11
9.5337368401
 21
-5.7424931958
 31
0.0
 11
9.5476965912
 21
-6.8488582146
 31
0.0
  0
SPLINE
  5
494
100
AcDbEntity
  8
0
100
AcDbSpline
 62
7
  6
CONTINUOUS
 70
0
 71
3
 72
19
 73
15
 74
13
 42
0.0000001
 43
0.0000001
 44
0.0000000001
 12
0.0206030293
 22
-1.1533955926
 32
0.0
 13
1.1535795932
 23
-0.0000001851
 33
0.0
 40
0.0
 40
0.0
 40
0.0
 40
0.0
 40
0.2250448627
 40
0.4246188784
 40
0.5965768912
 40
0.7394384103
 40
0.7995572409
 40
0.8519634846
 40
0.8965474638
 40
0.9332018402
 40
0.9618373281
 40
0.9824298855
 40
0.9950163741
 40
1.0
 40
1.0
 40
1.0
 40
1.0
 10
9.5476965912
 20
-6.8488582146
 30
0.0
 10
9.5492421266
 20
-6.9353801322
 30
0.0
 10
9.5523795537
 20
-7.0986272922
 30
0.0
 10
9.5576542765
 20
-7.3279679713
 30
0.0
 10
9.5632539044
 20
-7.5256851386
 30
0.0
 10
9.5683600022
 20
-7.6697768663
 30
0.0
 10
9.5726806005
 20
-7.7678751951
 30
0.0
 10
9.5757706115
 20
-7.8282332478
 30
0.0
 10
9.5788754359
 20
-7.8794598566
 30
0.0
 10
9.5820017064
 20
-7.9217914574
 30
0.0
 10
9.5850570307
 20
-7.9541698189
 30
0.0
 10
9.5881543001
 20
-7.9789063046
 30
0.0
 10
9.5908374617
 20
-7.9912295031
 30
0.0
 10
9.593420503
 20
-7.9999999997
 30
0.0
 10
9.5953368394
 20
-8.0
 30
0.0
 11
9.5476965912
 21
-6.8488582146
 31
0.0
 11
9.5527410362
 21
-7.1084163616
 31
0.0
 11
9.558117598
 21
-7.3385780841
 31
0.0
 11
9.5638273076
 21
-7.5368631487
 31
0.0
 11
9.5698185814
 21
-7.7015563413
 31
0.0
 11
9.5728994123
 21
-7.7708397335
 31
0.0
 11
9.5760253793
 21
-7.8312136347
 31
0.0
 11
9.5791874108
 21
-7.8825475091
 31
0.0
 11
9.5823764355
 21
-7.9247108207
 31
0.0
 11
9.5855851924
 21
-7.9575879213
 31
0.0
 11
9.5888136567
 21
-7.9811226692
 31
0.0
 11
9.5920636114
 21
-7.9952737876
 31
0.0
 11
9.5953368394
 21
-8.0
 31
0.0
  0
SPLINE
  5
495
100
AcDbEntity
  8
0
100
AcDbSpline
 62
7
  6
CONTINUOUS
 70
0
 71
3
 72
9
 73
5
 74
3
 42
0.0000001
 43
0.0000001
 44
0.0000000001
 12
0.0957452007
 22
-0.2929614192
 32
0.0
 13
0.308210215
 23
0.0
 33
0.0
 40
0.0
 40
0.0
 40
0.0
 40
0.0
 40
0.4990071729
 40
1.0
 40
1.0
 40
1.0
 40
1.0
 10
-5.7377600501
 20
-1.665383765
 30
0.0
 10
-5.7218342028
 20
-1.7141137149
 30
0.0
 10
-5.6569123903
 20
-1.8037491049
 30
0.0
 10
-5.551470369
 20
-1.8369263328
 30
0.0
 10
-5.5
 20
-1.8369263328
 30
0.0
 11
-5.7377600501
 21
-1.665383765
 31
0.0
 11
-5.64695144
 21
-1.789512577
 31
0.0
 11
-5.5
 21
-1.8369263328
 31
0.0
  0
SPLINE
  5
496
100
AcDbEntity
  8
0
100
AcDbSpline
 62
7
  6
CONTINUOUS
 70
0
 71
3
 72
11
 73
7
 74
5
 42
0.0000001
 43
0.0000001
 44
0.0000000001
 12
0.0
 22
-0.3888365622
 32
0.0
 13
0.3888365622
 23
0.0
 33
0.0
 40
0.0
 40
0.0
 40
0.0
 40
0.0
 40
0.24922286
 40
0.4988394216
 40
0.7491366642
 40
1.0
 40
1.0
 40
1.0
 40
1.0
 10
-5.75
 20
-1.6239886204
 30
0.0
 10
-5.75
 20
-1.6562909404
 30
0.0
 10
-5.7369730398
 20
-1.7216668135
 30
0.0
 10
-5.6812478108
 20
-1.8041670182
 30
0.0
 10
-5.5981798919
 20
-1.8593729469
 30
0.0
 10
-5.5325181386
 20
-1.8722803024
 30
0.0
 10
-5.5000031929
 20
-1.8722803024
 30
0.0
 11
-5.75
 21
-1.6239886204
 31
0.0
 11
-5.7309729009
 21
-1.719009294
 31
0.0
 11
-5.6767794755
 21
-1.7995308756
 31
0.0
 11
-5.5956952766
 21
-1.8533588765
 31
0.0
 11
-5.5000031929
 21
-1.8722803024
 31
0.0
  0
SPLINE
  5
497
100
AcDbEntity
  8
0
100
AcDbSpline
 62
7
  6
CONTINUOUS
 70
0
 71
3
 72
9
 73
5
 74
3
 42
0.0000001
 43
0.0000001
 44
0.0000000001
 12
0.1588765541
 22
0.0637074775
 32
0.0
 13
0.1559164808
 23
0.0706431394
 33
0.0
 40
0.0
 40
0.0
 40
0.0
 40
0.0
 40
0.2289269673
 40
1.0
 40
1.0
 40
1.0
 40
1.0
 10
-8.1214986218
 20
-7.9398014455
 30
0.0
 10
-8.1093749126
 20
-7.9349399923
 30
0.0
 10
-8.0566034917
 20
-7.9132361111
 30
0.0
 10
-8.0044398584
 20
-7.8900861379
 30
0.0
 10
-7.9643655271
 20
-7.8719291314
 30
0.0
 11
-8.1214986218
 21
-7.9398014455
 31
0.0
 11
-8.0852451626
 21
-7.9249269987
 31
0.0
 11
-7.9643655271
 21
-7.8719291314
 31
0.0
  0
SPLINE
  5
498
100
AcDbEntity
  8
0
100
AcDbSpline
 62
7
  6
CONTINUOUS
 70
0
 71
3
 72
9
 73
5
 74
3
 42
0.0000001
 43
0.0000001
 44
0.0000000001
 12
0.9195336053
 22
0.4166252364
 32
0.0
 13
0.9397737428
 23
0.3687057788
 33
0.0
 40
0.0
 40
0.0
 40
0.0
 40
0.0
 40
0.442896802
 40
1.0
 40
1.0
 40
1.0
 40
1.0
 10
-7.9643655271
 20
-7.8719291314
 30
0.0
 10
-7.8286126961
 20
-7.8104218031
 30
0.0
 10
-7.5252818679
 20
-7.6646789165
 30
0.0
 10
-7.2155852697
 20
-7.5324972306
 30
0.0
 10
-7.0410682839
 20
-7.4640281745
 30
0.0
 11
-7.9643655271
 21
-7.8719291314
 31
0.0
 11
-7.5586754946
 21
-7.6839838186
 31
0.0
 11
-7.0410682839
 21
-7.4640281745
 31
0.0
  0
SPLINE
  5
499
100
AcDbEntity
  8
0
100
AcDbSpline
 62
7
  6
CONTINUOUS
 70
0
 71
3
 72
18
 73
14
 74
12
 42
0.0000001
 43
0.0000001
 44
0.0000000001
 12
0.7500171112
 22
0.0000119241
 32
0.0
 13
0.5290132449
 23
0.5316678042
 33
0.0
 40
0.0
 40
0.0
 40
0.0
 40
0.0
 40
0.1907123781
 40
0.3745187654
 40
0.5444130159
 40
0.6943344005
 40
0.8187378654
 40
0.8699254912
 40
0.9131183755
 40
0.9479553932
 40
0.9741079919
 40
0.9914189031
 40
1.0
 40
1.0
 40
1.0
 40
1.0
 10
-2.5432821155
 20
-8.1475076374
 30
0.0
 10
-2.4956029332
 20
-8.1475068794
 30
0.0
 10
-2.4019707054
 20
-8.1471927651
 30
0.0
 10
-2.2658706861
 20
-8.1458068696
 30
0.0
 10
-2.1399795555
 20
-8.143566035
 30
0.0
 10
-2.0289647638
 20
-8.1405581509
 30
0.0
 10
-1.9476349962
 20
-8.1373767115
 30
0.0
 10
-1.8930309307
 20
-8.1343915983
 30
0.0
 10
-1.8607692542
 20
-8.1322210448
 30
0.0
 10
-1.8348993909
 20
-8.1299084485
 30
0.0
 10
-1.8152570135
 20
-8.1277537582
 30
0.0
 10
-1.8028236274
 20
-8.1252619038
 30
0.0
 10
-1.7960640024
 20
-8.1237376916
 30
0.0
 10
-1.7945508311
 20
-8.1222169273
 30
0.0
 11
-2.5432821155
 21
-8.1475076374
 31
0.0
 11
-2.4002453957
 21
-8.1470212028
 31
0.0
 11
-2.2623948934
 21
-8.1455896098
 31
0.0
 11
-2.1349924564
 21
-8.1432676253
 31
0.0
 11
-2.0225923764
 21
-8.1401393623
 31
0.0
 11
-1.9293658536
 21
-8.136319991
 31
0.0
 11
-1.8910331147
 21
-8.1341949687
 31
0.0
 11
-1.8587154834
 21
-8.1319515794
 31
0.0
 11
-1.8326922776
 21
-8.1296098011
 31
0.0
 11
-1.8132272081
 21
-8.1271900424
 31
0.0
 11
-1.8004814816
 21
-8.124716745
 31
0.0
 11
-1.7945508311
 21
-8.1222169273
 31
0.0
  0
SPLINE
  5
49A
100
AcDbEntity
  8
0
100
AcDbSpline
 62
253
  6
CONTINUOUS
 70
0
 71
3
 72
17
 73
13
 74
11
 42
0.0000001
 43
0.0000001
 44
0.0000000001
 12
-1.5564881099
 22
-4.0300559264
 32
0.0
 13
-1.5564776041
 23
4.030059984
 33
0.0
 40
0.0
 40
0.0
 40
0.0
 40
0.0
 40
0.1165342381
 40
0.2508360947
 40
0.382947606
 40
0.4426643361
 40
0.5000573473
 40
0.5574576871
 40
0.6171888205
 40
0.7494080186
 40
0.8836136263
 40
1.0
 40
1.0
 40
1.0
 40
1.0
 10
1.6740651739
 20
-14.6465054772
 30
0.0
 10
1.6136037886
 20
-14.8030519761
 30
0.0
 10
1.4366659787
 20
-15.1238695808
 30
0.0
 10
1.0342021405
 20
-15.5143855039
 30
0.0
 10
0.6029036204
 20
-15.7214636031
 30
0.0
 10
0.2513269146
 20
-15.798754812
 30
0.0
 10
-0.0002613395
 20
-15.8157387174
 30
0.0
 10
-0.2518638125
 20
-15.7986684709
 30
0.0
 10
-0.6036024623
 20
-15.721243959
 30
0.0
 10
-1.0348504714
 20
-15.5139290446
 30
0.0
 10
-1.4369757012
 20
-15.1233776111
 30
0.0
 10
-1.6136809163
 20
-14.8028534901
 30
0.0
 10
-1.6740651776
 20
-14.6465054676
 30
0.0
 11
1.6740651739
 21
-14.6465054772
 31
0.0
 11
1.4304899522
 21
-15.0871102664
 31
0.0
 11
1.0135180788
 21
-15.4905664872
 31
0.0
 11
0.4991360738
 21
-15.7378769701
 31
0.0
 11
0.2471054121
 21
-15.7929953045
 31
0.0
 11
-0.0002496976
 21
-15.8101387153
 31
0.0
 11
-0.2476308655
 21
-15.7929135485
 31
0.0
 11
-0.4997062809
 21
-15.7377086538
 31
0.0
 11
-1.0143919539
 21
-15.489956258
 31
0.0
 11
-1.4308755965
 21
-15.0865935225
 31
0.0
 11
-1.6740651776
 21
-14.6465054676
 31
0.0
  0
SPLINE
  5
49B
100
AcDbEntity
  8
0
100
AcDbSpline
 62
7
  6
CONTINUOUS
 70
0
 71
3
 72
9
 73
5
 74
3
 42
0.0000001
 43
0.0000001
 44
0.0000000001
 12
-0.7386091293
 22
-0.0000000666
 32
0.0
 13
-0.7380694598
 23
-0.0282297421
 33
0.0
 40
0.0
 40
0.0
 40
0.0
 40
0.0
 40
0.5464528058
 40
1.0
 40
1.0
 40
1.0
 40
1.0
 10
-8.935269518
 20
-8.1475076374
 30
0.0
 10
-9.0698078617
 20
-8.1475076496
 30
0.0
 10
-9.3160098025
 20
-8.1492195193
 30
0.0
 10
-9.5621791606
 20
-8.1546150893
 30
0.0
 10
-9.6737622714
 20
-8.1588829294
 30
0.0
 11
-8.935269518
 21
-8.1475076374
 31
0.0
 11
-9.3388736149
 21
-8.1504785538
 31
0.0
 11
-9.6737622714
 21
-8.1588829294
 31
0.0
  0
SPLINE
  5
49C
100
AcDbEntity
  8
0
100
AcDbSpline
 62
7
  6
CONTINUOUS
 70
0
 71
3
 72
18
 73
14
 74
12
 42
0.0000001
 43
0.0000001
 44
0.0000000001
 12
0.5317737029
 22
-0.5298979898
 32
0.0
 13
0.750716425
 23
-0.0
 33
0.0
 40
0.0
 40
0.0
 40
0.0
 40
0.0
 40
0.0086164882
 40
0.0259798857
 40
0.0521823074
 40
0.0870562708
 40
0.1302761758
 40
0.1814847892
 40
0.3059121146
 40
0.4558245248
 40
0.6256751689
 40
0.8094027646
 40
1.0
 40
1.0
 40
1.0
 40
1.0
 10
1.7945664201
 20
-8.1222325163
 30
0.0
 10
1.7960937607
 20
-8.1237544696
 30
0.0
 10
1.8028797039
 20
-8.1252757866
 30
0.0
 10
1.8153627712
 20
-8.1277694161
 30
0.0
 10
1.8350570272
 20
-8.1299239021
 30
0.0
 10
1.8609805085
 20
-8.1322370938
 30
0.0
 10
1.8932934057
 20
-8.1344075332
 30
0.0
 10
1.9479667291
 20
-8.1373918611
 30
0.0
 10
2.0293813832
 20
-8.1405718558
 30
0.0
 10
2.14049267
 20
-8.1435773549
 30
0.0
 10
2.2664683704
 20
-8.1458155327
 30
0.0
 10
2.4026359093
 20
-8.1471970449
 30
0.0
 10
2.4963069151
 20
-8.147507635
 30
0.0
 10
2.5440017401
 20
-8.147507635
 30
0.0
 11
1.7945664201
 21
-8.1222325163
 31
0.0
 11
1.8005322001
 21
-8.1247328098
 31
0.0
 11
1.8133303339
 21
-8.1272064059
 31
0.0
 11
1.832851508
 21
-8.1296262833
 31
0.0
 11
1.8589270274
 21
-8.1319679966
 31
0.0
 11
1.8912952881
 21
-8.13421113
 31
0.0
 11
1.9296796831
 21
-8.1363356977
 31
0.0
 11
2.0230112673
 21
-8.1401535058
 31
0.0
 11
2.135509558
 21
-8.1432793281
 31
0.0
 11
2.2629981378
 21
-8.1455982818
 31
0.0
 11
2.4009180773
 21
-8.1470254915
 31
0.0
 11
2.5440017401
 21
-8.147507635
 31
0.0
  0
SPLINE
  5
49D
100
AcDbEntity
  8
0
100
AcDbSpline
 62
7
  6
CONTINUOUS
 70
0
 71
3
 72
9
 73
5
 74
3
 42
0.0000001
 43
0.0000001
 44
0.0000000001
 12
-0.7380628852
 22
0.0282288428
 32
0.0
 13
-0.7386025251
 23
0.0
 33
0.0
 40
0.0
 40
0.0
 40
0.0
 40
0.0
 40
0.4535497904
 40
1.0
 40
1.0
 40
1.0
 40
1.0
 10
9.6737550165
 20
-8.1588826163
 30
0.0
 10
9.5621722609
 20
-8.1546148877
 30
0.0
 10
9.3160050998
 20
-8.149219623
 30
0.0
 10
9.0698053621
 20
-8.147507635
 30
0.0
 10
8.9352688606
 20
-8.147507635
 30
0.0
 11
9.6737550165
 21
-8.1588826163
 31
0.0
 11
9.338867431
 21
-8.1504785227
 31
0.0
 11
8.9352688606
 21
-8.147507635
 31
0.0
  0
SPLINE
  5
49E
100
AcDbEntity
  8
0
100
AcDbSpline
 62
7
  6
CONTINUOUS
 70
0
 71
3
 72
9
 73
5
 74
3
 42
0.0000001
 43
0.0000001
 44
0.0000000001
 12
-0.0131087289
 22
-0.553263959
 32
0.0
 13
-0.0
 23
-0.5534192326
 33
0.0
 40
0.0
 40
0.0
 40
0.0
 40
0.0
 40
0.1980908596
 40
1.0
 40
1.0
 40
1.0
 40
1.0
 10
-7.0071183488
 20
15.6033911211
 30
0.0
 10
-7.0079839219
 20
15.5668589433
 30
0.0
 10
-7.0112027879
 20
15.3824114731
 30
0.0
 10
-7.0120002016
 20
15.197930688
 30
0.0
 10
-7.0120002016
 20
15.050000041
 30
0.0
 11
-7.0071183488
 21
15.6033911211
 31
0.0
 11
-7.00916416
 21
15.4937829202
 31
0.0
 11
-7.0120002016
 21
15.050000041
 31
0.0
  0
SPLINE
  5
49F
100
AcDbEntity
  8
0
100
AcDbSpline
 62
253
  6
CONTINUOUS
 70
0
 71
3
 72
20
 73
16
 74
14
 42
0.0000001
 43
0.0000001
 44
0.0000000001
 12
2.5045576904
 22
-5.0530271588
 32
0.0
 13
2.5057491156
 23
5.052436448
 33
0.0
 40
0.0
 40
0.0
 40
0.0
 40
0.0
 40
0.0464470333
 40
0.098031988
 40
0.2189031701
 40
0.2874535049
 40
0.3584795875
 40
0.499841389
 40
0.5703975214
 40
0.6412243203
 40
0.7123031994
 40
0.7810067413
 40
0.9020476219
 40
0.9535657088
 40
1.0
 40
1.0
 40
1.0
 40
1.0
 10
-2.3734496338
 20
-14.9166187343
 30
0.0
 10
-2.334673209
 20
-14.9948514413
 30
0.0
 10
-2.2401739008
 20
-15.1540744454
 30
0.0
 10
-1.9774098381
 20
-15.4722966767
 30
0.0
 10
-1.613097208
 20
-15.7543263015
 30
0.0
 10
-1.170504877
 20
-15.9662476009
 30
0.0
 10
-0.6677845566
 20
-16.1324739264
 30
0.0
 10
-0.1329701715
 20
-16.1963567
 30
0.0
 10
0.398517024
 20
-16.1650178356
 30
0.0
 10
0.7922641164
 20
-16.0910775548
 30
0.0
 10
1.1693620863
 20
-15.966616321
 30
0.0
 10
1.6126657394
 20
-15.754700076
 30
0.0
 10
1.9776080942
 20
-15.4724694368
 30
0.0
 10
2.2399720279
 20
-15.1537418899
 30
0.0
 10
2.3346653793
 20
-14.9948208808
 30
0.0
 10
2.3734496074
 20
-14.916618779
 30
0.0
 11
-2.3734496338
 21
-14.9166187343
 31
0.0
 11
-2.2399243113
 21
-15.141977773
 31
0.0
 11
-2.0557759025
 21
-15.3672000719
 31
0.0
 11
-1.5195286326
 21
-15.7880539104
 31
0.0
 11
-1.1716792694
 21
-15.9567590688
 31
0.0
 11
-0.7912527672
 21
-16.08216642
 31
0.0
 11
-0.0001189042
 21
-16.1806012679
 31
0.0
 11
0.3970758093
 21
-16.1566966449
 31
0.0
 11
0.7895786926
 21
-16.0825771872
 31
0.0
 11
1.1703305088
 21
-15.9572057005
 31
0.0
 11
1.5190597112
 21
-15.7883348144
 31
0.0
 11
2.0560608952
 21
-15.3668914434
 31
0.0
 11
2.2397948856
 21
-15.141817538
 31
0.0
 11
2.3734496074
 21
-14.916618779
 31
0.0
  0
LINE
  5
4A0
100
AcDbEntity
  8
0
100
AcDbLine
 62
7
  6
CONTINUOUS
 10
-7.0119850064
 20
14.9771008719
 11
-7.0120002016
 21
15.050000041
  0
SPLINE
  5
4A1
100
AcDbEntity
  8
0
100
AcDbSpline
 62
253
  6
CONTINUOUS
 70
0
 71
3
 72
21
 73
17
 74
15
 42
0.0000001
 43
0.0000001
 44
0.0000000001
 12
-0.0037990275
 22
-2.4995749688
 32
0.0
 13
1.049408444
 23
-2.2686188253
 33
0.0
 40
0.0
 40
0.0
 40
0.0
 40
0.0
 40
0.1919170051
 40
0.3767015425
 40
0.5474866793
 40
0.6979265002
 40
0.7637319363
 40
0.82243237
 40
0.8734694688
 40
0.9163810676
 40
0.9507560447
 40
0.9762895199
 40
0.9856576084
 40
0.9927341567
 40
0.9975112352
 40
1.0
 40
1.0
 40
1.0
 40
1.0
 10
8.9352705974
 20
-14.9165339942
 30
0.0
 10
8.9350275647
 20
-15.0764376416
 30
0.0
 10
8.9359434958
 20
-15.3903027234
 30
0.0
 10
8.9373148928
 20
-15.8464621957
 30
0.0
 10
8.9397187036
 20
-16.2680592887
 30
0.0
 10
8.942361881
 20
-16.5905199644
 30
0.0
 10
8.9449043211
 20
-16.81958857
 30
0.0
 10
8.9468555103
 20
-16.9658372251
 30
0.0
 10
8.9489062534
 20
-17.0930057596
 30
0.0
 10
8.9510485048
 20
-17.1999067013
 30
0.0
 10
8.9533385209
 20
-17.285536282
 30
0.0
 10
8.9553067092
 20
-17.3432445377
 30
0.0
 10
8.9569440061
 20
-17.3781549791
 30
0.0
 10
8.9579138924
 20
-17.3958602595
 30
0.0
 10
8.9591578078
 20
-17.4076526708
 30
0.0
 10
8.9598903479
 20
-17.4137952842
 30
0.0
 10
8.9607609249
 20
-17.4156773038
 30
0.0
 11
8.9352705974
 21
-14.9165339942
 31
0.0
 11
8.9359680191
 21
-15.3962449834
 31
0.0
 11
8.9375656074
 21
-15.8581255583
 31
0.0
 11
8.9400041167
 21
-16.2850093396
 31
0.0
 11
8.9431929151
 21
-16.6610318637
 31
0.0
 11
8.9450349947
 21
-16.8255073594
 31
0.0
 11
8.9470135118
 21
-16.9722203234
 31
0.0
 11
8.9491057933
 21
-17.0997743667
 31
0.0
 11
8.9513239147
 21
-17.2070123114
 31
0.0
 11
8.9536565163
 21
-17.2929035747
 31
0.0
 11
8.9559638537
 21
-17.3566847626
 31
0.0
 11
8.9570691351
 21
-17.3800749294
 31
0.0
 11
8.958192311
 21
-17.3977276171
 31
0.0
 11
8.959400526
 21
-17.4096070128
 31
0.0
 11
8.9607609249
 21
-17.4156773038
 31
0.0
  0
LINE
  5
4A2
100
AcDbEntity
  8
0
100
AcDbLine
 62
7
  6
CONTINUOUS
 10
7.0120002016
 20
15.0500000001
 11
7.0119850064
 21
14.9771008553
  0
SPLINE
  5
4A3
100
AcDbEntity
  8
0
100
AcDbSpline
 62
7
  6
CONTINUOUS
 70
0
 71
3
 72
9
 73
5
 74
3
 42
0.0000001
 43
0.0000001
 44
0.0000000001
 12
0.0131087298
 22
-0.5532639988
 32
0.0
 13
0.0
 23
-0.5534192725
 33
0.0
 40
0.0
 40
0.0
 40
0.0
 40
0.0
 40
0.1980656963
 40
1.0
 40
1.0
 40
1.0
 40
1.0
 10
7.0071183488
 20
15.6033911211
 30
0.0
 10
7.007983812
 20
15.5668635813
 30
0.0
 10
7.0112026126
 20
15.382416097
 30
0.0
 10
7.0120002016
 20
15.1979352997
 30
0.0
 10
7.0120002016
 20
15.0500000001
 30
0.0
 11
7.0071183488
 21
15.6033911211
 31
0.0
 11
7.0091638958
 21
15.4937968357
 31
0.0
 11
7.0120002016
 21
15.0500000001
 31
0.0
  0
SPLINE
  5
4A4
100
AcDbEntity
  8
0
100
AcDbSpline
 62
253
  6
CONTINUOUS
 70
0
 71
3
 72
21
 73
17
 74
15
 42
0.0000001
 43
0.0000001
 44
0.0000000001
 12
0.9379138664
 22
2.3169472111
 32
0.0
 13
0.0000465608
 23
2.4995853252
 33
0.0
 40
0.0
 40
0.0
 40
0.0
 40
0.0
 40
0.0024915561
 40
0.0072909624
 40
0.0143905851
 40
0.0237702469
 40
0.0492774119
 40
0.0836223225
 40
0.1265573732
 40
0.1776215759
 40
0.2363004034
 40
0.3020791036
 40
0.4525522291
 40
0.6232998228
 40
0.8080865707
 40
1.0
 40
1.0
 40
1.0
 40
1.0
 10
-8.9607658447
 20
-17.4156773028
 30
0.0
 10
-8.9599868897
 20
-17.4137530348
 30
0.0
 10
-8.9592490168
 20
-17.4076287925
 30
0.0
 10
-8.9579454283
 20
-17.3957752616
 30
0.0
 10
-8.9568287273
 20
-17.378044623
 30
0.0
 10
-8.9549975129
 20
-17.3431287723
 30
0.0
 10
-8.952975953
 20
-17.2854636644
 30
0.0
 10
-8.9506886234
 20
-17.1998591631
 30
0.0
 10
-8.9484986286
 20
-17.0929426407
 30
0.0
 10
-8.9463924471
 20
-16.9657501961
 30
0.0
 10
-8.9444136864
 20
-16.8195192364
 30
0.0
 10
-8.9418593725
 20
-16.5904625663
 30
0.0
 10
-8.9392399115
 20
-16.2680264196
 30
0.0
 10
-8.936973967
 20
-15.846429212
 30
0.0
 10
-8.9355886334
 20
-15.3903001401
 30
0.0
 10
-8.9352715523
 20
-15.0764353185
 30
0.0
 10
-8.9352685738
 20
-14.916533988
 30
0.0
 11
-8.9607658447
 21
-17.4156773028
 31
0.0
 11
-8.9594916202
 21
-17.4095811929
 31
0.0
 11
-8.9582275631
 21
-17.3976514491
 31
0.0
 11
-8.9569754994
 21
-17.3799495608
 31
0.0
 11
-8.9557372552
 21
-17.356537017
 31
0.0
 11
-8.953309529
 21
-17.2928259197
 31
0.0
 11
-8.9509589929
 21
-17.2070100702
 31
0.0
 11
-8.9487014393
 21
-17.0997139948
 31
0.0
 11
-8.9465573982
 21
-16.9720926718
 31
0.0
 11
-8.9445485841
 21
-16.8254336924
 31
0.0
 11
-8.9426967111
 21
-16.6610246479
 31
0.0
 11
-8.9395385987
 21
-16.2849174904
 31
0.0
 11
-8.93719654
 21
-15.858125737
 31
0.0
 11
-8.9357597495
 21
-15.3962377283
 31
0.0
 11
-8.9352685738
 21
-14.916533988
 31
0.0
  0
SPLINE
  5
4A5
100
AcDbEntity
  8
0
100
AcDbSpline
 62
7
  6
CONTINUOUS
 70
0
 71
3
 72
11
 73
7
 74
5
 42
0.0000001
 43
0.0000001
 44
0.0000000001
 12
0.388816743
 22
-0.0
 32
0.0
 13
0.0
 23
0.388816743
 33
0.0
 40
0.0
 40
0.0
 40
0.0
 40
0.0
 40
0.25086357
 40
0.5011610439
 40
0.75077778
 40
1.0
 40
1.0
 40
1.0
 40
1.0
 10
-6.4999920032
 20
-1.8722803024
 30
0.0
 10
-6.4674786845
 20
-1.8722803024
 30
0.0
 10
-6.4018203149
 20
-1.8593732725
 30
0.0
 10
-6.31875616
 20
-1.8041713464
 30
0.0
 10
-6.2630302746
 20
-1.7216783943
 30
0.0
 10
-6.25
 20
-1.6563062027
 30
0.0
 10
-6.25
 20
-1.624005612
 30
0.0
 11
-6.4999920032
 21
-1.8722803024
 31
0.0
 11
-6.4043047144
 21
-1.8533597895
 31
0.0
 11
-6.3232237443
 21
-1.7995357315
 31
0.0
 11
-6.2690296461
 21
-1.7190204844
 31
0.0
 11
-6.25
 21
-1.624005612
 31
0.0
  0
SPLINE
  5
4A6
100
AcDbEntity
  8
0
100
AcDbSpline
 62
7
  6
CONTINUOUS
 70
0
 71
3
 72
11
 73
7
 74
5
 42
0.0000001
 43
0.0000001
 44
0.0000000001
 12
0.3633048654
 22
-0.0
 32
0.0
 13
0.0384049475
 23
0.3612692697
 33
0.0
 40
0.0
 40
0.0
 40
0.0
 40
0.0
 40
0.2507604773
 40
0.5010332813
 40
0.7506738821
 40
1.0
 40
1.0
 40
1.0
 40
1.0
 10
-6.5
 20
-1.8369263358
 30
0.0
 10
-6.4696324995
 20
-1.8369263358
 30
0.0
 10
-6.40837724
 20
-1.8257285374
 30
0.0
 10
-6.3290654546
 20
-1.7773908545
 30
0.0
 10
-6.2722414674
 20
-1.7041101937
 30
0.0
 10
-6.2545726869
 20
-1.6446267497
 30
0.0
 10
-6.2513809014
 20
-1.6146021282
 30
0.0
 11
-6.5
 21
-1.8369263358
 31
0.0
 11
-6.4104014264
 21
-1.820441149
 31
0.0
 11
-6.3327339311
 21
-1.773163508
 31
0.0
 11
-6.2772674664
 21
-1.7014057818
 31
0.0
 11
-6.2513809014
 21
-1.6146021282
 31
0.0
  0
SPLINE
  5
4A7
100
AcDbEntity
  8
0
100
AcDbSpline
 62
7
  6
CONTINUOUS
 70
0
 71
3
 72
11
 73
7
 74
5
 42
0.0000001
 43
0.0000001
 44
0.0000000001
 12
-0.0145266824
 22
-0.3812556802
 32
0.0
 13
-0.3812524963
 23
0.0146100042
 33
0.0
 40
0.0
 40
0.0
 40
0.0
 40
0.0
 40
0.2117563719
 40
0.4409138511
 40
0.6967677775
 40
1.0
 40
1.0
 40
1.0
 40
1.0
 10
9.9351031813
 20
-7.932042576
 30
0.0
 10
9.9340778088
 20
-7.9589536826
 30
0.0
 10
9.921265336
 20
-8.0150831626
 30
0.0
 10
9.8700926499
 20
-8.0898815368
 30
0.0
 10
9.7850541142
 20
-8.1474058386
 30
0.0
 10
9.7122780748
 20
-8.1603587923
 30
0.0
 10
9.6737420608
 20
-8.1588820509
 30
0.0
 11
9.9351031813
 21
-7.932042576
 31
0.0
 11
9.9172571526
 21
-8.0108388365
 31
0.0
 11
9.8683243624
 21
-8.0832940604
 31
0.0
 11
9.7875560648
 21
-8.1381162445
 31
0.0
 11
9.6737420608
 21
-8.1588820509
 31
0.0
  0
SPLINE
  5
4A8
100
AcDbEntity
  8
0
100
AcDbSpline
 62
7
  6
CONTINUOUS
 70
0
 71
3
 72
11
 73
7
 74
5
 42
0.0000001
 43
0.0000001
 44
0.0000000001
 12
-2.6856403781
 22
0.0
 32
0.0
 13
-0.0552877692
 23
2.6850712286
 33
0.0
 40
0.0
 40
0.0
 40
0.0
 40
0.0
 40
0.2509321168
 40
0.501256893
 40
0.7508324068
 40
1.0
 40
1.0
 40
1.0
 40
1.0
 10
-6.0
 20
-3.5486793301
 30
0.0
 10
-6.2246378083
 20
-3.5486793301
 30
0.0
 10
-6.6781106921
 20
-3.4610892439
 30
0.0
 10
-7.2549170183
 20
-3.0850977811
 30
0.0
 10
-7.6470154056
 20
-2.5207685095
 30
0.0
 10
-7.7450395948
 20
-2.0713581478
 30
0.0
 10
-7.7496315683
 20
-1.8483472359
 30
0.0
 11
-6.0
 21
-3.5486793301
 31
0.0
 11
-6.6615196564
 21
-3.4200284514
 31
0.0
 11
-7.224810193
 21
-3.0530580193
 31
0.0
 11
-7.6064017044
 21
-2.5020136519
 31
0.0
 11
-7.7496315683
 21
-1.8483472359
 31
0.0
  0
SPLINE
  5
4A9
100
AcDbEntity
  8
0
100
AcDbSpline
 62
7
  6
CONTINUOUS
 70
0
 71
3
 72
11
 73
7
 74
5
 42
0.0000001
 43
0.0000001
 44
0.0000000001
 12
-2.720286832
 22
0.0
 32
0.0
 13
-0.0001700118
 23
2.7202868267
 33
0.0
 40
0.0
 40
0.0
 40
0.0
 40
0.0
 40
0.2509548697
 40
0.5012883354
 40
0.7508571885
 40
1.0
 40
1.0
 40
1.0
 40
1.0
 10
-6.0
 20
-3.5840259189
 30
0.0
 10
-6.2275564092
 20
-3.5840259189
 30
0.0
 10
-6.6870249409
 20
-3.4940742935
 30
0.0
 10
-7.2687808365
 20
-3.1085629221
 30
0.0
 10
-7.6587913302
 20
-2.5315265405
 30
0.0
 10
-7.749985884
 20
-2.0742928883
 30
0.0
 10
-7.7500000031
 20
-1.8483795856
 30
0.0
 11
-6.0
 21
-3.5840259189
 31
0.0
 11
-6.6697814639
 21
-3.4520029483
 31
0.0
 11
-7.2375182186
 21
-3.0759615348
 31
0.0
 11
-7.6168228955
 21
-2.5129059154
 31
0.0
 11
-7.7500000031
 21
-1.8483795856
 31
0.0
  0
SPLINE
  5
4AA
100
AcDbEntity
  8
0
100
AcDbSpline
 62
7
  6
CONTINUOUS
 70
0
 71
3
 72
9
 73
5
 74
3
 42
0.0000001
 43
0.0000001
 44
0.0000000001
 12
-0.0000012492
 22
-0.0299200535
 32
0.0
 13
-0.0289209868
 23
-0.0076672111
 33
0.0
 40
0.0
 40
0.0
 40
0.0
 40
0.0
 40
0.3149634964
 40
1.0
 40
1.0
 40
1.0
 40
1.0
 10
8.1999623065
 20
-8.0217838568
 30
0.0
 10
8.1999621754
 20
-8.0249250984
 30
0.0
 10
8.1894121158
 20
-8.0315302799
 30
0.0
 10
8.1807920068
 20
-8.0337436659
 30
0.0
 10
8.1741880296
 20
-8.0354944391
 30
0.0
 11
8.1999623065
 21
-8.0217838568
 31
0.0
 11
8.193507863
 21
-8.0286502056
 31
0.0
 11
8.1741880296
 21
-8.0354944391
 31
0.0
  0
SPLINE
  5
4AB
100
AcDbEntity
  8
0
100
AcDbSpline
 62
7
  6
CONTINUOUS
 70
0
 71
3
 72
16
 73
12
 74
10
 42
0.0000001
 43
0.0000001
 44
0.0000000001
 12
-2.8776690829
 22
-0.7628957003
 32
0.0
 13
-2.9770772916
 23
-0.000000623
 33
0.0
 40
0.0
 40
0.0
 40
0.0
 40
0.0
 40
0.0161720071
 40
0.0401971055
 40
0.0719196295
 40
0.111115048
 40
0.210619552
 40
0.3355615137
 40
0.4819406251
 40
0.6450360092
 40
1.0
 40
1.0
 40
1.0
 40
1.0
 10
8.1741880296
 20
-8.0354944391
 30
0.0
 10
8.158675468
 20
-8.0396069573
 30
0.0
 10
8.1192779253
 20
-8.046419694
 30
0.0
 10
8.0484614697
 20
-8.0551153435
 30
0.0
 10
7.9546038373
 20
-8.0636267377
 30
0.0
 10
7.7859154939
 20
-8.0756861253
 30
0.0
 10
7.5245904735
 20
-8.0888330678
 30
0.0
 10
7.1568284104
 20
-8.1019268655
 30
0.0
 10
6.7258555386
 20
-8.1126301337
 30
0.0
 10
6.0665800581
 20
-8.1235249999
 30
0.0
 10
5.5524678721
 20
-8.126559395
 30
0.0
 10
5.2002161267
 20
-8.1265594687
 30
0.0
 11
8.1741880296
 21
-8.0354944391
 31
0.0
 11
8.1269451932
 21
-8.0447726811
 31
0.0
 11
8.0560003743
 21
-8.053860996
 31
0.0
 11
7.9619734651
 21
-8.062688827
 31
0.0
 11
7.8455955478
 21
-8.0711871101
 31
0.0
 11
7.5497811592
 21
-8.0869224328
 31
0.0
 11
7.1780692203
 21
-8.1005559315
 31
0.0
 11
6.7424284713
 21
-8.1116476867
 31
0.0
 11
6.2569499853
 21
-8.119837734
 31
0.0
 11
5.2002161267
 21
-8.1265594687
 31
0.0
  0
SPLINE
  5
4AC
100
AcDbEntity
  8
0
100
AcDbSpline
 62
7
  6
CONTINUOUS
 70
0
 71
3
 72
9
 73
5
 74
3
 42
0.0000001
 43
0.0000001
 44
0.0000000001
 12
0.0000241067
 22
-0.5086051558
 32
0.0
 13
-0.0003282171
 23
-0.5086050505
 33
0.0
 40
0.0
 40
0.0
 40
0.0
 40
0.0
 40
0.2480375396
 40
1.0
 40
1.0
 40
1.0
 40
1.0
 10
6.7999999995
 20
14.6989238574
 30
0.0
 10
6.8000019926
 20
14.6568728002
 30
0.0
 10
6.7985092113
 20
14.4873413367
 30
0.0
 10
6.7950065325
 20
14.3178288271
 30
0.0
 10
6.7949242635
 20
14.1903448587
 30
0.0
 11
6.7999999995
 21
14.6989238574
 31
0.0
 11
6.7991378068
 21
14.5727736321
 31
0.0
 11
6.7949242635
 21
14.1903448587
 31
0.0
  0
SPLINE
  5
4AD
100
AcDbEntity
  8
0
100
AcDbSpline
 62
7
  6
CONTINUOUS
 70
0
 71
3
 72
11
 73
7
 74
5
 42
0.0000001
 43
0.0000001
 44
0.0000000001
 12
-0.0551132604
 22
-2.6851275523
 32
0.0
 13
-2.685693103
 23
0.0
 33
0.0
 40
0.0
 40
0.0
 40
0.0
 40
0.0
 40
0.2491623215
 40
0.4987364417
 40
0.7490656769
 40
1.0
 40
1.0
 40
1.0
 40
1.0
 10
-4.2503644629
 20
-1.8482940393
 30
0.0
 10
-4.2549418455
 20
-2.0713049108
 30
0.0
 10
-4.3529631676
 20
-2.5207216886
 30
0.0
 10
-4.7450533014
 20
-3.0850678043
 30
0.0
 10
-5.3218675133
 20
-3.4610837307
 30
0.0
 10
-5.7753558064
 20
-3.5486793301
 30
0.0
 10
-6.0
 20
-3.5486793301
 30
0.0
 11
-4.2503644629
 21
-1.8482940393
 31
0.0
 11
-4.3935741387
 21
-2.5019638334
 31
0.0
 11
-4.7751583601
 21
-3.0530247025
 31
0.0
 11
-5.3384623579
 21
-3.4200205895
 31
0.0
 11
-6.0
 21
-3.5486793301
 31
0.0
  0
SPLINE
  5
4AE
100
AcDbEntity
  8
0
100
AcDbSpline
 62
253
  6
CONTINUOUS
 70
0
 71
3
 72
14
 73
10
 74
8
 42
0.0000001
 43
0.0000001
 44
0.0000000001
 12
-0.0220082293
 22
-4.0794011815
 32
0.0
 13
-4.0794346085
 23
0.0145477606
 33
0.0
 40
0.0
 40
0.0
 40
0.0
 40
0.0
 40
0.252406579
 40
0.3786282103
 40
0.5057100663
 40
0.6289137673
 40
0.7508608115
 40
0.8749509792
 40
1.0
 40
1.0
 40
1.0
 40
1.0
 10
6.5000000002
 20
13.6500000195
 30
0.0
 10
6.4981483262
 20
13.3067774539
 30
0.0
 10
6.4117691229
 20
12.785337966
 30
0.0
 10
6.113752308
 20
12.1616881603
 30
0.0
 10
5.8047171176
 20
11.7493122663
 30
0.0
 10
5.4280018438
 20
11.4062797976
 30
0.0
 10
4.9908929192
 20
11.1518151744
 30
0.0
 10
4.5099708901
 20
10.9887819869
 30
0.0
 10
4.170043101
 20
10.9493936056
 30
0.0
 10
4.0
 20
10.95
 30
0.0
 11
6.5000000002
 21
13.6500000195
 31
0.0
 11
6.3222107212
 21
12.6357823919
 31
0.0
 11
6.0996992563
 21
12.1714255195
 31
0.0
 11
5.7891935937
 21
11.7562735621
 31
0.0
 11
5.4160949903
 21
11.4195112515
 31
0.0
 11
4.9866495034
 21
11.1683915807
 31
0.0
 11
4.5069844785
 21
11.0065858088
 31
0.0
 11
4.0
 21
10.95
 31
0.0
  0
SPLINE
  5
4AF
100
AcDbEntity
  8
0
100
AcDbSpline
 62
253
  6
CONTINUOUS
 70
0
 71
3
 72
14
 73
10
 74
8
 42
0.0000001
 43
0.0000001
 44
0.0000000001
 12
-4.0797151728
 22
0.0025025967
 32
0.0
 13
-0.0235852505
 23
4.0796477654
 33
0.0
 40
0.0
 40
0.0
 40
0.0
 40
0.0
 40
0.1265267866
 40
0.2507947502
 40
0.3723887205
 40
0.4948189734
 40
0.620785999
 40
0.7461628086
 40
1.0
 40
1.0
 40
1.0
 40
1.0
 10
-4.0
 20
10.95
 30
0.0
 10
-4.172064417
 20
10.9501055485
 30
0.0
 10
-4.5143330149
 20
10.9887546701
 30
0.0
 10
-4.9966129716
 20
11.1540035565
 30
0.0
 10
-5.4318661274
 20
11.4089496651
 30
0.0
 10
-5.8058917194
 20
11.7503957134
 30
0.0
 10
-6.1124699837
 20
12.1599050457
 30
0.0
 10
-6.4111246366
 20
12.7824253733
 30
0.0
 10
-6.4980043955
 20
13.3048112302
 30
0.0
 10
-6.5
 20
13.6500000071
 30
0.0
 11
-4.0
 21
10.95
 31
0.0
 11
-4.512970515
 21
11.0075918701
 31
0.0
 11
-4.992960754
 21
11.1707974303
 31
0.0
 11
-5.4205225383
 21
11.4223431187
 31
0.0
 11
-5.7908100515
 21
11.7575566052
 31
0.0
 11
-6.0984944739
 21
12.169179561
 31
0.0
 11
-6.3201719469
 21
12.6301493619
 31
0.0
 11
-6.5
 21
13.6500000071
 31
0.0
  0
SPLINE
  5
4B0
100
AcDbEntity
  8
0
100
AcDbSpline
 62
7
  6
CONTINUOUS
 70
0
 71
3
 72
11
 73
7
 74
5
 42
0.0000001
 43
0.0000001
 44
0.0000000001
 12
-0.0000247255
 22
2.3440536324
 32
0.0
 13
2.3440536325
 23
-0.0
 33
0.0
 40
0.0
 40
0.0
 40
0.0
 40
0.0
 40
0.2497957806
 40
0.4997431258
 40
0.7498268273
 40
1.0
 40
1.0
 40
1.0
 40
1.0
 10
0.6993941229
 20
4.7542125701
 30
0.0
 10
0.6993920641
 20
4.9493908056
 30
0.0
 10
0.7772327525
 20
5.3440956524
 30
0.0
 10
1.1102432287
 20
5.8438530426
 30
0.0
 10
1.6087171148
 20
6.1795539338
 30
0.0
 10
2.0039078682
 20
6.258249316
 30
0.0
 10
2.1993809797
 20
6.258249316
 30
0.0
 11
0.6993941229
 21
4.7542125701
 31
0.0
 11
0.8132131672
 21
5.3285784099
 31
0.0
 11
1.1377111621
 21
5.8163981748
 31
0.0
 11
1.6243507036
 21
6.1432370682
 31
0.0
 11
2.1993809797
 21
6.258249316
 31
0.0
  0
SPLINE
  5
4B1
100
AcDbEntity
  8
0
100
AcDbSpline
 62
7
  6
CONTINUOUS
 70
0
 71
3
 72
11
 73
7
 74
5
 42
0.0000001
 43
0.0000001
 44
0.0000000001
 12
-2.6856406361
 22
0.0
 32
0.0
 13
-0.0552820733
 23
2.685071604
 33
0.0
 40
0.0
 40
0.0
 40
0.0
 40
0.0
 40
0.2509321025
 40
0.5012569087
 40
0.7508324331
 40
1.0
 40
1.0
 40
1.0
 40
1.0
 10
6.0
 20
-3.5486793301
 30
0.0
 10
5.7753621829
 20
-3.5486793301
 30
0.0
 10
5.3218891605
 20
-3.461089271
 30
0.0
 10
4.7450831825
 20
-3.0850972977
 30
0.0
 10
4.3529838869
 20
-2.5207686478
 30
0.0
 10
4.2549599192
 20
-2.0713579723
 30
0.0
 10
4.2503684193
 20
-1.8483470528
 30
0.0
 11
6.0
 21
-3.5486793301
 31
0.0
 11
5.3384803264
 21
-3.4200284015
 31
0.0
 11
4.7751897859
 21
-3.0530577095
 31
0.0
 11
4.3935977779
 21
-2.5020135729
 31
0.0
 11
4.2503684193
 21
-1.8483470528
 31
0.0
  0
SPLINE
  5
4B2
100
AcDbEntity
  8
0
100
AcDbSpline
 62
7
  6
CONTINUOUS
 70
0
 71
3
 72
11
 73
7
 74
5
 42
0.0000001
 43
0.0000001
 44
0.0000000001
 12
-2.7202869733
 22
0.0
 32
0.0
 13
-0.0001698524
 23
2.720286968
 33
0.0
 40
0.0
 40
0.0
 40
0.0
 40
0.0
 40
0.2509548578
 40
0.5012883131
 40
0.7508571524
 40
1.0
 40
1.0
 40
1.0
 40
1.0
 10
6.0
 20
-3.5840259189
 30
0.0
 10
5.7724435898
 20
-3.5840259189
 30
0.0
 10
5.3129750557
 20
-3.4940742901
 30
0.0
 10
4.7312191548
 20
-3.1085629216
 30
0.0
 10
4.3412086388
 20
-2.5315264959
 30
0.0
 10
4.2500141028
 20
-2.0742927903
 30
0.0
 10
4.2499999969
 20
-1.8483794431
 30
0.0
 11
6.0
 21
-3.5840259189
 31
0.0
 11
5.3302185334
 21
-3.4520029465
 31
0.0
 11
4.7624817717
 21
-3.0759615304
 31
0.0
 11
4.3831771011
 21
-2.5129059096
 31
0.0
 11
4.2499999969
 21
-1.8483794431
 31
0.0
  0
SPLINE
  5
4B3
100
AcDbEntity
  8
0
100
AcDbSpline
 62
7
  6
CONTINUOUS
 70
0
 71
3
 72
11
 73
7
 74
5
 42
0.0000001
 43
0.0000001
 44
0.0000000001
 12
2.6857096362
 22
0.0
 32
0.0
 13
0.0549878996
 23
2.6851466591
 33
0.0
 40
0.0
 40
0.0
 40
0.0
 40
0.0
 40
0.2509400267
 40
0.5012591863
 40
0.7508451472
 40
1.0
 40
1.0
 40
1.0
 40
1.0
 10
6.0
 20
-3.5486793301
 30
0.0
 10
6.2246506826
 20
-3.5486793301
 30
0.0
 10
6.6781302891
 20
-3.4610649077
 30
0.0
 10
7.2549821275
 20
-3.0850916821
 30
0.0
 10
7.647061979
 20
-2.5207284968
 30
0.0
 10
7.7450723725
 20
-2.0713035171
 30
0.0
 10
7.7496392065
 20
-1.8482977435
 30
0.0
 11
6.0
 21
-3.5486793301
 31
0.0
 11
6.6615553063
 21
-3.4200094447
 31
0.0
 11
7.2248562973
 21
-3.0530509338
 31
0.0
 11
7.6064558595
 21
-2.5019569883
 31
0.0
 11
7.7496392065
 21
-1.8482977435
 31
0.0
  0
SPLINE
  5
4B4
100
AcDbEntity
  8
0
100
AcDbSpline
 62
7
  6
CONTINUOUS
 70
0
 71
3
 72
14
 73
10
 74
8
 42
0.0000001
 43
0.0000001
 44
0.0000000001
 12
-0.0018661712
 22
2.3530488625
 32
0.0
 13
2.3530496025
 23
0.0
 33
0.0
 40
0.0
 40
0.0
 40
0.0
 40
0.0
 40
0.1250194312
 40
0.2501329383
 40
0.3752210951
 40
0.5003306299
 40
0.6255511493
 40
0.7507036402
 40
1.0
 40
1.0
 40
1.0
 40
1.0
 10
0.6987155755
 20
4.7247813406
 30
0.0
 10
0.6986378062
 20
4.8228402841
 30
0.0
 10
0.7187030234
 20
5.0196004556
 30
0.0
 10
0.8053078819
 20
5.3025080289
 30
0.0
 10
0.9421796637
 20
5.5653453026
 30
0.0
 10
1.1309297153
 20
5.7939763388
 30
0.0
 10
1.3596665955
 20
5.982461557
 30
0.0
 10
1.7058696433
 20
6.1699862832
 30
0.0
 10
2.0038454129
 20
6.2293380322
 30
0.0
 10
2.1993809797
 20
6.2293380322
 30
0.0
 11
0.6987155755
 21
4.7247813406
 31
0.0
 11
0.7281053991
 21
5.0174864827
 31
0.0
 11
0.8136895902
 21
5.2991701675
 31
0.0
 11
0.9508074652
 21
5.559619629
 31
0.0
 11
1.1375273146
 21
5.7872169631
 31
0.0
 11
1.3649488833
 21
5.9745618525
 31
0.0
 11
1.6241593951
 21
6.1143269481
 31
0.0
 11
2.1993809797
 21
6.2293380322
 31
0.0
  0
SPLINE
  5
4B5
100
AcDbEntity
  8
0
100
AcDbSpline
 62
7
  6
CONTINUOUS
 70
0
 71
3
 72
11
 73
7
 74
5
 42
0.0000001
 43
0.0000001
 44
0.0000000001
 12
-0.0000247255
 22
2.3440536324
 32
0.0
 13
2.3440536325
 23
0.0
 33
0.0
 40
0.0
 40
0.0
 40
0.0
 40
0.0
 40
0.2497957806
 40
0.4997431258
 40
0.7498268273
 40
1.0
 40
1.0
 40
1.0
 40
1.0
 10
-1.9230842921
 20
4.7542125701
 30
0.0
 10
-1.9230863508
 20
4.9493908056
 30
0.0
 10
-1.8452456624
 20
5.3440956524
 30
0.0
 10
-1.5122351863
 20
5.8438530426
 30
0.0
 10
-1.0137613001
 20
6.1795539337
 30
0.0
 10
-0.6185705467
 20
6.2582493161
 30
0.0
 10
-0.4230974353
 20
6.2582493161
 30
0.0
 11
-1.9230842921
 21
4.7542125701
 31
0.0
 11
-1.8092652477
 21
5.3285784099
 31
0.0
 11
-1.4847672529
 21
5.8163981748
 31
0.0
 11
-0.9981277114
 21
6.1432370682
 31
0.0
 11
-0.4230974353
 21
6.2582493161
 31
0.0
  0
SPLINE
  5
4B6
100
AcDbEntity
  8
0
100
AcDbSpline
 62
7
  6
CONTINUOUS
 70
0
 71
3
 72
14
 73
10
 74
8
 42
0.0000001
 43
0.0000001
 44
0.0000000001
 12
-0.0018661393
 22
2.3530488646
 32
0.0
 13
2.3530496046
 23
0.0
 33
0.0
 40
0.0
 40
0.0
 40
0.0
 40
0.0
 40
0.1250194317
 40
0.2501329384
 40
0.3752210956
 40
0.5003306305
 40
0.6255511494
 40
0.7507036405
 40
1.0
 40
1.0
 40
1.0
 40
1.0
 10
-1.923762838
 20
4.7247813398
 30
0.0
 10
-1.9238406059
 20
4.8228402837
 30
0.0
 10
-1.903775391
 20
5.019600455
 30
0.0
 10
-1.817170538
 20
5.3025080319
 30
0.0
 10
-1.6802987445
 20
5.5653452993
 30
0.0
 10
-1.491548703
 20
5.7939763433
 30
0.0
 10
-1.2628118182
 20
5.9824615579
 30
0.0
 10
-0.9166087692
 20
6.1699862787
 30
0.0
 10
-0.618633002
 20
6.2293380403
 30
0.0
 10
-0.4230974353
 20
6.2293380403
 30
0.0
 11
-1.923762838
 21
4.7247813398
 31
0.0
 11
-1.8943730156
 21
5.0174864834
 31
0.0
 11
-1.8087888269
 21
5.2991701684
 31
0.0
 11
-1.6716709465
 21
5.5596196282
 31
0.0
 11
-1.484951101
 21
5.7872169661
 31
0.0
 11
-1.2575295313
 21
5.9745618532
 31
0.0
 11
-0.998319018
 21
6.1143269468
 31
0.0
 11
-0.4230974353
 21
6.2293380403
 31
0.0
  0
SPLINE
  5
4B7
100
AcDbEntity
  8
0
100
AcDbSpline
 62
7
  6
CONTINUOUS
 70
0
 71
3
 72
21
 73
17
 74
15
 42
0.0000001
 43
0.0000001
 44
0.0000000001
 12
-3.0075193377
 22
-0.0000006294
 32
0.0
 13
0.0090192752
 23
3.0075058137
 33
0.0
 40
0.0
 40
0.0
 40
0.0
 40
0.0
 40
0.1946892638
 40
0.3818966162
 40
0.5544238799
 40
0.633082625
 40
0.7056515879
 40
0.7714276084
 40
0.8297930141
 40
0.8801794079
 40
0.9221271832
 40
0.9552359527
 40
0.9792271458
 40
0.9939440837
 40
0.9979163968
 40
1.0
 40
1.0
 40
1.0
 40
1.0
 10
-5.1998676123
 20
-8.1265594723
 30
0.0
 10
-5.3950448542
 20
-8.1265595132
 30
0.0
 10
-5.7779001219
 20
-8.1252627633
 30
0.0
 10
-6.3336880611
 20
-8.119492136
 30
0.0
 10
-6.7731137459
 20
-8.1114926495
 30
0.0
 10
-7.0975746179
 20
-8.1031499388
 30
0.0
 10
-7.3150158136
 20
-8.0963254694
 30
0.0
 10
-7.5120801007
 20
-8.0888055059
 30
0.0
 10
-7.6868516542
 20
-8.0806868068
 30
0.0
 10
-7.8377080976
 20
-8.0720311486
 30
0.0
 10
-7.963082303
 20
-8.0630326104
 30
0.0
 10
-8.0621234382
 20
-8.053649151
 30
0.0
 10
-8.1331540764
 20
-8.0445827336
 30
0.0
 10
-8.175843867
 20
-8.0357358269
 30
0.0
 10
-8.194789914
 20
-8.0287847386
 30
0.0
 10
-8.1999581901
 20
-8.0238597399
 30
0.0
 10
-8.1999519259
 20
-8.0217709237
 30
0.0
 11
-5.1998676123
 21
-8.1265594723
 31
0.0
 11
-5.7853958602
 21
-8.1245413275
 31
0.0
 11
-6.3483939863
 21
-8.1185756432
 31
0.0
 11
-6.8671826343
 21
-8.1088885252
 31
0.0
 11
-7.1036709516
 21
-8.1027606258
 31
0.0
 11
-7.321814195
 21
-8.0958537534
 31
0.0
 11
-7.5194900185
 21
-8.0882333098
 31
0.0
 11
-7.6948306704
 21
-8.0799736316
 31
0.0
 11
-7.8461118135
 21
-8.0711533418
 31
0.0
 11
-7.9719277483
 21
-8.0618592817
 31
0.0
 11
-8.0710315067
 21
-8.0521805225
 31
0.0
 11
-8.1424928474
 21
-8.0422068964
 31
0.0
 11
-8.1855691534
 21
-8.0320329076
 31
0.0
 11
-8.1963597556
 21
-8.026905614
 31
0.0
 11
-8.1999519259
 21
-8.0217709237
 31
0.0
  0
SPLINE
  5
4B8
100
AcDbEntity
  8
0
100
AcDbSpline
 62
7
  6
CONTINUOUS
 70
0
 71
3
 72
9
 73
5
 74
3
 42
0.0000001
 43
0.0000001
 44
0.0000000001
 12
0.7680348386
 22
1.2854319296
 32
0.0
 13
0.0052034515
 23
1.4973929621
 33
0.0
 40
0.0
 40
0.0
 40
0.0
 40
0.0
 40
0.4999188141
 40
1.0
 40
1.0
 40
1.0
 40
1.0
 10
6.4059715273
 20
12.2177564734
 30
0.0
 10
6.5339565492
 20
12.431960342
 30
0.0
 10
6.7303688932
 20
12.8988289318
 30
0.0
 10
6.7941454704
 20
13.4001670382
 30
0.0
 10
6.7950128531
 20
13.6497730543
 30
0.0
 11
6.4059715273
 21
12.2177564734
 31
0.0
 11
6.697188827
 21
12.9073677064
 31
0.0
 11
6.7950128531
 21
13.6497730543
 31
0.0
  0
SPLINE
  5
4B9
100
AcDbEntity
  8
0
100
AcDbSpline
 62
7
  6
CONTINUOUS
 70
0
 71
3
 72
13
 73
9
 74
7
 42
0.0000001
 43
0.0000001
 44
0.0000000001
 12
0.2158560386
 22
-1.7158369148
 32
0.0
 13
1.7293611964
 23
-0.0
 33
0.0
 40
0.0
 40
0.0
 40
0.0
 40
0.0
 40
0.2493484728
 40
0.4986713873
 40
0.6239390123
 40
0.7493035168
 40
0.8746494987
 40
1.0
 40
1.0
 40
1.0
 40
1.0
 10
1.0087928897
 20
4.5751011834
 30
0.0
 10
1.0267340142
 20
4.432487412
 30
0.0
 10
1.1150379641
 20
4.1514266786
 30
0.0
 10
1.3423586478
 20
3.8618686883
 30
0.0
 10
1.5767160077
 20
3.6918387581
 30
0.0
 10
1.772407257
 20
3.5960641162
 30
0.0
 10
1.9822051374
 20
3.5368785818
 30
0.0
 10
2.1271222154
 20
3.5242755048
 30
0.0
 10
2.1993809797
 20
3.5242755048
 30
0.0
 11
1.0087928897
 21
4.5751011834
 31
0.0
 11
1.1383893286
 21
4.1638227998
 31
0.0
 11
1.404884898
 21
3.8248727441
 31
0.0
 11
1.5799093196
 21
3.6972157996
 31
0.0
 11
1.7747611895
 21
3.6021620796
 31
0.0
 11
1.9834670387
 21
3.5435921109
 31
0.0
 11
2.1993809797
 21
3.5242755048
 31
0.0
  0
SPLINE
  5
4BA
100
AcDbEntity
  8
0
100
AcDbSpline
 62
7
  6
CONTINUOUS
 70
0
 71
3
 72
12
 73
8
 74
6
 42
0.0000001
 43
0.0000001
 44
0.0000000001
 12
-0.006503108
 22
-0.0715149492
 32
0.0
 13
0.0576409966
 23
-0.0428274898
 33
0.0
 40
0.0
 40
0.0
 40
0.0
 40
0.0
 40
0.2271774563
 40
0.4831931517
 40
0.6123745247
 40
0.7443698199
 40
1.0
 40
1.0
 40
1.0
 40
1.0
 10
6.699142297
 20
15.727237297
 30
0.0
 10
6.6986498438
 20
15.7218217689
 30
0.0
 10
6.7188915367
 20
15.7247873954
 30
0.0
 10
6.7302068901
 20
15.7265594126
 30
0.0
 10
6.7427779717
 20
15.7228684675
 30
0.0
 10
6.7528204951
 20
15.7156965699
 30
0.0
 10
6.7603447629
 20
15.7102475541
 30
0.0
 10
6.7652563556
 20
15.7065982212
 30
0.0
 11
6.699142297
 21
15.727237297
 31
0.0
 11
6.7151826565
 21
15.7242639223
 31
0.0
 11
6.733542285
 21
15.725219723
 31
0.0
 11
6.7423981187
 21
15.7224578456
 31
0.0
 11
6.7504171082
 21
15.7174041967
 31
0.0
 11
6.7652563556
 21
15.7065982212
 31
0.0
  0
SPLINE
  5
4BB
100
AcDbEntity
  8
0
100
AcDbSpline
 62
7
  6
CONTINUOUS
 70
0
 71
3
 72
9
 73
5
 74
3
 42
0.0000001
 43
0.0000001
 44
0.0000000001
 12
-0.0000115209
 22
0.0469887243
 32
0.0
 13
-0.0459341261
 23
-0.0098993136
 33
0.0
 40
0.0
 40
0.0
 40
0.0
 40
0.0
 40
0.4629826986
 40
1.0
 40
1.0
 40
1.0
 40
1.0
 10
6.8
 20
15.6760303633
 30
0.0
 10
6.799998222
 20
15.6832820188
 30
0.0
 10
6.7930477109
 20
15.6976832263
 30
0.0
 10
6.7778778018
 20
15.7100499472
 30
0.0
 10
6.7696553283
 20
15.708277913
 30
0.0
 11
6.8
 21
15.6760303633
 31
0.0
 11
6.7918004368
 21
15.6961809403
 31
0.0
 11
6.7696553283
 21
15.708277913
 31
0.0
  0
SPLINE
  5
4BC
100
AcDbEntity
  8
0
100
AcDbSpline
 62
7
  6
CONTINUOUS
 70
0
 71
3
 72
8
 73
4
 74
2
 42
0.0000001
 43
0.0000001
 44
0.0000000001
 12
-0.0039476242
 22
-0.0008507568
 32
0.0
 13
-0.0036430181
 23
-0.0017423959
 33
0.0
 40
0.0
 40
0.0
 40
0.0
 40
0.0
 40
1.0
 40
1.0
 40
1.0
 40
1.0
 10
6.7696553283
 20
15.708277913
 30
0.0
 10
6.7683394535
 20
15.7079943274
 30
0.0
 10
6.7670540788
 20
15.7075362875
 30
0.0
 10
6.7658397394
 20
15.7069554888
 30
0.0
 11
6.7696553283
 21
15.708277913
 31
0.0
 11
6.7658397394
 21
15.7069554888
 31
0.0
  0
SPLINE
  5
4BD
100
AcDbEntity
  8
0
100
AcDbSpline
 62
7
  6
CONTINUOUS
 70
0
 71
3
 72
11
 73
7
 74
5
 42
0.0000001
 43
0.0000001
 44
0.0000000001
 12
-1.6396063796
 22
-1.4847340332
 32
0.0
 13
-2.2119505611
 23
-0.0043525632
 33
0.0
 40
0.0
 40
0.0
 40
0.0
 40
0.0
 40
0.252678737
 40
0.5033127129
 40
0.751626585
 40
1.0
 40
1.0
 40
1.0
 40
1.0
 10
6.0209569321
 20
11.3999641371
 30
0.0
 10
5.8828590424
 20
11.2749105636
 30
0.0
 10
5.5836355179
 20
11.0511008888
 30
0.0
 10
5.083527649
 20
10.8054594142
 30
0.0
 10
4.5502264913
 20
10.6553507623
 30
0.0
 10
4.183130159
 20
10.6223681027
 30
0.0
 10
4.0000002541
 20
10.622007749
 30
0.0
 11
6.0209569321
 21
11.3999641371
 31
0.0
 11
5.5734312046
 21
11.0651424925
 31
0.0
 11
5.0759093237
 21
10.8205583558
 31
0.0
 11
4.5471067803
 21
10.6720544897
 31
0.0
 11
4.0000002541
 21
10.622007749
 31
0.0
  0
SPLINE
  5
4BE
100
AcDbEntity
  8
0
100
AcDbSpline
 62
7
  6
CONTINUOUS
 70
0
 71
3
 72
11
 73
7
 74
5
 42
0.0000001
 43
0.0000001
 44
0.0000000001
 12
-2.2120702382
 22
0.0043377112
 32
0.0
 13
-1.6389401155
 23
1.4856476205
 33
0.0
 40
0.0
 40
0.0
 40
0.0
 40
0.0
 40
0.2483739929
 40
0.4966905792
 40
0.7473272599
 40
1.0
 40
1.0
 40
1.0
 40
1.0
 10
-3.9999997459
 20
10.6220078881
 30
0.0
 10
-4.1831399851
 20
10.622367013
 30
0.0
 10
-4.5502525901
 20
10.6553645101
 30
0.0
 10
-5.0836128481
 20
10.8054443913
 30
0.0
 10
-5.5836457774
 20
11.0512538669
 30
0.0
 10
-5.8830471073
 20
11.2748708721
 30
0.0
 10
-6.021085604
 20
11.3999984238
 30
0.0
 11
-3.9999997459
 21
10.6220078881
 31
0.0
 11
-4.5471369583
 21
10.672059427
 31
0.0
 11
-5.0759729702
 21
10.8205762093
 31
0.0
 11
-5.5735041653
 21
11.0652229282
 31
0.0
 11
-6.021085604
 21
11.3999984238
 31
0.0
  0
SPLINE
  5
4BF
100
AcDbEntity
  8
0
100
AcDbSpline
 62
7
  6
CONTINUOUS
 70
0
 71
3
 72
9
 73
5
 74
3
 42
0.0000001
 43
0.0000001
 44
0.0000000001
 12
0.1309278149
 22
0.0381728485
 32
0.0
 13
0.1266243069
 23
0.0506511994
 33
0.0
 40
0.0
 40
0.0
 40
0.0
 40
0.0
 40
0.2195860846
 40
1.0
 40
1.0
 40
1.0
 40
1.0
 10
2.2818700576
 20
-7.9446615994
 30
0.0
 10
2.2914533663
 20
-7.9418675239
 30
0.0
 10
2.3348482849
 20
-7.9282929118
 30
0.0
 10
2.3773942311
 20
-7.912147494
 30
0.0
 10
2.4103340214
 20
-7.8989711937
 30
0.0
 11
2.2818700576
 21
-7.9446615994
 31
0.0
 11
2.310470271
 21
-7.9357819728
 31
0.0
 11
2.4103340214
 21
-7.8989711937
 31
0.0
  0
SPLINE
  5
4C0
100
AcDbEntity
  8
0
100
AcDbSpline
 62
7
  6
CONTINUOUS
 70
0
 71
3
 72
10
 73
6
 74
4
 42
0.0000001
 43
0.0000001
 44
0.0000000001
 12
0.8652882298
 22
0.3461253824
 32
0.0
 13
0.8550893139
 23
0.3706059447
 33
0.0
 40
0.0
 40
0.0
 40
0.0
 40
0.0
 40
0.1947189155
 40
0.4303402878
 40
1.0
 40
1.0
 40
1.0
 40
1.0
 10
2.4103340214
 20
-7.8989711937
 30
0.0
 10
2.4664966833
 20
-7.876505474
 30
0.0
 10
2.5890216695
 20
-7.8229056951
 30
0.0
 10
2.8705807349
 20
-7.6917033564
 30
0.0
 10
3.0974050281
 20
-7.586067479
 30
0.0
 10
3.2597750056
 20
-7.5156943871
 30
0.0
 11
2.4103340214
 21
-7.8989711937
 31
0.0
 11
2.5770978753
 21
-7.8274142554
 31
0.0
 11
2.776536926
 21
-7.7355315845
 31
0.0
 11
3.2597750056
 21
-7.5156943871
 31
0.0
  0
SPLINE
  5
4C1
100
AcDbEntity
  8
0
100
AcDbSpline
 62
7
  6
CONTINUOUS
 70
0
 71
3
 72
10
 73
6
 74
4
 42
0.0000001
 43
0.0000001
 44
0.0000000001
 12
0.9377306643
 22
-0.3959197501
 32
0.0
 13
0.9383821049
 23
-0.3943732657
 33
0.0
 40
0.0
 40
0.0
 40
0.0
 40
0.0
 40
0.5661150287
 40
0.8026697514
 40
1.0
 40
1.0
 40
1.0
 40
1.0
 10
7.036520523
 20
-7.4678394294
 30
0.0
 10
7.213474997
 20
-7.5425514696
 30
0.0
 10
7.4606359113
 20
-7.6571770104
 30
0.0
 10
7.7678594511
 20
-7.8011022833
 30
0.0
 10
7.9021095026
 20
-7.861593578
 30
0.0
 10
7.9638332273
 20
-7.8875341695
 30
0.0
 11
7.036520523
 21
-7.4678394294
 31
0.0
 11
7.5618357943
 21
-7.7046871423
 31
0.0
 11
7.7801926267
 21
-7.8061663497
 31
0.0
 11
7.9638332273
 21
-7.8875341695
 31
0.0
  0
SPLINE
  5
4C2
100
AcDbEntity
  8
0
100
AcDbSpline
 62
7
  6
CONTINUOUS
 70
0
 71
3
 72
9
 73
5
 74
3
 42
0.0000001
 43
0.0000001
 44
0.0000000001
 12
0.1344282659
 22
-0.056496084
 32
0.0
 13
0.138345954
 23
-0.0460777951
 33
0.0
 40
0.0
 40
0.0
 40
0.0
 40
0.0
 40
0.2755933106
 40
1.0
 40
1.0
 40
1.0
 40
1.0
 10
7.9638332273
 20
-7.8875341695
 30
0.0
 10
7.9761824042
 20
-7.8927241505
 30
0.0
 10
8.0210998853
 20
-7.9112858868
 30
0.0
 10
8.0665209031
 20
-7.9287177381
 30
0.0
 10
8.0999271479
 20
-7.9398440924
 30
0.0
 11
7.9638332273
 21
-7.8875341695
 31
0.0
 11
8.0009785633
 21
-7.9028693146
 31
0.0
 11
8.0999271479
 21
-7.9398440924
 31
0.0
  0
SPLINE
  5
4C3
100
AcDbEntity
  8
0
100
AcDbSpline
 62
7
  6
CONTINUOUS
 70
0
 71
3
 72
10
 73
6
 74
4
 42
0.0000001
 43
0.0000001
 44
0.0000000001
 12
0.9527183169
 22
-0.3790113601
 32
0.0
 13
0.940969054
 23
-0.407307061
 33
0.0
 40
0.0
 40
0.0
 40
0.0
 40
0.0
 40
0.2867560745
 40
0.6749811261
 40
1.0
 40
1.0
 40
1.0
 40
1.0
 10
7.0279590307
 20
-7.4630490501
 30
0.0
 10
7.1190249522
 20
-7.4992769867
 30
0.0
 10
7.3317120476
 20
-7.588732277
 30
0.0
 10
7.6439419228
 20
-7.7277471937
 30
0.0
 10
7.8662578373
 20
-7.827775192
 30
0.0
 10
7.9682020714
 20
-7.8719026861
 30
0.0
 11
7.0279590307
 21
-7.4630490501
 31
0.0
 11
7.2993893427
 21
-7.5760745995
 31
0.0
 11
7.6635641526
 21
-7.736793464
 31
0.0
 11
7.9682020714
 21
-7.8719026861
 31
0.0
  0
SPLINE
  5
4C4
100
AcDbEntity
  8
0
100
AcDbSpline
 62
7
  6
CONTINUOUS
 70
0
 71
3
 72
9
 73
5
 74
3
 42
0.0000001
 43
0.0000001
 44
0.0000000001
 12
0.2471928536
 22
-0.1069996875
 32
0.0
 13
0.2558523043
 23
-0.0842189904
 33
0.0
 40
0.0
 40
0.0
 40
0.0
 40
0.0
 40
0.286280707
 40
1.0
 40
1.0
 40
1.0
 40
1.0
 10
7.9682020714
 20
-7.8719026861
 30
0.0
 10
7.9917909197
 20
-7.8821133348
 30
0.0
 10
8.0743034443
 20
-7.9174723811
 30
0.0
 10
8.1579021669
 20
-7.9505852736
 30
0.0
 10
8.2187710755
 20
-7.970621513
 30
0.0
 11
7.9682020714
 21
-7.8719026861
 31
0.0
 11
8.0391234286
 21
-7.9021744731
 31
0.0
 11
8.2187710755
 21
-7.970621513
 31
0.0
  0
SPLINE
  5
4C5
100
AcDbEntity
  8
0
100
AcDbSpline
 62
7
  6
CONTINUOUS
 70
0
 71
3
 72
9
 73
5
 74
3
 42
0.0000001
 43
0.0000001
 44
0.0000000001
 12
0.1363909007
 22
0.0360215309
 32
0.0
 13
0.1319954525
 23
0.0497717691
 33
0.0
 40
0.0
 40
0.0
 40
0.0
 40
0.0
 40
0.2136923946
 40
1.0
 40
1.0
 40
1.0
 40
1.0
 10
2.120152743
 20
-7.9875833861
 30
0.0
 10
2.1298679757
 20
-7.9850175437
 30
0.0
 10
2.1750676431
 20
-7.9720122375
 30
0.0
 10
2.2193941337
 20
-7.9561618661
 30
0.0
 10
2.2539904764
 20
-7.9431165592
 30
0.0
 11
2.120152743
 21
-7.9875833861
 31
0.0
 11
2.1491457529
 21
-7.9793293554
 31
0.0
 11
2.2539904764
 21
-7.9431165592
 31
0.0
  0
SPLINE
  5
4C6
100
AcDbEntity
  8
0
100
AcDbSpline
 62
7
  6
CONTINUOUS
 70
0
 71
3
 72
9
 73
5
 74
3
 42
0.0000001
 43
0.0000001
 44
0.0000000001
 12
0.9147854879
 22
0.3843944075
 32
0.0
 13
0.9204091416
 23
0.3707270715
 33
0.0
 40
0.0
 40
0.0
 40
0.0
 40
0.0
 40
0.4439345283
 40
1.0
 40
1.0
 40
1.0
 40
1.0
 10
2.3853182181
 20
-7.8904422906
 30
0.0
 10
2.5206865061
 20
-7.8335603073
 30
0.0
 10
2.8212166032
 20
-7.6953103855
 30
0.0
 10
3.1244509316
 20
-7.5630008302
 30
0.0
 10
3.2950535127
 20
-7.4942846555
 30
0.0
 11
2.3853182181
 21
-7.8904422906
 31
0.0
 11
2.788050824
 21
-7.7119831944
 31
0.0
 11
3.2950535127
 21
-7.4942846555
 31
0.0
  0
SPLINE
  5
4C7
100
AcDbEntity
  8
0
100
AcDbSpline
 62
7
  6
CONTINUOUS
 70
0
 71
3
 72
11
 73
7
 74
5
 42
0.0000001
 43
0.0000001
 44
0.0000000001
 12
1.6481126964
 22
-1.4969045148
 32
0.0
 13
2.2264314629
 23
-0.0012360022
 33
0.0
 40
0.0
 40
0.0
 40
0.0
 40
0.0
 40
0.2515803942
 40
0.5017505639
 40
0.7500398365
 40
1.0
 40
1.0
 40
1.0
 40
1.0
 10
-6.0322564937
 20
11.3999625794
 30
0.0
 10
-5.8940455464
 20
11.27443197
 30
0.0
 10
-5.5949762427
 20
11.0483930403
 30
0.0
 10
-5.0933971358
 20
10.799981606
 30
0.0
 10
-4.556237311
 20
10.6471898562
 30
0.0
 10
-4.1855063907
 20
10.6135347269
 30
0.0
 10
-3.9999999999
 20
10.6134317431
 30
0.0
 11
-6.0322564937
 21
11.3999625794
 31
0.0
 11
-5.5849669345
 21
11.0628070535
 31
0.0
 11
-5.0859884122
 21
10.8153100736
 31
0.0
 11
-4.5541773714
 21
10.6644329749
 31
0.0
 11
-3.9999999999
 21
10.6134317431
 31
0.0
  0
SPLINE
  5
4C8
100
AcDbEntity
  8
0
100
AcDbSpline
 62
7
  6
CONTINUOUS
 70
0
 71
3
 72
11
 73
7
 74
5
 42
0.0000001
 43
0.0000001
 44
0.0000000001
 12
-0.0088467216
 22
-3.311794022
 32
0.0
 13
-0.1433903636
 23
-3.3087002149
 33
0.0
 40
0.0
 40
0.0
 40
0.0
 40
0.0
 40
0.3232171587
 40
0.6105473103
 40
0.841603564
 40
1.0
 40
1.0
 40
1.0
 40
1.0
 10
9.2258088287
 20
-4.4256559757
 30
0.0
 10
9.2248556913
 20
-4.782465527
 30
0.0
 10
9.2216999464
 20
-5.4564632243
 30
0.0
 10
9.2129719205
 20
-6.3855104723
 30
0.0
 10
9.2007213053
 20
-7.1325234038
 30
0.0
 10
9.1899009383
 20
-7.5623584982
 30
0.0
 10
9.1823300974
 20
-7.7370539388
 30
0.0
 11
9.2258088287
 21
-4.4256559757
 31
0.0
 11
9.2206243555
 21
-5.4960758935
 31
0.0
 11
9.2111571485
 21
-6.4476104718
 31
0.0
 11
9.1980788057
 21
-7.2127121517
 31
0.0
 11
9.1823300974
 21
-7.7370539388
 31
0.0
  0
SPLINE
  5
4C9
100
AcDbEntity
  8
0
100
AcDbSpline
 62
7
  6
CONTINUOUS
 70
0
 71
3
 72
9
 73
5
 74
3
 42
0.0000001
 43
0.0000001
 44
0.0000000001
 12
-0.0067844825
 22
-2.7308491807
 32
0.0
 13
-0.070319752
 23
-2.7299520892
 33
0.0
 40
0.0
 40
0.0
 40
0.0
 40
0.0
 40
0.5693727521
 40
1.0
 40
1.0
 40
1.0
 40
1.0
 10
8.9753360696
 20
-4.3896683796
 30
0.0
 10
8.9740484364
 20
-4.9079587508
 30
0.0
 10
8.9676419913
 20
-5.8182192953
 30
0.0
 10
8.9555063416
 20
-6.7284656102
 30
0.0
 10
8.9454124745
 20
-7.1203295286
 30
0.0
 11
8.9753360696
 21
-4.3896683796
 31
0.0
 11
8.9648958018
 21
-5.9445092405
 31
0.0
 11
8.9454124745
 21
-7.1203295286
 31
0.0
  0
SPLINE
  5
4CA
100
AcDbEntity
  8
0
100
AcDbSpline
 62
7
  6
CONTINUOUS
 70
0
 71
3
 72
9
 73
5
 74
3
 42
0.0000001
 43
0.0000001
 44
0.0000000001
 12
-0.011377018
 22
-0.4416783785
 32
0.0
 13
-0.0228585585
 23
-0.4412331729
 33
0.0
 40
0.0
 40
0.0
 40
0.0
 40
0.0
 40
0.3015269344
 40
1.0
 40
1.0
 40
1.0
 40
1.0
 10
8.9454124745
 20
-7.1203295286
 30
0.0
 10
8.9442689821
 20
-7.1647221711
 30
0.0
 10
8.9403989906
 20
-7.3119449736
 30
0.0
 10
8.9348456684
 20
-7.4591315434
 30
0.0
 10
8.9295236392
 20
-7.5618613723
 30
0.0
 11
8.9454124745
 21
-7.1203295286
 31
0.0
 11
8.9417821229
 21
-7.2535021575
 31
0.0
 11
8.9295236392
 21
-7.5618613723
 31
0.0
  0
SPLINE
  5
4CB
100
AcDbEntity
  8
0
100
AcDbSpline
 62
7
  6
CONTINUOUS
 70
0
 71
3
 72
11
 73
7
 74
5
 42
0.0000001
 43
0.0000001
 44
0.0000000001
 12
2.226328421
 22
0.0028598649
 32
0.0
 13
1.647900059
 23
1.4969875793
 33
0.0
 40
0.0
 40
0.0
 40
0.0
 40
0.0
 40
0.2498097281
 40
0.4983809978
 40
0.7498222008
 40
1.0
 40
1.0
 40
1.0
 40
1.0
 10
3.9999999969
 20
10.6134329769
 30
0.0
 10
4.1853861627
 20
10.6136711176
 30
0.0
 10
4.5562515474
 20
10.6462495909
 30
0.0
 10
5.094464174
 20
10.7998947494
 30
0.0
 10
5.594985047
 20
11.050338597
 30
0.0
 10
5.8947160845
 20
11.2751823164
 30
0.0
 10
6.0321387546
 20
11.4000200024
 30
0.0
 11
3.9999999969
 21
10.6134329769
 31
0.0
 11
4.5538732991
 21
10.6638031052
 31
0.0
 11
5.0861520222
 21
10.8152390513
 31
0.0
 11
5.5870476426
 21
11.0651784804
 31
0.0
 11
6.0321387546
 21
11.4000200024
 31
0.0
  0
SPLINE
  5
4CC
100
AcDbEntity
  8
0
100
AcDbSpline
 62
7
  6
CONTINUOUS
 70
0
 71
3
 72
10
 73
6
 74
4
 42
0.0000001
 43
0.0000001
 44
0.0000000001
 12
0.0030896316
 22
-0.5085910714
 32
0.0
 13
0.0007585523
 23
-0.5085998902
 33
0.0
 40
0.0
 40
0.0
 40
0.0
 40
0.0
 40
0.2480381685
 40
0.6230586884
 40
1.0
 40
1.0
 40
1.0
 40
1.0
 10
-6.7999987536
 20
14.6989202242
 30
0.0
 10
-6.7997433048
 20
14.6568702249
 30
0.0
 10
-6.7984891415
 20
14.5512474452
 30
0.0
 10
-6.797049345
 20
14.3817214738
 30
0.0
 10
-6.7950872992
 20
14.2542485506
 30
0.0
 10
-6.7949919893
 20
14.1903444474
 30
0.0
 11
-6.7999987536
 21
14.6989202242
 31
0.0
 11
-6.7988013375
 21
14.5727735816
 31
0.0
 11
-6.7968333888
 21
14.3820481267
 31
0.0
 11
-6.7949919893
 21
14.1903444474
 31
0.0
  0
SPLINE
  5
4CD
100
AcDbEntity
  8
0
100
AcDbSpline
 62
7
  6
CONTINUOUS
 70
0
 71
3
 72
13
 73
9
 74
7
 42
0.0000001
 43
0.0000001
 44
0.0000000001
 12
-0.0001338061
 22
-0.3685462309
 32
0.0
 13
0.3455165771
 23
0.1282366452
 33
0.0
 40
0.0
 40
0.0
 40
0.0
 40
0.0
 40
0.154569029
 40
0.3008895114
 40
0.4338694183
 40
0.5549128508
 40
0.7777073329
 40
1.0
 40
1.0
 40
1.0
 40
1.0
 10
8.9293208272
 20
-7.5618952039
 30
0.0
 10
8.9293139331
 20
-7.580883815
 30
0.0
 10
8.9342527027
 20
-7.6179064212
 30
0.0
 10
8.9527807
 20
-7.6684969603
 30
0.0
 10
8.9830770719
 20
-7.7082423995
 30
0.0
 10
9.0311741516
 20
-7.7429919236
 30
0.0
 10
9.1020705322
 20
-7.7585167501
 30
0.0
 10
9.1567342113
 20
-7.7466354339
 30
0.0
 10
9.1823361452
 20
-7.737133412
 30
0.0
 11
8.9293208272
 21
-7.5618952039
 31
0.0
 11
8.9364756182
 21
-7.6184099412
 31
0.0
 11
8.9558778397
 21
-7.6687244799
 31
0.0
 11
8.985734314
 21
-7.7075895955
 31
0.0
 11
9.0219483913
 21
-7.7336395851
 31
0.0
 11
9.1018641521
 21
-7.7524952238
 31
0.0
 11
9.1823361452
 21
-7.737133412
 31
0.0
  0
SPLINE
  5
4CE
100
AcDbEntity
  8
0
100
AcDbSpline
 62
7
  6
CONTINUOUS
 70
0
 71
3
 72
10
 73
6
 74
4
 42
0.0000001
 43
0.0000001
 44
0.0000000001
 12
-0.0044922825
 22
-0.03069365
 32
0.0
 13
-0.0310206504
 23
-0.0000000083
 33
0.0
 40
0.0
 40
0.0
 40
0.0
 40
0.0
 40
0.718062308
 40
0.9084348391
 40
1.0
 40
1.0
 40
1.0
 40
1.0
 10
8.219523336
 20
-7.9708077052
 30
0.0
 10
8.2184480897
 20
-7.9781543563
 30
0.0
 10
8.2167440167
 20
-7.9877811717
 30
0.0
 10
8.2139195036
 20
-7.9971252888
 30
0.0
 10
8.2118399205
 20
-8.0000000459
 30
0.0
 10
8.2108931169
 20
-8.0000000462
 30
0.0
 11
8.219523336
 21
-7.9708077052
 31
0.0
 11
8.2152157028
 21
-7.9926619776
 31
0.0
 11
8.2130553448
 21
-7.9981581167
 31
0.0
 11
8.2108931169
 21
-8.0000000462
 31
0.0
  0
SPLINE
  5
4CF
100
AcDbEntity
  8
0
100
AcDbSpline
 62
7
  6
CONTINUOUS
 70
0
 71
3
 72
11
 73
7
 74
5
 42
0.0000001
 43
0.0000001
 44
0.0000000001
 12
2.7203391273
 22
0.0
 32
0.0
 13
0.0001308175
 23
2.7203391241
 33
0.0
 40
0.0
 40
0.0
 40
0.0
 40
0.0
 40
0.2509403869
 40
0.5012612214
 40
0.7508269404
 40
1.0
 40
1.0
 40
1.0
 40
1.0
 10
6.0
 20
-3.5840259189
 30
0.0
 10
6.227547651
 20
-3.5840259189
 30
0.0
 10
6.6870034835
 20
-3.4940850019
 30
0.0
 10
7.2687373974
 20
-3.1085750402
 30
0.0
 10
7.6588034508
 20
-2.5315434513
 30
0.0
 10
7.749986496
 20
-2.0742665562
 30
0.0
 10
7.7499973614
 20
-1.848321482
 30
0.0
 11
6.0
 21
-3.5840259189
 31
0.0
 11
6.6697566145
 21
-3.4520127427
 31
0.0
 11
7.2374774256
 21
-3.0759857758
 31
0.0
 11
7.6168088845
 21
-2.5129427425
 31
0.0
 11
7.7499973614
 21
-1.848321482
 31
0.0
  0
SPLINE
  5
4D0
100
AcDbEntity
  8
0
100
AcDbSpline
 62
7
  6
CONTINUOUS
 70
0
 71
3
 72
11
 73
7
 74
5
 42
0.0000001
 43
0.0000001
 44
0.0000000001
 12
2.7203398661
 22
-0.0
 32
0.0
 13
0.000129813
 23
2.720339863
 33
0.0
 40
0.0
 40
0.0
 40
0.0
 40
0.0
 40
0.2509403727
 40
0.5012611976
 40
0.7508269388
 40
1.0
 40
1.0
 40
1.0
 40
1.0
 10
-6.0
 20
-3.5840259189
 30
0.0
 10
-5.7724523
 20
-3.5840259189
 30
0.0
 10
-5.3129963686
 20
-3.4940849346
 30
0.0
 10
-4.7312623304
 20
-3.1085748252
 30
0.0
 10
-4.341196269
 20
-2.5315429555
 30
0.0
 10
-4.2500134564
 20
-2.0742658606
 30
0.0
 10
-4.2500026744
 20
-1.8483207235
 30
0.0
 11
-6.0
 21
-3.5840259189
 31
0.0
 11
-5.3302432497
 21
-3.452012672
 31
0.0
 11
-4.7625223443
 21
-3.0759855599
 31
0.0
 11
-4.3831908895
 21
-2.5129422287
 31
0.0
 11
-4.2500026744
 21
-1.8483207235
 31
0.0
  0
SPLINE
  5
4D1
100
AcDbEntity
  8
0
100
AcDbSpline
 62
253
  6
CONTINUOUS
 70
0
 71
3
 72
9
 73
5
 74
3
 42
0.0000001
 43
0.0000001
 44
0.0000000001
 12
0.0341365487
 22
-1.9521351454
 32
0.0
 13
0.000075006
 23
-1.9524335902
 33
0.0
 40
0.0
 40
0.0
 40
0.0
 40
0.0
 40
0.4585102049
 40
1.0
 40
1.0
 40
1.0
 40
1.0
 10
-9.7705832361
 20
16.1309532285
 30
0.0
 10
-9.7653659175
 20
15.8325952667
 30
0.0
 10
-9.7585430857
 20
15.1818064222
 30
0.0
 10
-9.7564389724
 20
14.5309950172
 30
0.0
 10
-9.756425434
 20
14.1785873956
 30
0.0
 11
-9.7705832361
 21
16.1309532285
 31
0.0
 11
-9.7601012653
 21
15.2358038709
 31
0.0
 11
-9.756425434
 21
14.1785873956
 31
0.0
  0
SPLINE
  5
4D2
100
AcDbEntity
  8
0
100
AcDbSpline
 62
7
  6
CONTINUOUS
 70
0
 71
3
 72
23
 73
19
 74
17
 42
0.0000001
 43
0.0000001
 44
0.0000000001
 12
-0.0086265287
 22
-3.3629297605
 32
0.0
 13
-3.3628739488
 23
-0.0212083893
 33
0.0
 40
0.0
 40
0.0
 40
0.0
 40
0.0
 40
0.2023471132
 40
0.3929302743
 40
0.5657076909
 40
0.6436784269
 40
0.7152000577
 40
0.7796988243
 40
0.8366686378
 40
0.8856461267
 40
0.9262696364
 40
0.9582131861
 40
0.9708398508
 40
0.9811912686
 40
0.9892444742
 40
0.9950151863
 40
0.9985446947
 40
1.0
 40
1.0
 40
1.0
 40
1.0
 10
-9.7763552252
 20
-4.3904563477
 30
0.0
 10
-9.7769370763
 20
-4.617282724
 30
0.0
 10
-9.7787279036
 20
-5.0577471042
 30
0.0
 10
-9.7834841357
 20
-5.6918776653
 30
0.0
 10
-9.7891367324
 20
-6.1865709294
 30
0.0
 10
-9.7946742925
 20
-6.5477870656
 30
0.0
 10
-9.7990661932
 20
-6.7876268989
 30
0.0
 10
-9.8038021886
 20
-7.0039145528
 30
0.0
 10
-9.8088368492
 20
-7.1949134701
 30
0.0
 10
-9.8141225977
 20
-7.3591392504
 30
0.0
 10
-9.8196015366
 20
-7.4952615186
 30
0.0
 10
-9.8245612005
 20
-7.590679497
 30
0.0
 10
-9.8287699636
 20
-7.6520395902
 30
0.0
 10
-9.8317207154
 20
-7.6868359859
 30
0.0
 10
-9.8345545335
 20
-7.7134423506
 30
0.0
 10
-9.8375747046
 20
-7.7334700287
 30
0.0
 10
-9.8399342765
 20
-7.7438290261
 30
0.0
 10
-9.8425975825
 20
-7.7506591083
 30
0.0
 10
-9.8442289186
 20
-7.7506693966
 30
0.0
 11
-9.7763552252
 21
-4.3904563477
 31
0.0
 11
-9.7791826948
 21
-5.0709318412
 31
0.0
 11
-9.7840737158
 21
-5.7118330715
 31
0.0
 11
-9.7908718663
 21
-6.292833529
 31
0.0
 11
-9.7949209666
 21
-6.5550132349
 31
0.0
 11
-9.7993613715
 21
-6.7954952555
 31
0.0
 11
-9.8041581248
 21
-7.0123477454
 31
0.0
 11
-9.809272801
 21
-7.2038655729
 31
0.0
 11
-9.8146652106
 21
-7.3684856748
 31
0.0
 11
-9.8202915994
 21
-7.5049842248
 31
0.0
 11
-9.8261073706
 21
-7.6122509486
 31
0.0
 11
-9.8290723869
 21
-7.6546100304
 31
0.0
 11
-9.8320680914
 21
-7.6892920976
 31
0.0
 11
-9.8350886514
 21
-7.7162055799
 31
0.0
 11
-9.8381271214
 21
-7.7353728017
 31
0.0
 11
-9.8411762832
 21
-7.7468439962
 31
0.0
 11
-9.8442289186
 21
-7.7506693966
 31
0.0
  0
SPLINE
  5
4D3
100
AcDbEntity
  8
0
100
AcDbSpline
 62
253
  6
CONTINUOUS
 70
0
 71
3
 72
19
 73
15
 74
13
 42
0.0000001
 43
0.0000001
 44
0.0000000001
 12
-0.0000835751
 22
-1.5008795155
 32
0.0
 13
-0.757650299
 23
-1.2956100306
 33
0.0
 40
0.0
 40
0.0
 40
0.0
 40
0.0
 40
0.1938090662
 40
0.3777538367
 40
0.5476832467
 40
0.6976928204
 40
0.7632926886
 40
0.8218199586
 40
0.8727689586
 40
0.9156346468
 40
0.949970648
 40
0.9755638803
 40
0.9922691579
 40
1.0
 40
1.0
 40
1.0
 40
1.0
 10
-9.9351115593
 20
-14.9158296882
 30
0.0
 10
-9.9351169585
 20
-15.0127910407
 30
0.0
 10
-9.9354301509
 20
-15.2017788206
 30
0.0
 10
-9.9368280189
 20
-15.4757781803
 30
0.0
 10
-9.9390948393
 20
-15.7278578245
 30
0.0
 10
-9.9417025392
 20
-15.9207247918
 30
0.0
 10
-9.9442480517
 20
-16.0578484193
 30
0.0
 10
-9.9462122908
 20
-16.1454203755
 30
0.0
 10
-9.9483297562
 20
-16.2215940044
 30
0.0
 10
-9.9504596806
 20
-16.2857092331
 30
0.0
 10
-9.9528917
 20
-16.3369832999
 30
0.0
 10
-9.9547759168
 20
-16.3755095108
 30
0.0
 10
-9.9577925369
 20
-16.3999469367
 30
0.0
 10
-9.9586564194
 20
-16.4126827484
 30
0.0
 10
-9.9606088443
 20
-16.4160214673
 30
0.0
 11
-9.9351115593
 21
-14.9158296882
 31
0.0
 11
-9.9356096795
 21
-15.2067133195
 31
0.0
 11
-9.9370498927
 21
-15.4827885014
 31
0.0
 11
-9.939388887
 21
-15.7378213468
 31
0.0
 11
-9.9425366626
 21
-15.9629456378
 31
0.0
 11
-9.9443807667
 21
-16.0613858648
 31
0.0
 11
-9.946381172
 21
-16.1492054654
 31
0.0
 11
-9.9485173993
 21
-16.2256439311
 31
0.0
 11
-9.9507689699
 21
-16.2899407535
 31
0.0
 11
-9.9531168029
 21
-16.3414214445
 31
0.0
 11
-9.9555474319
 21
-16.3797568238
 31
0.0
 11
-9.9580487984
 21
-16.4047043464
 31
0.0
 11
-9.9606088443
 21
-16.4160214673
 31
0.0
  0
SPLINE
  5
4D4
100
AcDbEntity
  8
0
100
AcDbSpline
 62
253
  6
CONTINUOUS
 70
0
 71
3
 72
11
 73
7
 74
5
 42
0.0000001
 43
0.0000001
 44
0.0000000001
 12
-1.5597794558
 22
0.0007124507
 32
0.0
 13
-0.0008137071
 23
1.5597794063
 33
0.0
 40
0.0
 40
0.0
 40
0.0
 40
0.0
 40
0.2527902466
 40
0.5006320807
 40
0.7478066521
 40
1.0
 40
1.0
 40
1.0
 40
1.0
 10
-8.9607611486
 20
-17.4156773037
 30
0.0
 10
-9.092193493
 20
-17.4156172702
 30
0.0
 10
-9.3550995793
 20
-17.3618561412
 30
0.0
 10
-9.6861652051
 20
-17.1404053307
 30
0.0
 10
-9.9076482474
 20
-16.8095812406
 30
0.0
 10
-9.9605404084
 20
-16.5472064044
 30
0.0
 10
-9.9606088122
 20
-16.4160844076
 30
0.0
 11
-8.9607611486
 21
-17.4156773037
 31
0.0
 11
-9.347176145
 21
-17.3372322054
 31
0.0
 11
-9.6683062887
 21
-17.1220149273
 31
0.0
 11
-9.8828544335
 21
-16.8016892587
 31
0.0
 11
-9.9606088122
 21
-16.4160844076
 31
0.0
  0
SPLINE
  5
4D5
100
AcDbEntity
  8
0
100
AcDbSpline
 62
7
  6
CONTINUOUS
 70
0
 71
3
 72
15
 73
11
 74
9
 42
0.0000001
 43
0.0000001
 44
0.0000000001
 12
7.7066842736
 22
3.9668806395
 32
0.0
 13
-8.6677058384
 23
-0.0000000004
 33
0.0
 40
0.0
 40
0.0
 40
0.0
 40
0.0
 40
0.125044046
 40
0.2497757576
 40
0.3743739549
 40
0.4990563178
 40
0.6239684224
 40
0.7491422971
 40
0.8745192319
 40
1.0
 40
1.0
 40
1.0
 40
1.0
 10
1.4959195733
 20
-4.3896881644
 30
0.0
 10
1.8171445676
 20
-4.2243432293
 30
0.0
 10
2.4080975486
 20
-3.783056507
 30
0.0
 10
3.0255731861
 20
-2.8715926834
 30
0.0
 10
3.3123645035
 20
-1.8087424567
 30
0.0
 10
3.2361778547
 20
-0.7101548682
 30
0.0
 10
2.8046023173
 20
0.3049004575
 30
0.0
 10
2.0627592758
 20
1.1242612638
 30
0.0
 10
1.0931184373
 20
1.6562399041
 30
0.0
 10
0.3625434619
 20
1.7790471373
 30
0.0
 10
-0.0000000001
 20
1.7790471373
 30
0.0
 11
1.4959195733
 21
-4.3896881644
 31
0.0
 11
2.3639785274
 21
-3.7406938247
 31
0.0
 11
2.9707223972
 21
-2.8458637923
 31
0.0
 11
3.251865377
 21
-1.8031190721
 31
0.0
 11
3.1771810368
 21
-0.7249927109
 31
0.0
 11
2.7534795222
 21
0.2713602897
 31
0.0
 11
2.0254632567
 21
1.075818444
 31
0.0
 11
1.0724761477
 21
1.5981196126
 31
0.0
 11
-0.0000000001
 21
1.7790471373
 31
0.0
  0
SPLINE
  5
4D6
100
AcDbEntity
  8
0
100
AcDbSpline
 62
7
  6
CONTINUOUS
 70
0
 71
3
 72
11
 73
7
 74
5
 42
0.0000001
 43
0.0000001
 44
0.0000000001
 12
0.0145327109
 22
-0.3814102949
 32
0.0
 13
0.3814049544
 23
0.0146722027
 33
0.0
 40
0.0
 40
0.0
 40
0.0
 40
0.0
 40
0.213330637
 40
0.441190797
 40
0.6971844713
 40
1.0
 40
1.0
 40
1.0
 40
1.0
 10
-9.9351102326
 20
-7.9318567533
 30
0.0
 10
-9.9340768085
 20
-7.9589789204
 30
0.0
 10
-9.9211909185
 20
-8.0151617463
 30
0.0
 10
-9.8700099611
 20
-8.0900470875
 30
0.0
 10
-9.7849920976
 20
-8.1473314936
 30
0.0
 10
-9.7122612696
 20
-8.1603637625
 30
0.0
 10
-9.673762822
 20
-8.1588827723
 30
0.0
 11
-9.9351102326
 21
-7.9318567533
 31
0.0
 11
-9.9170555422
 21
-8.0112554142
 31
0.0
 11
-9.868355812
 21
-8.0833133002
 31
0.0
 11
-9.7874629089
 21
-8.138117309
 31
0.0
 11
-9.673762822
 21
-8.1588827723
 31
0.0
  0
SPLINE
  5
4D7
100
AcDbEntity
  8
0
100
AcDbSpline
 62
7
  6
CONTINUOUS
 70
0
 71
3
 72
13
 73
9
 74
7
 42
0.0000001
 43
0.0000001
 44
0.0000000001
 12
0.034136802
 22
-0.2557753863
 32
0.0
 13
0.2580430537
 23
-0.0003897465
 33
0.0
 40
0.0
 40
0.0
 40
0.0
 40
0.0
 40
0.0347598825
 40
0.0980530342
 40
0.19247376
 40
0.315816571
 40
0.6313727649
 40
1.0
 40
1.0
 40
1.0
 40
1.0
 10
-9.7778871992
 20
-4.3897096431
 30
0.0
 10
-9.7774916687
 20
-4.3926732172
 30
0.0
 10
-9.770119085
 20
-4.3989116878
 30
0.0
 10
-9.75505123
 20
-4.4044551709
 30
0.0
 10
-9.7313386486
 20
-4.4104811868
 30
0.0
 10
-9.6861603869
 20
-4.4178413484
 30
0.0
 10
-9.6168069224
 20
-4.4239235688
 30
0.0
 10
-9.5579781215
 20
-4.4255696085
 30
0.0
 10
-9.526270889
 20
-4.4256174989
 30
0.0
 11
-9.7778871992
 21
-4.3897096431
 31
0.0
 11
-9.7722263507
 21
-4.3966672101
 31
0.0
 11
-9.7573335188
 21
-4.4033716929
 31
0.0
 11
-9.7337647853
 21
-4.4095483014
 31
0.0
 11
-9.7024024115
 21
-4.4149713861
 31
0.0
 11
-9.6213502982
 21
-4.4227777963
 31
0.0
 11
-9.526270889
 21
-4.4256174989
 31
0.0
  0
SPLINE
  5
4D8
100
AcDbEntity
  8
0
100
AcDbSpline
 62
7
  6
CONTINUOUS
 70
0
 71
3
 72
15
 73
11
 74
9
 42
0.0000001
 43
0.0000001
 44
0.0000000001
 12
8.7527808827
 22
0.0000000004
 32
0.0
 13
-7.8579159547
 23
-3.8554286442
 33
0.0
 40
0.0
 40
0.0
 40
0.0
 40
0.0
 40
0.1254741865
 40
0.2508436211
 40
0.3760103017
 40
0.5009145848
 40
0.6255899168
 40
0.75018963
 40
0.8749359832
 40
1.0
 40
1.0
 40
1.0
 40
1.0
 10
-0.0000000002
 20
1.7876862815
 30
0.0
 10
0.3660826868
 20
1.7876862815
 30
0.0
 10
1.1038699304
 20
1.6627658699
 30
0.0
 10
2.0812837164
 20
1.1219337648
 30
0.0
 10
2.8256001944
 20
0.2898906197
 30
0.0
 10
3.2528964206
 20
-0.7389561544
 30
0.0
 10
3.3179064835
 20
-1.8493451568
 30
0.0
 10
3.0141100994
 20
-2.919035449
 30
0.0
 10
2.3760998571
 20
-3.8299579287
 30
0.0
 10
1.7711344876
 20
-4.2649452715
 30
0.0
 10
1.4435536434
 20
-4.4256704023
 30
0.0
 11
-0.0000000002
 21
1.7876862815
 31
0.0
 11
1.0827261429
 21
1.6036946996
 31
0.0
 11
2.043108145
 21
1.0728442962
 31
0.0
 11
2.7733519145
 21
0.2561508736
 31
0.0
 11
3.1927428846
 21
-0.7534670002
 31
0.0
 11
3.2564370526
 21
-1.8428624337
 31
0.0
 11
2.9587029955
 21
-2.892028615
 31
0.0
 11
2.3319355371
 21
-3.7860974155
 31
0.0
 11
1.4435536434
 21
-4.4256704023
 31
0.0
  0
SPLINE
  5
4D9
100
AcDbEntity
  8
0
100
AcDbSpline
 62
7
  6
CONTINUOUS
 70
0
 71
3
 72
15
 73
11
 74
9
 42
0.0000001
 43
0.0000001
 44
0.0000000001
 12
-7.8578992025
 22
3.8554204384
 32
0.0
 13
8.7527622288
 23
0.0000000004
 33
0.0
 40
0.0
 40
0.0
 40
0.0
 40
0.0
 40
0.1250606746
 40
0.249803253
 40
0.37440269
 40
0.4990795297
 40
0.6239841754
 40
0.7491515455
 40
0.8745234361
 40
1.0
 40
1.0
 40
1.0
 40
1.0
 10
-1.4435694249
 20
-4.4256607049
 30
0.0
 10
-1.7711408167
 20
-4.2649402113
 30
0.0
 10
-2.3760863855
 20
-3.82996545
 30
0.0
 10
-3.0140920142
 20
-2.9190710362
 30
0.0
 10
-3.3178990592
 20
-1.8493942664
 30
0.0
 10
-3.2529082316
 20
-0.7390017711
 30
0.0
 10
-2.8256236733
 20
0.2898561476
 30
0.0
 10
-2.0813103144
 20
1.1219128548
 30
0.0
 10
-1.1038890653
 20
1.6627616258
 30
0.0
 10
-0.3660888431
 20
1.7876862815
 30
0.0
 10
-0.0000000002
 20
1.7876862815
 30
0.0
 11
-1.4435694249
 21
-4.4256607049
 31
0.0
 11
-2.33192621
 21
-3.7861069023
 31
0.0
 11
-2.958682208
 21
-2.8920732612
 31
0.0
 11
-3.2564298809
 21
-1.8429158719
 31
0.0
 11
-3.1927526565
 21
-0.7535085586
 31
0.0
 11
-2.7733749175
 21
0.2561157248
 31
0.0
 11
-2.0431377678
 21
1.0728200292
 31
0.0
 11
-1.0827438053
 21
1.6036883985
 31
0.0
 11
-0.0000000002
 21
1.7876862815
 31
0.0
  0
SPLINE
  5
4DA
100
AcDbEntity
  8
0
100
AcDbSpline
 62
7
  6
CONTINUOUS
 70
0
 71
3
 72
15
 73
11
 74
9
 42
0.0000001
 43
0.0000001
 44
0.0000000001
 12
-8.667709799
 22
-0.0000000004
 32
0.0
 13
7.7066877951
 23
-3.9668824521
 33
0.0
 40
0.0
 40
0.0
 40
0.0
 40
0.0
 40
0.1254784984
 40
0.250852047
 40
0.3760262714
 40
0.5009384436
 40
0.6256195649
 40
0.7502190137
 40
0.8749535222
 40
1.0
 40
1.0
 40
1.0
 40
1.0
 10
-0.0000000001
 20
1.7790471373
 30
0.0
 10
-0.3625370702
 20
1.7790471372
 30
0.0
 10
-1.0931110219
 20
1.6562958267
 30
0.0
 10
-2.0626988603
 20
1.1242505336
 30
0.0
 10
-2.8045829323
 20
0.3049503201
 30
0.0
 10
-3.2361682724
 20
-0.710106546
 30
0.0
 10
-3.3123711614
 20
-1.8086916383
 30
0.0
 10
-3.0255888451
 20
-2.8715530093
 30
0.0
 10
-2.4081210442
 20
-3.7830473717
 30
0.0
 10
-1.8171509614
 20
-4.2243399383
 30
0.0
 10
-1.4959195733
 20
-4.3896881644
 30
0.0
 11
-0.0000000001
 21
1.7790471373
 31
0.0
 11
-1.0724618481
 21
1.598150124
 31
0.0
 11
-2.025409167
 21
1.0758363924
 31
0.0
 11
-2.7534544969
 21
0.2713997844
 31
0.0
 11
-3.1771735429
 21
-0.7249469347
 31
0.0
 11
-3.2518718943
 21
-1.8030620325
 31
0.0
 11
-2.9707402494
 21
-2.8458215559
 31
0.0
 11
-2.3639960761
 21
-3.7406812688
 31
0.0
 11
-1.4959195733
 21
-4.3896881644
 31
0.0
  0
ELLIPSE
  5
4DB
100
AcDbEntity
  8
RACCORDO
100
AcDbEllipse
 62
7
  6
CONTINUOUS
 10
-10.4999809608
 20
16.7928853325
 30
0.0
 11
-0.4619603741
 21
0.1913502522
 31
0.0
 40
0.9999553905
 41
-0.3926833098
 42
0.3926833098
  0
ELLIPSE
  5
4DC
100
AcDbEntity
  8
RACCORDO
100
AcDbEllipse
 62
7
  6
CONTINUOUS
 10
-7.7928853325
 20
19.4999809608
 30
0.0
 11
0.1913502522
 21
-0.4619603741
 31
0.0
 40
0.9999553905
 41
2.7489093438
 42
3.3910987232
  0
ELLIPSE
  5
4DD
100
AcDbEntity
  8
RACCORDO
100
AcDbEllipse
 62
7
  6
CONTINUOUS
 10
7.7928853325
 20
19.4999809608
 30
0.0
 11
0.1913502522
 21
0.4619603741
 31
0.0
 40
0.9999553905
 41
6.0336792503
 42
6.6758686169
  0
ELLIPSE
  5
4DE
100
AcDbEntity
  8
RACCORDO
100
AcDbEllipse
 62
7
  6
CONTINUOUS
 10
10.4999809608
 20
16.7928853325
 30
0.0
 11
-0.4619603741
 21
-0.1913502522
 31
0.0
 40
0.9999553905
 41
2.7489093438
 42
3.5342759634
  0
ELLIPSE
  5
4DF
100
AcDbEntity
  8
RACCORDO
100
AcDbEllipse
 62
7
  6
CONTINUOUS
 10
10.4999809608
 20
-16.7928853325
 30
0.0
 11
0.4619603741
 21
-0.1913502522
 31
0.0
 40
0.9999553905
 41
-0.3926833098
 42
0.3926833098
  0
ELLIPSE
  5
4E0
100
AcDbEntity
  8
RACCORDO
100
AcDbEllipse
 62
7
  6
CONTINUOUS
 10
7.7928853325
 20
-19.4999809608
 30
0.0
 11
-0.1913502522
 21
0.4619603741
 31
0.0
 40
0.9999553905
 41
2.7489093438
 42
3.3910987295
  0
ELLIPSE
  5
4E1
100
AcDbEntity
  8
RACCORDO
100
AcDbEllipse
 62
7
  6
CONTINUOUS
 10
-7.7928853325
 20
-19.4999809608
 30
0.0
 11
-0.1913502522
 21
-0.4619603741
 31
0.0
 40
0.9999553905
 41
6.0336792313
 42
6.6758686169
  0
ELLIPSE
  5
4E2
100
AcDbEntity
  8
RACCORDO
100
AcDbEllipse
 62
7
  6
CONTINUOUS
 10
-10.4999809608
 20
-16.7928853325
 30
0.0
 11
0.4619603741
 21
0.1913502522
 31
0.0
 40
0.9999553905
 41
2.7489093438
 42
3.5342759634
  0
ELLIPSE
  5
4E3
100
AcDbEntity
  8
RACCORDO
100
AcDbEllipse
 62
7
  6
CONTINUOUS
 10
3.0706876291
 20
21.7913112106
 30
0.0
 11
0.0
 21
1.0
 31
0.0
 40
0.0087268678
 41
3.1503192998
 42
4.7123889804
  0
ELLIPSE
  5
4E4
100
AcDbEntity
  8
RACCORDO
100
AcDbEllipse
 62
7
  6
CONTINUOUS
 10
-3.0706876291
 20
21.7913112106
 30
0.0
 11
0.0
 21
1.0
 31
0.0
 40
0.0087268678
 41
-4.7123889804
 42
-3.1503192998
  0
ELLIPSE
  5
4E5
100
AcDbEntity
  8
RACCORDO
100
AcDbEllipse
 62
7
  6
CONTINUOUS
 10
3.0706876291
 20
-21.7913112106
 30
0.0
 11
-0.0
 21
1.0
 31
0.0
 40
0.0087268678
 41
-1.5707963268
 42
-0.0087266463
  0
ELLIPSE
  5
4E6
100
AcDbEntity
  8
RACCORDO
100
AcDbEllipse
 62
7
  6
CONTINUOUS
 10
-3.0706876291
 20
-21.7913112106
 30
0.0
 11
-0.0
 21
1.0
 31
0.0
 40
0.0087268678
 41
6.2919119534
 42
7.853981634
  0
ELLIPSE
  5
4E7
100
AcDbEntity
  8
RACCORDO
100
AcDbEllipse
 62
7
  6
CONTINUOUS
 10
-2.0086887894
 20
-20.7293123709
 30
0.0
 11
1.0
 21
0.0
 31
0.0
 40
0.0087268678
 41
1.5707963268
 42
3.1328660073
  0
ELLIPSE
  5
4E8
100
AcDbEntity
  8
RACCORDO
100
AcDbEllipse
 62
7
  6
CONTINUOUS
 10
2.0086887894
 20
-20.7293123709
 30
0.0
 11
1.0
 21
-0.0
 31
0.0
 40
0.0087268678
 41
0.0087266463
 42
1.5707963268
  0
ELLIPSE
  5
4E9
100
AcDbEntity
  8
RACCORDO
100
AcDbEllipse
 62
7
  6
CONTINUOUS
 10
2.0086887894
 20
20.7293123709
 30
0.0
 11
1.0
 21
0.0
 31
0.0
 40
0.0087268678
 41
-1.5707963268
 42
-0.0087266463
  0
ELLIPSE
  5
4EA
100
AcDbEntity
  8
RACCORDO
100
AcDbEllipse
 62
7
  6
CONTINUOUS
 10
2.0086887894
 20
19.0349074712
 30
0.0
 11
1.0
 21
-0.0
 31
0.0
 40
0.0087268678
 41
0.0087266463
 42
1.5707963268
  0
ELLIPSE
  5
4EB
100
AcDbEntity
  8
RACCORDO
100
AcDbEllipse
 62
7
  6
CONTINUOUS
 10
-2.0086887894
 20
19.0349074712
 30
0.0
 11
1.0
 21
0.0
 31
0.0
 40
0.0087268678
 41
1.5707963268
 42
3.1328660073
  0
ELLIPSE
  5
4EC
100
AcDbEntity
  8
RACCORDO
100
AcDbEllipse
 62
7
  6
CONTINUOUS
 10
-2.0086887894
 20
20.7293123709
 30
0.0
 11
1.0
 21
-0.0
 31
0.0
 40
0.0087268678
 41
-3.1328660073
 42
-1.5707963268
  0
ELLIPSE
  5
4ED
100
AcDbEntity
  8
DRAFT
100
AcDbEllipse
 62
7
  6
CONTINUOUS
 10
-0.0
 20
-20.590555173
 30
0.0
 11
15.0
 21
0.0
 31
0.0
 40
0.0087268678
 41
-1.4645362969
 42
-1.4552620265
  0
ELLIPSE
  5
4EE
100
AcDbEntity
  8
DRAFT
100
AcDbEllipse
 62
7
  6
CONTINUOUS
 10
-0.0
 20
-20.590555173
 30
0.0
 11
15.0
 21
0.0
 31
0.0
 40
0.0087268678
 41
-1.6863306271
 42
-1.6769946537
  0
ELLIPSE
  5
4EF
100
AcDbEntity
  8
DRAFT
100
AcDbEllipse
 62
7
  6
CONTINUOUS
 10
-0.0
 20
20.590555173
 30
0.0
 11
15.0
 21
0.0
 31
0.0
 40
0.0087268678
 41
1.4552620265
 42
1.4645979999
  0
ELLIPSE
  5
4F0
100
AcDbEntity
  8
DRAFT
100
AcDbEllipse
 62
7
  6
CONTINUOUS
 10
-0.0
 20
20.590555173
 30
0.0
 11
15.0
 21
0.0
 31
0.0
 40
0.0087268678
 41
1.6770563567
 42
1.6863306271
  0
ELLIPSE
  5
4F1
100
AcDbEntity
  8
RACCORDO
100
AcDbEllipse
 62
7
  6
CONTINUOUS
 10
-5.9781828305
 20
20.0
 30
0.0
 11
-0.0
 21
2.5
 31
0.0
 40
0.0087268678
 41
1.3060493211
 42
1.5707963268
  0
ELLIPSE
  5
4F2
100
AcDbEntity
  8
RACCORDO
100
AcDbEllipse
 62
7
  6
CONTINUOUS
 10
5.9781828305
 20
20.0
 30
0.0
 11
-0.0
 21
2.5
 31
0.0
 40
0.0087268678
 41
-1.5707963268
 42
-1.1781047859
  0
ELLIPSE
  5
4F3
100
AcDbEntity
  8
RACCORDO
100
AcDbEllipse
 62
7
  6
CONTINUOUS
 10
-5.9781828305
 20
-20.0
 30
0.0
 11
0.0
 21
2.5
 31
0.0
 40
0.0087268678
 41
-4.7123889804
 42
-4.319697462
  0
ELLIPSE
  5
4F4
100
AcDbEntity
  8
RACCORDO
100
AcDbEllipse
 62
7
  6
CONTINUOUS
 10
5.9781828305
 20
-20.0
 30
0.0
 11
-0.0
 21
2.5
 31
0.0
 40
0.0087268678
 41
-1.8355433126
 42
-1.5707963268
  0
ELLIPSE
  5
4F5
100
AcDbEntity
  8
RACCORDO
100
AcDbEllipse
 62
7
  6
CONTINUOUS
 10
5.9659652156
 20
21.7913112106
 30
0.0
 11
-0.0
 21
1.0
 31
0.0
 40
0.0087268678
 41
-3.1328660073
 42
-1.5707963268
  0
ELLIPSE
  5
4F6
100
AcDbEntity
  8
RACCORDO
100
AcDbEllipse
 62
7
  6
CONTINUOUS
 10
-5.9659652156
 20
21.7913112106
 30
0.0
 11
0.0
 21
1.0
 31
0.0
 40
0.0087268678
 41
-4.7123889804
 42
-3.1503192998
  0
ELLIPSE
  5
4F7
100
AcDbEntity
  8
RACCORDO
100
AcDbEllipse
 62
7
  6
CONTINUOUS
 10
5.9659652156
 20
-21.7913112106
 30
0.0
 11
-0.0
 21
1.0
 31
0.0
 40
0.0087268678
 41
-1.5707963268
 42
-0.0087266463
  0
ELLIPSE
  5
4F8
100
AcDbEntity
  8
RACCORDO
100
AcDbEllipse
 62
7
  6
CONTINUOUS
 10
-5.9659652156
 20
-21.7913112106
 30
0.0
 11
0.0
 21
1.0
 31
0.0
 40
0.0087268678
 41
0.0087266463
 42
1.5707963268
  0
ELLIPSE
  5
4F9
100
AcDbEntity
  8
ASSI
100
AcDbEllipse
 62
7
  6
CONTINUOUS
 10
-10.4999809608
 20
16.7928853325
 30
0.0
 11
-0.4619603741
 21
0.1913502522
 31
0.0
 40
0.9999553905
 41
-0.3926833098
 42
0.3926833098
  0
ELLIPSE
  5
4FA
100
AcDbEntity
  8
ASSI
100
AcDbEllipse
 62
7
  6
CONTINUOUS
 10
-7.7928853325
 20
19.4999809608
 30
0.0
 11
0.1913502522
 21
-0.4619603741
 31
0.0
 40
0.9999553905
 41
2.7489093438
 42
3.3910987232
  0
ELLIPSE
  5
4FB
100
AcDbEntity
  8
ASSI
100
AcDbEllipse
 62
7
  6
CONTINUOUS
 10
7.7928853325
 20
19.4999809608
 30
0.0
 11
0.1913502522
 21
0.4619603741
 31
0.0
 40
0.9999553905
 41
6.0336792503
 42
6.6758686169
  0
ELLIPSE
  5
4FC
100
AcDbEntity
  8
ASSI
100
AcDbEllipse
 62
7
  6
CONTINUOUS
 10
10.4999809608
 20
16.7928853325
 30
0.0
 11
-0.4619603741
 21
-0.1913502522
 31
0.0
 40
0.9999553905
 41
2.7489093438
 42
3.5342759634
  0
ELLIPSE
  5
4FD
100
AcDbEntity
  8
ASSI
100
AcDbEllipse
 62
7
  6
CONTINUOUS
 10
10.4999809608
 20
-16.7928853325
 30
0.0
 11
0.4619603741
 21
-0.1913502522
 31
0.0
 40
0.9999553905
 41
-0.3926833098
 42
0.3926833098
  0
ELLIPSE
  5
4FE
100
AcDbEntity
  8
ASSI
100
AcDbEllipse
 62
7
  6
CONTINUOUS
 10
7.7928853325
 20
-19.4999809608
 30
0.0
 11
-0.1913502522
 21
0.4619603741
 31
0.0
 40
0.9999553905
 41
2.7489093438
 42
3.3910987295
  0
ELLIPSE
  5
4FF
100
AcDbEntity
  8
ASSI
100
AcDbEllipse
 62
7
  6
CONTINUOUS
 10
-7.7928853325
 20
-19.4999809608
 30
0.0
 11
-0.1913502522
 21
-0.4619603741
 31
0.0
 40
0.9999553905
 41
6.0336792313
 42
6.6758686169
  0
ELLIPSE
  5
500
100
AcDbEntity
  8
ASSI
100
AcDbEllipse
 62
7
  6
CONTINUOUS
 10
-10.4999809608
 20
-16.7928853325
 30
0.0
 11
0.4619603741
 21
0.1913502522
 31
0.0
 40
0.9999553905
 41
2.7489093438
 42
3.5342759634
  0
ELLIPSE
  5
501
100
AcDbEntity
  8
ASSI
100
AcDbEllipse
 62
7
  6
CONTINUOUS
 10
-0.0
 20
-20.590555173
 30
0.0
 11
15.0
 21
0.0
 31
0.0
 40
0.0087268678
 41
-1.4645362969
 42
-1.4552620265
  0
ELLIPSE
  5
502
100
AcDbEntity
  8
ASSI
100
AcDbEllipse
 62
7
  6
CONTINUOUS
 10
-0.0
 20
-20.590555173
 30
0.0
 11
15.0
 21
0.0
 31
0.0
 40
0.0087268678
 41
-1.6863306271
 42
-1.6769946537
  0
ELLIPSE
  5
503
100
AcDbEntity
  8
ASSI
100
AcDbEllipse
 62
7
  6
CONTINUOUS
 10
-0.0
 20
20.590555173
 30
0.0
 11
15.0
 21
0.0
 31
0.0
 40
0.0087268678
 41
1.4552620265
 42
1.4645979999
  0
ELLIPSE
  5
504
100
AcDbEntity
  8
ASSI
100
AcDbEllipse
 62
7
  6
CONTINUOUS
 10
-0.0
 20
20.590555173
 30
0.0
 11
15.0
 21
0.0
 31
0.0
 40
0.0087268678
 41
1.6770563567
 42
1.6863306271
  0
ELLIPSE
  5
505
100
AcDbEntity
  8
ASSI
100
AcDbEllipse
 62
7
  6
CONTINUOUS
 10
-5.9781828305
 20
20.0
 30
0.0
 11
-0.0
 21
2.5
 31
0.0
 40
0.0087268678
 41
7.4612900931
 42
7.853981634
  0
ELLIPSE
  5
506
100
AcDbEntity
  8
ASSI
100
AcDbEllipse
 62
7
  6
CONTINUOUS
 10
5.9781828305
 20
20.0
 30
0.0
 11
-0.0
 21
2.5
 31
0.0
 40
0.0087268678
 41
4.7123889804
 42
5.1050805213
  0
ELLIPSE
  5
507
100
AcDbEntity
  8
ASSI
100
AcDbEllipse
 62
7
  6
CONTINUOUS
 10
-5.9781828305
 20
-20.0
 30
0.0
 11
0.0
 21
2.5
 31
0.0
 40
0.0087268678
 41
1.5707963268
 42
1.9634878451
  0
ELLIPSE
  5
508
100
AcDbEntity
  8
ASSI
100
AcDbEllipse
 62
7
  6
CONTINUOUS
 10
5.9781828305
 20
-20.0
 30
0.0
 11
-0.0
 21
2.5
 31
0.0
 40
0.0087268678
 41
4.319697462
 42
4.7123889804
  0
ELLIPSE
  5
509
100
AcDbEntity
  8
ASSI
100
AcDbEllipse
 62
7
  6
CONTINUOUS
 10
3.0706876291
 20
21.7913112106
 30
0.0
 11
0.0
 21
1.0
 31
0.0
 40
0.0087268678
 41
3.1503192998
 42
4.7123889804
  0
ELLIPSE
  5
50A
100
AcDbEntity
  8
ASSI
100
AcDbEllipse
 62
7
  6
CONTINUOUS
 10
-3.0706876291
 20
21.7913112106
 30
0.0
 11
0.0
 21
1.0
 31
0.0
 40
0.0087268678
 41
-4.7123889804
 42
-3.1503192998
  0
ELLIPSE
  5
50B
100
AcDbEntity
  8
ASSI
100
AcDbEllipse
 62
7
  6
CONTINUOUS
 10
3.0706876291
 20
-21.7913112106
 30
0.0
 11
-0.0
 21
1.0
 31
0.0
 40
0.0087268678
 41
-1.5707963268
 42
-0.0087266463
  0
ELLIPSE
  5
50C
100
AcDbEntity
  8
ASSI
100
AcDbEllipse
 62
7
  6
CONTINUOUS
 10
-3.0706876291
 20
-21.7913112106
 30
0.0
 11
-0.0
 21
1.0
 31
0.0
 40
0.0087268678
 41
6.2919119534
 42
7.853981634
  0
ELLIPSE
  5
50D
100
AcDbEntity
  8
ASSI
100
AcDbEllipse
 62
7
  6
CONTINUOUS
 10
-2.0086887894
 20
-20.7293123709
 30
0.0
 11
1.0
 21
0.0
 31
0.0
 40
0.0087268678
 41
1.5707963268
 42
3.1328660073
  0
ELLIPSE
  5
50E
100
AcDbEntity
  8
ASSI
100
AcDbEllipse
 62
7
  6
CONTINUOUS
 10
2.0086887894
 20
-20.7293123709
 30
0.0
 11
1.0
 21
-0.0
 31
0.0
 40
0.0087268678
 41
0.0087266463
 42
1.5707963268
  0
ELLIPSE
  5
50F
100
AcDbEntity
  8
ASSI
100
AcDbEllipse
 62
7
  6
CONTINUOUS
 10
2.0086887894
 20
20.7293123709
 30
0.0
 11
1.0
 21
0.0
 31
0.0
 40
0.0087268678
 41
-1.5707963268
 42
-0.0087266463
  0
ELLIPSE
  5
510
100
AcDbEntity
  8
ASSI
100
AcDbEllipse
 62
7
  6
CONTINUOUS
 10
2.0086887894
 20
19.0349074712
 30
0.0
 11
1.0
 21
-0.0
 31
0.0
 40
0.0087268678
 41
0.0087266463
 42
1.5707963268
  0
ELLIPSE
  5
511
100
AcDbEntity
  8
ASSI
100
AcDbEllipse
 62
7
  6
CONTINUOUS
 10
-2.0086887894
 20
19.0349074712
 30
0.0
 11
1.0
 21
0.0
 31
0.0
 40
0.0087268678
 41
1.5707963268
 42
3.1328660073
  0
ELLIPSE
  5
512
100
AcDbEntity
  8
ASSI
100
AcDbEllipse
 62
7
  6
CONTINUOUS
 10
-2.0086887894
 20
20.7293123709
 30
0.0
 11
1.0
 21
-0.0
 31
0.0
 40
0.0087268678
 41
-3.1328660073
 42
-1.5707963268
  0
ELLIPSE
  5
513
100
AcDbEntity
  8
ASSI
100
AcDbEllipse
 62
7
  6
CONTINUOUS
 10
-6.45
 20
19.9694565443
 30
0.0
 11
1.0
 21
-0.0
 31
0.0
 40
0.0043633508
 41
-2.4710571294
 42
-1.5707963268
  0
ELLIPSE
  5
514
100
AcDbEntity
  8
ASSI
100
AcDbEllipse
 62
7
  6
CONTINUOUS
 10
-6.45
 20
19.0610880745
 30
0.0
 11
1.0
 21
-0.0
 31
0.0
 40
0.0087268678
 41
1.5707963268
 42
1.6610087996
  0
ELLIPSE
  5
515
100
AcDbEntity
  8
ASSI
100
AcDbEllipse
 62
7
  6
CONTINUOUS
 10
6.45
 20
19.0610880745
 30
0.0
 11
1.0
 21
-0.0
 31
0.0
 40
0.0087268678
 41
1.480583854
 42
1.5707963268
  0
ELLIPSE
  5
516
100
AcDbEntity
  8
ASSI
100
AcDbEllipse
 62
7
  6
CONTINUOUS
 10
5.9659652156
 20
21.7913112106
 30
0.0
 11
-0.0
 21
1.0
 31
0.0
 40
0.0087268678
 41
-3.1328660073
 42
-1.5707963268
  0
ELLIPSE
  5
517
100
AcDbEntity
  8
ASSI
100
AcDbEllipse
 62
7
  6
CONTINUOUS
 10
-5.9659652156
 20
21.7913112106
 30
0.0
 11
0.0
 21
1.0
 31
0.0
 40
0.0087268678
 41
-4.7123889804
 42
-3.1503192998
  0
ELLIPSE
  5
518
100
AcDbEntity
  8
ASSI
100
AcDbEllipse
 62
7
  6
CONTINUOUS
 10
5.9659652156
 20
-21.7913112106
 30
0.0
 11
-0.0
 21
1.0
 31
0.0
 40
0.0087268678
 41
-1.5707963268
 42
-0.0087266463
  0
ELLIPSE
  5
519
100
AcDbEntity
  8
ASSI
100
AcDbEllipse
 62
7
  6
CONTINUOUS
 10
-5.9659652156
 20
-21.7913112106
 30
0.0
 11
0.0
 21
1.0
 31
0.0
 40
0.0087268678
 41
0.0087266463
 42
1.5707963268
  0
ELLIPSE
  5
51A
100
AcDbEntity
  8
ASSI
100
AcDbEllipse
 62
7
  6
CONTINUOUS
 10
6.45
 20
19.9694565443
 30
0.0
 11
1.0
 21
-0.0
 31
0.0
 40
0.0043633508
 41
-1.5707963268
 42
-0.6705355242
  0
ELLIPSE
  5
51B
100
AcDbEntity
  8
0
100
AcDbEllipse
 62
7
  6
CONTINUOUS
 10
-8.1926089966
 20
-19.399313827
 30
0.0
 11
0.1916493199
 21
0.4626823873
 31
0.0
 40
0.9983949659
 41
2.7494611704
 42
3.5337241367
  0
ELLIPSE
  5
51C
100
AcDbEntity
  8
0
100
AcDbEllipse
 62
7
  6
CONTINUOUS
 10
-7.900686173
 20
-19.399313827
 30
0.0
 11
-0.3545231217
 21
0.3545231217
 31
0.0
 40
0.9972646886
 41
8.6407493252
 42
9.8007495107
  0
ELLIPSE
  5
51D
100
AcDbEntity
  8
0
100
AcDbEllipse
 62
7
  6
CONTINUOUS
 10
-0.8961801625
 20
-20.0
 30
0.0
 11
-1.0038198375
 21
0.0
 31
0.0
 40
0.9961946981
 41
7.0896028741
 42
7.853981634
  0
ELLIPSE
  5
51E
100
AcDbEntity
  8
0
100
AcDbEllipse
 62
7
  6
CONTINUOUS
 10
-0.8961801625
 20
20.0
 30
0.0
 11
-1.0038198375
 21
0.0
 31
0.0
 40
0.9961946981
 41
4.7123889804
 42
5.4774332967
  0
ELLIPSE
  5
51F
100
AcDbEntity
  8
0
100
AcDbEllipse
 62
7
  6
CONTINUOUS
 10
0.8961801625
 20
-20.0
 30
0.0
 11
1.0038198375
 21
-0.0
 31
0.0
 40
0.9961946981
 41
4.7123889804
 42
5.4774332967
  0
ELLIPSE
  5
520
100
AcDbEntity
  8
0
100
AcDbEllipse
 62
7
  6
CONTINUOUS
 10
7.900686173
 20
-19.399313827
 30
0.0
 11
0.3545231217
 21
0.3545231217
 31
0.0
 40
0.9972646886
 41
9.0488185249
 42
10.2088065963
  0
ELLIPSE
  5
521
100
AcDbEntity
  8
0
100
AcDbEllipse
 62
7
  6
CONTINUOUS
 10
8.1926089966
 20
-19.399313827
 30
0.0
 11
-0.1916493199
 21
0.4626823873
 31
0.0
 40
0.9983949659
 41
2.7494611705
 42
3.5337241368
  0
ELLIPSE
  5
522
100
AcDbEntity
  8
0
100
AcDbEllipse
 62
7
  6
CONTINUOUS
 10
0.8961801625
 20
20.0
 30
0.0
 11
1.0038198375
 21
-0.0
 31
0.0
 40
0.9961946981
 41
7.0896028741
 42
7.853981634
  0
ELLIPSE
  5
523
100
AcDbEntity
  8
0
100
AcDbEllipse
 62
7
  6
CONTINUOUS
 10
-5.1628421097
 20
11.4000000004
 30
0.0
 11
-63.1353039978
 21
109.9291088702
 31
0.0
 40
0.0625410312
 41
-4.6273407902
 42
-4.6171041866
  0
ELLIPSE
  5
524
100
AcDbEntity
  8
0
100
AcDbEllipse
 62
7
  6
CONTINUOUS
 10
-6.8371578901
 20
11.4000000004
 30
0.0
 11
63.1353039977
 21
109.9291088702
 31
0.0
 40
0.0625410312
 41
-1.6660811205
 42
-1.655844517
  0
ELLIPSE
  5
525
100
AcDbEntity
  8
0
100
AcDbEllipse
 62
7
  6
CONTINUOUS
 10
-1.4602933676
 20
-8.088142327
 30
0.0
 11
0.3
 21
-0.0
 31
0.0
 40
0.0349207695
 41
1.5707963268
 42
3.1066860686
  0
ELLIPSE
  5
526
100
AcDbEntity
  8
0
100
AcDbEllipse
 62
7
  6
CONTINUOUS
 10
1.4602933676
 20
-8.088142327
 30
0.0
 11
0.3
 21
0.0
 31
0.0
 40
0.0349207695
 41
0.034906585
 42
1.5707963268
  0
ELLIPSE
  5
527
100
AcDbEntity
  8
0
100
AcDbEllipse
 62
7
  6
CONTINUOUS
 10
-6.9660336068
 20
14.1806893013
 30
0.0
 11
0.0
 21
2.7499999989
 31
0.0
 40
0.0174577246
 41
1.0270494353
 42
1.2769830277
  0
ELLIPSE
  5
528
100
AcDbEntity
  8
0
100
AcDbEllipse
 62
7
  6
CONTINUOUS
 10
6.9660336068
 20
14.1806893013
 30
0.0
 11
-0.0
 21
2.7499999989
 31
0.0
 40
0.0174577246
 41
-1.2769830338
 42
-1.0270494353
  0
ELLIPSE
  5
529
100
AcDbEntity
  8
0
100
AcDbEllipse
 62
7
  6
CONTINUOUS
 10
3.8641664168
 20
11.4000000001
 30
0.0
 11
62.9918146695
 21
109.6792699847
 31
0.0
 40
0.0625410312
 41
-1.6558120671
 42
-1.6455496707
  0
ELLIPSE
  5
52A
100
AcDbEntity
  8
0
100
AcDbEllipse
 62
7
  6
CONTINUOUS
 10
8.135833583
 20
11.4000000001
 30
0.0
 11
-62.9918146695
 21
109.6792699847
 31
0.0
 40
0.0625410312
 41
-4.6376356365
 42
-4.6273732401
  0
ELLIPSE
  5
52B
100
AcDbEntity
  8
0
100
AcDbEllipse
 62
7
  6
CONTINUOUS
 10
8.136195996
 20
11.4
 30
0.0
 11
-63.1353039967
 21
109.9291088683
 31
0.0
 40
0.0625410312
 41
-4.6375646945
 42
-4.6273256401
  0
ELLIPSE
  5
52C
100
AcDbEntity
  8
0
100
AcDbEllipse
 62
7
  6
CONTINUOUS
 10
3.8638040038
 20
11.4
 30
0.0
 11
63.1353039967
 21
109.9291088683
 31
0.0
 40
0.0625410312
 41
-1.6558596671
 42
-1.6456206128
  0
ENDSEC
  0
SECTION
  2
OBJECTS
  0
DICTIONARY
  5
C
100
AcDbDictionary
280
0
281
1
  3
ACAD_GROUP
350
D
  3
ACAD_MLINESTYLE
350
17
  3
ACAD_LAYOUT
350
1A
  3
ACAD_PLOTSETTINGS
350
19
  3
ACAD_PLOTSTYLENAME
350
E
  0
DICTIONARY
  5
D
102
{ACAD_REACTORS
330
C
102
}
100
AcDbDictionary
280
0
281
1
  0
ACDBDICTIONARYWDFLT
  5
E
102
{ACAD_REACTORS
330
C
102
}
100
AcDbDictionary
281
1
  3
Normal
350
F
100
AcDbDictionaryWithDefault
340
F
  0
DICTIONARY
  5
17
102
{ACAD_REACTORS
330
C
102
}
100
AcDbDictionary
280
0
281
1
  3
Standard
350
18
  0
DICTIONARY
  5
19
102
{ACAD_REACTORS
330
C
102
}
100
AcDbDictionary
281
1
  0
DICTIONARY
  5
1A
102
{ACAD_REACTORS
330
C
102
}
100
AcDbDictionary
281
1
  3
Model
350
52D
  3
Layout1
350
52E
  0
ACDBPLACEHOLDER
  5
F
102
{ACAD_REACTORS
330
E
102
}
  0
MLINESTYLE
  5
18
102
{ACAD_REACTORS
330
17
102
}
100
AcDbMlineStyle
  2
STANDARD
 70
0
  3

 62
256
 51
90.0
 52
90.0
 71
2
 49
0.5
 62
256
  6
BYLAYER
 49
-0.5
 62
256
  6
BYLAYER
  0
LAYOUT
  5
52D
102
{ACAD_REACTORS
330
1A
102
}
100
AcDbPlotSettings
  1

  2
none_device
  4
ANSI_C_(22.00_x_17.00_Inches)
  6

 40
0.0
 41
0.0
 42
0.0
 43
0.0
 44
558.8
 45
431.8
 46
0.0
 47
0.0
 48
0.0
 49
0.0
140
0.0
141
0.0
142
1.0
143
1.0
 70
1024
 72
1
 73
0
 74
0
  7

 75
0
147
1.0
148
0.0
149
0.0
100
AcDbLayout
  1
Model
 70
0
 71
0
 10
0.0
 20
0.0
 11
558.8
 21
431.8
 12
0.0
 22
0.0
 32
0.0
 14
0.0
 24
0.0
 34
0.0
 15
0.0
 25
0.0
 35
0.0
146
0.0
 13
0.0
 23
0.0
 33
0.0
 16
1.0
 26
0.0
 36
0.0
 17
0.0
 27
1.0
 37
0.0
 76
0
330
210
345
0
346
0
  0
LAYOUT
  5
52E
102
{ACAD_REACTORS
330
1A
102
}
100
AcDbPlotSettings
  1

  2
none_device
  4
ANSI_C_(22.00_x_17.00_Inches)
  6

 40
0.0
 41
0.0
 42
0.0
 43
0.0
 44
558.8
 45
431.8
 46
0.0
 47
0.0
 48
0.0
 49
0.0
140
0.0
141
0.0
142
1.0
143
1.0
 70
0
 72
1
 73
0
 74
0
  7

 75
0
147
1.0
148
0.0
149
0.0
100
AcDbLayout
  1
Layout1
 70
0
 71
1
 10
0.0
 20
0.0
 11
558.8
 21
431.8
 12
0.0
 22
0.0
 32
0.0
 14
0.0
 24
0.0
 34
0.0
 15
0.0
 25
0.0
 35
0.0
146
0.0
 13
0.0
 23
0.0
 33
0.0
 16
1.0
 26
0.0
 36
0.0
 17
0.0
 27
1.0
 37
0.0
 76
0
330
211
345
0
346
0
  0
ENDSEC
  0
EOF
