  0
SECTION
  2
HEADER
  9
$ACADVER
  1
AC1024
  9
$DWGCODEPAGE
  3
ANSI_1252
  9
$EXTMAX
 10
420.0
 20
297.0
 30
0.0
  9
$EXTMIN
 10
0.0
 20
-0.0
 30
0.0
  9
$LIMMIN
 10
0.0
 20
-0.0
  9
$LIMMAX
 10
420.0
 20
297.0
  9
$VIEWCTR
 10
210.0
 20
148.5
  9
$VIEWSIZE
 40
297.0
  9
$CLAYER
  8
0
  9
$LTSCALE
 40
23.1
  9
$CELTYPE
  6
BYLAYER
  9
$DIMSCALE
 40
1.0
  9
$DIMASZ
 40
3.0
  9
$DIMEXO
 40
0.5
  9
$DIMDLI
 40
15.96
  9
$DIMEXE
 40
1.5
  9
$DIMCEN
 40
3.78
  9
$DIMLFAC
 40
1.0
  9
$DIMBLK
  1
_FILLED
  9
$DIMALT
 70
0
  9
$DIMALTF
 40
0.0393700787
  9
$DIMTXT
 40
3.0
  9
$DIMTOL
 70
1
  9
$DIMLIM
 70
0
  9
$DIMTFAC
 40
1.0
  9
$DIMTP
 40
0.01
  9
$DIMTM
 40
0.01
  9
$DIMGAP
 40
0.625
  9
$DIMDSEP
 70
44
  9
$AUNITS
 70
0
  9
$PDMODE
 70
3
  9
$PDSIZE
 40
3.0
  9
$HANDSEED
  5
61F
  9
$TILEMODE
 70
1
  9
$MEASUREMENT
 70
1
  9
$INSUNITS
 70
4
  0
ENDSEC
  0
SECTION
  2
CLASSES
  0
CLASS
  1
ACDBDICTIONARYWDFLT
  2
AcDbDictionaryWithDefault
  3
AutoCAD 2000
 90
0
 91
1
280
0
281
0
  0
CLASS
  1
ACDBPLACEHOLDER
  2
AcDbPlaceHolder
  3
AutoCAD 2000
 90
0
 91
1
280
0
281
0
  0
CLASS
  1
LAYOUT
  2
AcDbLayout
  3
AutoCAD 2000
 90
0
 91
0
280
0
281
0
  0
ENDSEC
  0
SECTION
  2
TABLES
  0
TABLE
  2
VPORT
  5
8
100
AcDbSymbolTable
 70
2
  0
VPORT
  5
1F4
100
AcDbSymbolTableRecord
100
AcDbViewportTableRecord
  2
*ACTIVE
 70
0
 10
0.0
 20
0.0
 11
1.0
 21
1.0
 12
210.0
 22
148.5
 13
0.0
 23
0.0
 14
1.0
 24
1.0
 15
0.0
 25
0.0
 16
0.0
 26
0.0
 36
1.0
 17
0.0
 27
0.0
 37
0.0
 40
297.0
 41
1.4141414141
 42
50.0
 43
0.0
 44
0.0
 50
0.0
 51
0.0
 71
0
 72
100
 73
1
 74
1
 75
0
 76
0
 77
0
 78
0
  0
ENDTAB
  0
TABLE
  2
LTYPE
  5
5
100
AcDbSymbolTable
 70
6
  0
LTYPE
  5
14
100
AcDbSymbolTableRecord
100
AcDbLinetypeTableRecord
  2
BYBLOCK
 70
0
  3

 72
65
 73
0
 40
0.0
  0
LTYPE
  5
15
100
AcDbSymbolTableRecord
100
AcDbLinetypeTableRecord
  2
BYLAYER
 70
0
  3

 72
65
 73
0
 40
0.0
  0
LTYPE
  5
16
100
AcDbSymbolTableRecord
100
AcDbLinetypeTableRecord
  2
CONTINUOUS
 70
64
  3
Solid line
 72
65
 73
0
 40
0.0
  0
LTYPE
  5
1F5
100
AcDbSymbolTableRecord
100
AcDbLinetypeTableRecord
  2
CENTER
 70
64
  3
____ _ ____ _ ____ _ ____ _ ____ _ ____ _ ____
 72
65
 73
4
 40
0.6
 49
0.375
 74
0
 49
-0.075
 74
0
 49
0.075
 74
0
 49
-0.075
 74
0
  0
LTYPE
  5
1F6
100
AcDbSymbolTableRecord
100
AcDbLinetypeTableRecord
  2
HIDDEN
 70
64
  3
- - - - - - - - - - - - - - - - - - - -
 72
65
 73
2
 40
0.2
 49
0.1
 74
0
 49
-0.1
 74
0
  0
LTYPE
  5
1F7
100
AcDbSymbolTableRecord
100
AcDbLinetypeTableRecord
  2
PHANTOM
 70
64
  3
_____ _ _ _____ _ _ _____ _ _ _____
 72
65
 73
6
 40
0.8
 49
0.45
 74
0
 49
-0.05
 74
0
 49
0.1
 74
0
 49
-0.05
 74
0
 49
0.1
 74
0
 49
-0.05
 74
0
  0
LTYPE
  5
1F8
100
AcDbSymbolTableRecord
100
AcDbLinetypeTableRecord
  2
DOT
 70
64
  3
. . . . . . . . . . . . . . . . . . . .
 72
65
 73
2
 40
0.2
 49
0.1
 74
0
 49
-0.1
 74
0
  0
LTYPE
  5
1F9
100
AcDbSymbolTableRecord
100
AcDbLinetypeTableRecord
  2
DASHED
 70
64
  3
- - - - - - - - - - - - - - - - - - - -
 72
65
 73
2
 40
0.2
 49
0.1
 74
0
 49
-0.1
 74
0
  0
ENDTAB
  0
TABLE
  2
LAYER
  5
2
100
AcDbSymbolTable
 70
36
  0
LAYER
  5
10
100
AcDbSymbolTableRecord
100
AcDbLayerTableRecord
  2
0
 70
0
 62
7
  6
CONTINUOUS
370
-3
390
F
  0
LAYER
  5
1FA
100
AcDbSymbolTableRecord
100
AcDbLayerTableRecord
  2
DEFAULT_1
 70
0
 62
7
  6
CENTER
370
-3
390
F
  0
LAYER
  5
1FB
100
AcDbSymbolTableRecord
100
AcDbLayerTableRecord
  2
DEFAULT_2
 70
0
 62
7
  6
HIDDEN
370
-3
390
F
  0
LAYER
  5
1FC
100
AcDbSymbolTableRecord
100
AcDbLayerTableRecord
  2
DEFAULT_3
 70
0
 62
7
  6
PHANTOM
370
-3
390
F
  0
LAYER
  5
1FD
100
AcDbSymbolTableRecord
100
AcDbLayerTableRecord
  2
06___PRT_ALL_SURFS_1
 70
0
 62
7
  6
CONTINUOUS
370
-3
390
F
  0
LAYER
  5
1FE
100
AcDbSymbolTableRecord
100
AcDbLayerTableRecord
  2
06___PRT_ALL_SURFS_3
 70
0
 62
7
  6
CONTINUOUS
370
-3
390
F
  0
LAYER
  5
1FF
100
AcDbSymbolTableRecord
100
AcDbLayerTableRecord
  2
06___PRT_ALL_SURFS_7
 70
0
 62
7
  6
CONTINUOUS
370
-3
390
F
  0
LAYER
  5
200
100
AcDbSymbolTableRecord
100
AcDbLayerTableRecord
  2
1210_C_WAVE_250000
 70
0
 62
7
  6
CONTINUOUS
370
-3
390
F
  0
LAYER
  5
201
100
AcDbSymbolTableRecord
100
AcDbLayerTableRecord
  2
43001086A0
 70
0
 62
7
  6
CONTINUOUS
370
-3
390
F
  0
LAYER
  5
202
100
AcDbSymbolTableRecord
100
AcDbLayerTableRecord
  2
ASSI
 70
0
 62
7
  6
CONTINUOUS
370
-3
390
F
  0
LAYER
  5
203
100
AcDbSymbolTableRecord
100
AcDbLayerTableRecord
  2
CAP-E-6_3-11-2_5_1120000
 70
0
 62
7
  6
CONTINUOUS
370
-3
390
F
  0
LAYER
  5
204
100
AcDbSymbolTableRecord
100
AcDbLayerTableRecord
  2
CAP-E-6_3-11-2_5_1120000_1
 70
0
 62
7
  6
CONTINUOUS
370
-3
390
F
  0
LAYER
  5
205
100
AcDbSymbolTableRecord
100
AcDbLayerTableRecord
  2
COLOR2
 70
0
 62
7
  6
CONTINUOUS
370
-3
390
F
  0
LAYER
  5
206
100
AcDbSymbolTableRecord
100
AcDbLayerTableRecord
  2
COLOR23
 70
0
 62
7
  6
CONTINUOUS
370
-3
390
F
  0
LAYER
  5
207
100
AcDbSymbolTableRecord
100
AcDbLayerTableRecord
  2
COORDINATE
 70
0
 62
7
  6
CONTINUOUS
370
-3
390
F
  0
LAYER
  5
208
100
AcDbSymbolTableRecord
100
AcDbLayerTableRecord
  2
COORD_ORIGINE
 70
0
 62
7
  6
CONTINUOUS
370
-3
390
F
  0
LAYER
  5
209
100
AcDbSymbolTableRecord
100
AcDbLayerTableRecord
  2
COPY_PUBLISH
 70
0
 62
7
  6
CONTINUOUS
370
-3
390
F
  0
LAYER
  5
20A
100
AcDbSymbolTableRecord
100
AcDbLayerTableRecord
  2
COSMETICHE
 70
0
 62
7
  6
CONTINUOUS
370
-3
390
F
  0
LAYER
  5
20B
100
AcDbSymbolTableRecord
100
AcDbLayerTableRecord
  2
COSMETICI
 70
0
 62
7
  6
CONTINUOUS
370
-3
390
F
  0
LAYER
  5
20C
100
AcDbSymbolTableRecord
100
AcDbLayerTableRecord
  2
CURVE
 70
0
 62
7
  6
CONTINUOUS
370
-3
390
F
  0
LAYER
  5
20D
100
AcDbSymbolTableRecord
100
AcDbLayerTableRecord
  2
DRAFT
 70
0
 62
7
  6
CONTINUOUS
370
-3
390
F
  0
LAYER
  5
20E
100
AcDbSymbolTableRecord
100
AcDbLayerTableRecord
  2
GEOMETRIA_SOLIDA
 70
0
 62
7
  6
CONTINUOUS
370
-3
390
F
  0
LAYER
  5
20F
100
AcDbSymbolTableRecord
100
AcDbLayerTableRecord
  2
GEOMETRIA_SOLIDA_1
 70
0
 62
7
  6
CONTINUOUS
370
-3
390
F
  0
LAYER
  5
210
100
AcDbSymbolTableRecord
100
AcDbLayerTableRecord
  2
GEOMETRIA_SOLIDA_2
 70
0
 62
7
  6
CONTINUOUS
370
-3
390
F
  0
LAYER
  5
211
100
AcDbSymbolTableRecord
100
AcDbLayerTableRecord
  2
IMPORT_IGES
 70
0
 62
7
  6
CONTINUOUS
370
-3
390
F
  0
LAYER
  5
212
100
AcDbSymbolTableRecord
100
AcDbLayerTableRecord
  2
INTF_1
 70
0
 62
7
  6
CONTINUOUS
370
-3
390
F
  0
LAYER
  5
213
100
AcDbSymbolTableRecord
100
AcDbLayerTableRecord
  2
INTF_11
 70
0
 62
7
  6
CONTINUOUS
370
-3
390
F
  0
LAYER
  5
214
100
AcDbSymbolTableRecord
100
AcDbLayerTableRecord
  2
INTF_2
 70
0
 62
7
  6
CONTINUOUS
370
-3
390
F
  0
LAYER
  5
215
100
AcDbSymbolTableRecord
100
AcDbLayerTableRecord
  2
INTF_3
 70
0
 62
7
  6
CONTINUOUS
370
-3
390
F
  0
LAYER
  5
216
100
AcDbSymbolTableRecord
100
AcDbLayerTableRecord
  2
INTF_CYAN
 70
0
 62
7
  6
CONTINUOUS
370
-3
390
F
  0
LAYER
  5
217
100
AcDbSymbolTableRecord
100
AcDbLayerTableRecord
  2
K_THT_TE_RT424F48_1570000
 70
0
 62
7
  6
CONTINUOUS
370
-3
390
F
  0
LAYER
  5
218
100
AcDbSymbolTableRecord
100
AcDbLayerTableRecord
  2
MINIMELF_R_WAVE_140000
 70
0
 62
7
  6
CONTINUOUS
370
-3
390
F
  0
LAYER
  5
219
100
AcDbSymbolTableRecord
100
AcDbLayerTableRecord
  2
MINIMELF_R_WAVE_140000_1
 70
0
 62
7
  6
CONTINUOUS
370
-3
390
F
  0
LAYER
  5
21A
100
AcDbSymbolTableRecord
100
AcDbLayerTableRecord
  2
NOTE
 70
0
 62
7
  6
CONTINUOUS
370
-3
390
F
  0
LAYER
  5
21B
100
AcDbSymbolTableRecord
100
AcDbLayerTableRecord
  2
PIANI
 70
0
 62
7
  6
CONTINUOUS
370
-3
390
F
  0
LAYER
  5
21C
100
AcDbSymbolTableRecord
100
AcDbLayerTableRecord
  2
PIANI_ORIGINE
 70
0
 62
7
  6
CONTINUOUS
370
-3
390
F
  0
LAYER
  5
21D
100
AcDbSymbolTableRecord
100
AcDbLayerTableRecord
  2
PUNTI
 70
0
 62
7
  6
CONTINUOUS
370
-3
390
F
  0
LAYER
  5
21E
100
AcDbSymbolTableRecord
100
AcDbLayerTableRecord
  2
RACCORDO
 70
0
 62
7
  6
CONTINUOUS
370
-3
390
F
  0
LAYER
  5
21F
100
AcDbSymbolTableRecord
100
AcDbLayerTableRecord
  2
RGB____0____0____0__
 70
0
 62
7
  6
CONTINUOUS
370
-3
390
F
  0
LAYER
  5
220
100
AcDbSymbolTableRecord
100
AcDbLayerTableRecord
  2
SIMBOLI
 70
0
 62
7
  6
CONTINUOUS
370
-3
390
F
  0
LAYER
  5
221
100
AcDbSymbolTableRecord
100
AcDbLayerTableRecord
  2
SMUSSO
 70
0
 62
7
  6
CONTINUOUS
370
-3
390
F
  0
LAYER
  5
222
100
AcDbSymbolTableRecord
100
AcDbLayerTableRecord
  2
SUB_SMA_143000
 70
0
 62
7
  6
CONTINUOUS
370
-3
390
F
  0
LAYER
  5
223
100
AcDbSymbolTableRecord
100
AcDbLayerTableRecord
  2
SUB_SMA_143000_1
 70
0
 62
7
  6
CONTINUOUS
370
-3
390
F
  0
LAYER
  5
224
100
AcDbSymbolTableRecord
100
AcDbLayerTableRecord
  2
SUB_SMA_143000_2
 70
0
 62
7
  6
CONTINUOUS
370
-3
390
F
  0
LAYER
  5
225
100
AcDbSymbolTableRecord
100
AcDbLayerTableRecord
  2
SUB_SMA_143000_3
 70
0
 62
7
  6
CONTINUOUS
370
-3
390
F
  0
LAYER
  5
226
100
AcDbSymbolTableRecord
100
AcDbLayerTableRecord
  2
SUB_SMA_143000_4
 70
0
 62
7
  6
CONTINUOUS
370
-3
390
F
  0
LAYER
  5
227
100
AcDbSymbolTableRecord
100
AcDbLayerTableRecord
  2
SUB_SMA_143000_5
 70
0
 62
7
  6
CONTINUOUS
370
-3
390
F
  0
LAYER
  5
228
100
AcDbSymbolTableRecord
100
AcDbLayerTableRecord
  2
SUPERFICI
 70
0
 62
7
  6
CONTINUOUS
370
-3
390
F
  0
LAYER
  5
229
100
AcDbSymbolTableRecord
100
AcDbLayerTableRecord
  2
TRASH
 70
0
 62
7
  6
CONTINUOUS
370
-3
390
F
  0
LAYER
  5
22A
100
AcDbSymbolTableRecord
100
AcDbLayerTableRecord
  2
VG_CN_THT_CONTATTO_SMART_RELE_1
 70
0
 62
7
  6
CONTINUOUS
370
-3
390
F
  0
LAYER
  5
22B
100
AcDbSymbolTableRecord
100
AcDbLayerTableRecord
  2
VG_CN_THT_CONTATTO_SMART_RELE_2
 70
0
 62
7
  6
CONTINUOUS
370
-3
390
F
  0
LAYER
  5
22C
100
AcDbSymbolTableRecord
100
AcDbLayerTableRecord
  2
VG_CN_THT_CONTATTO_SMART_RELE_3
 70
0
 62
7
  6
CONTINUOUS
370
-3
390
F
  0
LAYER
  5
22D
100
AcDbSymbolTableRecord
100
AcDbLayerTableRecord
  2
VG_CN_THT_CONTATTO_SMART_RELE__
 70
0
 62
7
  6
CONTINUOUS
370
-3
390
F
  0
LAYER
  5
22E
100
AcDbSymbolTableRecord
100
AcDbLayerTableRecord
  2
VG_FUSE-RAD-8_35-4_0-7_7-5_08-0
 70
0
 62
7
  6
CONTINUOUS
370
-3
390
F
  0
LAYER
  5
22F
100
AcDbSymbolTableRecord
100
AcDbLayerTableRecord
  2
VG_RES-RAD-5_0-15_0-5_0-0_7_200
 70
0
 62
7
  6
CONTINUOUS
370
-3
390
F
  0
LAYER
  5
230
100
AcDbSymbolTableRecord
100
AcDbLayerTableRecord
  2
VG_RES-RAD-5_0-15_0-5_0-0_7_2_1
 70
0
 62
7
  6
CONTINUOUS
370
-3
390
F
  0
LAYER
  5
231
100
AcDbSymbolTableRecord
100
AcDbLayerTableRecord
  2
VG_VAR_S05_D7_S4_3_H8_5_850000
 70
0
 62
7
  6
CONTINUOUS
370
-3
390
F
  0
LAYER
  5
232
100
AcDbSymbolTableRecord
100
AcDbLayerTableRecord
  2
___SHELL
 70
0
 62
7
  6
CONTINUOUS
370
-3
390
F
  0
ENDTAB
  0
TABLE
  2
STYLE
  5
3
100
AcDbSymbolTable
 70
1
  0
STYLE
  5
11
100
AcDbSymbolTableRecord
100
AcDbTextStyleTableRecord
  2
STANDARD
 70
0
 40
0.0
 41
0.8
 50
0.0
 71
0
 42
0.2
  3
txt
  4

  0
STYLE
  5
233
100
AcDbSymbolTableRecord
100
AcDbTextStyleTableRecord
  2
TEXTSTYLE_1
 70
0
 40
0.0
 41
0.8
 50
0.0
 71
0
 42
0.2
  3
gdt
  4

  0
ENDTAB
  0
TABLE
  2
VIEW
  5
6
100
AcDbSymbolTable
 70
0
  0
ENDTAB
  0
TABLE
  2
UCS
  5
7
100
AcDbSymbolTable
 70
0
  0
ENDTAB
  0
TABLE
  2
APPID
  5
9
100
AcDbSymbolTable
 70
1
  0
APPID
  5
234
100
AcDbSymbolTableRecord
100
AcDbRegAppTableRecord
  2
ACAD
 70
0
  0
ENDTAB
  0
TABLE
  2
BLOCK_RECORD
  5
1
100
AcDbSymbolTable
 70
0
  0
BLOCK_RECORD
  5
235
100
AcDbSymbolTableRecord
100
AcDbBlockTableRecord
  2
*Model_Space
  0
BLOCK_RECORD
  5
236
100
AcDbSymbolTableRecord
100
AcDbBlockTableRecord
  2
*Paper_Space
  0
BLOCK_RECORD
  5
237
100
AcDbSymbolTableRecord
100
AcDbBlockTableRecord
  2
_FILLED
  0
ENDTAB
  0
TABLE
  2
DIMSTYLE
  5
A
100
AcDbSymbolTable
 70
1
100
AcDbDimStyleTable
 71
0
  0
DIMSTYLE
105
238
100
AcDbSymbolTableRecord
100
AcDbDimStyleTableRecord
  2
STANDARD
 70
0
  3

  4

 40
1.0
 41
3.0
 42
0.5
 43
0.38
 44
1.5
 45
0.0
 46
0.0
 47
0.01
 48
0.01
140
3.0
141
0.09
142
0.0
143
25.4
144
1.0
145
0.0
146
1.0
147
0.625
 71
1
 72
0
 73
0
 74
0
 75
0
 76
0
 77
1
 78
8
 79
2
170
0
171
1
172
0
173
0
174
0
175
0
176
0
177
0
178
0
270
2
179
2
271
2
272
2
273
2
274
2
275
0
280
0
281
0
282
0
283
1
284
8
285
0
286
0
287
3
288
0
340
11
278
44
341
237
342
237
343
237
344
237
  0
ENDTAB
  0
ENDSEC
  0
SECTION
  2
BLOCKS
  0
BLOCK
  5
20
100
AcDbEntity
  8
0
100
AcDbBlockBegin
  2
*Model_Space
 70
0
 10
0.0
 20
0.0
 30
0.0
  3
*Model_Space
  1

  0
ENDBLK
  5
21
100
AcDbEntity
  8
0
100
AcDbBlockEnd
  0
BLOCK
  5
1C
100
AcDbEntity
  8
0
100
AcDbBlockBegin
  2
*Paper_Space
 70
0
 10
0.0
 20
0.0
 30
0.0
  3
*Paper_Space
  1

  0
ENDBLK
  5
1D
100
AcDbEntity
  8
0
100
AcDbBlockEnd
  0
BLOCK
  5
239
100
AcDbEntity
  8
0
100
AcDbBlockBegin
  2
_FILLED
 70
64
 10
0.0
 20
0.0
  3
_FILLED
  1

  0
SOLID
  5
23A
100
AcDbEntity
  8
0
  6
BYBLOCK
 62
0
100
AcDbTrace
 10
0.0
 20
0.0
 11
-1.0
 21
0.3166666667
 12
-1.0
 22
-0.3166666667
 13
-1.0
 23
-0.3166666667
  0
ENDBLK
  5
23B
100
AcDbEntity
  8
0
  6
BYBLOCK
 62
0
100
AcDbBlockEnd
  0
ENDSEC
  0
SECTION
  2
ENTITIES
  0
LWPOLYLINE
  5
23C
100
AcDbEntity
  8
RACCORDO
100
AcDbPolyline
 62
7
  6
CONTINUOUS
 90
7
 70
0
 10
0.8773575608
 20
-27.4186665162
 10
1.0011960519
 20
-27.4160999134
 10
1.2008476134
 20
-27.4011630525
 10
1.3992761034
 20
-27.3729346549
 10
1.5955010041
 20
-27.3314763609
 10
1.788633016
 20
-27.2769658731
 10
1.9909301265
 20
-27.204424741
  0
LINE
  5
23D
100
AcDbEntity
  8
RACCORDO
100
AcDbLine
 62
7
  6
CONTINUOUS
 10
0.8773575614
 20
-27.4186665162
 11
-0.8773575615
 21
-27.4186665162
  0
LINE
  5
23E
100
AcDbEntity
  8
RACCORDO
100
AcDbLine
 62
250
  6
CONTINUOUS
 10
0.8773575614
 20
-27.1291363652
 11
-0.8773575614
 21
-27.1291363652
  0
LWPOLYLINE
  5
23F
100
AcDbEntity
  8
RACCORDO
100
AcDbPolyline
 62
250
  6
CONTINUOUS
 90
25
 70
0
 10
-0.8773575614
 20
-27.1291363652
 10
-1.0599326085
 20
-27.122107168
 10
-1.2380914102
 20
-27.104305445
 10
-1.4118339665
 20
-27.0757311962
 10
-1.5810499502
 20
-27.036206936
 10
-1.7458496885
 20
-26.98591015
 10
-1.9065641628
 20
-26.925373295
 10
-2.0639798944
 20
-26.8544259441
 10
-2.217310362
 20
-26.7732385242
 10
-2.3645269827
 20
-26.6828547727
 10
-2.5054977977
 20
-26.583174972
 10
-2.6403547659
 20
-26.4742988396
 10
-2.7674651811
 20
-26.3575692658
 10
-2.8864232765
 20
-26.2336099135
 10
-2.9976348188
 20
-26.1017971198
 10
-3.1006844028
 20
-25.9616027857
 10
-3.1963716051
 20
-25.8116106138
 10
-3.2838968491
 20
-25.6532369016
 10
-3.3604459991
 20
-25.4902024426
 10
-3.4253279849
 20
-25.3216768173
 10
-3.4792338768
 20
-25.1484904452
 10
-3.5214227505
 20
-24.9768553785
 10
-3.5516476313
 20
-24.8088423012
 10
-3.5701554939
 20
-24.6423805294
 10
-3.5769463383
 20
-24.4774700628
  0
LWPOLYLINE
  5
240
100
AcDbEntity
  8
ASSI
100
AcDbPolyline
 62
250
  6
CONTINUOUS
 90
10
 70
0
 10
-8.2448744286
 20
26.0952764861
 10
-8.2745448972
 20
26.071236743
 10
-8.3040261293
 20
26.0457875324
 10
-8.3331300567
 20
26.0190911824
 10
-8.3616710084
 20
25.9913179755
 10
-8.3894669188
 20
25.9626450661
 10
-8.4163404957
 20
25.9332553566
 10
-8.4421203158
 20
25.9033363232
 10
-8.4666419135
 20
25.8730788137
 10
-8.489748857
 20
25.8426758391
  0
LWPOLYLINE
  5
241
100
AcDbEntity
  8
RACCORDO
100
AcDbPolyline
 62
250
  6
CONTINUOUS
 90
10
 70
0
 10
-8.2448744286
 20
26.0952764861
 10
-8.2745448972
 20
26.071236743
 10
-8.3040261293
 20
26.0457875324
 10
-8.3331300567
 20
26.0190911824
 10
-8.3616710084
 20
25.9913179755
 10
-8.3894669188
 20
25.9626450661
 10
-8.4163404957
 20
25.9332553566
 10
-8.4421203158
 20
25.9033363232
 10
-8.4666419135
 20
25.8730788137
 10
-8.489748857
 20
25.8426758391
  0
LWPOLYLINE
  5
242
100
AcDbEntity
  8
RACCORDO
100
AcDbPolyline
 62
7
  6
CONTINUOUS
 90
7
 70
0
 10
-1.9761426086
 20
-27.2102892008
 10
-1.7809607912
 20
-27.2794060079
 10
-1.5879142266
 20
-27.3333423536
 10
-1.3917914994
 20
-27.3742385897
 10
-1.1934969031
 20
-27.4019402017
 10
-0.9940488337
 20
-27.4163846627
 10
-0.8773575609
 20
-27.4186665162
  0
LWPOLYLINE
  5
243
100
AcDbEntity
  8
RACCORDO
100
AcDbPolyline
 62
7
  6
CONTINUOUS
 90
20
 70
0
 10
-1.9761827269
 20
-27.2102296342
 10
-2.0209204518
 20
-27.1922105131
 10
-2.1961075463
 20
-27.1133565018
 10
-2.3660118863
 20
-27.0233832068
 10
-2.5297680295
 20
-26.922737276
 10
-2.6866573162
 20
-26.811876617
 10
-2.8360953642
 20
-26.6912309977
 10
-2.9774771389
 20
-26.5612979197
 10
-3.1096472184
 20
-26.4232616964
 10
-3.2327322501
 20
-26.2771202584
 10
-3.3477207186
 20
-26.1213217549
 10
-3.4546220111
 20
-25.9547283945
 10
-3.5514650841
 20
-25.7791546083
 10
-3.6363447143
 20
-25.5975276332
 10
-3.7090821886
 20
-25.4101015875
 10
-3.7690861926
 20
-25.2182496196
 10
-3.8152077716
 20
-25.0271246215
 10
-3.847886063
 20
-24.839197377
 10
-3.868204665
 20
-24.6539657269
 10
-3.8769006468
 20
-24.4722351383
  0
LWPOLYLINE
  5
244
100
AcDbEntity
  8
RACCORDO
100
AcDbPolyline
 62
7
  6
CONTINUOUS
 90
19
 70
0
 10
-2.0132919549
 20
-27.1897872122
 10
-2.1876132358
 20
-27.1118975475
 10
-2.3567157127
 20
-27.0230255885
 10
-2.519820075
 20
-26.9235701466
 10
-2.6762729349
 20
-26.8139283246
 10
-2.8254311754
 20
-26.6945495263
 10
-2.9665958805
 20
-26.5660093524
 10
-3.0986527275
 20
-26.4294631951
 10
-3.2217231836
 20
-26.2849347777
 10
-3.336689424
 20
-26.1310793859
 10
-3.4433609011
 20
-25.967240748
 10
-3.5401672221
 20
-25.7948175165
 10
-3.6258035075
 20
-25.6154852462
 10
-3.6999002361
 20
-25.4294370073
 10
-3.7616944145
 20
-25.2379084692
 10
-3.8101161871
 20
-25.0445061679
 10
-3.8451751759
 20
-24.8511212934
 10
-3.8673467686
 20
-24.6577294719
 10
-3.8765517438
 20
-24.472217826
  0
LINE
  5
245
100
AcDbEntity
  8
ASSI
100
AcDbLine
 62
250
  6
CONTINUOUS
 10
-15.5164925325
 20
15.9319732378
 11
-15.5493140199
 21
15.893671792
  0
LINE
  5
246
100
AcDbEntity
  8
RACCORDO
100
AcDbLine
 62
250
  6
CONTINUOUS
 10
-15.5164925325
 20
15.9319732378
 11
-15.5493140199
 21
15.893671792
  0
LINE
  5
247
100
AcDbEntity
  8
ASSI
100
AcDbLine
 62
250
  6
CONTINUOUS
 10
-15.4803232229
 20
15.9664823811
 11
-15.5169839676
 21
15.9316313121
  0
LINE
  5
248
100
AcDbEntity
  8
RACCORDO
100
AcDbLine
 62
250
  6
CONTINUOUS
 10
-15.4803232229
 20
15.9664823811
 11
-15.5169839676
 21
15.9316313121
  0
LWPOLYLINE
  5
249
100
AcDbEntity
  8
RACCORDO
100
AcDbPolyline
 62
250
  6
CONTINUOUS
 90
13
 70
0
 10
-3.8769006468
 20
-24.4722351383
 10
-3.874323567
 20
-24.4735564878
 10
-3.8666602505
 20
-24.4747657012
 10
-3.8540417682
 20
-24.4758420965
 10
-3.8366839421
 20
-24.4767672635
 10
-3.8148836545
 20
-24.4775253783
 10
-3.7890137699
 20
-24.4781034744
 10
-3.7595167578
 20
-24.4784916642
 10
-3.7268971248
 20
-24.4786833081
 10
-3.6917127857
 20
-24.4786751285
 10
-3.6545655213
 20
-24.4784672652
 10
-3.6160906854
 20
-24.4780632734
 10
-3.5769463383
 20
-24.4774700628
  0
LWPOLYLINE
  5
24A
100
AcDbEntity
  8
ASSI
100
AcDbPolyline
 62
7
  6
CONTINUOUS
 90
10
 70
0
 10
-18.0090287837
 20
9.2008087754
 10
-18.0145622747
 20
9.1846345305
 10
-18.0197993748
 20
9.167320143
 10
-18.0243936193
 20
9.1498243461
 10
-18.0283412822
 20
9.1321586139
 10
-18.0316335504
 20
9.1143592222
 10
-18.0342611203
 20
9.0964880643
 10
-18.0362234314
 20
9.0785826264
 10
-18.0375240633
 20
9.0606551049
 10
-18.0378053845
 20
9.0548112676
  0
LWPOLYLINE
  5
24B
100
AcDbEntity
  8
RACCORDO
100
AcDbPolyline
 62
7
  6
CONTINUOUS
 90
10
 70
0
 10
-18.0090287837
 20
9.2008087754
 10
-18.0145622747
 20
9.1846345305
 10
-18.0197993748
 20
9.167320143
 10
-18.0243936193
 20
9.1498243461
 10
-18.0283412822
 20
9.1321586139
 10
-18.0316335504
 20
9.1143592222
 10
-18.0342611203
 20
9.0964880643
 10
-18.0362234314
 20
9.0785826264
 10
-18.0375240633
 20
9.0606551049
 10
-18.0378053845
 20
9.0548112676
  0
LINE
  5
24C
100
AcDbEntity
  8
ASSI
100
AcDbLine
 62
250
  6
CONTINUOUS
 10
-15.6103082873
 20
15.7965749853
 11
-15.5907794121
 21
15.8529488872
  0
LINE
  5
24D
100
AcDbEntity
  8
RACCORDO
100
AcDbLine
 62
250
  6
CONTINUOUS
 10
-15.6103082873
 20
15.7965749853
 11
-15.5907794121
 21
15.8529488872
  0
LINE
  5
24E
100
AcDbEntity
  8
ASSI
100
AcDbLine
 62
250
  6
CONTINUOUS
 10
-15.5907794121
 20
15.8529488872
 11
-15.5438604563
 21
15.9855752812
  0
LINE
  5
24F
100
AcDbEntity
  8
RACCORDO
100
AcDbLine
 62
250
  6
CONTINUOUS
 10
-15.5907794121
 20
15.8529488872
 11
-15.5438604563
 21
15.9855752812
  0
LINE
  5
250
100
AcDbEntity
  8
ASSI
100
AcDbLine
 62
250
  6
CONTINUOUS
 10
-15.5438604563
 20
15.9855752812
 11
-15.4514878863
 21
16.2432637065
  0
LINE
  5
251
100
AcDbEntity
  8
RACCORDO
100
AcDbLine
 62
250
  6
CONTINUOUS
 10
-15.5438604563
 20
15.9855752812
 11
-15.4514878863
 21
16.2432637065
  0
LINE
  5
252
100
AcDbEntity
  8
ASSI
100
AcDbLine
 62
250
  6
CONTINUOUS
 10
-15.4514878863
 20
16.2432637065
 11
-15.3341374493
 21
16.5678435428
  0
LINE
  5
253
100
AcDbEntity
  8
RACCORDO
100
AcDbLine
 62
250
  6
CONTINUOUS
 10
-15.4514878863
 20
16.2432637065
 11
-15.3341374493
 21
16.5678435428
  0
LINE
  5
254
100
AcDbEntity
  8
ASSI
100
AcDbLine
 62
250
  6
CONTINUOUS
 10
-18.0086894484
 20
9.2017439023
 11
-18.0090287837
 21
9.2008087754
  0
LINE
  5
255
100
AcDbEntity
  8
RACCORDO
100
AcDbLine
 62
250
  6
CONTINUOUS
 10
-18.0086894484
 20
9.2017439023
 11
-18.0090287837
 21
9.2008087754
  0
LINE
  5
256
100
AcDbEntity
  8
ASSI
100
AcDbLine
 62
250
  6
CONTINUOUS
 10
-15.3341374493
 20
16.5678435428
 11
-15.2705545511
 21
16.74283921
  0
LINE
  5
257
100
AcDbEntity
  8
RACCORDO
100
AcDbLine
 62
250
  6
CONTINUOUS
 10
-15.3341374493
 20
16.5678435428
 11
-15.2705545511
 21
16.74283921
  0
LINE
  5
258
100
AcDbEntity
  8
ASSI
100
AcDbLine
 62
7
  6
CONTINUOUS
 10
-11.6173476905
 20
26.7814715007
 11
-15.2705545511
 21
16.74283921
  0
LINE
  5
259
100
AcDbEntity
  8
RACCORDO
100
AcDbLine
 62
7
  6
CONTINUOUS
 10
-11.6173476905
 20
26.7814715007
 11
-15.2705545511
 21
16.74283921
  0
LINE
  5
25A
100
AcDbEntity
  8
ASSI
100
AcDbLine
 62
7
  6
CONTINUOUS
 10
-15.6210202674
 20
15.7628103444
 11
-18.0086894484
 21
9.2017439023
  0
LINE
  5
25B
100
AcDbEntity
  8
RACCORDO
100
AcDbLine
 62
7
  6
CONTINUOUS
 10
-15.6210202674
 20
15.7628103444
 11
-18.0086894484
 21
9.2017439023
  0
LINE
  5
25C
100
AcDbEntity
  8
ASSI
100
AcDbLine
 62
7
  6
CONTINUOUS
 10
-18.0086894484
 20
9.5612020447
 11
-15.6210202674
 21
16.1182716624
  0
LINE
  5
25D
100
AcDbEntity
  8
RACCORDO
100
AcDbLine
 62
7
  6
CONTINUOUS
 10
-18.0086894484
 20
9.5612020447
 11
-15.6210202674
 21
16.1182716624
  0
LINE
  5
25E
100
AcDbEntity
  8
ASSI
100
AcDbLine
 62
250
  6
CONTINUOUS
 10
-15.3357272318
 20
16.885057937
 11
-15.3418685764
 21
16.8682530756
  0
LINE
  5
25F
100
AcDbEntity
  8
RACCORDO
100
AcDbLine
 62
250
  6
CONTINUOUS
 10
-15.3357272318
 20
16.885057937
 11
-15.3418685764
 21
16.8682530756
  0
LINE
  5
260
100
AcDbEntity
  8
ASSI
100
AcDbLine
 62
7
  6
CONTINUOUS
 10
-11.6173476905
 20
27.0962597996
 11
-15.3886747089
 21
16.7403752324
  0
LINE
  5
261
100
AcDbEntity
  8
RACCORDO
100
AcDbLine
 62
7
  6
CONTINUOUS
 10
-11.6173476905
 20
27.0962597996
 11
-15.3886747089
 21
16.7403752324
  0
LINE
  5
262
100
AcDbEntity
  8
ASSI
100
AcDbLine
 62
7
  6
CONTINUOUS
 10
-15.3886747089
 20
16.7403752324
 11
-15.500486045
 21
16.4364265241
  0
LINE
  5
263
100
AcDbEntity
  8
RACCORDO
100
AcDbLine
 62
7
  6
CONTINUOUS
 10
-15.3886747089
 20
16.7403752324
 11
-15.500486045
 21
16.4364265241
  0
LINE
  5
264
100
AcDbEntity
  8
ASSI
100
AcDbLine
 62
7
  6
CONTINUOUS
 10
-15.500486045
 20
16.4364265241
 11
-15.5651497819
 21
16.2624529495
  0
LINE
  5
265
100
AcDbEntity
  8
RACCORDO
100
AcDbLine
 62
7
  6
CONTINUOUS
 10
-15.500486045
 20
16.4364265241
 11
-15.5651497819
 21
16.2624529495
  0
LINE
  5
266
100
AcDbEntity
  8
ASSI
100
AcDbLine
 62
250
  6
CONTINUOUS
 10
-15.5618231797
 20
16.2712776934
 11
-15.5651497819
 21
16.2624529495
  0
LINE
  5
267
100
AcDbEntity
  8
RACCORDO
100
AcDbLine
 62
250
  6
CONTINUOUS
 10
-15.5618231797
 20
16.2712776934
 11
-15.5651497819
 21
16.2624529495
  0
LINE
  5
268
100
AcDbEntity
  8
ASSI
100
AcDbLine
 62
7
  6
CONTINUOUS
 10
-15.5651497819
 20
16.2624529495
 11
-15.5924578391
 21
16.1899723072
  0
LINE
  5
269
100
AcDbEntity
  8
RACCORDO
100
AcDbLine
 62
7
  6
CONTINUOUS
 10
-15.5651497819
 20
16.2624529495
 11
-15.5924578391
 21
16.1899723072
  0
LINE
  5
26A
100
AcDbEntity
  8
ASSI
100
AcDbLine
 62
250
  6
CONTINUOUS
 10
-15.5907794122
 20
16.1942799446
 11
-15.5924578391
 21
16.1899723072
  0
LINE
  5
26B
100
AcDbEntity
  8
RACCORDO
100
AcDbLine
 62
250
  6
CONTINUOUS
 10
-15.5907794122
 20
16.1942799446
 11
-15.5924578391
 21
16.1899723072
  0
LINE
  5
26C
100
AcDbEntity
  8
ASSI
100
AcDbLine
 62
250
  6
CONTINUOUS
 10
-15.5988622903
 20
16.1732194734
 11
-15.6017729212
 21
16.1654363298
  0
LINE
  5
26D
100
AcDbEntity
  8
RACCORDO
100
AcDbLine
 62
250
  6
CONTINUOUS
 10
-15.5988622903
 20
16.1732194734
 11
-15.6017729212
 21
16.1654363298
  0
LINE
  5
26E
100
AcDbEntity
  8
ASSI
100
AcDbLine
 62
7
  6
CONTINUOUS
 10
-15.5924578391
 20
16.1899723072
 11
-15.6007158423
 21
16.1684052011
  0
LINE
  5
26F
100
AcDbEntity
  8
RACCORDO
100
AcDbLine
 62
7
  6
CONTINUOUS
 10
-15.5924578391
 20
16.1899723072
 11
-15.6007158423
 21
16.1684052011
  0
LWPOLYLINE
  5
270
100
AcDbEntity
  8
ASSI
100
AcDbPolyline
 62
250
  6
CONTINUOUS
 90
3
 70
0
 10
-15.606860469
 20
16.1525785085
 10
-15.6103082878
 20
16.1433599022
 10
-15.6163370902
 20
16.1281705936
  0
LWPOLYLINE
  5
271
100
AcDbEntity
  8
RACCORDO
100
AcDbPolyline
 62
250
  6
CONTINUOUS
 90
3
 70
0
 10
-15.606860469
 20
16.1525785085
 10
-15.6103082878
 20
16.1433599022
 10
-15.6163370902
 20
16.1281705936
  0
LINE
  5
272
100
AcDbEntity
  8
ASSI
100
AcDbLine
 62
7
  6
CONTINUOUS
 10
-15.6007158423
 20
16.1684052011
 11
-15.606860469
 21
16.1525785085
  0
LINE
  5
273
100
AcDbEntity
  8
RACCORDO
100
AcDbLine
 62
7
  6
CONTINUOUS
 10
-15.6007158423
 20
16.1684052011
 11
-15.606860469
 21
16.1525785085
  0
LINE
  5
274
100
AcDbEntity
  8
ASSI
100
AcDbLine
 62
7
  6
CONTINUOUS
 10
-15.606860469
 20
16.1525785085
 11
-15.6088916026
 21
16.1474065841
  0
LINE
  5
275
100
AcDbEntity
  8
RACCORDO
100
AcDbLine
 62
7
  6
CONTINUOUS
 10
-15.606860469
 20
16.1525785085
 11
-15.6088916026
 21
16.1474065841
  0
LWPOLYLINE
  5
276
100
AcDbEntity
  8
ASSI
100
AcDbPolyline
 62
7
  6
CONTINUOUS
 90
3
 70
0
 10
-15.6088916026
 20
16.1474065841
 10
-15.6098694226
 20
16.1449514846
 10
-15.6099068543
 20
16.1448588478
  0
LWPOLYLINE
  5
277
100
AcDbEntity
  8
RACCORDO
100
AcDbPolyline
 62
7
  6
CONTINUOUS
 90
3
 70
0
 10
-15.6088916026
 20
16.1474065841
 10
-15.6098694226
 20
16.1449514846
 10
-15.6099068543
 20
16.1448588478
  0
LWPOLYLINE
  5
278
100
AcDbEntity
  8
ASSI
100
AcDbPolyline
 62
250
  6
CONTINUOUS
 90
12
 70
0
 10
-11.6173476905
 20
27.0962597996
 10
-11.5982159644
 20
27.1415919432
 10
-11.5745294522
 20
27.1849457602
 10
-11.5464765416
 20
27.2258518015
 10
-11.5142504028
 20
27.2639047078
 10
-11.4781731116
 20
27.2986154547
 10
-11.4387403128
 20
27.3294648977
 10
-11.3964240386
 20
27.3560966324
 10
-11.3516122378
 20
27.3782784849
 10
-11.3047602811
 20
27.3957825599
 10
-11.2563511251
 20
27.408423521
 10
-11.2068920267
 20
27.4160641625
  0
LWPOLYLINE
  5
279
100
AcDbEntity
  8
RACCORDO
100
AcDbPolyline
 62
250
  6
CONTINUOUS
 90
12
 70
0
 10
-11.6173476905
 20
27.0962597996
 10
-11.5982159644
 20
27.1415919432
 10
-11.5745294522
 20
27.1849457602
 10
-11.5464765416
 20
27.2258518015
 10
-11.5142504028
 20
27.2639047078
 10
-11.4781731116
 20
27.2986154547
 10
-11.4387403128
 20
27.3294648977
 10
-11.3964240386
 20
27.3560966324
 10
-11.3516122378
 20
27.3782784849
 10
-11.3047602811
 20
27.3957825599
 10
-11.2563511251
 20
27.408423521
 10
-11.2068920267
 20
27.4160641625
  0
LINE
  5
27A
100
AcDbEntity
  8
ASSI
100
AcDbLine
 62
250
  6
CONTINUOUS
 10
-15.6024047617
 20
16.1621201679
 11
-15.6210202674
 21
16.118093538
  0
LINE
  5
27B
100
AcDbEntity
  8
RACCORDO
100
AcDbLine
 62
250
  6
CONTINUOUS
 10
-15.6024047617
 20
16.1621201679
 11
-15.6210202674
 21
16.118093538
  0
LWPOLYLINE
  5
27C
100
AcDbEntity
  8
ASSI
100
AcDbPolyline
 62
250
  6
CONTINUOUS
 90
3
 70
0
 10
-15.6210202674
 20
15.7629884688
 10
-15.601602935
 20
15.80891146
 10
-15.5776180527
 20
15.852623469
  0
LWPOLYLINE
  5
27D
100
AcDbEntity
  8
RACCORDO
100
AcDbPolyline
 62
250
  6
CONTINUOUS
 90
3
 70
0
 10
-15.6210202674
 20
15.7629884688
 10
-15.601602935
 20
15.80891146
 10
-15.5776180527
 20
15.852623469
  0
LWPOLYLINE
  5
27E
100
AcDbEntity
  8
ASSI
100
AcDbPolyline
 62
250
  6
CONTINUOUS
 90
4
 70
0
 10
-15.1605708832
 20
16.0853494939
 10
-15.1594542661
 20
16.087648582
 10
-15.1558811636
 20
16.0932238109
 10
-15.1498515756
 20
16.1021424979
  0
LWPOLYLINE
  5
27F
100
AcDbEntity
  8
RACCORDO
100
AcDbPolyline
 62
250
  6
CONTINUOUS
 90
4
 70
0
 10
-15.1605708832
 20
16.0853494939
 10
-15.1594542661
 20
16.087648582
 10
-15.1558811636
 20
16.0932238109
 10
-15.1498515756
 20
16.1021424979
  0
LINE
  5
280
100
AcDbEntity
  8
ASSI
100
AcDbLine
 62
250
  6
CONTINUOUS
 10
-15.61990775
 20
16.1197484722
 11
-15.6210202674
 21
16.118093538
  0
LINE
  5
281
100
AcDbEntity
  8
RACCORDO
100
AcDbLine
 62
250
  6
CONTINUOUS
 10
-15.61990775
 20
16.1197484722
 11
-15.6210202674
 21
16.118093538
  0
LINE
  5
282
100
AcDbEntity
  8
ASSI
100
AcDbLine
 62
250
  6
CONTINUOUS
 10
-15.5489677692
 20
15.8939443003
 11
-15.5774094415
 21
15.852783197
  0
LINE
  5
283
100
AcDbEntity
  8
RACCORDO
100
AcDbLine
 62
250
  6
CONTINUOUS
 10
-15.5489677692
 20
15.8939443003
 11
-15.5774094415
 21
15.852783197
  0
LWPOLYLINE
  5
284
100
AcDbEntity
  8
ASSI
100
AcDbPolyline
 62
250
  6
CONTINUOUS
 90
4
 70
0
 10
-15.1498515756
 20
16.1021424979
 10
-15.1303281085
 20
16.1302283998
 10
-15.1170238989
 20
16.1492576893
 10
-15.1013733893
 20
16.1713944791
  0
LWPOLYLINE
  5
285
100
AcDbEntity
  8
RACCORDO
100
AcDbPolyline
 62
250
  6
CONTINUOUS
 90
4
 70
0
 10
-15.1498515756
 20
16.1021424979
 10
-15.1303281085
 20
16.1302283998
 10
-15.1170238989
 20
16.1492576893
 10
-15.1013733893
 20
16.1713944791
  0
LWPOLYLINE
  5
286
100
AcDbEntity
  8
ASSI
100
AcDbPolyline
 62
250
  6
CONTINUOUS
 90
3
 70
0
 10
-15.1013733893
 20
16.1713944791
 10
-15.0411738101
 20
16.2557365015
 10
-14.9634503787
 20
16.363791784
  0
LWPOLYLINE
  5
287
100
AcDbEntity
  8
RACCORDO
100
AcDbPolyline
 62
250
  6
CONTINUOUS
 90
3
 70
0
 10
-15.1013733893
 20
16.1713944791
 10
-15.0411738101
 20
16.2557365015
 10
-14.9634503787
 20
16.363791784
  0
LWPOLYLINE
  5
288
100
AcDbEntity
  8
ASSI
100
AcDbPolyline
 62
250
  6
CONTINUOUS
 90
3
 70
0
 10
-14.8736980219
 20
16.488228287
 10
-14.8423121533
 20
16.5315601215
 10
-14.810105167
 20
16.5752748645
  0
LWPOLYLINE
  5
289
100
AcDbEntity
  8
RACCORDO
100
AcDbPolyline
 62
250
  6
CONTINUOUS
 90
3
 70
0
 10
-14.8736980219
 20
16.488228287
 10
-14.8423121533
 20
16.5315601215
 10
-14.810105167
 20
16.5752748645
  0
LWPOLYLINE
  5
28A
100
AcDbEntity
  8
ASSI
100
AcDbPolyline
 62
250
  6
CONTINUOUS
 90
3
 70
0
 10
-14.9634503787
 20
16.363791784
 10
-14.9342671346
 20
16.4040097054
 10
-14.8736980219
 20
16.488228287
  0
LWPOLYLINE
  5
28B
100
AcDbEntity
  8
RACCORDO
100
AcDbPolyline
 62
250
  6
CONTINUOUS
 90
3
 70
0
 10
-14.9634503787
 20
16.363791784
 10
-14.9342671346
 20
16.4040097054
 10
-14.8736980219
 20
16.488228287
  0
LINE
  5
28C
100
AcDbEntity
  8
ASSI
100
AcDbLine
 62
250
  6
CONTINUOUS
 10
-15.4408259191
 20
15.9971264622
 11
-15.4809627219
 21
15.9661089012
  0
LINE
  5
28D
100
AcDbEntity
  8
RACCORDO
100
AcDbLine
 62
250
  6
CONTINUOUS
 10
-15.4408259191
 20
15.9971264622
 11
-15.4809627219
 21
15.9661089012
  0
LINE
  5
28E
100
AcDbEntity
  8
ASSI
100
AcDbLine
 62
250
  6
CONTINUOUS
 10
-15.3983498583
 20
16.0236211251
 11
-15.441623337
 21
15.9967474922
  0
LINE
  5
28F
100
AcDbEntity
  8
RACCORDO
100
AcDbLine
 62
250
  6
CONTINUOUS
 10
-15.3983498583
 20
16.0236211251
 11
-15.441623337
 21
15.9967474922
  0
LINE
  5
290
100
AcDbEntity
  8
ASSI
100
AcDbLine
 62
250
  6
CONTINUOUS
 10
-15.3533923659
 20
16.0456436778
 11
-15.3993732315
 21
16.0232297763
  0
LINE
  5
291
100
AcDbEntity
  8
RACCORDO
100
AcDbLine
 62
250
  6
CONTINUOUS
 10
-15.3533923659
 20
16.0456436778
 11
-15.3993732315
 21
16.0232297763
  0
LINE
  5
292
100
AcDbEntity
  8
ASSI
100
AcDbLine
 62
250
  6
CONTINUOUS
 10
-15.3066095307
 20
16.0629062155
 11
-15.3546499686
 21
16.0452814898
  0
LINE
  5
293
100
AcDbEntity
  8
RACCORDO
100
AcDbLine
 62
250
  6
CONTINUOUS
 10
-15.3066095307
 20
16.0629062155
 11
-15.3546499686
 21
16.0452814898
  0
LINE
  5
294
100
AcDbEntity
  8
ASSI
100
AcDbLine
 62
250
  6
CONTINUOUS
 10
11.1568983063
 20
26.6139071552
 11
11.6173476905
 21
26.7814715007
  0
LINE
  5
295
100
AcDbEntity
  8
RACCORDO
100
AcDbLine
 62
250
  6
CONTINUOUS
 10
11.1568983063
 20
26.6139071552
 11
11.6173476905
 21
26.7814715007
  0
LINE
  5
296
100
AcDbEntity
  8
ASSI
100
AcDbLine
 62
250
  6
CONTINUOUS
 10
-18.5678933281
 20
-4.195580428
 11
-18.5678967979
 21
-4.1955347448
  0
LINE
  5
297
100
AcDbEntity
  8
RACCORDO
100
AcDbLine
 62
250
  6
CONTINUOUS
 10
-18.5678933281
 20
-4.195580428
 11
-18.5678967979
 21
-4.1955347448
  0
LINE
  5
298
100
AcDbEntity
  8
ASSI
100
AcDbLine
 62
250
  6
CONTINUOUS
 10
-18.4806180035
 20
0.8036580478
 11
-18.4806214732
 21
0.803703731
  0
LINE
  5
299
100
AcDbEntity
  8
RACCORDO
100
AcDbLine
 62
250
  6
CONTINUOUS
 10
-18.4806180035
 20
0.8036580478
 11
-18.4806214732
 21
0.803703731
  0
LWPOLYLINE
  5
29A
100
AcDbEntity
  8
ASSI
100
AcDbPolyline
 62
7
  6
CONTINUOUS
 90
17
 70
0
 10
-18.2958397859
 20
-5.5756216812
 10
-18.2970454453
 20
-5.5451854563
 10
-18.3013312147
 20
-5.5150283054
 10
-18.3086529286
 20
-5.4854611492
 10
-18.3189351182
 20
-5.4567888263
 10
-18.3320717998
 20
-5.429306916
 10
-18.3479275729
 20
-5.4032987112
 10
-18.3663390063
 20
-5.3790323364
 10
-18.3871162954
 20
-5.3567579965
 10
-18.4100452246
 20
-5.3367053644
 10
-18.434889413
 20
-5.3190811811
 10
-18.4613927383
 20
-5.3040671484
 10
-18.4892819443
 20
-5.2918180718
 10
-18.5182695074
 20
-5.2824602348
 10
-18.5480565814
 20
-5.2760901135
 10
-18.5783360505
 20
-5.2727733839
 10
-18.5958198763
 20
-5.2722634771
  0
LWPOLYLINE
  5
29B
100
AcDbEntity
  8
RACCORDO
100
AcDbPolyline
 62
7
  6
CONTINUOUS
 90
17
 70
0
 10
-18.2958397859
 20
-5.5756216812
 10
-18.2970454453
 20
-5.5451854563
 10
-18.3013312147
 20
-5.5150283054
 10
-18.3086529286
 20
-5.4854611492
 10
-18.3189351182
 20
-5.4567888263
 10
-18.3320717998
 20
-5.429306916
 10
-18.3479275729
 20
-5.4032987112
 10
-18.3663390063
 20
-5.3790323364
 10
-18.3871162954
 20
-5.3567579965
 10
-18.4100452246
 20
-5.3367053644
 10
-18.434889413
 20
-5.3190811811
 10
-18.4613927383
 20
-5.3040671484
 10
-18.4892819443
 20
-5.2918180718
 10
-18.5182695074
 20
-5.2824602348
 10
-18.5480565814
 20
-5.2760901135
 10
-18.5783360505
 20
-5.2727733839
 10
-18.5958198763
 20
-5.2722634771
  0
LWPOLYLINE
  5
29C
100
AcDbEntity
  8
ASSI
100
AcDbPolyline
 62
7
  6
CONTINUOUS
 90
17
 70
0
 10
-18.2085644613
 20
-0.5763832054
 10
-18.2097701206
 20
-0.5459469805
 10
-18.21405589
 20
-0.5157898297
 10
-18.221377604
 20
-0.4862226734
 10
-18.2316597935
 20
-0.4575503505
 10
-18.2447964751
 20
-0.4300684402
 10
-18.2606522483
 20
-0.4040602354
 10
-18.2790636817
 20
-0.3797938606
 10
-18.2998409708
 20
-0.3575195207
 10
-18.3227699
 20
-0.3374668886
 10
-18.3476140884
 20
-0.3198427053
 10
-18.3741174137
 20
-0.3048286727
 10
-18.4020066196
 20
-0.2925795961
 10
-18.4309941828
 20
-0.283221759
 10
-18.4607812567
 20
-0.2768516377
 10
-18.4910607259
 20
-0.2735349081
 10
-18.5085445517
 20
-0.2730250013
  0
LWPOLYLINE
  5
29D
100
AcDbEntity
  8
RACCORDO
100
AcDbPolyline
 62
7
  6
CONTINUOUS
 90
17
 70
0
 10
-18.2085644613
 20
-0.5763832054
 10
-18.2097701206
 20
-0.5459469805
 10
-18.21405589
 20
-0.5157898297
 10
-18.221377604
 20
-0.4862226734
 10
-18.2316597935
 20
-0.4575503505
 10
-18.2447964751
 20
-0.4300684402
 10
-18.2606522483
 20
-0.4040602354
 10
-18.2790636817
 20
-0.3797938606
 10
-18.2998409708
 20
-0.3575195207
 10
-18.3227699
 20
-0.3374668886
 10
-18.3476140884
 20
-0.3198427053
 10
-18.3741174137
 20
-0.3048286727
 10
-18.4020066196
 20
-0.2925795961
 10
-18.4309941828
 20
-0.283221759
 10
-18.4607812567
 20
-0.2768516377
 10
-18.4910607259
 20
-0.2735349081
 10
-18.5085445517
 20
-0.2730250013
  0
LINE
  5
29E
100
AcDbEntity
  8
ASSI
100
AcDbLine
 62
7
  6
CONTINUOUS
 10
-19.5
 20
-4.9722644029
 11
-19.4992630498
 21
-4.9932761263
  0
LINE
  5
29F
100
AcDbEntity
  8
RACCORDO
100
AcDbLine
 62
7
  6
CONTINUOUS
 10
-19.5
 20
-4.9722644029
 11
-19.4992630498
 21
-4.9932761263
  0
LINE
  5
2A0
100
AcDbEntity
  8
ASSI
100
AcDbLine
 62
7
  6
CONTINUOUS
 10
-19.5
 20
0.0269740728
 11
-19.4992630498
 21
0.0059623495
  0
LINE
  5
2A1
100
AcDbEntity
  8
RACCORDO
100
AcDbLine
 62
7
  6
CONTINUOUS
 10
-19.5
 20
0.0269740728
 11
-19.4992630498
 21
0.0059623495
  0
LWPOLYLINE
  5
2A2
100
AcDbEntity
  8
RACCORDO
100
AcDbPolyline
 62
7
  6
CONTINUOUS
 90
40
 70
0
 10
-18.4876900171
 20
-18.1245278966
 10
-18.4875857506
 20
-18.1287756883
 10
-18.486677734
 20
-18.1444647003
 10
-18.4849494841
 20
-18.1600851495
 10
-18.482405667
 20
-18.1755941771
 10
-18.4790613141
 20
-18.1909161775
 10
-18.4749307053
 20
-18.2060103972
 10
-18.4700301371
 20
-18.220837183
 10
-18.4643909956
 20
-18.2353267009
 10
-18.4580382111
 20
-18.249443839
 10
-18.4509982179
 20
-18.2631553325
 10
-18.4433166015
 20
-18.2764008829
 10
-18.4350269322
 20
-18.2891535985
 10
-18.4261633208
 20
-18.301389351
 10
-18.4167820429
 20
-18.3130608286
 10
-18.4069229109
 20
-18.3241508036
 10
-18.3966242554
 20
-18.3346463512
 10
-18.3859472081
 20
-18.3445165369
 10
-18.3749262939
 20
-18.3537611508
 10
-18.3636080873
 20
-18.3623711821
 10
-18.3520782469
 20
-18.3703157343
 10
-18.3403837537
 20
-18.3776002333
 10
-18.3285605453
 20
-18.3842383857
 10
-18.3166814868
 20
-18.390226379
 10
-18.304778999
 20
-18.3955858394
 10
-18.2928935086
 20
-18.4003350242
 10
-18.2811074404
 20
-18.4044801259
 10
-18.2693517514
 20
-18.4080798284
 10
-18.257746512
 20
-18.4111304702
 10
-18.2466415013
 20
-18.4135986614
 10
-18.235886555
 20
-18.4155830441
 10
-18.2255884983
 20
-18.4171233423
 10
-18.2164226289
 20
-18.4182135169
 10
-18.2086671115
 20
-18.4189457515
 10
-18.2017554285
 20
-18.4194691963
 10
-18.195116967
 20
-18.4198769971
 10
-18.1886650729
 20
-18.4202033962
 10
-18.1822650528
 20
-18.4204758058
 10
-18.1754620246
 20
-18.42072315
 10
-18.1604417468
 20
-18.4211625275
  0
LINE
  5
2A3
100
AcDbEntity
  8
RACCORDO
100
AcDbLine
 62
7
  6
CONTINUOUS
 10
-18.4876900647
 20
-18.1245239306
 11
-18.5
 21
-17.4196104575
  0
LINE
  5
2A4
100
AcDbEntity
  8
RACCORDO
100
AcDbLine
 62
250
  6
CONTINUOUS
 10
-17.9877662171
 20
-18.1332488047
 11
-18.0000761524
 21
-17.4283353316
  0
LINE
  5
2A5
100
AcDbEntity
  8
ASSI
100
AcDbLine
 62
7
  6
CONTINUOUS
 10
-19.5
 20
-4.9722644029
 11
-19.5
 21
-4.4955347366
  0
LINE
  5
2A6
100
AcDbEntity
  8
RACCORDO
100
AcDbLine
 62
7
  6
CONTINUOUS
 10
-19.5
 20
-4.9722644029
 11
-19.5
 21
-4.4955347366
  0
LINE
  5
2A7
100
AcDbEntity
  8
ASSI
100
AcDbLine
 62
7
  6
CONTINUOUS
 10
-19.5
 20
0.0269740728
 11
-19.5
 21
0.5037037392
  0
LINE
  5
2A8
100
AcDbEntity
  8
RACCORDO
100
AcDbLine
 62
7
  6
CONTINUOUS
 10
-19.5
 20
0.0269740728
 11
-19.5
 21
0.5037037392
  0
LINE
  5
2A9
100
AcDbEntity
  8
ASSI
100
AcDbLine
 62
250
  6
CONTINUOUS
 10
-19.2
 20
-5.2722644029
 11
-19.2
 21
-4.195580428
  0
LINE
  5
2AA
100
AcDbEntity
  8
RACCORDO
100
AcDbLine
 62
250
  6
CONTINUOUS
 10
-19.2
 20
-5.2722644029
 11
-19.2
 21
-4.195580428
  0
LINE
  5
2AB
100
AcDbEntity
  8
ASSI
100
AcDbLine
 62
250
  6
CONTINUOUS
 10
-19.2
 20
-0.2730259272
 11
-19.2
 21
0.8036580478
  0
LINE
  5
2AC
100
AcDbEntity
  8
RACCORDO
100
AcDbLine
 62
250
  6
CONTINUOUS
 10
-19.2
 20
-0.2730259272
 11
-19.2
 21
0.8036580478
  0
LINE
  5
2AD
100
AcDbEntity
  8
ASSI
100
AcDbLine
 62
250
  6
CONTINUOUS
 10
-18.5678933349
 20
-4.2723710163
 11
-18.5678933349
 21
-4.195580428
  0
LINE
  5
2AE
100
AcDbEntity
  8
RACCORDO
100
AcDbLine
 62
250
  6
CONTINUOUS
 10
-18.5678933349
 20
-4.2723710163
 11
-18.5678933349
 21
-4.195580428
  0
LINE
  5
2AF
100
AcDbEntity
  8
ASSI
100
AcDbLine
 62
250
  6
CONTINUOUS
 10
-18.4806180102
 20
0.7268674594
 11
-18.4806180102
 21
0.8036580478
  0
LINE
  5
2B0
100
AcDbEntity
  8
RACCORDO
100
AcDbLine
 62
250
  6
CONTINUOUS
 10
-18.4806180102
 20
0.7268674594
 11
-18.4806180102
 21
0.8036580478
  0
LINE
  5
2B1
100
AcDbEntity
  8
ASSI
100
AcDbLine
 62
250
  6
CONTINUOUS
 10
-18.0381654348
 20
9.0427299335
 11
-18.0381654348
 21
9.4021880759
  0
LINE
  5
2B2
100
AcDbEntity
  8
RACCORDO
100
AcDbLine
 62
250
  6
CONTINUOUS
 10
-18.0381654348
 20
9.0427299335
 11
-18.0381654348
 21
9.4021880759
  0
LINE
  5
2B3
100
AcDbEntity
  8
ASSI
100
AcDbLine
 62
250
  6
CONTINUOUS
 10
-18.0086894484
 20
9.2017439023
 11
-18.0086894484
 21
9.5612020447
  0
LINE
  5
2B4
100
AcDbEntity
  8
RACCORDO
100
AcDbLine
 62
250
  6
CONTINUOUS
 10
-18.0086894484
 20
9.2017439023
 11
-18.0086894484
 21
9.5612020447
  0
LINE
  5
2B5
100
AcDbEntity
  8
RACCORDO
100
AcDbLine
 62
250
  6
CONTINUOUS
 10
-17.9877662132
 20
-18.4227789557
 11
-17.9877662258
 21
-18.1332488048
  0
LINE
  5
2B6
100
AcDbEntity
  8
ASSI
100
AcDbLine
 62
250
  6
CONTINUOUS
 10
-18.5853483998
 20
-4.9775001249
 11
-18.5783663738
 21
-4.5775610468
  0
LINE
  5
2B7
100
AcDbEntity
  8
RACCORDO
100
AcDbLine
 62
250
  6
CONTINUOUS
 10
-18.5853483998
 20
-4.9775001249
 11
-18.5783663738
 21
-4.5775610468
  0
LINE
  5
2B8
100
AcDbEntity
  8
ASSI
100
AcDbLine
 62
250
  6
CONTINUOUS
 10
-18.4980730752
 20
0.0217383509
 11
-18.4910910492
 21
0.421677429
  0
LINE
  5
2B9
100
AcDbEntity
  8
RACCORDO
100
AcDbLine
 62
250
  6
CONTINUOUS
 10
-18.4980730752
 20
0.0217383509
 11
-18.4910910492
 21
0.421677429
  0
LINE
  5
2BA
100
AcDbEntity
  8
ASSI
100
AcDbLine
 62
7
  6
CONTINUOUS
 10
-18.0381654348
 20
9.4021880759
 11
-18.1838429382
 21
1.0601430319
  0
LINE
  5
2BB
100
AcDbEntity
  8
RACCORDO
100
AcDbLine
 62
7
  6
CONTINUOUS
 10
-18.0381654348
 20
9.4021880759
 11
-18.1838429382
 21
1.0601430319
  0
LINE
  5
2BC
100
AcDbEntity
  8
ASSI
100
AcDbLine
 62
7
  6
CONTINUOUS
 10
-18.2116581574
 20
-0.5326616623
 11
-18.2711473265
 21
-3.9392365747
  0
LINE
  5
2BD
100
AcDbEntity
  8
RACCORDO
100
AcDbLine
 62
7
  6
CONTINUOUS
 10
-18.2116581574
 20
-0.5326616623
 11
-18.2711473265
 21
-3.9392365747
  0
LINE
  5
2BE
100
AcDbEntity
  8
ASSI
100
AcDbLine
 62
7
  6
CONTINUOUS
 10
-18.2989571703
 20
-5.5317334537
 11
-18.4109715335
 21
-11.9460997167
  0
LINE
  5
2BF
100
AcDbEntity
  8
RACCORDO
100
AcDbLine
 62
7
  6
CONTINUOUS
 10
-18.2989571703
 20
-5.5317334537
 11
-18.4109715335
 21
-11.9460997167
  0
LINE
  5
2C0
100
AcDbEntity
  8
ASSI
100
AcDbLine
 62
7
  6
CONTINUOUS
 10
-18.4524100675
 20
-14.3190269623
 11
-18.5
 21
-17.0442065635
  0
LINE
  5
2C1
100
AcDbEntity
  8
RACCORDO
100
AcDbLine
 62
7
  6
CONTINUOUS
 10
-18.4524100675
 20
-14.3190269623
 11
-18.5
 21
-17.0442065635
  0
LINE
  5
2C2
100
AcDbEntity
  8
ASSI
100
AcDbLine
 62
7
  6
CONTINUOUS
 10
-18.0381654348
 20
9.0427299335
 11
-18.5
 21
-17.4197849549
  0
LINE
  5
2C3
100
AcDbEntity
  8
RACCORDO
100
AcDbLine
 62
7
  6
CONTINUOUS
 10
-18.0381654348
 20
9.0427299335
 11
-18.5
 21
-17.4197849549
  0
LINE
  5
2C4
100
AcDbEntity
  8
ASSI
100
AcDbLine
 62
250
  6
CONTINUOUS
 10
-17.5482400642
 20
9.0341795568
 11
-18.0100746294
 21
-17.4283353316
  0
LINE
  5
2C5
100
AcDbEntity
  8
RACCORDO
100
AcDbLine
 62
250
  6
CONTINUOUS
 10
-17.5482400642
 20
9.0341795568
 11
-18.0100746294
 21
-17.4283353316
  0
LINE
  5
2C6
100
AcDbEntity
  8
ASSI
100
AcDbLine
 62
250
  6
CONTINUOUS
 10
-18.0378053845
 20
9.0548112676
 11
-18.0381654348
 21
9.0427299335
  0
LINE
  5
2C7
100
AcDbEntity
  8
RACCORDO
100
AcDbLine
 62
250
  6
CONTINUOUS
 10
-18.0378053845
 20
9.0548112676
 11
-18.0381654348
 21
9.0427299335
  0
LINE
  5
2C8
100
AcDbEntity
  8
ASSI
100
AcDbLine
 62
7
  6
CONTINUOUS
 10
-19.5
 20
0.5037037392
 11
-19.4992630498
 21
0.5247154626
  0
LINE
  5
2C9
100
AcDbEntity
  8
RACCORDO
100
AcDbLine
 62
7
  6
CONTINUOUS
 10
-19.5
 20
0.5037037392
 11
-19.4992630498
 21
0.5247154626
  0
LINE
  5
2CA
100
AcDbEntity
  8
ASSI
100
AcDbLine
 62
7
  6
CONTINUOUS
 10
-19.5
 20
-4.4955347366
 11
-19.4992630498
 21
-4.4745230132
  0
LINE
  5
2CB
100
AcDbEntity
  8
RACCORDO
100
AcDbLine
 62
7
  6
CONTINUOUS
 10
-19.5
 20
-4.4955347366
 11
-19.4992630498
 21
-4.4745230132
  0
LINE
  5
2CC
100
AcDbEntity
  8
ASSI
100
AcDbLine
 62
250
  6
CONTINUOUS
 10
-18.4910917499
 20
0.421677429
 11
-18.4806179955
 21
0.7268674594
  0
LINE
  5
2CD
100
AcDbEntity
  8
RACCORDO
100
AcDbLine
 62
250
  6
CONTINUOUS
 10
-18.4910917499
 20
0.421677429
 11
-18.4806179955
 21
0.7268674594
  0
LINE
  5
2CE
100
AcDbEntity
  8
ASSI
100
AcDbLine
 62
250
  6
CONTINUOUS
 10
-18.5783670746
 20
-4.5775610468
 11
-18.5678933201
 21
-4.2723710163
  0
LINE
  5
2CF
100
AcDbEntity
  8
RACCORDO
100
AcDbLine
 62
250
  6
CONTINUOUS
 10
-18.5783670746
 20
-4.5775610468
 11
-18.5678933201
 21
-4.2723710163
  0
LWPOLYLINE
  5
2D0
100
AcDbEntity
  8
ASSI
100
AcDbPolyline
 62
7
  6
CONTINUOUS
 90
10
 70
0
 10
-18.0381654348
 20
9.4021880759
 10
-18.0375178847
 20
9.4202271512
 10
-18.0362061584
 20
9.4382301323
 10
-18.0342320364
 20
9.4561725809
 10
-18.0315981987
 20
9.4740301407
 10
-18.0283082206
 20
9.4917785708
 10
-18.024366568
 20
9.5093937783
 10
-18.0197785916
 20
9.5268518514
 10
-18.0145505194
 20
9.5441290912
 10
-18.0086894484
 20
9.5612020447
  0
LWPOLYLINE
  5
2D1
100
AcDbEntity
  8
RACCORDO
100
AcDbPolyline
 62
7
  6
CONTINUOUS
 90
10
 70
0
 10
-18.0381654348
 20
9.4021880759
 10
-18.0375178847
 20
9.4202271512
 10
-18.0362061584
 20
9.4382301323
 10
-18.0342320364
 20
9.4561725809
 10
-18.0315981987
 20
9.4740301407
 10
-18.0283082206
 20
9.4917785708
 10
-18.024366568
 20
9.5093937783
 10
-18.0197785916
 20
9.5268518514
 10
-18.0145505194
 20
9.5441290912
 10
-18.0086894484
 20
9.5612020447
  0
LWPOLYLINE
  5
2D2
100
AcDbEntity
  8
ASSI
100
AcDbPolyline
 62
250
  6
CONTINUOUS
 90
5
 70
0
 10
-19.5
 20
0.4269131509
 10
-19.4983460865
 20
0.4583664693
 10
-19.4934025717
 20
0.4894730299
 10
-19.4852239478
 20
0.5198898455
 10
-19.473898681
 20
0.549285329
  0
LWPOLYLINE
  5
2D3
100
AcDbEntity
  8
RACCORDO
100
AcDbPolyline
 62
250
  6
CONTINUOUS
 90
5
 70
0
 10
-19.5
 20
0.4269131509
 10
-19.4983460865
 20
0.4583664693
 10
-19.4934025717
 20
0.4894730299
 10
-19.4852239478
 20
0.5198898455
 10
-19.473898681
 20
0.549285329
  0
LWPOLYLINE
  5
2D4
100
AcDbEntity
  8
ASSI
100
AcDbPolyline
 62
250
  6
CONTINUOUS
 90
5
 70
0
 10
-19.5
 20
-4.5723253249
 10
-19.4983460865
 20
-4.5408720065
 10
-19.4934025717
 20
-4.5097654458
 10
-19.4852239478
 20
-4.4793486303
 10
-19.473898681
 20
-4.4499531468
  0
LWPOLYLINE
  5
2D5
100
AcDbEntity
  8
RACCORDO
100
AcDbPolyline
 62
250
  6
CONTINUOUS
 90
5
 70
0
 10
-19.5
 20
-4.5723253249
 10
-19.4983460865
 20
-4.5408720065
 10
-19.4934025717
 20
-4.5097654458
 10
-19.4852239478
 20
-4.4793486303
 10
-19.473898681
 20
-4.4499531468
  0
LWPOLYLINE
  5
2D6
100
AcDbEntity
  8
ASSI
100
AcDbPolyline
 62
250
  6
CONTINUOUS
 90
3
 70
0
 10
-18.5085425849
 20
-0.2730259272
 10
-18.5084993232
 20
-0.2722792345
 10
-18.4980723086
 20
0.0217383509
  0
LWPOLYLINE
  5
2D7
100
AcDbEntity
  8
RACCORDO
100
AcDbPolyline
 62
250
  6
CONTINUOUS
 90
3
 70
0
 10
-18.5085425849
 20
-0.2730259272
 10
-18.5084993232
 20
-0.2722792345
 10
-18.4980723086
 20
0.0217383509
  0
LWPOLYLINE
  5
2D8
100
AcDbEntity
  8
ASSI
100
AcDbPolyline
 62
250
  6
CONTINUOUS
 90
3
 70
0
 10
-18.5958179096
 20
-5.2722644029
 10
-18.5957746479
 20
-5.2715177103
 10
-18.5853476332
 20
-4.9775001249
  0
LWPOLYLINE
  5
2D9
100
AcDbEntity
  8
RACCORDO
100
AcDbPolyline
 62
250
  6
CONTINUOUS
 90
3
 70
0
 10
-18.5958179096
 20
-5.2722644029
 10
-18.5957746479
 20
-5.2715177103
 10
-18.5853476332
 20
-4.9775001249
  0
LWPOLYLINE
  5
2DA
100
AcDbEntity
  8
ASSI
100
AcDbPolyline
 62
250
  6
CONTINUOUS
 90
5
 70
0
 10
-18.1837934155
 20
1.06038351
 10
-18.1838490821
 20
1.0597077327
 10
-18.1920002201
 20
1.0217726927
 10
-18.2049807194
 20
0.9852070678
 10
-18.2225733755
 20
0.9506226991
  0
LWPOLYLINE
  5
2DB
100
AcDbEntity
  8
RACCORDO
100
AcDbPolyline
 62
250
  6
CONTINUOUS
 90
5
 70
0
 10
-18.1837934155
 20
1.06038351
 10
-18.1838490821
 20
1.0597077327
 10
-18.1920002201
 20
1.0217726927
 10
-18.2049807194
 20
0.9852070678
 10
-18.2225733755
 20
0.9506226991
  0
LWPOLYLINE
  5
2DC
100
AcDbEntity
  8
ASSI
100
AcDbPolyline
 62
250
  6
CONTINUOUS
 90
13
 70
0
 10
-18.1806637017
 20
1.0215868435
 10
-18.183849071
 20
0.9829172189
 10
-18.1920001829
 20
0.9449822354
 10
-18.2049806472
 20
0.9084166475
 10
-18.2225732659
 20
0.8738322956
 10
-18.2444836671
 20
0.8418078691
 10
-18.2703452309
 20
0.8128792227
 10
-18.2997252239
 20
0.7875304104
 10
-18.3321320396
 20
0.7661855861
 10
-18.367023425
 20
0.7492019061
 10
-18.4038155533
 20
0.736863553
 10
-18.4418927933
 20
0.7293769806
 10
-18.4806180102
 20
0.7268674594
  0
LWPOLYLINE
  5
2DD
100
AcDbEntity
  8
RACCORDO
100
AcDbPolyline
 62
250
  6
CONTINUOUS
 90
13
 70
0
 10
-18.1806637017
 20
1.0215868435
 10
-18.183849071
 20
0.9829172189
 10
-18.1920001829
 20
0.9449822354
 10
-18.2049806472
 20
0.9084166475
 10
-18.2225732659
 20
0.8738322956
 10
-18.2444836671
 20
0.8418078691
 10
-18.2703452309
 20
0.8128792227
 10
-18.2997252239
 20
0.7875304104
 10
-18.3321320396
 20
0.7661855861
 10
-18.367023425
 20
0.7492019061
 10
-18.4038155533
 20
0.736863553
 10
-18.4418927933
 20
0.7293769806
 10
-18.4806180102
 20
0.7268674594
  0
LWPOLYLINE
  5
2DE
100
AcDbEntity
  8
ASSI
100
AcDbPolyline
 62
250
  6
CONTINUOUS
 90
5
 70
0
 10
-18.2710687402
 20
-3.9388549657
 10
-18.2711244067
 20
-3.939530743
 10
-18.2792755447
 20
-3.9774657831
 10
-18.292256044
 20
-4.014031408
 10
-18.3098487002
 20
-4.0486157767
  0
LWPOLYLINE
  5
2DF
100
AcDbEntity
  8
RACCORDO
100
AcDbPolyline
 62
250
  6
CONTINUOUS
 90
5
 70
0
 10
-18.2710687402
 20
-3.9388549657
 10
-18.2711244067
 20
-3.939530743
 10
-18.2792755447
 20
-3.9774657831
 10
-18.292256044
 20
-4.014031408
 10
-18.3098487002
 20
-4.0486157767
  0
LWPOLYLINE
  5
2E0
100
AcDbEntity
  8
ASSI
100
AcDbPolyline
 62
250
  6
CONTINUOUS
 90
13
 70
0
 10
-18.2679390263
 20
-3.9776516323
 10
-18.2711243957
 20
-4.0163212569
 10
-18.2792755075
 20
-4.0542562403
 10
-18.2922559718
 20
-4.0908218283
 10
-18.3098485905
 20
-4.1254061801
 10
-18.3317589917
 20
-4.1574306067
 10
-18.3576205556
 20
-4.1863592531
 10
-18.3870005485
 20
-4.2117080654
 10
-18.4194073643
 20
-4.2330528897
 10
-18.4542987497
 20
-4.2500365697
 10
-18.491090878
 20
-4.2623749228
 10
-18.5291681179
 20
-4.2698614952
 10
-18.5678933349
 20
-4.2723710163
  0
LWPOLYLINE
  5
2E1
100
AcDbEntity
  8
RACCORDO
100
AcDbPolyline
 62
250
  6
CONTINUOUS
 90
13
 70
0
 10
-18.2679390263
 20
-3.9776516323
 10
-18.2711243957
 20
-4.0163212569
 10
-18.2792755075
 20
-4.0542562403
 10
-18.2922559718
 20
-4.0908218283
 10
-18.3098485905
 20
-4.1254061801
 10
-18.3317589917
 20
-4.1574306067
 10
-18.3576205556
 20
-4.1863592531
 10
-18.3870005485
 20
-4.2117080654
 10
-18.4194073643
 20
-4.2330528897
 10
-18.4542987497
 20
-4.2500365697
 10
-18.491090878
 20
-4.2623749228
 10
-18.5291681179
 20
-4.2698614952
 10
-18.5678933349
 20
-4.2723710163
  0
LINE
  5
2E2
100
AcDbEntity
  8
RACCORDO
100
AcDbLine
 62
250
  6
CONTINUOUS
 10
-19.4992630498
 20
0.5247154626
 11
-19.4983399196
 21
0.53521548
  0
LINE
  5
2E3
100
AcDbEntity
  8
RACCORDO
100
AcDbLine
 62
250
  6
CONTINUOUS
 10
-19.4992630498
 20
-4.4745230132
 11
-19.4983399196
 21
-4.4640229958
  0
LINE
  5
2E4
100
AcDbEntity
  8
ASSI
100
AcDbLine
 62
250
  6
CONTINUOUS
 10
-19.4992630498
 20
0.5247154626
 11
-19.4983186211
 21
0.5353492548
  0
LINE
  5
2E5
100
AcDbEntity
  8
ASSI
100
AcDbLine
 62
250
  6
CONTINUOUS
 10
-19.4992630498
 20
-4.4745230132
 11
-19.4983186211
 21
-4.463889221
  0
LINE
  5
2E6
100
AcDbEntity
  8
ASSI
100
AcDbLine
 62
250
  6
CONTINUOUS
 10
-19.4983186211
 20
0.5353492548
 11
-19.4933794589
 21
0.5663718854
  0
LINE
  5
2E7
100
AcDbEntity
  8
RACCORDO
100
AcDbLine
 62
250
  6
CONTINUOUS
 10
-19.4983399196
 20
0.53521548
 11
-19.4933794589
 21
0.5663718854
  0
LINE
  5
2E8
100
AcDbEntity
  8
ASSI
100
AcDbLine
 62
250
  6
CONTINUOUS
 10
-19.4983186211
 20
-4.463889221
 11
-19.4933794589
 21
-4.4328665904
  0
LINE
  5
2E9
100
AcDbEntity
  8
RACCORDO
100
AcDbLine
 62
250
  6
CONTINUOUS
 10
-19.4983399196
 20
-4.4640229958
 11
-19.4933794589
 21
-4.4328665904
  0
LWPOLYLINE
  5
2EA
100
AcDbEntity
  8
ASSI
100
AcDbPolyline
 62
250
  6
CONTINUOUS
 90
4
 70
0
 10
-15.6210202674
 20
15.7629884688
 10
-15.6199077497
 20
15.7674458369
 10
-15.6163370897
 20
15.7786413424
 10
-15.6103082873
 20
15.7965749853
  0
LWPOLYLINE
  5
2EB
100
AcDbEntity
  8
RACCORDO
100
AcDbPolyline
 62
250
  6
CONTINUOUS
 90
4
 70
0
 10
-15.6210202674
 20
15.7629884688
 10
-15.6199077497
 20
15.7674458369
 10
-15.6163370897
 20
15.7786413424
 10
-15.6103082873
 20
15.7965749853
  0
LINE
  5
2EC
100
AcDbEntity
  8
ASSI
100
AcDbLine
 62
250
  6
CONTINUOUS
 10
-15.6209956407
 20
16.1183648328
 11
-15.6210202674
 21
16.1182716624
  0
LINE
  5
2ED
100
AcDbEntity
  8
RACCORDO
100
AcDbLine
 62
250
  6
CONTINUOUS
 10
-15.6209956407
 20
16.1183648328
 11
-15.6210202674
 21
16.1182716624
  0
LINE
  5
2EE
100
AcDbEntity
  8
ASSI
100
AcDbLine
 62
250
  6
CONTINUOUS
 10
-15.2705545511
 20
17.0637427725
 11
-15.2705299137
 21
17.0638359726
  0
LINE
  5
2EF
100
AcDbEntity
  8
RACCORDO
100
AcDbLine
 62
250
  6
CONTINUOUS
 10
-15.2705545511
 20
17.0637427725
 11
-15.2705299137
 21
17.0638359726
  0
LINE
  5
2F0
100
AcDbEntity
  8
ASSI
100
AcDbLine
 62
250
  6
CONTINUOUS
 10
-11.6173230638
 20
27.09635297
 11
-11.6173476905
 21
27.0962597996
  0
LINE
  5
2F1
100
AcDbEntity
  8
RACCORDO
100
AcDbLine
 62
250
  6
CONTINUOUS
 10
-11.6173230638
 20
27.09635297
 11
-11.6173476905
 21
27.0962597996
  0
LWPOLYLINE
  5
2F2
100
AcDbEntity
  8
ASSI
100
AcDbPolyline
 62
250
  6
CONTINUOUS
 90
13
 70
0
 10
-19.4933794589
 20
0.5663718854
 10
-19.4851755847
 20
0.5968286211
 10
-19.4738290703
 20
0.6262315568
 10
-19.4594630498
 20
0.6542760411
 10
-19.4422032179
 20
0.6807010732
 10
-19.4221782364
 20
0.7052588281
 10
-19.399635191
 20
0.7276021912
 10
-19.3749437647
 20
0.7473768571
 10
-19.3484271738
 20
0.764373399
 10
-19.3203720293
 20
0.7784537621
 10
-19.2911607075
 20
0.7894743532
 10
-19.261148893
 20
0.7973609186
 10
-19.2306517398
 20
0.8020882969
  0
LWPOLYLINE
  5
2F3
100
AcDbEntity
  8
RACCORDO
100
AcDbPolyline
 62
250
  6
CONTINUOUS
 90
13
 70
0
 10
-19.4933794589
 20
0.5663718854
 10
-19.4851755847
 20
0.5968286211
 10
-19.4738290703
 20
0.6262315568
 10
-19.4594630498
 20
0.6542760411
 10
-19.4422032179
 20
0.6807010732
 10
-19.4221782364
 20
0.7052588281
 10
-19.399635191
 20
0.7276021912
 10
-19.3749437647
 20
0.7473768571
 10
-19.3484271738
 20
0.764373399
 10
-19.3203720293
 20
0.7784537621
 10
-19.2911607075
 20
0.7894743532
 10
-19.261148893
 20
0.7973609186
 10
-19.2306517398
 20
0.8020882969
  0
LWPOLYLINE
  5
2F4
100
AcDbEntity
  8
ASSI
100
AcDbPolyline
 62
250
  6
CONTINUOUS
 90
13
 70
0
 10
-19.4933794589
 20
-4.4328665904
 10
-19.4851755847
 20
-4.4024098547
 10
-19.4738290703
 20
-4.373006919
 10
-19.4594630498
 20
-4.3449624347
 10
-19.4422032179
 20
-4.3185374026
 10
-19.4221782364
 20
-4.2939796477
 10
-19.399635191
 20
-4.2716362846
 10
-19.3749437647
 20
-4.2518616187
 10
-19.3484271738
 20
-4.2348650768
 10
-19.3203720293
 20
-4.2207847137
 10
-19.2911607075
 20
-4.2097641226
 10
-19.261148893
 20
-4.2018775572
 10
-19.2306517398
 20
-4.1971501789
  0
LWPOLYLINE
  5
2F5
100
AcDbEntity
  8
RACCORDO
100
AcDbPolyline
 62
250
  6
CONTINUOUS
 90
13
 70
0
 10
-19.4933794589
 20
-4.4328665904
 10
-19.4851755847
 20
-4.4024098547
 10
-19.4738290703
 20
-4.373006919
 10
-19.4594630498
 20
-4.3449624347
 10
-19.4422032179
 20
-4.3185374026
 10
-19.4221782364
 20
-4.2939796477
 10
-19.399635191
 20
-4.2716362846
 10
-19.3749437647
 20
-4.2518616187
 10
-19.3484271738
 20
-4.2348650768
 10
-19.3203720293
 20
-4.2207847137
 10
-19.2911607075
 20
-4.2097641226
 10
-19.261148893
 20
-4.2018775572
 10
-19.2306517398
 20
-4.1971501789
  0
LINE
  5
2F6
100
AcDbEntity
  8
ASSI
100
AcDbLine
 62
250
  6
CONTINUOUS
 10
-11.1568983063
 20
26.6139071552
 11
-14.810105167
 21
16.5752748645
  0
LINE
  5
2F7
100
AcDbEntity
  8
RACCORDO
100
AcDbLine
 62
250
  6
CONTINUOUS
 10
-11.1568983063
 20
26.6139071552
 11
-14.810105167
 21
16.5752748645
  0
LINE
  5
2F8
100
AcDbEntity
  8
ASSI
100
AcDbLine
 62
250
  6
CONTINUOUS
 10
-15.1605708832
 20
15.5952459989
 11
-17.5482400642
 21
9.0341795568
  0
LINE
  5
2F9
100
AcDbEntity
  8
RACCORDO
100
AcDbLine
 62
250
  6
CONTINUOUS
 10
-15.1605708832
 20
15.5952459989
 11
-17.5482400642
 21
9.0341795568
  0
LWPOLYLINE
  5
2FA
100
AcDbEntity
  8
RACCORDO
100
AcDbPolyline
 62
7
  6
CONTINUOUS
 90
39
 70
0
 10
18.174051527
 20
-18.4207699752
 10
18.1806701695
 20
-18.4205372021
 10
18.1868669751
 20
-18.4202844553
 10
18.1930948701
 20
-18.4199858295
 10
18.1993746126
 20
-18.419624968
 10
18.2058425954
 20
-18.4191729567
 10
18.2132944827
 20
-18.4185283746
 10
18.222436565
 20
-18.4175266153
 10
18.2328349268
 20
-18.416074966
 10
18.2436356049
 20
-18.4141925012
 10
18.2546807768
 20
-18.411854857
 10
18.2662135416
 20
-18.4089528947
 10
18.2779318734
 20
-18.405503845
 10
18.2896889116
 20
-18.4015161911
 10
18.3015820079
 20
-18.3969207619
 10
18.3136442049
 20
-18.3916529797
 10
18.3259147225
 20
-18.3856291717
 10
18.3382575183
 20
-18.3788458509
 10
18.3504419316
 20
-18.3713799341
 10
18.3624105384
 20
-18.3632333957
 10
18.3741345329
 20
-18.3543911095
 10
18.3854505725
 20
-18.3449525318
 10
18.3962760989
 20
-18.3349833402
 10
18.4066350552
 20
-18.3244581676
 10
18.4165324411
 20
-18.313355284
 10
18.425946381
 20
-18.3016728365
 10
18.4348249521
 20
-18.2894470623
 10
18.4431245873
 20
-18.2767126093
 10
18.4508138774
 20
-18.2634919476
 10
18.4578591254
 20
-18.2498149159
 10
18.4642198875
 20
-18.2357336309
 10
18.4698699599
 20
-18.2212811886
 10
18.4747846356
 20
-18.2064925063
 10
18.4789349473
 20
-18.1914280434
 10
18.4823033464
 20
-18.1761269001
 10
18.4848742501
 20
-18.1606294063
 10
18.48663203
 20
-18.1450014883
 10
18.4875691734
 20
-18.1292857726
 10
18.4876900243
 20
-18.1245272557
  0
LINE
  5
2FB
100
AcDbEntity
  8
RACCORDO
100
AcDbLine
 62
7
  6
CONTINUOUS
 10
18.1592816829
 20
-18.4211918671
 11
18.174051527
 21
-18.4207699752
  0
LINE
  5
2FC
100
AcDbEntity
  8
RACCORDO
100
AcDbLine
 62
7
  6
CONTINUOUS
 10
18.1419403256
 20
-18.421572712
 11
18.1592816829
 21
-18.4211918671
  0
LINE
  5
2FD
100
AcDbEntity
  8
RACCORDO
100
AcDbLine
 62
7
  6
CONTINUOUS
 10
18.1104825065
 20
-18.4220708253
 11
18.1419403256
 21
-18.421572712
  0
LINE
  5
2FE
100
AcDbEntity
  8
RACCORDO
100
AcDbLine
 62
250
  6
CONTINUOUS
 10
18.3516012382
 20
-18.1326723688
 11
18.2904453623
 21
-18.1335640649
  0
LINE
  5
2FF
100
AcDbEntity
  8
RACCORDO
100
AcDbLine
 62
7
  6
CONTINUOUS
 10
18.0727105715
 20
-18.422458223
 11
18.1104825065
 21
-18.4220708253
  0
LINE
  5
300
100
AcDbEntity
  8
RACCORDO
100
AcDbLine
 62
250
  6
CONTINUOUS
 10
-17.9877662171
 20
-18.1332488047
 11
-18.085489367
 21
-18.1340004301
  0
LINE
  5
301
100
AcDbEntity
  8
RACCORDO
100
AcDbLine
 62
250
  6
CONTINUOUS
 10
18.2904453623
 20
-18.1335640649
 11
18.2256187356
 21
-18.1340567801
  0
LINE
  5
302
100
AcDbEntity
  8
RACCORDO
100
AcDbLine
 62
7
  6
CONTINUOUS
 10
18.0144239346
 20
-18.4227485054
 11
18.0727105715
 21
-18.422458223
  0
LINE
  5
303
100
AcDbEntity
  8
RACCORDO
100
AcDbLine
 62
250
  6
CONTINUOUS
 10
18.2256187356
 20
-18.1340567801
 11
18.1555458392
 21
-18.1341922442
  0
LINE
  5
304
100
AcDbEntity
  8
RACCORDO
100
AcDbLine
 62
250
  6
CONTINUOUS
 10
-18.085489367
 20
-18.1340004301
 11
-18.1778164439
 21
-18.1341911385
  0
LINE
  5
305
100
AcDbEntity
  8
RACCORDO
100
AcDbLine
 62
7
  6
CONTINUOUS
 10
18.0144239346
 20
-18.4227485054
 11
3.9823661284
 21
-18.4227789557
  0
LINE
  5
306
100
AcDbEntity
  8
RACCORDO
100
AcDbLine
 62
250
  6
CONTINUOUS
 10
-17.9877662171
 20
-18.1332488047
 11
-3.6877357561
 21
-18.1332488047
  0
LINE
  5
307
100
AcDbEntity
  8
RACCORDO
100
AcDbLine
 62
250
  6
CONTINUOUS
 10
3.6877357561
 20
-18.1332488047
 11
17.9877662171
 21
-18.1332488047
  0
LINE
  5
308
100
AcDbEntity
  8
RACCORDO
100
AcDbLine
 62
250
  6
CONTINUOUS
 10
18.1555458392
 20
-18.1341922442
 11
18.0763252282
 21
-18.1339567654
  0
LINE
  5
309
100
AcDbEntity
  8
RACCORDO
100
AcDbLine
 62
7
  6
CONTINUOUS
 10
-18.0438563874
 20
-18.4226426551
 11
-3.9823661284
 21
-18.4227789557
  0
LINE
  5
30A
100
AcDbEntity
  8
RACCORDO
100
AcDbLine
 62
250
  6
CONTINUOUS
 10
-18.1778164439
 20
-18.1341911385
 11
-18.2609650499
 21
-18.1338390481
  0
LINE
  5
30B
100
AcDbEntity
  8
RACCORDO
100
AcDbLine
 62
7
  6
CONTINUOUS
 10
-18.0860699285
 20
-18.422342213
 11
-18.0438563874
 21
-18.4226426551
  0
LINE
  5
30C
100
AcDbEntity
  8
RACCORDO
100
AcDbLine
 62
250
  6
CONTINUOUS
 10
18.0763252282
 20
-18.1339567654
 11
17.9877662171
 21
-18.1332488047
  0
LWPOLYLINE
  5
30D
100
AcDbEntity
  8
RACCORDO
100
AcDbPolyline
 62
250
  6
CONTINUOUS
 90
12
 70
0
 10
-18.2609650499
 20
-18.1338390481
 10
-18.3305599025
 20
-18.1330395908
 10
-18.3600265908
 20
-18.1325026963
 10
-18.3855980358
 20
-18.1319034218
 10
-18.4077921119
 20
-18.1312540914
 10
-18.4274429795
 20
-18.1305344614
 10
-18.4444152625
 20
-18.1297475822
 10
-18.4586668259
 20
-18.1289020536
 10
-18.4705652522
 20
-18.127964008
 10
-18.479768232
 20
-18.1269157141
 10
-18.4856296645
 20
-18.12576849
 10
-18.4876900165
 20
-18.1245280156
  0
LINE
  5
30E
100
AcDbEntity
  8
RACCORDO
100
AcDbLine
 62
7
  6
CONTINUOUS
 10
-18.1223615006
 20
-18.421905707
 11
-18.0860699285
 21
-18.422342213
  0
LINE
  5
30F
100
AcDbEntity
  8
RACCORDO
100
AcDbLine
 62
7
  6
CONTINUOUS
 10
-18.1428648369
 20
-18.4215548214
 11
-18.1223615006
 21
-18.421905707
  0
LINE
  5
310
100
AcDbEntity
  8
RACCORDO
100
AcDbLine
 62
7
  6
CONTINUOUS
 10
-18.1604417468
 20
-18.4211625275
 11
-18.1428648369
 21
-18.4215548214
  0
LINE
  5
311
100
AcDbEntity
  8
ASSI
100
AcDbLine
 62
250
  6
CONTINUOUS
 10
-15.6210202674
 20
16.1182716624
 11
-15.6210202674
 21
16.118093538
  0
LINE
  5
312
100
AcDbEntity
  8
RACCORDO
100
AcDbLine
 62
250
  6
CONTINUOUS
 10
-15.6210202674
 20
16.1182716624
 11
-15.6210202674
 21
16.118093538
  0
LINE
  5
313
100
AcDbEntity
  8
ASSI
100
AcDbLine
 62
250
  6
CONTINUOUS
 10
-15.6210202674
 20
15.7629884688
 11
-15.6210202674
 21
15.7628103444
  0
LINE
  5
314
100
AcDbEntity
  8
RACCORDO
100
AcDbLine
 62
250
  6
CONTINUOUS
 10
-15.6210202674
 20
15.7629884688
 11
-15.6210202674
 21
15.7628103444
  0
LWPOLYLINE
  5
315
100
AcDbEntity
  8
ASSI
100
AcDbPolyline
 62
250
  6
CONTINUOUS
 90
12
 70
0
 10
-19.473898681
 20
0.549285329
 10
-19.4595525318
 20
0.5773312006
 10
-19.4423510683
 20
0.6037080505
 10
-19.422492863
 20
0.6281209815
 10
-19.4001952061
 20
0.6503111677
 10
-19.3756953745
 20
0.6700450592
 10
-19.349220651
 20
0.6871295353
 10
-19.3210990426
 20
0.7013436081
 10
-19.2917664777
 20
0.7124898757
 10
-19.2616015758
 20
0.7204757318
 10
-19.2309008654
 20
0.7252720197
 10
-19.2
 20
0.7268674594
  0
LWPOLYLINE
  5
316
100
AcDbEntity
  8
RACCORDO
100
AcDbPolyline
 62
250
  6
CONTINUOUS
 90
12
 70
0
 10
-19.473898681
 20
0.549285329
 10
-19.4595525318
 20
0.5773312006
 10
-19.4423510683
 20
0.6037080505
 10
-19.422492863
 20
0.6281209815
 10
-19.4001952061
 20
0.6503111677
 10
-19.3756953745
 20
0.6700450592
 10
-19.349220651
 20
0.6871295353
 10
-19.3210990426
 20
0.7013436081
 10
-19.2917664777
 20
0.7124898757
 10
-19.2616015758
 20
0.7204757318
 10
-19.2309008654
 20
0.7252720197
 10
-19.2
 20
0.7268674594
  0
LWPOLYLINE
  5
317
100
AcDbEntity
  8
ASSI
100
AcDbPolyline
 62
7
  6
CONTINUOUS
 90
6
 70
0
 10
-18.2367229642
 20
0.9290200296
 10
-18.2176299326
 20
0.9593560346
 10
-18.2022914763
 20
0.991752351
 10
-18.1909263234
 20
1.0257466925
 10
-18.1836966361
 20
1.0608534632
 10
-18.1807054404
 20
1.0965712723
  0
LWPOLYLINE
  5
318
100
AcDbEntity
  8
RACCORDO
100
AcDbPolyline
 62
7
  6
CONTINUOUS
 90
6
 70
0
 10
-18.2367229642
 20
0.9290200296
 10
-18.2176299326
 20
0.9593560346
 10
-18.2022914763
 20
0.991752351
 10
-18.1909263234
 20
1.0257466925
 10
-18.1836966361
 20
1.0608534632
 10
-18.1807054404
 20
1.0965712723
  0
LWPOLYLINE
  5
319
100
AcDbEntity
  8
ASSI
100
AcDbPolyline
 62
250
  6
CONTINUOUS
 90
8
 70
0
 10
-18.2225733755
 20
0.9506226991
 10
-18.2444838107
 20
0.9185982742
 10
-18.2703453999
 20
0.889669645
 10
-18.2997254047
 20
0.8643208621
 10
-18.3321322158
 20
0.8429760741
 10
-18.3670235804
 20
0.8259924309
 10
-18.4038156721
 20
0.8136541098
 10
-18.4418928596
 20
0.8061675603
  0
LWPOLYLINE
  5
31A
100
AcDbEntity
  8
RACCORDO
100
AcDbPolyline
 62
250
  6
CONTINUOUS
 90
8
 70
0
 10
-18.2225733755
 20
0.9506226991
 10
-18.2444838107
 20
0.9185982742
 10
-18.2703453999
 20
0.889669645
 10
-18.2997254047
 20
0.8643208621
 10
-18.3321322158
 20
0.8429760741
 10
-18.3670235804
 20
0.8259924309
 10
-18.4038156721
 20
0.8136541098
 10
-18.4418928596
 20
0.8061675603
  0
LINE
  5
31B
100
AcDbEntity
  8
ASSI
100
AcDbLine
 62
7
  6
CONTINUOUS
 10
-18.0100746294
 20
-17.4283353316
 11
18.0100746294
 21
-17.4283353316
  0
LINE
  5
31C
100
AcDbEntity
  8
RACCORDO
100
AcDbLine
 62
7
  6
CONTINUOUS
 10
-18.0100746294
 20
-17.4283353316
 11
18.0100746294
 21
-17.4283353316
  0
LINE
  5
31D
100
AcDbEntity
  8
ASSI
100
AcDbLine
 62
250
  6
CONTINUOUS
 10
-15.1605708832
 20
15.5952459989
 11
-15.1605708832
 21
16.0851713695
  0
LINE
  5
31E
100
AcDbEntity
  8
RACCORDO
100
AcDbLine
 62
250
  6
CONTINUOUS
 10
-15.1605708832
 20
15.5952459989
 11
-15.1605708832
 21
16.0851713695
  0
LWPOLYLINE
  5
31F
100
AcDbEntity
  8
ASSI
100
AcDbPolyline
 62
250
  6
CONTINUOUS
 90
12
 70
0
 10
-19.473898681
 20
-4.4499531468
 10
-19.4595525318
 20
-4.4219072752
 10
-19.4423510683
 20
-4.3955304253
 10
-19.422492863
 20
-4.3711174943
 10
-19.4001952061
 20
-4.3489273081
 10
-19.3756953745
 20
-4.3291934166
 10
-19.349220651
 20
-4.3121089405
 10
-19.3210990426
 20
-4.2978948677
 10
-19.2917664777
 20
-4.2867486001
 10
-19.2616015758
 20
-4.278762744
 10
-19.2309008654
 20
-4.2739664561
 10
-19.2
 20
-4.2723710163
  0
LWPOLYLINE
  5
320
100
AcDbEntity
  8
RACCORDO
100
AcDbPolyline
 62
250
  6
CONTINUOUS
 90
12
 70
0
 10
-19.473898681
 20
-4.4499531468
 10
-19.4595525318
 20
-4.4219072752
 10
-19.4423510683
 20
-4.3955304253
 10
-19.422492863
 20
-4.3711174943
 10
-19.4001952061
 20
-4.3489273081
 10
-19.3756953745
 20
-4.3291934166
 10
-19.349220651
 20
-4.3121089405
 10
-19.3210990426
 20
-4.2978948677
 10
-19.2917664777
 20
-4.2867486001
 10
-19.2616015758
 20
-4.278762744
 10
-19.2309008654
 20
-4.2739664561
 10
-19.2
 20
-4.2723710163
  0
LWPOLYLINE
  5
321
100
AcDbEntity
  8
ASSI
100
AcDbPolyline
 62
7
  6
CONTINUOUS
 90
6
 70
0
 10
-18.3239982888
 20
-4.0702184462
 10
-18.3049052572
 20
-4.0398824412
 10
-18.2895668009
 20
-4.0074861247
 10
-18.2782016481
 20
-3.9734917833
 10
-18.2709719607
 20
-3.9383850126
 10
-18.2679807651
 20
-3.9026672035
  0
LWPOLYLINE
  5
322
100
AcDbEntity
  8
RACCORDO
100
AcDbPolyline
 62
7
  6
CONTINUOUS
 90
6
 70
0
 10
-18.3239982888
 20
-4.0702184462
 10
-18.3049052572
 20
-4.0398824412
 10
-18.2895668009
 20
-4.0074861247
 10
-18.2782016481
 20
-3.9734917833
 10
-18.2709719607
 20
-3.9383850126
 10
-18.2679807651
 20
-3.9026672035
  0
LWPOLYLINE
  5
323
100
AcDbEntity
  8
ASSI
100
AcDbPolyline
 62
250
  6
CONTINUOUS
 90
10
 70
0
 10
7.7551255714
 20
26.0952764861
 10
7.7254551028
 20
26.071236743
 10
7.6959738707
 20
26.0457875324
 10
7.6668699433
 20
26.0190911824
 10
7.6383289916
 20
25.9913179755
 10
7.6105330812
 20
25.9626450661
 10
7.5836595043
 20
25.9332553566
 10
7.5578796842
 20
25.9033363232
 10
7.5333580865
 20
25.8730788137
 10
7.510251143
 20
25.8426758391
  0
LWPOLYLINE
  5
324
100
AcDbEntity
  8
RACCORDO
100
AcDbPolyline
 62
250
  6
CONTINUOUS
 90
10
 70
0
 10
7.7551255714
 20
26.0952764861
 10
7.7254551028
 20
26.071236743
 10
7.6959738707
 20
26.0457875324
 10
7.6668699433
 20
26.0190911824
 10
7.6383289916
 20
25.9913179755
 10
7.6105330812
 20
25.9626450661
 10
7.5836595043
 20
25.9332553566
 10
7.5578796842
 20
25.9033363232
 10
7.5333580865
 20
25.8730788137
 10
7.510251143
 20
25.8426758391
  0
LINE
  5
325
100
AcDbEntity
  8
ASSI
100
AcDbLine
 62
250
  6
CONTINUOUS
 10
-11.6173476905
 20
27.0962597996
 11
-11.6173476905
 21
26.7814715007
  0
LINE
  5
326
100
AcDbEntity
  8
RACCORDO
100
AcDbLine
 62
250
  6
CONTINUOUS
 10
-11.6173476905
 20
27.0962597996
 11
-11.6173476905
 21
26.7814715007
  0
LINE
  5
327
100
AcDbEntity
  8
ASSI
100
AcDbLine
 62
250
  6
CONTINUOUS
 10
-11.1568983063
 20
26.6139071552
 11
-11.1568983063
 21
27.4186208247
  0
LINE
  5
328
100
AcDbEntity
  8
RACCORDO
100
AcDbLine
 62
250
  6
CONTINUOUS
 10
-11.1568983063
 20
26.6139071552
 11
-11.1568983063
 21
27.4186208247
  0
LINE
  5
329
100
AcDbEntity
  8
ASSI
100
AcDbLine
 62
7
  6
CONTINUOUS
 10
-7.9010155616
 20
18.7820210898
 11
-7.8969646702
 21
18.8055865237
  0
LINE
  5
32A
100
AcDbEntity
  8
RACCORDO
100
AcDbLine
 62
7
  6
CONTINUOUS
 10
-7.9010155616
 20
18.7820210898
 11
-7.8969646702
 21
18.8055865237
  0
LINE
  5
32B
100
AcDbEntity
  8
ASSI
100
AcDbLine
 62
7
  6
CONTINUOUS
 10
-7.9050269419
 20
18.7596230513
 11
-7.9010155616
 21
18.7820210898
  0
LINE
  5
32C
100
AcDbEntity
  8
RACCORDO
100
AcDbLine
 62
7
  6
CONTINUOUS
 10
-7.9050269419
 20
18.7596230513
 11
-7.9010155616
 21
18.7820210898
  0
LINE
  5
32D
100
AcDbEntity
  8
ASSI
100
AcDbLine
 62
7
  6
CONTINUOUS
 10
-7.9090032548
 20
18.7383469185
 11
-7.9050269419
 21
18.7596230513
  0
LINE
  5
32E
100
AcDbEntity
  8
RACCORDO
100
AcDbLine
 62
7
  6
CONTINUOUS
 10
-7.9090032548
 20
18.7383469185
 11
-7.9050269419
 21
18.7596230513
  0
LWPOLYLINE
  5
32F
100
AcDbEntity
  8
ASSI
100
AcDbPolyline
 62
250
  6
CONTINUOUS
 90
8
 70
0
 10
-18.3098487002
 20
-4.0486157767
 10
-18.3317591353
 20
-4.0806402015
 10
-18.3576207246
 20
-4.1095688308
 10
-18.3870007294
 20
-4.1349176137
 10
-18.4194075405
 20
-4.1562624017
 10
-18.4542989051
 20
-4.1732460449
 10
-18.4910909968
 20
-4.185584366
 10
-18.5291681843
 20
-4.1930709155
  0
LWPOLYLINE
  5
330
100
AcDbEntity
  8
RACCORDO
100
AcDbPolyline
 62
250
  6
CONTINUOUS
 90
8
 70
0
 10
-18.3098487002
 20
-4.0486157767
 10
-18.3317591353
 20
-4.0806402015
 10
-18.3576207246
 20
-4.1095688308
 10
-18.3870007294
 20
-4.1349176137
 10
-18.4194075405
 20
-4.1562624017
 10
-18.4542989051
 20
-4.1732460449
 10
-18.4910909968
 20
-4.185584366
 10
-18.5291681843
 20
-4.1930709155
  0
LINE
  5
331
100
AcDbEntity
  8
ASSI
100
AcDbLine
 62
7
  6
CONTINUOUS
 10
-7.6818990817
 20
21.4768827094
 11
-7.6514599158
 21
22.093604215
  0
LINE
  5
332
100
AcDbEntity
  8
RACCORDO
100
AcDbLine
 62
7
  6
CONTINUOUS
 10
-7.6818990817
 20
21.4768827094
 11
-7.6514599158
 21
22.093604215
  0
LINE
  5
333
100
AcDbEntity
  8
ASSI
100
AcDbLine
 62
7
  6
CONTINUOUS
 10
-7.7061939141
 20
21.0294865005
 11
-7.6818990817
 21
21.4768827094
  0
LINE
  5
334
100
AcDbEntity
  8
RACCORDO
100
AcDbLine
 62
7
  6
CONTINUOUS
 10
-7.7061939141
 20
21.0294865005
 11
-7.6818990817
 21
21.4768827094
  0
LINE
  5
335
100
AcDbEntity
  8
ASSI
100
AcDbLine
 62
7
  6
CONTINUOUS
 10
-7.7289377596
 20
20.6457721377
 11
-7.7061939141
 21
21.0294865005
  0
LINE
  5
336
100
AcDbEntity
  8
RACCORDO
100
AcDbLine
 62
7
  6
CONTINUOUS
 10
-7.7289377596
 20
20.6457721377
 11
-7.7061939141
 21
21.0294865005
  0
LINE
  5
337
100
AcDbEntity
  8
ASSI
100
AcDbLine
 62
7
  6
CONTINUOUS
 10
-7.7467788592
 20
20.3680802477
 11
-7.7289377596
 21
20.6457721377
  0
LINE
  5
338
100
AcDbEntity
  8
RACCORDO
100
AcDbLine
 62
7
  6
CONTINUOUS
 10
-7.7467788592
 20
20.3680802477
 11
-7.7289377596
 21
20.6457721377
  0
LINE
  5
339
100
AcDbEntity
  8
ASSI
100
AcDbLine
 62
7
  6
CONTINUOUS
 10
-7.7636683057
 20
20.1237641685
 11
-7.7467788592
 21
20.3680802477
  0
LINE
  5
33A
100
AcDbEntity
  8
RACCORDO
100
AcDbLine
 62
7
  6
CONTINUOUS
 10
-7.7636683057
 20
20.1237641685
 11
-7.7467788592
 21
20.3680802477
  0
LINE
  5
33B
100
AcDbEntity
  8
ASSI
100
AcDbLine
 62
7
  6
CONTINUOUS
 10
-7.7765378267
 20
19.9495602625
 11
-7.7636683057
 21
20.1237641685
  0
LINE
  5
33C
100
AcDbEntity
  8
RACCORDO
100
AcDbLine
 62
7
  6
CONTINUOUS
 10
-7.7765378267
 20
19.9495602625
 11
-7.7636683057
 21
20.1237641685
  0
LINE
  5
33D
100
AcDbEntity
  8
ASSI
100
AcDbLine
 62
7
  6
CONTINUOUS
 10
-7.788873538
 20
19.7922021949
 11
-7.7765378267
 21
19.9495602625
  0
LINE
  5
33E
100
AcDbEntity
  8
RACCORDO
100
AcDbLine
 62
7
  6
CONTINUOUS
 10
-7.788873538
 20
19.7922021949
 11
-7.7765378267
 21
19.9495602625
  0
LINE
  5
33F
100
AcDbEntity
  8
ASSI
100
AcDbLine
 62
7
  6
CONTINUOUS
 10
-7.8007000174
 20
19.6501264834
 11
-7.788873538
 21
19.7922021949
  0
LINE
  5
340
100
AcDbEntity
  8
RACCORDO
100
AcDbLine
 62
7
  6
CONTINUOUS
 10
-7.8007000174
 20
19.6501264834
 11
-7.788873538
 21
19.7922021949
  0
LINE
  5
341
100
AcDbEntity
  8
ASSI
100
AcDbLine
 62
7
  6
CONTINUOUS
 10
-7.8120437478
 20
19.5218370806
 11
-7.8007000174
 21
19.6501264834
  0
LINE
  5
342
100
AcDbEntity
  8
RACCORDO
100
AcDbLine
 62
7
  6
CONTINUOUS
 10
-7.8120437478
 20
19.5218370806
 11
-7.8007000174
 21
19.6501264834
  0
LINE
  5
343
100
AcDbEntity
  8
ASSI
100
AcDbLine
 62
7
  6
CONTINUOUS
 10
-7.8229317921
 20
19.4060209459
 11
-7.8120437478
 21
19.5218370806
  0
LINE
  5
344
100
AcDbEntity
  8
RACCORDO
100
AcDbLine
 62
7
  6
CONTINUOUS
 10
-7.8229317921
 20
19.4060209459
 11
-7.8120437478
 21
19.5218370806
  0
LINE
  5
345
100
AcDbEntity
  8
ASSI
100
AcDbLine
 62
7
  6
CONTINUOUS
 10
-7.8308167973
 20
19.3266031463
 11
-7.8229317921
 21
19.4060209459
  0
LINE
  5
346
100
AcDbEntity
  8
RACCORDO
100
AcDbLine
 62
7
  6
CONTINUOUS
 10
-7.8308167973
 20
19.3266031463
 11
-7.8229317921
 21
19.4060209459
  0
LINE
  5
347
100
AcDbEntity
  8
ASSI
100
AcDbLine
 62
7
  6
CONTINUOUS
 10
-7.83847215
 20
19.2530586351
 11
-7.8308167973
 21
19.3266031463
  0
LINE
  5
348
100
AcDbEntity
  8
RACCORDO
100
AcDbLine
 62
7
  6
CONTINUOUS
 10
-7.83847215
 20
19.2530586351
 11
-7.8308167973
 21
19.3266031463
  0
LINE
  5
349
100
AcDbEntity
  8
ASSI
100
AcDbLine
 62
7
  6
CONTINUOUS
 10
-7.8459096513
 20
19.1849534349
 11
-7.83847215
 21
19.2530586351
  0
LINE
  5
34A
100
AcDbEntity
  8
RACCORDO
100
AcDbLine
 62
7
  6
CONTINUOUS
 10
-7.8459096513
 20
19.1849534349
 11
-7.83847215
 21
19.2530586351
  0
LINE
  5
34B
100
AcDbEntity
  8
ASSI
100
AcDbLine
 62
7
  6
CONTINUOUS
 10
-7.8531426964
 20
19.1218721978
 11
-7.8459096513
 21
19.1849534349
  0
LINE
  5
34C
100
AcDbEntity
  8
RACCORDO
100
AcDbLine
 62
7
  6
CONTINUOUS
 10
-7.8531426964
 20
19.1218721978
 11
-7.8459096513
 21
19.1849534349
  0
LINE
  5
34D
100
AcDbEntity
  8
ASSI
100
AcDbLine
 62
7
  6
CONTINUOUS
 10
-7.8601815251
 20
19.0634583893
 11
-7.8531426964
 21
19.1218721978
  0
LINE
  5
34E
100
AcDbEntity
  8
RACCORDO
100
AcDbLine
 62
7
  6
CONTINUOUS
 10
-7.8601815251
 20
19.0634583893
 11
-7.8531426964
 21
19.1218721978
  0
LINE
  5
34F
100
AcDbEntity
  8
ASSI
100
AcDbLine
 62
7
  6
CONTINUOUS
 10
-7.8670350308
 20
19.0093924197
 11
-7.8601815251
 21
19.0634583893
  0
LINE
  5
350
100
AcDbEntity
  8
RACCORDO
100
AcDbLine
 62
7
  6
CONTINUOUS
 10
-7.8670350308
 20
19.0093924197
 11
-7.8601815251
 21
19.0634583893
  0
LINE
  5
351
100
AcDbEntity
  8
ASSI
100
AcDbLine
 62
7
  6
CONTINUOUS
 10
-7.8715070599
 20
18.975607393
 11
-7.8670350308
 21
19.0093924197
  0
LINE
  5
352
100
AcDbEntity
  8
RACCORDO
100
AcDbLine
 62
7
  6
CONTINUOUS
 10
-7.8715070599
 20
18.975607393
 11
-7.8670350308
 21
19.0093924197
  0
LINE
  5
353
100
AcDbEntity
  8
ASSI
100
AcDbLine
 62
7
  6
CONTINUOUS
 10
-7.8759069948
 20
18.9435122643
 11
-7.8715070599
 21
18.975607393
  0
LINE
  5
354
100
AcDbEntity
  8
RACCORDO
100
AcDbLine
 62
7
  6
CONTINUOUS
 10
-7.8759069948
 20
18.9435122643
 11
-7.8715070599
 21
18.975607393
  0
LINE
  5
355
100
AcDbEntity
  8
ASSI
100
AcDbLine
 62
7
  6
CONTINUOUS
 10
-7.8802397695
 20
18.9130106558
 11
-7.8759069948
 21
18.9435122643
  0
LINE
  5
356
100
AcDbEntity
  8
RACCORDO
100
AcDbLine
 62
7
  6
CONTINUOUS
 10
-7.8802397695
 20
18.9130106558
 11
-7.8759069948
 21
18.9435122643
  0
LINE
  5
357
100
AcDbEntity
  8
ASSI
100
AcDbLine
 62
7
  6
CONTINUOUS
 10
-7.884508208
 20
18.8840434683
 11
-7.8802397695
 21
18.9130106558
  0
LINE
  5
358
100
AcDbEntity
  8
RACCORDO
100
AcDbLine
 62
7
  6
CONTINUOUS
 10
-7.884508208
 20
18.8840434683
 11
-7.8802397695
 21
18.9130106558
  0
LINE
  5
359
100
AcDbEntity
  8
ASSI
100
AcDbLine
 62
7
  6
CONTINUOUS
 10
-7.8887156058
 20
18.8565319002
 11
-7.884508208
 21
18.8840434683
  0
LINE
  5
35A
100
AcDbEntity
  8
RACCORDO
100
AcDbLine
 62
7
  6
CONTINUOUS
 10
-7.8887156058
 20
18.8565319002
 11
-7.884508208
 21
18.8840434683
  0
LINE
  5
35B
100
AcDbEntity
  8
ASSI
100
AcDbLine
 62
7
  6
CONTINUOUS
 10
-7.8928665973
 20
18.8303971075
 11
-7.8887156058
 21
18.8565319002
  0
LINE
  5
35C
100
AcDbEntity
  8
RACCORDO
100
AcDbLine
 62
7
  6
CONTINUOUS
 10
-7.8928665973
 20
18.8303971075
 11
-7.8887156058
 21
18.8565319002
  0
LINE
  5
35D
100
AcDbEntity
  8
ASSI
100
AcDbLine
 62
7
  6
CONTINUOUS
 10
-7.8969646702
 20
18.8055865237
 11
-7.8928665973
 21
18.8303971075
  0
LINE
  5
35E
100
AcDbEntity
  8
RACCORDO
100
AcDbLine
 62
7
  6
CONTINUOUS
 10
-7.8969646702
 20
18.8055865237
 11
-7.8928665973
 21
18.8303971075
  0
LINE
  5
35F
100
AcDbEntity
  8
ASSI
100
AcDbLine
 62
250
  6
CONTINUOUS
 10
15.2705545511
 20
16.74283921
 11
14.810105167
 21
16.5752748645
  0
LINE
  5
360
100
AcDbEntity
  8
RACCORDO
100
AcDbLine
 62
250
  6
CONTINUOUS
 10
15.2705545511
 20
16.74283921
 11
14.810105167
 21
16.5752748645
  0
LINE
  5
361
100
AcDbEntity
  8
ASSI
100
AcDbLine
 62
250
  6
CONTINUOUS
 10
15.1605708832
 20
15.5952459989
 11
15.6210202674
 21
15.7628103444
  0
LINE
  5
362
100
AcDbEntity
  8
RACCORDO
100
AcDbLine
 62
250
  6
CONTINUOUS
 10
15.1605708832
 20
15.5952459989
 11
15.6210202674
 21
15.7628103444
  0
LWPOLYLINE
  5
363
100
AcDbEntity
  8
ASSI
100
AcDbPolyline
 62
250
  6
CONTINUOUS
 90
7
 70
0
 10
18.2853940912
 20
-4.9879707713
 10
18.2879602759
 20
-4.9872425821
 10
18.2956149076
 20
-4.9864372815
 10
18.3082269916
 20
-4.9855686487
 10
18.325580709
 20
-4.9846515468
 10
18.3473791136
 20
-4.9837016679
 10
18.3732492167
 20
-4.9827352645
  0
LWPOLYLINE
  5
364
100
AcDbEntity
  8
RACCORDO
100
AcDbPolyline
 62
250
  6
CONTINUOUS
 90
7
 70
0
 10
18.2853940912
 20
-4.9879707713
 10
18.2879602759
 20
-4.9872425821
 10
18.2956149076
 20
-4.9864372815
 10
18.3082269916
 20
-4.9855686487
 10
18.325580709
 20
-4.9846515468
 10
18.3473791136
 20
-4.9837016679
 10
18.3732492167
 20
-4.9827352645
  0
LWPOLYLINE
  5
365
100
AcDbEntity
  8
ASSI
100
AcDbPolyline
 62
250
  6
CONTINUOUS
 90
7
 70
0
 10
18.2784120653
 20
-4.5880316933
 10
18.280978216
 20
-4.5873035089
 10
18.2886327605
 20
-4.586498213
 10
18.3012447275
 20
-4.5856295843
 10
18.3185983226
 20
-4.5847124854
 10
18.3403966212
 20
-4.583762608
 10
18.3662666482
 20
-4.5827962049
  0
LWPOLYLINE
  5
366
100
AcDbEntity
  8
RACCORDO
100
AcDbPolyline
 62
250
  6
CONTINUOUS
 90
7
 70
0
 10
18.2784120653
 20
-4.5880316933
 10
18.280978216
 20
-4.5873035089
 10
18.2886327605
 20
-4.586498213
 10
18.3012447275
 20
-4.5856295843
 10
18.3185983226
 20
-4.5847124854
 10
18.3403966212
 20
-4.583762608
 10
18.3662666482
 20
-4.5827962049
  0
LWPOLYLINE
  5
367
100
AcDbEntity
  8
ASSI
100
AcDbPolyline
 62
250
  6
CONTINUOUS
 90
8
 70
0
 10
-18.2853940912
 20
-4.9879707713
 10
-18.2879602419
 20
-4.987242587
 10
-18.2956147865
 20
-4.986437291
 10
-18.3082267534
 20
-4.9855686624
 10
-18.3255803486
 20
-4.9846515635
 10
-18.3473786472
 20
-4.9837016861
 10
-18.3732486742
 20
-4.9827352829
 10
-18.4353712455
 20
-4.9808190409
  0
LWPOLYLINE
  5
368
100
AcDbEntity
  8
RACCORDO
100
AcDbPolyline
 62
250
  6
CONTINUOUS
 90
8
 70
0
 10
-18.2853940912
 20
-4.9879707713
 10
-18.2879602419
 20
-4.987242587
 10
-18.2956147865
 20
-4.986437291
 10
-18.3082267534
 20
-4.9855686624
 10
-18.3255803486
 20
-4.9846515635
 10
-18.3473786472
 20
-4.9837016861
 10
-18.3732486742
 20
-4.9827352829
 10
-18.4353712455
 20
-4.9808190409
  0
LWPOLYLINE
  5
369
100
AcDbEntity
  8
ASSI
100
AcDbPolyline
 62
250
  6
CONTINUOUS
 90
8
 70
0
 10
-18.2784120653
 20
-4.5880316933
 10
-18.28097825
 20
-4.5873035035
 10
-18.2886328816
 20
-4.5864982025
 10
-18.3012449656
 20
-4.5856295696
 10
-18.318598683
 20
-4.5847124676
 10
-18.3403970876
 20
-4.5837625888
 10
-18.3662671907
 20
-4.5827961855
 10
-18.4283897667
 20
-4.5808799473
  0
LWPOLYLINE
  5
36A
100
AcDbEntity
  8
RACCORDO
100
AcDbPolyline
 62
250
  6
CONTINUOUS
 90
8
 70
0
 10
-18.2784120653
 20
-4.5880316933
 10
-18.28097825
 20
-4.5873035035
 10
-18.2886328816
 20
-4.5864982025
 10
-18.3012449656
 20
-4.5856295696
 10
-18.318598683
 20
-4.5847124676
 10
-18.3403970876
 20
-4.5837625888
 10
-18.3662671907
 20
-4.5827961855
 10
-18.4283897667
 20
-4.5808799473
  0
LWPOLYLINE
  5
36B
100
AcDbEntity
  8
ASSI
100
AcDbPolyline
 62
250
  6
CONTINUOUS
 90
8
 70
0
 10
-19.5
 20
-4.5723253249
 10
-19.4983399192
 20
-4.5728753644
 10
-19.4933794571
 20
-4.5734192016
 10
-19.4851755806
 20
-4.573950826
 10
-19.4738290631
 20
-4.5744640562
 10
-19.4594630386
 20
-4.5749535745
 10
-19.4422032017
 20
-4.5754148252
 10
-19.3996351586
 20
-4.5762334874
  0
LWPOLYLINE
  5
36C
100
AcDbEntity
  8
RACCORDO
100
AcDbPolyline
 62
250
  6
CONTINUOUS
 90
8
 70
0
 10
-19.5
 20
-4.5723253249
 10
-19.4983399192
 20
-4.5728753644
 10
-19.4933794571
 20
-4.5734192016
 10
-19.4851755806
 20
-4.573950826
 10
-19.4738290631
 20
-4.5744640562
 10
-19.4594630386
 20
-4.5749535745
 10
-19.4422032017
 20
-4.5754148252
 10
-19.3996351586
 20
-4.5762334874
  0
LWPOLYLINE
  5
36D
100
AcDbEntity
  8
ASSI
100
AcDbPolyline
 62
250
  6
CONTINUOUS
 90
6
 70
0
 10
-19.5
 20
-4.9722644029
 10
-19.4983460865
 20
-4.9728134227
 10
-19.4934025717
 20
-4.9733563897
 10
-19.4852239478
 20
-4.9738873172
 10
-19.4738986809
 20
-4.9744004173
 10
-19.4595525316
 20
-4.9748899598
  0
LWPOLYLINE
  5
36E
100
AcDbEntity
  8
RACCORDO
100
AcDbPolyline
 62
250
  6
CONTINUOUS
 90
6
 70
0
 10
-19.5
 20
-4.9722644029
 10
-19.4983460865
 20
-4.9728134227
 10
-19.4934025717
 20
-4.9733563897
 10
-19.4852239478
 20
-4.9738873172
 10
-19.4738986809
 20
-4.9744004173
 10
-19.4595525316
 20
-4.9748899598
  0
LWPOLYLINE
  5
36F
100
AcDbEntity
  8
RACCORDO
100
AcDbPolyline
 62
7
  6
CONTINUOUS
 90
9
 70
0
 10
3.9023827659
 20
-18.3483340801
 10
3.9371943674
 20
-18.3821760802
 10
3.9475134937
 20
-18.391919101
 10
3.9570474156
 20
-18.4008139918
 10
3.9654353136
 20
-18.4087329265
 10
3.9723479489
 20
-18.4149551376
 10
3.9775926132
 20
-18.4192418743
 10
3.9810324853
 20
-18.4218338792
 10
3.9823679021
 20
-18.4226864777
  0
LINE
  5
370
100
AcDbEntity
  8
RACCORDO
100
AcDbLine
 62
7
  6
CONTINUOUS
 10
3.876551761
 20
-18.3228426565
 11
3.9023827659
 21
-18.3483340801
  0
LINE
  5
371
100
AcDbEntity
  8
RACCORDO
100
AcDbLine
 62
7
  6
CONTINUOUS
 10
3.8171863143
 20
-18.2638410247
 11
3.876551761
 21
-18.3228426565
  0
LINE
  5
372
100
AcDbEntity
  8
RACCORDO
100
AcDbLine
 62
7
  6
CONTINUOUS
 10
3.7677835289
 20
-18.2142891648
 11
3.8171863143
 21
-18.2638410247
  0
LWPOLYLINE
  5
373
100
AcDbEntity
  8
RACCORDO
100
AcDbPolyline
 62
7
  6
CONTINUOUS
 90
3
 70
0
 10
3.6877357561
 20
-18.1332488047
 10
3.703012436
 20
-18.1488697149
 10
3.7677835289
 20
-18.2142891648
  0
LINE
  5
374
100
AcDbEntity
  8
ASSI
100
AcDbLine
 62
7
  6
CONTINUOUS
 10
-8.205151359
 20
19.7193538025
 11
-8.1935691699
 21
19.5843306935
  0
LINE
  5
375
100
AcDbEntity
  8
RACCORDO
100
AcDbLine
 62
7
  6
CONTINUOUS
 10
-8.205151359
 20
19.7193538025
 11
-8.1935691699
 21
19.5843306935
  0
LINE
  5
376
100
AcDbEntity
  8
ASSI
100
AcDbLine
 62
7
  6
CONTINUOUS
 10
-8.217229349
 20
19.8688900478
 11
-8.205151359
 21
19.7193538025
  0
LINE
  5
377
100
AcDbEntity
  8
RACCORDO
100
AcDbLine
 62
7
  6
CONTINUOUS
 10
-8.217229349
 20
19.8688900478
 11
-8.205151359
 21
19.7193538025
  0
LINE
  5
378
100
AcDbEntity
  8
ASSI
100
AcDbLine
 62
7
  6
CONTINUOUS
 10
-8.2298279282
 20
20.034429572
 11
-8.217229349
 21
19.8688900478
  0
LINE
  5
379
100
AcDbEntity
  8
RACCORDO
100
AcDbLine
 62
7
  6
CONTINUOUS
 10
-8.2298279282
 20
20.034429572
 11
-8.217229349
 21
19.8688900478
  0
LINE
  5
37A
100
AcDbEntity
  8
ASSI
100
AcDbLine
 62
7
  6
CONTINUOUS
 10
-8.2463545734
 20
20.2665916782
 11
-8.2298279282
 21
20.034429572
  0
LINE
  5
37B
100
AcDbEntity
  8
RACCORDO
100
AcDbLine
 62
7
  6
CONTINUOUS
 10
-8.2463545734
 20
20.2665916782
 11
-8.2298279282
 21
20.034429572
  0
LINE
  5
37C
100
AcDbEntity
  8
ASSI
100
AcDbLine
 62
7
  6
CONTINUOUS
 10
-8.2638083085
 20
20.53042428
 11
-8.2463545734
 21
20.2665916782
  0
LINE
  5
37D
100
AcDbEntity
  8
RACCORDO
100
AcDbLine
 62
7
  6
CONTINUOUS
 10
-8.2638083085
 20
20.53042428
 11
-8.2463545734
 21
20.2665916782
  0
LINE
  5
37E
100
AcDbEntity
  8
ASSI
100
AcDbLine
 62
7
  6
CONTINUOUS
 10
-8.2822466315
 20
20.8302696554
 11
-8.2638083085
 21
20.53042428
  0
LINE
  5
37F
100
AcDbEntity
  8
RACCORDO
100
AcDbLine
 62
7
  6
CONTINUOUS
 10
-8.2822466315
 20
20.8302696554
 11
-8.2638083085
 21
20.53042428
  0
LINE
  5
380
100
AcDbEntity
  8
ASSI
100
AcDbLine
 62
7
  6
CONTINUOUS
 10
-8.3057533357
 20
21.2446008758
 11
-8.2822466315
 21
20.8302696554
  0
LINE
  5
381
100
AcDbEntity
  8
RACCORDO
100
AcDbLine
 62
7
  6
CONTINUOUS
 10
-8.3057533357
 20
21.2446008758
 11
-8.2822466315
 21
20.8302696554
  0
LINE
  5
382
100
AcDbEntity
  8
ASSI
100
AcDbLine
 62
7
  6
CONTINUOUS
 10
-8.3308615687
 20
21.7277094664
 11
-8.3057533357
 21
21.2446008758
  0
LINE
  5
383
100
AcDbEntity
  8
RACCORDO
100
AcDbLine
 62
7
  6
CONTINUOUS
 10
-8.3308615687
 20
21.7277094664
 11
-8.3057533357
 21
21.2446008758
  0
LINE
  5
384
100
AcDbEntity
  8
ASSI
100
AcDbLine
 62
7
  6
CONTINUOUS
 10
-8.3576720667
 20
22.2910693136
 11
-8.3308615687
 21
21.7277094664
  0
LINE
  5
385
100
AcDbEntity
  8
RACCORDO
100
AcDbLine
 62
7
  6
CONTINUOUS
 10
-8.3576720667
 20
22.2910693136
 11
-8.3308615687
 21
21.7277094664
  0
LINE
  5
386
100
AcDbEntity
  8
ASSI
100
AcDbLine
 62
7
  6
CONTINUOUS
 10
-8.3862829306
 20
22.9481038641
 11
-8.3576720667
 21
22.2910693136
  0
LINE
  5
387
100
AcDbEntity
  8
RACCORDO
100
AcDbLine
 62
7
  6
CONTINUOUS
 10
-8.3862829306
 20
22.9481038641
 11
-8.3576720667
 21
22.2910693136
  0
LINE
  5
388
100
AcDbEntity
  8
ASSI
100
AcDbLine
 62
7
  6
CONTINUOUS
 10
-8.4115676793
 20
23.5785038744
 11
-8.3862829306
 21
22.9481038641
  0
LINE
  5
389
100
AcDbEntity
  8
RACCORDO
100
AcDbLine
 62
7
  6
CONTINUOUS
 10
-8.4115676793
 20
23.5785038744
 11
-8.3862829306
 21
22.9481038641
  0
LINE
  5
38A
100
AcDbEntity
  8
ASSI
100
AcDbLine
 62
7
  6
CONTINUOUS
 10
-8.4382147777
 20
24.2952249614
 11
-8.4115676793
 21
23.5785038744
  0
LINE
  5
38B
100
AcDbEntity
  8
RACCORDO
100
AcDbLine
 62
7
  6
CONTINUOUS
 10
-8.4382147777
 20
24.2952249614
 11
-8.4115676793
 21
23.5785038744
  0
LINE
  5
38C
100
AcDbEntity
  8
ASSI
100
AcDbLine
 62
7
  6
CONTINUOUS
 10
-8.4662656638
 20
25.110286631
 11
-8.4382147777
 21
24.2952249614
  0
LINE
  5
38D
100
AcDbEntity
  8
RACCORDO
100
AcDbLine
 62
7
  6
CONTINUOUS
 10
-8.4662656638
 20
25.110286631
 11
-8.4382147777
 21
24.2952249614
  0
LINE
  5
38E
100
AcDbEntity
  8
ASSI
100
AcDbLine
 62
7
  6
CONTINUOUS
 10
-8.4897487432
 20
25.8426721645
 11
-8.4662656638
 21
25.110286631
  0
LINE
  5
38F
100
AcDbEntity
  8
RACCORDO
100
AcDbLine
 62
7
  6
CONTINUOUS
 10
-8.4897487432
 20
25.8426721645
 11
-8.4662656638
 21
25.110286631
  0
LINE
  5
390
100
AcDbEntity
  8
ASSI
100
AcDbLine
 62
7
  6
CONTINUOUS
 10
-8.4975155378
 20
26.0952764861
 11
-8.4897487432
 21
25.8426721645
  0
LINE
  5
391
100
AcDbEntity
  8
RACCORDO
100
AcDbLine
 62
7
  6
CONTINUOUS
 10
-8.4975155378
 20
26.0952764861
 11
-8.4897487432
 21
25.8426721645
  0
LINE
  5
392
100
AcDbEntity
  8
ASSI
100
AcDbLine
 62
7
  6
CONTINUOUS
 10
-7.5337343314
 20
25.110286776
 11
-7.5024844622
 21
26.0952764861
  0
LINE
  5
393
100
AcDbEntity
  8
RACCORDO
100
AcDbLine
 62
7
  6
CONTINUOUS
 10
-7.5337343314
 20
25.110286776
 11
-7.5024844622
 21
26.0952764861
  0
LINE
  5
394
100
AcDbEntity
  8
ASSI
100
AcDbLine
 62
7
  6
CONTINUOUS
 10
-7.5617852212
 20
24.2952249918
 11
-7.5337343314
 21
25.110286776
  0
LINE
  5
395
100
AcDbEntity
  8
RACCORDO
100
AcDbLine
 62
7
  6
CONTINUOUS
 10
-7.5617852212
 20
24.2952249918
 11
-7.5337343314
 21
25.110286776
  0
LINE
  5
396
100
AcDbEntity
  8
ASSI
100
AcDbLine
 62
7
  6
CONTINUOUS
 10
-7.5935969223
 20
23.4458520192
 11
-7.5617852212
 21
24.2952249918
  0
LINE
  5
397
100
AcDbEntity
  8
RACCORDO
100
AcDbLine
 62
7
  6
CONTINUOUS
 10
-7.5935969223
 20
23.4458520192
 11
-7.5617852212
 21
24.2952249918
  0
LINE
  5
398
100
AcDbEntity
  8
ASSI
100
AcDbLine
 62
7
  6
CONTINUOUS
 10
-7.6234597983
 20
22.7177930405
 11
-7.5935969223
 21
23.4458520192
  0
LINE
  5
399
100
AcDbEntity
  8
RACCORDO
100
AcDbLine
 62
7
  6
CONTINUOUS
 10
-7.6234597983
 20
22.7177930405
 11
-7.5935969223
 21
23.4458520192
  0
LINE
  5
39A
100
AcDbEntity
  8
ASSI
100
AcDbLine
 62
7
  6
CONTINUOUS
 10
-7.6514599158
 20
22.093604215
 11
-7.6234597983
 21
22.7177930405
  0
LINE
  5
39B
100
AcDbEntity
  8
RACCORDO
100
AcDbLine
 62
7
  6
CONTINUOUS
 10
-7.6514599158
 20
22.093604215
 11
-7.6234597983
 21
22.7177930405
  0
LINE
  5
39C
100
AcDbEntity
  8
ASSI
100
AcDbLine
 62
7
  6
CONTINUOUS
 10
-8.1640549277
 20
19.2769536992
 11
-8.1565464666
 21
19.2070842888
  0
LINE
  5
39D
100
AcDbEntity
  8
RACCORDO
100
AcDbLine
 62
7
  6
CONTINUOUS
 10
-8.1640549277
 20
19.2769536992
 11
-8.1565464666
 21
19.2070842888
  0
LINE
  5
39E
100
AcDbEntity
  8
ASSI
100
AcDbLine
 62
7
  6
CONTINUOUS
 10
-8.1717856807
 20
19.3524080107
 11
-8.1640549277
 21
19.2769536992
  0
LINE
  5
39F
100
AcDbEntity
  8
RACCORDO
100
AcDbLine
 62
7
  6
CONTINUOUS
 10
-8.1717856807
 20
19.3524080107
 11
-8.1640549277
 21
19.2769536992
  0
LINE
  5
3A0
100
AcDbEntity
  8
ASSI
100
AcDbLine
 62
7
  6
CONTINUOUS
 10
-8.1797495059
 20
19.433882807
 11
-8.1717856807
 21
19.3524080107
  0
LINE
  5
3A1
100
AcDbEntity
  8
RACCORDO
100
AcDbLine
 62
7
  6
CONTINUOUS
 10
-8.1797495059
 20
19.433882807
 11
-8.1717856807
 21
19.3524080107
  0
LWPOLYLINE
  5
3A2
100
AcDbEntity
  8
ASSI
100
AcDbPolyline
 62
7
  6
CONTINUOUS
 90
3
 70
0
 10
-8.1935691699
 20
19.5843306935
 10
-8.1907484848
 20
19.5526944065
 10
-8.1797495059
 20
19.433882807
  0
LWPOLYLINE
  5
3A3
100
AcDbEntity
  8
RACCORDO
100
AcDbPolyline
 62
7
  6
CONTINUOUS
 90
3
 70
0
 10
-8.1935691699
 20
19.5843306935
 10
-8.1907484848
 20
19.5526944065
 10
-8.1797495059
 20
19.433882807
  0
LINE
  5
3A4
100
AcDbEntity
  8
RACCORDO
100
AcDbLine
 62
7
  6
CONTINUOUS
 10
-3.8769006468
 20
-24.4722351383
 11
-3.9825449351
 21
-18.4226434694
  0
LWPOLYLINE
  5
3A5
100
AcDbEntity
  8
ASSI
100
AcDbPolyline
 62
250
  6
CONTINUOUS
 90
7
 70
0
 10
18.1981187666
 20
0.0112677045
 10
18.2006849513
 20
0.0119958937
 10
18.208339583
 20
0.0128011943
 10
18.220951667
 20
0.0136698271
 10
18.2383053844
 20
0.0145869289
 10
18.2601037889
 20
0.0155368079
 10
18.285973892
 20
0.0165032113
  0
LWPOLYLINE
  5
3A6
100
AcDbEntity
  8
RACCORDO
100
AcDbPolyline
 62
250
  6
CONTINUOUS
 90
7
 70
0
 10
18.1981187666
 20
0.0112677045
 10
18.2006849513
 20
0.0119958937
 10
18.208339583
 20
0.0128011943
 10
18.220951667
 20
0.0136698271
 10
18.2383053844
 20
0.0145869289
 10
18.2601037889
 20
0.0155368079
 10
18.285973892
 20
0.0165032113
  0
LWPOLYLINE
  5
3A7
100
AcDbEntity
  8
ASSI
100
AcDbPolyline
 62
250
  6
CONTINUOUS
 90
7
 70
0
 10
18.1911367406
 20
0.4112067825
 10
18.1937028913
 20
0.4119349669
 10
18.2013574359
 20
0.4127402628
 10
18.2139694028
 20
0.4136088915
 10
18.231322998
 20
0.4145259904
 10
18.2531212966
 20
0.4154758678
 10
18.2789913236
 20
0.4164422709
  0
LWPOLYLINE
  5
3A8
100
AcDbEntity
  8
RACCORDO
100
AcDbPolyline
 62
250
  6
CONTINUOUS
 90
7
 70
0
 10
18.1911367406
 20
0.4112067825
 10
18.1937028913
 20
0.4119349669
 10
18.2013574359
 20
0.4127402628
 10
18.2139694028
 20
0.4136088915
 10
18.231322998
 20
0.4145259904
 10
18.2531212966
 20
0.4154758678
 10
18.2789913236
 20
0.4164422709
  0
LINE
  5
3A9
100
AcDbEntity
  8
ASSI
100
AcDbLine
 62
250
  6
CONTINUOUS
 10
18.3732492167
 20
-4.9827352645
 11
18.4353717927
 21
-4.9808190263
  0
LINE
  5
3AA
100
AcDbEntity
  8
RACCORDO
100
AcDbLine
 62
250
  6
CONTINUOUS
 10
18.3732492167
 20
-4.9827352645
 11
18.4353717927
 21
-4.9808190263
  0
LINE
  5
3AB
100
AcDbEntity
  8
ASSI
100
AcDbLine
 62
250
  6
CONTINUOUS
 10
18.3662666482
 20
-4.5827962049
 11
18.4283892196
 21
-4.5808799628
  0
LINE
  5
3AC
100
AcDbEntity
  8
RACCORDO
100
AcDbLine
 62
250
  6
CONTINUOUS
 10
18.3662666482
 20
-4.5827962049
 11
18.4283892196
 21
-4.5808799628
  0
LWPOLYLINE
  5
3AD
100
AcDbEntity
  8
ASSI
100
AcDbPolyline
 62
7
  6
CONTINUOUS
 90
17
 70
0
 10
18.5958198798
 20
-5.2722634978
 10
18.578405643
 20
-5.2727693501
 10
18.5481482237
 20
-5.2760753701
 10
18.5183815131
 20
-5.2824303072
 10
18.4894119472
 20
-5.2917687418
 10
18.4615377349
 20
-5.3039945442
 10
18.4350458095
 20
-5.3189818621
 10
18.4102088924
 20
-5.3365764033
 10
18.3872826448
 20
-5.3565970473
 10
18.3665030628
 20
-5.3788376975
 10
18.3480840588
 20
-5.4030693824
 10
18.3322152293
 20
-5.4290426394
 10
18.319059899
 20
-5.4564901086
 10
18.3087534615
 20
-5.4851292747
 10
18.3014019933
 20
-5.5146653438
 10
18.2970811583
 20
-5.5447942617
 10
18.2958354193
 20
-5.5752058727
  0
LWPOLYLINE
  5
3AE
100
AcDbEntity
  8
RACCORDO
100
AcDbPolyline
 62
7
  6
CONTINUOUS
 90
17
 70
0
 10
18.5958198798
 20
-5.2722634978
 10
18.578405643
 20
-5.2727693501
 10
18.5481482237
 20
-5.2760753701
 10
18.5183815131
 20
-5.2824303072
 10
18.4894119472
 20
-5.2917687418
 10
18.4615377349
 20
-5.3039945442
 10
18.4350458095
 20
-5.3189818621
 10
18.4102088924
 20
-5.3365764033
 10
18.3872826448
 20
-5.3565970473
 10
18.3665030628
 20
-5.3788376975
 10
18.3480840588
 20
-5.4030693824
 10
18.3322152293
 20
-5.4290426394
 10
18.319059899
 20
-5.4564901086
 10
18.3087534615
 20
-5.4851292747
 10
18.3014019933
 20
-5.5146653438
 10
18.2970811583
 20
-5.5447942617
 10
18.2958354193
 20
-5.5752058727
  0
LWPOLYLINE
  5
3AF
100
AcDbEntity
  8
ASSI
100
AcDbPolyline
 62
250
  6
CONTINUOUS
 90
6
 70
0
 10
19.4423510683
 20
-4.9753503694
 10
19.4595525318
 20
-4.9748899598
 10
19.473898681
 20
-4.9744004173
 10
19.4852239478
 20
-4.9738873172
 10
19.4934025717
 20
-4.9733563897
 10
19.4983460865
 20
-4.9728134227
  0
LWPOLYLINE
  5
3B0
100
AcDbEntity
  8
RACCORDO
100
AcDbPolyline
 62
250
  6
CONTINUOUS
 90
6
 70
0
 10
19.4423510683
 20
-4.9753503694
 10
19.4595525318
 20
-4.9748899598
 10
19.473898681
 20
-4.9744004173
 10
19.4852239478
 20
-4.9738873172
 10
19.4934025717
 20
-4.9733563897
 10
19.4983460865
 20
-4.9728134227
  0
LWPOLYLINE
  5
3B1
100
AcDbEntity
  8
ASSI
100
AcDbPolyline
 62
250
  6
CONTINUOUS
 90
7
 70
0
 10
19.4422032157
 20
-4.5754148249
 10
19.4594630483
 20
-4.5749535742
 10
19.4738290693
 20
-4.5744640559
 10
19.4851755842
 20
-4.5739508258
 10
19.4933794586
 20
-4.5734192015
 10
19.4983399196
 20
-4.5728753644
 10
19.5
 20
-4.5723253249
  0
LWPOLYLINE
  5
3B2
100
AcDbEntity
  8
RACCORDO
100
AcDbPolyline
 62
250
  6
CONTINUOUS
 90
7
 70
0
 10
19.4422032157
 20
-4.5754148249
 10
19.4594630483
 20
-4.5749535742
 10
19.4738290693
 20
-4.5744640559
 10
19.4851755842
 20
-4.5739508258
 10
19.4933794586
 20
-4.5734192015
 10
19.4983399196
 20
-4.5728753644
 10
19.5
 20
-4.5723253249
  0
LINE
  5
3B3
100
AcDbEntity
  8
ASSI
100
AcDbLine
 62
250
  6
CONTINUOUS
 10
18.4353717927
 20
-4.9808190263
 11
18.5077148704
 21
-4.9790334183
  0
LINE
  5
3B4
100
AcDbEntity
  8
RACCORDO
100
AcDbLine
 62
250
  6
CONTINUOUS
 10
18.4353717927
 20
-4.9808190263
 11
18.5077148704
 21
-4.9790334183
  0
LINE
  5
3B5
100
AcDbEntity
  8
ASSI
100
AcDbLine
 62
250
  6
CONTINUOUS
 10
18.4283892196
 20
-4.5808799628
 11
18.5007324861
 21
-4.5790943479
  0
LINE
  5
3B6
100
AcDbEntity
  8
RACCORDO
100
AcDbLine
 62
250
  6
CONTINUOUS
 10
18.4283892196
 20
-4.5808799628
 11
18.5007324861
 21
-4.5790943479
  0
LINE
  5
3B7
100
AcDbEntity
  8
ASSI
100
AcDbLine
 62
250
  6
CONTINUOUS
 10
18.5077148704
 20
-4.9790334183
 11
18.5853483998
 21
-4.9775001249
  0
LINE
  5
3B8
100
AcDbEntity
  8
RACCORDO
100
AcDbLine
 62
250
  6
CONTINUOUS
 10
18.5077148704
 20
-4.9790334183
 11
18.5853483998
 21
-4.9775001249
  0
LINE
  5
3B9
100
AcDbEntity
  8
ASSI
100
AcDbLine
 62
250
  6
CONTINUOUS
 10
18.5007324861
 20
-4.5790943479
 11
18.5783663738
 21
-4.5775610468
  0
LINE
  5
3BA
100
AcDbEntity
  8
RACCORDO
100
AcDbLine
 62
250
  6
CONTINUOUS
 10
18.5007324861
 20
-4.5790943479
 11
18.5783663738
 21
-4.5775610468
  0
LINE
  5
3BB
100
AcDbEntity
  8
ASSI
100
AcDbLine
 62
250
  6
CONTINUOUS
 10
19.4001952061
 20
-4.9761638298
 11
19.4423510683
 21
-4.9753503694
  0
LINE
  5
3BC
100
AcDbEntity
  8
RACCORDO
100
AcDbLine
 62
250
  6
CONTINUOUS
 10
19.4001952061
 20
-4.9761638298
 11
19.4423510683
 21
-4.9753503694
  0
LINE
  5
3BD
100
AcDbEntity
  8
ASSI
100
AcDbLine
 62
250
  6
CONTINUOUS
 10
19.3996351866
 20
-4.576233487
 11
19.4422032157
 21
-4.5754148249
  0
LINE
  5
3BE
100
AcDbEntity
  8
RACCORDO
100
AcDbLine
 62
250
  6
CONTINUOUS
 10
19.3996351866
 20
-4.576233487
 11
19.4422032157
 21
-4.5754148249
  0
LINE
  5
3BF
100
AcDbEntity
  8
ASSI
100
AcDbLine
 62
250
  6
CONTINUOUS
 10
19.349220651
 20
-4.9768064968
 11
19.4001952061
 21
-4.9761638298
  0
LINE
  5
3C0
100
AcDbEntity
  8
RACCORDO
100
AcDbLine
 62
250
  6
CONTINUOUS
 10
19.349220651
 20
-4.9768064968
 11
19.4001952061
 21
-4.9761638298
  0
LINE
  5
3C1
100
AcDbEntity
  8
ASSI
100
AcDbLine
 62
250
  6
CONTINUOUS
 10
19.3484271686
 20
-4.5768753308
 11
19.3996351866
 21
-4.576233487
  0
LINE
  5
3C2
100
AcDbEntity
  8
RACCORDO
100
AcDbLine
 62
250
  6
CONTINUOUS
 10
19.3484271686
 20
-4.5768753308
 11
19.3996351866
 21
-4.576233487
  0
LINE
  5
3C3
100
AcDbEntity
  8
ASSI
100
AcDbLine
 62
250
  6
CONTINUOUS
 10
19.2616015758
 20
-4.9773885569
 11
19.349220651
 21
-4.9768064968
  0
LINE
  5
3C4
100
AcDbEntity
  8
RACCORDO
100
AcDbLine
 62
250
  6
CONTINUOUS
 10
19.2616015758
 20
-4.9773885569
 11
19.349220651
 21
-4.9768064968
  0
LINE
  5
3C5
100
AcDbEntity
  8
ASSI
100
AcDbLine
 62
250
  6
CONTINUOUS
 10
19.2611488904
 20
-4.57745113
 11
19.3484271686
 21
-4.5768753308
  0
LINE
  5
3C6
100
AcDbEntity
  8
RACCORDO
100
AcDbLine
 62
250
  6
CONTINUOUS
 10
19.2611488904
 20
-4.57745113
 11
19.3484271686
 21
-4.5768753308
  0
LINE
  5
3C7
100
AcDbEntity
  8
ASSI
100
AcDbLine
 62
7
  6
CONTINUOUS
 10
-19.2
 20
-5.2722644029
 11
-18.5958197896
 21
-5.2722644029
  0
LINE
  5
3C8
100
AcDbEntity
  8
RACCORDO
100
AcDbLine
 62
7
  6
CONTINUOUS
 10
-19.2
 20
-5.2722644029
 11
-18.5958197896
 21
-5.2722644029
  0
LINE
  5
3C9
100
AcDbEntity
  8
ASSI
100
AcDbLine
 62
7
  6
CONTINUOUS
 10
18.5958197894
 20
-5.2722644029
 11
19.2
 21
-5.2722644029
  0
LINE
  5
3CA
100
AcDbEntity
  8
RACCORDO
100
AcDbLine
 62
7
  6
CONTINUOUS
 10
18.5958197894
 20
-5.2722644029
 11
19.2
 21
-5.2722644029
  0
LINE
  5
3CB
100
AcDbEntity
  8
ASSI
100
AcDbLine
 62
250
  6
CONTINUOUS
 10
18.5853483998
 20
-4.9775001249
 11
19.2616015758
 21
-4.9773885569
  0
LINE
  5
3CC
100
AcDbEntity
  8
RACCORDO
100
AcDbLine
 62
250
  6
CONTINUOUS
 10
18.5853483998
 20
-4.9775001249
 11
19.2616015758
 21
-4.9773885569
  0
LINE
  5
3CD
100
AcDbEntity
  8
ASSI
100
AcDbLine
 62
250
  6
CONTINUOUS
 10
19.2611488904
 20
-4.57745113
 11
18.5783663738
 21
-4.5775610468
  0
LINE
  5
3CE
100
AcDbEntity
  8
RACCORDO
100
AcDbLine
 62
250
  6
CONTINUOUS
 10
19.2611488904
 20
-4.57745113
 11
18.5783663738
 21
-4.5775610468
  0
LINE
  5
3CF
100
AcDbEntity
  8
ASSI
100
AcDbLine
 62
250
  6
CONTINUOUS
 10
19.2
 20
-4.2723710163
 11
18.5678933349
 21
-4.2723710163
  0
LINE
  5
3D0
100
AcDbEntity
  8
RACCORDO
100
AcDbLine
 62
250
  6
CONTINUOUS
 10
19.2
 20
-4.2723710163
 11
18.5678933349
 21
-4.2723710163
  0
LINE
  5
3D1
100
AcDbEntity
  8
ASSI
100
AcDbLine
 62
250
  6
CONTINUOUS
 10
-18.5678933349
 20
-4.2723710163
 11
-19.2
 21
-4.2723710163
  0
LINE
  5
3D2
100
AcDbEntity
  8
RACCORDO
100
AcDbLine
 62
250
  6
CONTINUOUS
 10
-18.5678933349
 20
-4.2723710163
 11
-19.2
 21
-4.2723710163
  0
LINE
  5
3D3
100
AcDbEntity
  8
ASSI
100
AcDbLine
 62
7
  6
CONTINUOUS
 10
-19.2
 20
-4.1955347366
 11
-18.567894984
 21
-4.1955347366
  0
LINE
  5
3D4
100
AcDbEntity
  8
RACCORDO
100
AcDbLine
 62
7
  6
CONTINUOUS
 10
-19.2
 20
-4.1955347366
 11
-18.567894984
 21
-4.1955347366
  0
LINE
  5
3D5
100
AcDbEntity
  8
ASSI
100
AcDbLine
 62
7
  6
CONTINUOUS
 10
18.5678949842
 20
-4.1955347366
 11
19.2
 21
-4.1955347366
  0
LINE
  5
3D6
100
AcDbEntity
  8
RACCORDO
100
AcDbLine
 62
7
  6
CONTINUOUS
 10
18.5678949842
 20
-4.1955347366
 11
19.2
 21
-4.1955347366
  0
LINE
  5
3D7
100
AcDbEntity
  8
ASSI
100
AcDbLine
 62
250
  6
CONTINUOUS
 10
-19.2616015752
 20
-4.9773885569
 11
-18.5853483998
 21
-4.9775001249
  0
LINE
  5
3D8
100
AcDbEntity
  8
RACCORDO
100
AcDbLine
 62
250
  6
CONTINUOUS
 10
-19.2616015752
 20
-4.9773885569
 11
-18.5853483998
 21
-4.9775001249
  0
LINE
  5
3D9
100
AcDbEntity
  8
ASSI
100
AcDbLine
 62
250
  6
CONTINUOUS
 10
-19.2611488739
 20
-4.5774511301
 11
-18.5783663738
 21
-4.5775610468
  0
LINE
  5
3DA
100
AcDbEntity
  8
RACCORDO
100
AcDbLine
 62
250
  6
CONTINUOUS
 10
-19.2611488739
 20
-4.5774511301
 11
-18.5783663738
 21
-4.5775610468
  0
LINE
  5
3DB
100
AcDbEntity
  8
ASSI
100
AcDbLine
 62
250
  6
CONTINUOUS
 10
-19.3484271355
 20
-4.5768753311
 11
-19.2611488739
 21
-4.5774511301
  0
LINE
  5
3DC
100
AcDbEntity
  8
RACCORDO
100
AcDbLine
 62
250
  6
CONTINUOUS
 10
-19.3484271355
 20
-4.5768753311
 11
-19.2611488739
 21
-4.5774511301
  0
LINE
  5
3DD
100
AcDbEntity
  8
ASSI
100
AcDbLine
 62
250
  6
CONTINUOUS
 10
-19.3492206505
 20
-4.9768064968
 11
-19.2616015752
 21
-4.9773885569
  0
LINE
  5
3DE
100
AcDbEntity
  8
RACCORDO
100
AcDbLine
 62
250
  6
CONTINUOUS
 10
-19.3492206505
 20
-4.9768064968
 11
-19.2616015752
 21
-4.9773885569
  0
LINE
  5
3DF
100
AcDbEntity
  8
ASSI
100
AcDbLine
 62
250
  6
CONTINUOUS
 10
-19.3996351586
 20
-4.5762334874
 11
-19.3484271355
 21
-4.5768753311
  0
LINE
  5
3E0
100
AcDbEntity
  8
RACCORDO
100
AcDbLine
 62
250
  6
CONTINUOUS
 10
-19.3996351586
 20
-4.5762334874
 11
-19.3484271355
 21
-4.5768753311
  0
LINE
  5
3E1
100
AcDbEntity
  8
ASSI
100
AcDbLine
 62
250
  6
CONTINUOUS
 10
-19.4001952057
 20
-4.9761638298
 11
-19.3492206505
 21
-4.9768064968
  0
LINE
  5
3E2
100
AcDbEntity
  8
RACCORDO
100
AcDbLine
 62
250
  6
CONTINUOUS
 10
-19.4001952057
 20
-4.9761638298
 11
-19.3492206505
 21
-4.9768064968
  0
LINE
  5
3E3
100
AcDbEntity
  8
ASSI
100
AcDbLine
 62
250
  6
CONTINUOUS
 10
-18.5077145121
 20
-4.9790334259
 11
-18.5853483998
 21
-4.9775001249
  0
LINE
  5
3E4
100
AcDbEntity
  8
RACCORDO
100
AcDbLine
 62
250
  6
CONTINUOUS
 10
-18.5077145121
 20
-4.9790334259
 11
-18.5853483998
 21
-4.9775001249
  0
LINE
  5
3E5
100
AcDbEntity
  8
ASSI
100
AcDbLine
 62
250
  6
CONTINUOUS
 10
-18.5007328444
 20
-4.5790943396
 11
-18.5783663738
 21
-4.5775610468
  0
LINE
  5
3E6
100
AcDbEntity
  8
RACCORDO
100
AcDbLine
 62
250
  6
CONTINUOUS
 10
-18.5007328444
 20
-4.5790943396
 11
-18.5783663738
 21
-4.5775610468
  0
LINE
  5
3E7
100
AcDbEntity
  8
ASSI
100
AcDbLine
 62
250
  6
CONTINUOUS
 10
-18.4353712455
 20
-4.9808190409
 11
-18.5077145121
 21
-4.9790334259
  0
LINE
  5
3E8
100
AcDbEntity
  8
RACCORDO
100
AcDbLine
 62
250
  6
CONTINUOUS
 10
-18.4353712455
 20
-4.9808190409
 11
-18.5077145121
 21
-4.9790334259
  0
LINE
  5
3E9
100
AcDbEntity
  8
ASSI
100
AcDbLine
 62
250
  6
CONTINUOUS
 10
-18.4283897667
 20
-4.5808799473
 11
-18.5007328444
 21
-4.5790943396
  0
LINE
  5
3EA
100
AcDbEntity
  8
RACCORDO
100
AcDbLine
 62
250
  6
CONTINUOUS
 10
-18.4283897667
 20
-4.5808799473
 11
-18.5007328444
 21
-4.5790943396
  0
LWPOLYLINE
  5
3EB
100
AcDbEntity
  8
ASSI
100
AcDbPolyline
 62
250
  6
CONTINUOUS
 90
3
 70
0
 10
-19.4595525316
 20
-4.9748899598
 10
-19.4423510681
 20
-4.9753503694
 10
-19.4001952057
 20
-4.9761638298
  0
LWPOLYLINE
  5
3EC
100
AcDbEntity
  8
RACCORDO
100
AcDbPolyline
 62
250
  6
CONTINUOUS
 90
3
 70
0
 10
-19.4595525316
 20
-4.9748899598
 10
-19.4423510681
 20
-4.9753503694
 10
-19.4001952057
 20
-4.9761638298
  0
LWPOLYLINE
  5
3ED
100
AcDbEntity
  8
ASSI
100
AcDbPolyline
 62
250
  6
CONTINUOUS
 90
8
 70
0
 10
-18.1981187666
 20
0.0112677045
 10
-18.2006849173
 20
0.0119958888
 10
-18.2083394618
 20
0.0128011847
 10
-18.2209514288
 20
0.0136698134
 10
-18.238305024
 20
0.0145869123
 10
-18.2601033225
 20
0.0155367897
 10
-18.2859733495
 20
0.0165031928
 10
-18.3480959209
 20
0.0184194349
  0
LWPOLYLINE
  5
3EE
100
AcDbEntity
  8
RACCORDO
100
AcDbPolyline
 62
250
  6
CONTINUOUS
 90
8
 70
0
 10
-18.1981187666
 20
0.0112677045
 10
-18.2006849173
 20
0.0119958888
 10
-18.2083394618
 20
0.0128011847
 10
-18.2209514288
 20
0.0136698134
 10
-18.238305024
 20
0.0145869123
 10
-18.2601033225
 20
0.0155367897
 10
-18.2859733495
 20
0.0165031928
 10
-18.3480959209
 20
0.0184194349
  0
LWPOLYLINE
  5
3EF
100
AcDbEntity
  8
ASSI
100
AcDbPolyline
 62
250
  6
CONTINUOUS
 90
8
 70
0
 10
-18.1911367406
 20
0.4112067825
 10
-18.1937029253
 20
0.4119349722
 10
-18.201357557
 20
0.4127402732
 10
-18.213969641
 20
0.4136089062
 10
-18.2313233584
 20
0.4145260081
 10
-18.2531217629
 20
0.415475887
 10
-18.278991866
 20
0.4164422903
 10
-18.3411144421
 20
0.4183585285
  0
LWPOLYLINE
  5
3F0
100
AcDbEntity
  8
RACCORDO
100
AcDbPolyline
 62
250
  6
CONTINUOUS
 90
8
 70
0
 10
-18.1911367406
 20
0.4112067825
 10
-18.1937029253
 20
0.4119349722
 10
-18.201357557
 20
0.4127402732
 10
-18.213969641
 20
0.4136089062
 10
-18.2313233584
 20
0.4145260081
 10
-18.2531217629
 20
0.415475887
 10
-18.278991866
 20
0.4164422903
 10
-18.3411144421
 20
0.4183585285
  0
LWPOLYLINE
  5
3F1
100
AcDbEntity
  8
ASSI
100
AcDbPolyline
 62
250
  6
CONTINUOUS
 90
8
 70
0
 10
-19.5
 20
0.4269131509
 10
-19.4983399192
 20
0.4263631113
 10
-19.4933794571
 20
0.4258192742
 10
-19.4851755806
 20
0.4252876498
 10
-19.4738290631
 20
0.4247744196
 10
-19.4594630386
 20
0.4242849013
 10
-19.4422032017
 20
0.4238236506
 10
-19.3996351586
 20
0.4230049884
  0
LWPOLYLINE
  5
3F2
100
AcDbEntity
  8
RACCORDO
100
AcDbPolyline
 62
250
  6
CONTINUOUS
 90
8
 70
0
 10
-19.5
 20
0.4269131509
 10
-19.4983399192
 20
0.4263631113
 10
-19.4933794571
 20
0.4258192742
 10
-19.4851755806
 20
0.4252876498
 10
-19.4738290631
 20
0.4247744196
 10
-19.4594630386
 20
0.4242849013
 10
-19.4422032017
 20
0.4238236506
 10
-19.3996351586
 20
0.4230049884
  0
LWPOLYLINE
  5
3F3
100
AcDbEntity
  8
ASSI
100
AcDbPolyline
 62
250
  6
CONTINUOUS
 90
6
 70
0
 10
-19.5
 20
0.0269740728
 10
-19.4983460865
 20
0.0264250531
 10
-19.4934025717
 20
0.0258820861
 10
-19.4852239478
 20
0.0253511586
 10
-19.4738986809
 20
0.0248380585
 10
-19.4595525316
 20
0.024348516
  0
LWPOLYLINE
  5
3F4
100
AcDbEntity
  8
RACCORDO
100
AcDbPolyline
 62
250
  6
CONTINUOUS
 90
6
 70
0
 10
-19.5
 20
0.0269740728
 10
-19.4983460865
 20
0.0264250531
 10
-19.4934025717
 20
0.0258820861
 10
-19.4852239478
 20
0.0253511586
 10
-19.4738986809
 20
0.0248380585
 10
-19.4595525316
 20
0.024348516
  0
LINE
  5
3F5
100
AcDbEntity
  8
ASSI
100
AcDbLine
 62
7
  6
CONTINUOUS
 10
-8.0890194193
 20
18.7281064428
 11
-8.0850849554
 21
18.7084077645
  0
LINE
  5
3F6
100
AcDbEntity
  8
RACCORDO
100
AcDbLine
 62
7
  6
CONTINUOUS
 10
-8.0890194193
 20
18.7281064428
 11
-8.0850849554
 21
18.7084077645
  0
LINE
  5
3F7
100
AcDbEntity
  8
ASSI
100
AcDbLine
 62
7
  6
CONTINUOUS
 10
-8.0929813865
 20
18.748852684
 11
-8.0890194193
 21
18.7281064428
  0
LINE
  5
3F8
100
AcDbEntity
  8
RACCORDO
100
AcDbLine
 62
7
  6
CONTINUOUS
 10
-8.0929813865
 20
18.748852684
 11
-8.0890194193
 21
18.7281064428
  0
LINE
  5
3F9
100
AcDbEntity
  8
ASSI
100
AcDbLine
 62
7
  6
CONTINUOUS
 10
-8.0969742775
 20
18.7706806731
 11
-8.0929813865
 21
18.748852684
  0
LINE
  5
3FA
100
AcDbEntity
  8
RACCORDO
100
AcDbLine
 62
7
  6
CONTINUOUS
 10
-8.0969742775
 20
18.7706806731
 11
-8.0929813865
 21
18.748852684
  0
LINE
  5
3FB
100
AcDbEntity
  8
ASSI
100
AcDbLine
 62
7
  6
CONTINUOUS
 10
-8.1010041374
 20
18.7936487622
 11
-8.0969742775
 21
18.7706806731
  0
LINE
  5
3FC
100
AcDbEntity
  8
RACCORDO
100
AcDbLine
 62
7
  6
CONTINUOUS
 10
-8.1010041374
 20
18.7936487622
 11
-8.0969742775
 21
18.7706806731
  0
LINE
  5
3FD
100
AcDbEntity
  8
ASSI
100
AcDbLine
 62
7
  6
CONTINUOUS
 10
-8.105078615
 20
18.8178367703
 11
-8.1010041374
 21
18.7936487622
  0
LINE
  5
3FE
100
AcDbEntity
  8
RACCORDO
100
AcDbLine
 62
7
  6
CONTINUOUS
 10
-8.105078615
 20
18.8178367703
 11
-8.1010041374
 21
18.7936487622
  0
LINE
  5
3FF
100
AcDbEntity
  8
ASSI
100
AcDbLine
 62
7
  6
CONTINUOUS
 10
-8.1092020878
 20
18.8432963788
 11
-8.105078615
 21
18.8178367703
  0
LINE
  5
400
100
AcDbEntity
  8
RACCORDO
100
AcDbLine
 62
7
  6
CONTINUOUS
 10
-8.1092020878
 20
18.8432963788
 11
-8.105078615
 21
18.8178367703
  0
LINE
  5
401
100
AcDbEntity
  8
ASSI
100
AcDbLine
 62
7
  6
CONTINUOUS
 10
-8.1133805893
 20
18.8701063522
 11
-8.1092020878
 21
18.8432963788
  0
LINE
  5
402
100
AcDbEntity
  8
RACCORDO
100
AcDbLine
 62
7
  6
CONTINUOUS
 10
-8.1133805893
 20
18.8701063522
 11
-8.1092020878
 21
18.8432963788
  0
LINE
  5
403
100
AcDbEntity
  8
ASSI
100
AcDbLine
 62
7
  6
CONTINUOUS
 10
-8.1176185035
 20
18.898345728
 11
-8.1133805893
 21
18.8701063522
  0
LINE
  5
404
100
AcDbEntity
  8
RACCORDO
100
AcDbLine
 62
7
  6
CONTINUOUS
 10
-8.1176185035
 20
18.898345728
 11
-8.1133805893
 21
18.8701063522
  0
LINE
  5
405
100
AcDbEntity
  8
ASSI
100
AcDbLine
 62
7
  6
CONTINUOUS
 10
-8.1219185669
 20
18.928067652
 11
-8.1176185035
 21
18.898345728
  0
LINE
  5
406
100
AcDbEntity
  8
RACCORDO
100
AcDbLine
 62
7
  6
CONTINUOUS
 10
-8.1219185669
 20
18.928067652
 11
-8.1176185035
 21
18.898345728
  0
LINE
  5
407
100
AcDbEntity
  8
ASSI
100
AcDbLine
 62
7
  6
CONTINUOUS
 10
-8.1262840459
 20
18.9593489415
 11
-8.1219185669
 21
18.928067652
  0
LINE
  5
408
100
AcDbEntity
  8
RACCORDO
100
AcDbLine
 62
7
  6
CONTINUOUS
 10
-8.1262840459
 20
18.9593489415
 11
-8.1219185669
 21
18.928067652
  0
LINE
  5
409
100
AcDbEntity
  8
ASSI
100
AcDbLine
 62
7
  6
CONTINUOUS
 10
-8.1307200244
 20
18.992289017
 11
-8.1262840459
 21
18.9593489415
  0
LINE
  5
40A
100
AcDbEntity
  8
RACCORDO
100
AcDbLine
 62
7
  6
CONTINUOUS
 10
-8.1307200244
 20
18.992289017
 11
-8.1262840459
 21
18.9593489415
  0
LINE
  5
40B
100
AcDbEntity
  8
ASSI
100
AcDbLine
 62
7
  6
CONTINUOUS
 10
-8.135229776
 20
19.0269561091
 11
-8.1307200244
 21
18.992289017
  0
LINE
  5
40C
100
AcDbEntity
  8
RACCORDO
100
AcDbLine
 62
7
  6
CONTINUOUS
 10
-8.135229776
 20
19.0269561091
 11
-8.1307200244
 21
18.992289017
  0
LINE
  5
40D
100
AcDbEntity
  8
ASSI
100
AcDbLine
 62
7
  6
CONTINUOUS
 10
-8.142143769
 20
19.0824351135
 11
-8.135229776
 21
19.0269561091
  0
LINE
  5
40E
100
AcDbEntity
  8
RACCORDO
100
AcDbLine
 62
7
  6
CONTINUOUS
 10
-8.142143769
 20
19.0824351135
 11
-8.135229776
 21
19.0269561091
  0
LINE
  5
40F
100
AcDbEntity
  8
ASSI
100
AcDbLine
 62
7
  6
CONTINUOUS
 10
-8.1492465716
 20
19.1423702462
 11
-8.142143769
 21
19.0824351135
  0
LINE
  5
410
100
AcDbEntity
  8
RACCORDO
100
AcDbLine
 62
7
  6
CONTINUOUS
 10
-8.1492465716
 20
19.1423702462
 11
-8.142143769
 21
19.0824351135
  0
LINE
  5
411
100
AcDbEntity
  8
ASSI
100
AcDbLine
 62
7
  6
CONTINUOUS
 10
-8.1565464666
 20
19.2070842888
 11
-8.1492465716
 21
19.1423702462
  0
LINE
  5
412
100
AcDbEntity
  8
RACCORDO
100
AcDbLine
 62
7
  6
CONTINUOUS
 10
-8.1565464666
 20
19.2070842888
 11
-8.1492465716
 21
19.1423702462
  0
LINE
  5
413
100
AcDbEntity
  8
RACCORDO
100
AcDbLine
 62
250
  6
CONTINUOUS
 10
-3.5769463383
 20
-24.4774700628
 11
-3.6877357561
 21
-18.1332488047
  0
LINE
  5
414
100
AcDbEntity
  8
ASSI
100
AcDbLine
 62
250
  6
CONTINUOUS
 10
18.0086894484
 20
9.2017439023
 11
17.5482400642
 21
9.0341795568
  0
LINE
  5
415
100
AcDbEntity
  8
RACCORDO
100
AcDbLine
 62
250
  6
CONTINUOUS
 10
18.0086894484
 20
9.2017439023
 11
17.5482400642
 21
9.0341795568
  0
LINE
  5
416
100
AcDbEntity
  8
ASSI
100
AcDbLine
 62
250
  6
CONTINUOUS
 10
-18.5291681843
 20
-4.1930709155
 11
-18.5678933349
 21
-4.195580428
  0
LINE
  5
417
100
AcDbEntity
  8
RACCORDO
100
AcDbLine
 62
250
  6
CONTINUOUS
 10
-18.5291681843
 20
-4.1930709155
 11
-18.5678933349
 21
-4.195580428
  0
LWPOLYLINE
  5
418
100
AcDbEntity
  8
ASSI
100
AcDbPolyline
 62
7
  6
CONTINUOUS
 90
9
 70
0
 10
-18.5678948971
 20
-4.1955356624
 10
-18.5342717815
 20
-4.1936455045
 10
-18.498950817
 20
-4.1875060129
 10
-18.4646151568
 20
-4.1771972242
 10
-18.4317550483
 20
-4.1628666165
 10
-18.4008395654
 20
-4.1447190497
 10
-18.3723100632
 20
-4.1230139126
 10
-18.346573849
 20
-4.0980614715
 10
-18.3239982888
 20
-4.0702184462
  0
LWPOLYLINE
  5
419
100
AcDbEntity
  8
RACCORDO
100
AcDbPolyline
 62
7
  6
CONTINUOUS
 90
9
 70
0
 10
-18.5678948971
 20
-4.1955356624
 10
-18.5342717815
 20
-4.1936455045
 10
-18.498950817
 20
-4.1875060129
 10
-18.4646151568
 20
-4.1771972242
 10
-18.4317550483
 20
-4.1628666165
 10
-18.4008395654
 20
-4.1447190497
 10
-18.3723100632
 20
-4.1230139126
 10
-18.346573849
 20
-4.0980614715
 10
-18.3239982888
 20
-4.0702184462
  0
LINE
  5
41A
100
AcDbEntity
  8
ASSI
100
AcDbLine
 62
250
  6
CONTINUOUS
 10
-19.2306517398
 20
-4.1971501789
 11
-19.2
 21
-4.195580428
  0
LINE
  5
41B
100
AcDbEntity
  8
RACCORDO
100
AcDbLine
 62
250
  6
CONTINUOUS
 10
-19.2306517398
 20
-4.1971501789
 11
-19.2
 21
-4.195580428
  0
LWPOLYLINE
  5
41C
100
AcDbEntity
  8
ASSI
100
AcDbPolyline
 62
250
  6
CONTINUOUS
 90
5
 70
0
 10
19.2
 20
-4.195580428
 10
19.2306517385
 20
-4.1971501788
 10
19.2611488907
 20
-4.2018775567
 10
19.2911607042
 20
-4.2097641215
 10
19.3203720252
 20
-4.2207847119
  0
LWPOLYLINE
  5
41D
100
AcDbEntity
  8
RACCORDO
100
AcDbPolyline
 62
250
  6
CONTINUOUS
 90
5
 70
0
 10
19.2
 20
-4.195580428
 10
19.2306517385
 20
-4.1971501788
 10
19.2611488907
 20
-4.2018775567
 10
19.2911607042
 20
-4.2097641215
 10
19.3203720252
 20
-4.2207847119
  0
LWPOLYLINE
  5
41E
100
AcDbEntity
  8
ASSI
100
AcDbPolyline
 62
250
  6
CONTINUOUS
 90
15
 70
0
 10
19.2
 20
-4.2723710163
 10
19.2309008654
 20
-4.2739664561
 10
19.2616015758
 20
-4.278762744
 10
19.2917664777
 20
-4.2867486001
 10
19.3210990426
 20
-4.2978948677
 10
19.349220651
 20
-4.3121089405
 10
19.3756953745
 20
-4.3291934166
 10
19.4001952061
 20
-4.3489273081
 10
19.422492863
 20
-4.3711174943
 10
19.4423510683
 20
-4.3955304253
 10
19.4595525318
 20
-4.4219072752
 10
19.473898681
 20
-4.4499531468
 10
19.4852239478
 20
-4.4793486303
 10
19.4934025717
 20
-4.5097654458
 10
19.4983460865
 20
-4.5408720065
  0
LWPOLYLINE
  5
41F
100
AcDbEntity
  8
RACCORDO
100
AcDbPolyline
 62
250
  6
CONTINUOUS
 90
15
 70
0
 10
19.2
 20
-4.2723710163
 10
19.2309008654
 20
-4.2739664561
 10
19.2616015758
 20
-4.278762744
 10
19.2917664777
 20
-4.2867486001
 10
19.3210990426
 20
-4.2978948677
 10
19.349220651
 20
-4.3121089405
 10
19.3756953745
 20
-4.3291934166
 10
19.4001952061
 20
-4.3489273081
 10
19.422492863
 20
-4.3711174943
 10
19.4423510683
 20
-4.3955304253
 10
19.4595525318
 20
-4.4219072752
 10
19.473898681
 20
-4.4499531468
 10
19.4852239478
 20
-4.4793486303
 10
19.4934025717
 20
-4.5097654458
 10
19.4983460865
 20
-4.5408720065
  0
LINE
  5
420
100
AcDbEntity
  8
ASSI
100
AcDbLine
 62
250
  6
CONTINUOUS
 10
18.5291681179
 20
-4.1930709069
 11
18.5678933349
 21
-4.195580428
  0
LINE
  5
421
100
AcDbEntity
  8
RACCORDO
100
AcDbLine
 62
250
  6
CONTINUOUS
 10
18.5291681179
 20
-4.1930709069
 11
18.5678933349
 21
-4.195580428
  0
LWPOLYLINE
  5
422
100
AcDbEntity
  8
ASSI
100
AcDbPolyline
 62
7
  6
CONTINUOUS
 90
75
 70
0
 10
-8.0850849554
 20
18.7084077645
 10
-8.0831267686
 20
18.6989362971
 10
-8.0811744678
 20
18.68971658
 10
-8.0792260141
 20
18.6807337036
 10
-8.0772816855
 20
18.6719878089
 10
-8.0753412041
 20
18.663478755
 10
-8.0734016966
 20
18.6551912097
 10
-8.0714635211
 20
18.6471251441
 10
-8.0695263196
 20
18.639280587
 10
-8.0675861445
 20
18.6316422931
 10
-8.0656434444
 20
18.624209917
 10
-8.0636977707
 20
18.616983804
 10
-8.0617438305
 20
18.6099497454
 10
-8.0597822312
 20
18.6031070429
 10
-8.0578123654
 20
18.5964563948
 10
-8.0558271173
 20
18.5899856867
 10
-8.0538279289
 20
18.5836951172
 10
-8.0518133582
 20
18.5775844877
 10
-8.0497719635
 20
18.5716410882
 10
-8.04770614
 20
18.5658641672
 10
-8.0456134925
 20
18.5602544761
 10
-8.0434753938
 20
18.5548015592
 10
-8.0412958185
 20
18.5495017338
 10
-8.039070792
 20
18.5443586824
 10
-8.0367697632
 20
18.5393729977
 10
-8.0343938206
 20
18.5345263937
 10
-8.0319418758
 20
18.5298371562
 10
-8.0293801128
 20
18.5253607351
 10
-8.0267070646
 20
18.5210694007
 10
-8.0239241983
 20
18.5169908825
 10
-8.0210020988
 20
18.5132638195
 10
-8.0179489766
 20
18.5098578962
 10
-8.0147566212
 20
18.5068034279
 10
-8.0113709857
 20
18.5043299996
 10
-8.0077096314
 20
18.5024334296
 10
-8.003854997
 20
18.5011178995
 10
-8.0000003514
 20
18.5006255393
 10
-7.9961456883
 20
18.5011177606
 10
-7.9922910139
 20
18.5024331518
 10
-7.9886296159
 20
18.5043296077
 10
-7.985243937
 20
18.506802958
 10
-7.9820515344
 20
18.509857373
 10
-7.9789983674
 20
18.5132632583
 10
-7.9760762263
 20
18.5169903003
 10
-7.9732933207
 20
18.5210688125
 10
-7.9706202395
 20
18.5253601418
 10
-7.968058452
 20
18.5298365538
 10
-7.9656064889
 20
18.5345257828
 10
-7.9632305304
 20
18.5393723787
 10
-7.9609294875
 20
18.5443580556
 10
-7.9587044493
 20
18.5495010995
 10
-7.9565248634
 20
18.554800918
 10
-7.954386755
 20
18.5602538283
 10
-7.952294099
 20
18.5658635132
 10
-7.9502282674
 20
18.5716404289
 10
-7.948186865
 20
18.5775838241
 10
-7.9461722871
 20
18.5836944501
 10
-7.9441730917
 20
18.5899850169
 10
-7.942187837
 20
18.5964557231
 10
-7.9402179648
 20
18.6031063701
 10
-7.9382563595
 20
18.6099490718
 10
-7.9363024135
 20
18.6169831301
 10
-7.9343567344
 20
18.6242092431
 10
-7.932414029
 20
18.6316416197
 10
-7.9304738488
 20
18.6392799144
 10
-7.9285366424
 20
18.6471244727
 10
-7.9265984623
 20
18.6551905396
 10
-7.9246589503
 20
18.6634780865
 10
-7.9227184646
 20
18.671987142
 10
-7.920774132
 20
18.6807330383
 10
-7.9188256744
 20
18.6897159163
 10
-7.9168733699
 20
18.698935635
 10
-7.9149151796
 20
18.7084071037
 10
-7.9129508874
 20
18.7181305687
 10
-7.9090032548
 20
18.7383469185
  0
LWPOLYLINE
  5
423
100
AcDbEntity
  8
RACCORDO
100
AcDbPolyline
 62
7
  6
CONTINUOUS
 90
75
 70
0
 10
-8.0850849554
 20
18.7084077645
 10
-8.0831267686
 20
18.6989362971
 10
-8.0811744678
 20
18.68971658
 10
-8.0792260141
 20
18.6807337036
 10
-8.0772816855
 20
18.6719878089
 10
-8.0753412041
 20
18.663478755
 10
-8.0734016966
 20
18.6551912097
 10
-8.0714635211
 20
18.6471251441
 10
-8.0695263196
 20
18.639280587
 10
-8.0675861445
 20
18.6316422931
 10
-8.0656434444
 20
18.624209917
 10
-8.0636977707
 20
18.616983804
 10
-8.0617438305
 20
18.6099497454
 10
-8.0597822312
 20
18.6031070429
 10
-8.0578123654
 20
18.5964563948
 10
-8.0558271173
 20
18.5899856867
 10
-8.0538279289
 20
18.5836951172
 10
-8.0518133582
 20
18.5775844877
 10
-8.0497719635
 20
18.5716410882
 10
-8.04770614
 20
18.5658641672
 10
-8.0456134925
 20
18.5602544761
 10
-8.0434753938
 20
18.5548015592
 10
-8.0412958185
 20
18.5495017338
 10
-8.039070792
 20
18.5443586824
 10
-8.0367697632
 20
18.5393729977
 10
-8.0343938206
 20
18.5345263937
 10
-8.0319418758
 20
18.5298371562
 10
-8.0293801128
 20
18.5253607351
 10
-8.0267070646
 20
18.5210694007
 10
-8.0239241983
 20
18.5169908825
 10
-8.0210020988
 20
18.5132638195
 10
-8.0179489766
 20
18.5098578962
 10
-8.0147566212
 20
18.5068034279
 10
-8.0113709857
 20
18.5043299996
 10
-8.0077096314
 20
18.5024334296
 10
-8.003854997
 20
18.5011178995
 10
-8.0000003514
 20
18.5006255393
 10
-7.9961456883
 20
18.5011177606
 10
-7.9922910139
 20
18.5024331518
 10
-7.9886296159
 20
18.5043296077
 10
-7.985243937
 20
18.506802958
 10
-7.9820515344
 20
18.509857373
 10
-7.9789983674
 20
18.5132632583
 10
-7.9760762263
 20
18.5169903003
 10
-7.9732933207
 20
18.5210688125
 10
-7.9706202395
 20
18.5253601418
 10
-7.968058452
 20
18.5298365538
 10
-7.9656064889
 20
18.5345257828
 10
-7.9632305304
 20
18.5393723787
 10
-7.9609294875
 20
18.5443580556
 10
-7.9587044493
 20
18.5495010995
 10
-7.9565248634
 20
18.554800918
 10
-7.954386755
 20
18.5602538283
 10
-7.952294099
 20
18.5658635132
 10
-7.9502282674
 20
18.5716404289
 10
-7.948186865
 20
18.5775838241
 10
-7.9461722871
 20
18.5836944501
 10
-7.9441730917
 20
18.5899850169
 10
-7.942187837
 20
18.5964557231
 10
-7.9402179648
 20
18.6031063701
 10
-7.9382563595
 20
18.6099490718
 10
-7.9363024135
 20
18.6169831301
 10
-7.9343567344
 20
18.6242092431
 10
-7.932414029
 20
18.6316416197
 10
-7.9304738488
 20
18.6392799144
 10
-7.9285366424
 20
18.6471244727
 10
-7.9265984623
 20
18.6551905396
 10
-7.9246589503
 20
18.6634780865
 10
-7.9227184646
 20
18.671987142
 10
-7.920774132
 20
18.6807330383
 10
-7.9188256744
 20
18.6897159163
 10
-7.9168733699
 20
18.698935635
 10
-7.9149151796
 20
18.7084071037
 10
-7.9129508874
 20
18.7181305687
 10
-7.9090032548
 20
18.7383469185
  0
LINE
  5
424
100
AcDbEntity
  8
RACCORDO
100
AcDbLine
 62
250
  6
CONTINUOUS
 10
-0.8773575609
 20
-27.4186665162
 11
-0.8773575614
 21
-27.1291363652
  0
LINE
  5
425
100
AcDbEntity
  8
ASSI
100
AcDbLine
 62
250
  6
CONTINUOUS
 10
18.285973892
 20
0.0165032113
 11
18.3480964681
 21
0.0184194495
  0
LINE
  5
426
100
AcDbEntity
  8
RACCORDO
100
AcDbLine
 62
250
  6
CONTINUOUS
 10
18.285973892
 20
0.0165032113
 11
18.3480964681
 21
0.0184194495
  0
LINE
  5
427
100
AcDbEntity
  8
ASSI
100
AcDbLine
 62
250
  6
CONTINUOUS
 10
18.2789913236
 20
0.4164422709
 11
18.3411138949
 21
0.418358513
  0
LINE
  5
428
100
AcDbEntity
  8
RACCORDO
100
AcDbLine
 62
250
  6
CONTINUOUS
 10
18.2789913236
 20
0.4164422709
 11
18.3411138949
 21
0.418358513
  0
LWPOLYLINE
  5
429
100
AcDbEntity
  8
ASSI
100
AcDbPolyline
 62
7
  6
CONTINUOUS
 90
17
 70
0
 10
18.5085445551
 20
-0.273025022
 10
18.4911303183
 20
-0.2735308743
 10
18.460872899
 20
-0.2768368944
 10
18.4311061884
 20
-0.2831918314
 10
18.4021366226
 20
-0.292530266
 10
18.3742624102
 20
-0.3047560684
 10
18.3477704848
 20
-0.3197433863
 10
18.3229335677
 20
-0.3373379275
 10
18.3000073202
 20
-0.3573585715
 10
18.2792277381
 20
-0.3795992217
 10
18.2608087341
 20
-0.4038309066
 10
18.2449399047
 20
-0.4298041636
 10
18.2317845744
 20
-0.4572516328
 10
18.2214781368
 20
-0.4858907989
 10
18.2141266687
 20
-0.515426868
 10
18.2098058336
 20
-0.545555786
 10
18.2085600947
 20
-0.5759673969
  0
LWPOLYLINE
  5
42A
100
AcDbEntity
  8
RACCORDO
100
AcDbPolyline
 62
7
  6
CONTINUOUS
 90
17
 70
0
 10
18.5085445551
 20
-0.273025022
 10
18.4911303183
 20
-0.2735308743
 10
18.460872899
 20
-0.2768368944
 10
18.4311061884
 20
-0.2831918314
 10
18.4021366226
 20
-0.292530266
 10
18.3742624102
 20
-0.3047560684
 10
18.3477704848
 20
-0.3197433863
 10
18.3229335677
 20
-0.3373379275
 10
18.3000073202
 20
-0.3573585715
 10
18.2792277381
 20
-0.3795992217
 10
18.2608087341
 20
-0.4038309066
 10
18.2449399047
 20
-0.4298041636
 10
18.2317845744
 20
-0.4572516328
 10
18.2214781368
 20
-0.4858907989
 10
18.2141266687
 20
-0.515426868
 10
18.2098058336
 20
-0.545555786
 10
18.2085600947
 20
-0.5759673969
  0
LWPOLYLINE
  5
42B
100
AcDbEntity
  8
ASSI
100
AcDbPolyline
 62
250
  6
CONTINUOUS
 90
6
 70
0
 10
19.4423510683
 20
0.0238881064
 10
19.4595525318
 20
0.024348516
 10
19.473898681
 20
0.0248380585
 10
19.4852239478
 20
0.0253511586
 10
19.4934025717
 20
0.0258820861
 10
19.4983460865
 20
0.0264250531
  0
LWPOLYLINE
  5
42C
100
AcDbEntity
  8
RACCORDO
100
AcDbPolyline
 62
250
  6
CONTINUOUS
 90
6
 70
0
 10
19.4423510683
 20
0.0238881064
 10
19.4595525318
 20
0.024348516
 10
19.473898681
 20
0.0248380585
 10
19.4852239478
 20
0.0253511586
 10
19.4934025717
 20
0.0258820861
 10
19.4983460865
 20
0.0264250531
  0
LWPOLYLINE
  5
42D
100
AcDbEntity
  8
ASSI
100
AcDbPolyline
 62
250
  6
CONTINUOUS
 90
7
 70
0
 10
19.4422032157
 20
0.4238236509
 10
19.4594630483
 20
0.4242849015
 10
19.4738290693
 20
0.4247744198
 10
19.4851755842
 20
0.42528765
 10
19.4933794586
 20
0.4258192743
 10
19.4983399196
 20
0.4263631114
 10
19.5
 20
0.4269131509
  0
LWPOLYLINE
  5
42E
100
AcDbEntity
  8
RACCORDO
100
AcDbPolyline
 62
250
  6
CONTINUOUS
 90
7
 70
0
 10
19.4422032157
 20
0.4238236509
 10
19.4594630483
 20
0.4242849015
 10
19.4738290693
 20
0.4247744198
 10
19.4851755842
 20
0.42528765
 10
19.4933794586
 20
0.4258192743
 10
19.4983399196
 20
0.4263631114
 10
19.5
 20
0.4269131509
  0
LINE
  5
42F
100
AcDbEntity
  8
ASSI
100
AcDbLine
 62
250
  6
CONTINUOUS
 10
18.3480964681
 20
0.0184194495
 11
18.4204395458
 21
0.0202050575
  0
LINE
  5
430
100
AcDbEntity
  8
RACCORDO
100
AcDbLine
 62
250
  6
CONTINUOUS
 10
18.3480964681
 20
0.0184194495
 11
18.4204395458
 21
0.0202050575
  0
LINE
  5
431
100
AcDbEntity
  8
ASSI
100
AcDbLine
 62
250
  6
CONTINUOUS
 10
18.3411138949
 20
0.418358513
 11
18.4134571615
 21
0.4201441279
  0
LINE
  5
432
100
AcDbEntity
  8
RACCORDO
100
AcDbLine
 62
250
  6
CONTINUOUS
 10
18.3411138949
 20
0.418358513
 11
18.4134571615
 21
0.4201441279
  0
LINE
  5
433
100
AcDbEntity
  8
ASSI
100
AcDbLine
 62
250
  6
CONTINUOUS
 10
18.4204395458
 20
0.0202050575
 11
18.4980730752
 21
0.0217383509
  0
LINE
  5
434
100
AcDbEntity
  8
RACCORDO
100
AcDbLine
 62
250
  6
CONTINUOUS
 10
18.4204395458
 20
0.0202050575
 11
18.4980730752
 21
0.0217383509
  0
LINE
  5
435
100
AcDbEntity
  8
ASSI
100
AcDbLine
 62
250
  6
CONTINUOUS
 10
18.4134571615
 20
0.4201441279
 11
18.4910910492
 21
0.421677429
  0
LINE
  5
436
100
AcDbEntity
  8
RACCORDO
100
AcDbLine
 62
250
  6
CONTINUOUS
 10
18.4134571615
 20
0.4201441279
 11
18.4910910492
 21
0.421677429
  0
LINE
  5
437
100
AcDbEntity
  8
ASSI
100
AcDbLine
 62
250
  6
CONTINUOUS
 10
19.4001952061
 20
0.0230746459
 11
19.4423510683
 21
0.0238881064
  0
LINE
  5
438
100
AcDbEntity
  8
RACCORDO
100
AcDbLine
 62
250
  6
CONTINUOUS
 10
19.4001952061
 20
0.0230746459
 11
19.4423510683
 21
0.0238881064
  0
LINE
  5
439
100
AcDbEntity
  8
ASSI
100
AcDbLine
 62
250
  6
CONTINUOUS
 10
19.3996351866
 20
0.4230049888
 11
19.4422032157
 21
0.4238236509
  0
LINE
  5
43A
100
AcDbEntity
  8
RACCORDO
100
AcDbLine
 62
250
  6
CONTINUOUS
 10
19.3996351866
 20
0.4230049888
 11
19.4422032157
 21
0.4238236509
  0
LINE
  5
43B
100
AcDbEntity
  8
ASSI
100
AcDbLine
 62
250
  6
CONTINUOUS
 10
19.349220651
 20
0.022431979
 11
19.4001952061
 21
0.0230746459
  0
LINE
  5
43C
100
AcDbEntity
  8
RACCORDO
100
AcDbLine
 62
250
  6
CONTINUOUS
 10
19.349220651
 20
0.022431979
 11
19.4001952061
 21
0.0230746459
  0
LINE
  5
43D
100
AcDbEntity
  8
ASSI
100
AcDbLine
 62
250
  6
CONTINUOUS
 10
19.3484271686
 20
0.422363145
 11
19.3996351866
 21
0.4230049888
  0
LINE
  5
43E
100
AcDbEntity
  8
RACCORDO
100
AcDbLine
 62
250
  6
CONTINUOUS
 10
19.3484271686
 20
0.422363145
 11
19.3996351866
 21
0.4230049888
  0
LINE
  5
43F
100
AcDbEntity
  8
ASSI
100
AcDbLine
 62
250
  6
CONTINUOUS
 10
19.2911607038
 20
0.4219250063
 11
19.3484271686
 21
0.422363145
  0
LINE
  5
440
100
AcDbEntity
  8
RACCORDO
100
AcDbLine
 62
250
  6
CONTINUOUS
 10
19.2911607038
 20
0.4219250063
 11
19.3484271686
 21
0.422363145
  0
LINE
  5
441
100
AcDbEntity
  8
ASSI
100
AcDbLine
 62
250
  6
CONTINUOUS
 10
19.2616015758
 20
0.0218499189
 11
19.349220651
 21
0.022431979
  0
LINE
  5
442
100
AcDbEntity
  8
RACCORDO
100
AcDbLine
 62
250
  6
CONTINUOUS
 10
19.2616015758
 20
0.0218499189
 11
19.349220651
 21
0.022431979
  0
LINE
  5
443
100
AcDbEntity
  8
ASSI
100
AcDbLine
 62
7
  6
CONTINUOUS
 10
-19.2
 20
-0.2730259272
 11
-18.508544465
 21
-0.2730259272
  0
LINE
  5
444
100
AcDbEntity
  8
RACCORDO
100
AcDbLine
 62
7
  6
CONTINUOUS
 10
-19.2
 20
-0.2730259272
 11
-18.508544465
 21
-0.2730259272
  0
LINE
  5
445
100
AcDbEntity
  8
ASSI
100
AcDbLine
 62
7
  6
CONTINUOUS
 10
18.5085444647
 20
-0.2730259272
 11
19.2
 21
-0.2730259272
  0
LINE
  5
446
100
AcDbEntity
  8
RACCORDO
100
AcDbLine
 62
7
  6
CONTINUOUS
 10
18.5085444647
 20
-0.2730259272
 11
19.2
 21
-0.2730259272
  0
LINE
  5
447
100
AcDbEntity
  8
ASSI
100
AcDbLine
 62
250
  6
CONTINUOUS
 10
18.4980730752
 20
0.0217383509
 11
19.2616015758
 21
0.0218499189
  0
LINE
  5
448
100
AcDbEntity
  8
RACCORDO
100
AcDbLine
 62
250
  6
CONTINUOUS
 10
18.4980730752
 20
0.0217383509
 11
19.2616015758
 21
0.0218499189
  0
LINE
  5
449
100
AcDbEntity
  8
ASSI
100
AcDbLine
 62
250
  6
CONTINUOUS
 10
-19.2616015752
 20
0.0218499189
 11
-18.4980730752
 21
0.0217383509
  0
LINE
  5
44A
100
AcDbEntity
  8
RACCORDO
100
AcDbLine
 62
250
  6
CONTINUOUS
 10
-19.2616015752
 20
0.0218499189
 11
-18.4980730752
 21
0.0217383509
  0
LINE
  5
44B
100
AcDbEntity
  8
ASSI
100
AcDbLine
 62
250
  6
CONTINUOUS
 10
-19.3484271355
 20
0.4223631447
 11
-19.2911606809
 21
0.4219250061
  0
LINE
  5
44C
100
AcDbEntity
  8
RACCORDO
100
AcDbLine
 62
250
  6
CONTINUOUS
 10
-19.3484271355
 20
0.4223631447
 11
-19.2911606809
 21
0.4219250061
  0
LINE
  5
44D
100
AcDbEntity
  8
ASSI
100
AcDbLine
 62
250
  6
CONTINUOUS
 10
-19.3492206505
 20
0.0224319789
 11
-19.2616015752
 21
0.0218499189
  0
LINE
  5
44E
100
AcDbEntity
  8
RACCORDO
100
AcDbLine
 62
250
  6
CONTINUOUS
 10
-19.3492206505
 20
0.0224319789
 11
-19.2616015752
 21
0.0218499189
  0
LINE
  5
44F
100
AcDbEntity
  8
ASSI
100
AcDbLine
 62
250
  6
CONTINUOUS
 10
-19.3996351586
 20
0.4230049884
 11
-19.3484271355
 21
0.4223631447
  0
LINE
  5
450
100
AcDbEntity
  8
RACCORDO
100
AcDbLine
 62
250
  6
CONTINUOUS
 10
-19.3996351586
 20
0.4230049884
 11
-19.3484271355
 21
0.4223631447
  0
LINE
  5
451
100
AcDbEntity
  8
ASSI
100
AcDbLine
 62
250
  6
CONTINUOUS
 10
-19.4001952057
 20
0.0230746459
 11
-19.3492206505
 21
0.0224319789
  0
LINE
  5
452
100
AcDbEntity
  8
RACCORDO
100
AcDbLine
 62
250
  6
CONTINUOUS
 10
-19.4001952057
 20
0.0230746459
 11
-19.3492206505
 21
0.0224319789
  0
LINE
  5
453
100
AcDbEntity
  8
ASSI
100
AcDbLine
 62
250
  6
CONTINUOUS
 10
-18.4204391874
 20
0.0202050498
 11
-18.4980730752
 21
0.0217383509
  0
LINE
  5
454
100
AcDbEntity
  8
RACCORDO
100
AcDbLine
 62
250
  6
CONTINUOUS
 10
-18.4204391874
 20
0.0202050498
 11
-18.4980730752
 21
0.0217383509
  0
LINE
  5
455
100
AcDbEntity
  8
ASSI
100
AcDbLine
 62
250
  6
CONTINUOUS
 10
-18.4134575198
 20
0.4201441361
 11
-18.4910910492
 21
0.421677429
  0
LINE
  5
456
100
AcDbEntity
  8
RACCORDO
100
AcDbLine
 62
250
  6
CONTINUOUS
 10
-18.4134575198
 20
0.4201441361
 11
-18.4910910492
 21
0.421677429
  0
LINE
  5
457
100
AcDbEntity
  8
ASSI
100
AcDbLine
 62
250
  6
CONTINUOUS
 10
-18.3480959209
 20
0.0184194349
 11
-18.4204391874
 21
0.0202050498
  0
LINE
  5
458
100
AcDbEntity
  8
RACCORDO
100
AcDbLine
 62
250
  6
CONTINUOUS
 10
-18.3480959209
 20
0.0184194349
 11
-18.4204391874
 21
0.0202050498
  0
LINE
  5
459
100
AcDbEntity
  8
ASSI
100
AcDbLine
 62
250
  6
CONTINUOUS
 10
-18.3411144421
 20
0.4183585285
 11
-18.4134575198
 21
0.4201441361
  0
LINE
  5
45A
100
AcDbEntity
  8
RACCORDO
100
AcDbLine
 62
250
  6
CONTINUOUS
 10
-18.3411144421
 20
0.4183585285
 11
-18.4134575198
 21
0.4201441361
  0
LWPOLYLINE
  5
45B
100
AcDbEntity
  8
ASSI
100
AcDbPolyline
 62
250
  6
CONTINUOUS
 90
3
 70
0
 10
-19.4595525316
 20
0.024348516
 10
-19.4423510681
 20
0.0238881064
 10
-19.4001952057
 20
0.0230746459
  0
LWPOLYLINE
  5
45C
100
AcDbEntity
  8
RACCORDO
100
AcDbPolyline
 62
250
  6
CONTINUOUS
 90
3
 70
0
 10
-19.4595525316
 20
0.024348516
 10
-19.4423510681
 20
0.0238881064
 10
-19.4001952057
 20
0.0230746459
  0
LINE
  5
45D
100
AcDbEntity
  8
RACCORDO
100
AcDbLine
 62
250
  6
CONTINUOUS
 10
0.8773575614
 20
-27.4186665162
 11
0.8773575614
 21
-27.1291363652
  0
LINE
  5
45E
100
AcDbEntity
  8
ASSI
100
AcDbLine
 62
250
  6
CONTINUOUS
 10
-18.4418928596
 20
0.8061675603
 11
-18.4806180102
 21
0.8036580478
  0
LINE
  5
45F
100
AcDbEntity
  8
RACCORDO
100
AcDbLine
 62
250
  6
CONTINUOUS
 10
-18.4418928596
 20
0.8061675603
 11
-18.4806180102
 21
0.8036580478
  0
LWPOLYLINE
  5
460
100
AcDbEntity
  8
ASSI
100
AcDbPolyline
 62
7
  6
CONTINUOUS
 90
9
 70
0
 10
-18.4806195724
 20
0.8037028134
 10
-18.4469964569
 20
0.8055929713
 10
-18.4116754924
 20
0.8117324629
 10
-18.3773398321
 20
0.8220412516
 10
-18.3444797236
 20
0.8363718593
 10
-18.3135642407
 20
0.8545194261
 10
-18.2850347385
 20
0.8762245632
 10
-18.2592985243
 20
0.9011770043
 10
-18.2367229642
 20
0.9290200296
  0
LWPOLYLINE
  5
461
100
AcDbEntity
  8
RACCORDO
100
AcDbPolyline
 62
7
  6
CONTINUOUS
 90
9
 70
0
 10
-18.4806195724
 20
0.8037028134
 10
-18.4469964569
 20
0.8055929713
 10
-18.4116754924
 20
0.8117324629
 10
-18.3773398321
 20
0.8220412516
 10
-18.3444797236
 20
0.8363718593
 10
-18.3135642407
 20
0.8545194261
 10
-18.2850347385
 20
0.8762245632
 10
-18.2592985243
 20
0.9011770043
 10
-18.2367229642
 20
0.9290200296
  0
LINE
  5
462
100
AcDbEntity
  8
ASSI
100
AcDbLine
 62
250
  6
CONTINUOUS
 10
-19.2306517398
 20
0.8020882969
 11
-19.2
 21
0.8036580478
  0
LINE
  5
463
100
AcDbEntity
  8
RACCORDO
100
AcDbLine
 62
250
  6
CONTINUOUS
 10
-19.2306517398
 20
0.8020882969
 11
-19.2
 21
0.8036580478
  0
LINE
  5
464
100
AcDbEntity
  8
ASSI
100
AcDbLine
 62
250
  6
CONTINUOUS
 10
19.2
 20
0.421677429
 11
19.2911607038
 21
0.4219250063
  0
LINE
  5
465
100
AcDbEntity
  8
RACCORDO
100
AcDbLine
 62
250
  6
CONTINUOUS
 10
19.2
 20
0.421677429
 11
19.2911607038
 21
0.4219250063
  0
LINE
  5
466
100
AcDbEntity
  8
ASSI
100
AcDbLine
 62
250
  6
CONTINUOUS
 10
19.2
 20
0.421677429
 11
18.4910910492
 21
0.421677429
  0
LINE
  5
467
100
AcDbEntity
  8
RACCORDO
100
AcDbLine
 62
250
  6
CONTINUOUS
 10
19.2
 20
0.421677429
 11
18.4910910492
 21
0.421677429
  0
LINE
  5
468
100
AcDbEntity
  8
ASSI
100
AcDbLine
 62
250
  6
CONTINUOUS
 10
19.2
 20
0.7268674594
 11
18.4806180102
 21
0.7268674594
  0
LINE
  5
469
100
AcDbEntity
  8
RACCORDO
100
AcDbLine
 62
250
  6
CONTINUOUS
 10
19.2
 20
0.7268674594
 11
18.4806180102
 21
0.7268674594
  0
LINE
  5
46A
100
AcDbEntity
  8
ASSI
100
AcDbLine
 62
250
  6
CONTINUOUS
 10
-18.4806180102
 20
0.7268674594
 11
-19.2
 21
0.7268674594
  0
LINE
  5
46B
100
AcDbEntity
  8
RACCORDO
100
AcDbLine
 62
250
  6
CONTINUOUS
 10
-18.4806180102
 20
0.7268674594
 11
-19.2
 21
0.7268674594
  0
LINE
  5
46C
100
AcDbEntity
  8
ASSI
100
AcDbLine
 62
7
  6
CONTINUOUS
 10
-19.2
 20
0.8037037392
 11
-18.4806196594
 21
0.8037037392
  0
LINE
  5
46D
100
AcDbEntity
  8
RACCORDO
100
AcDbLine
 62
7
  6
CONTINUOUS
 10
-19.2
 20
0.8037037392
 11
-18.4806196594
 21
0.8037037392
  0
LINE
  5
46E
100
AcDbEntity
  8
ASSI
100
AcDbLine
 62
7
  6
CONTINUOUS
 10
18.4806196596
 20
0.8037037392
 11
19.2
 21
0.8037037392
  0
LINE
  5
46F
100
AcDbEntity
  8
RACCORDO
100
AcDbLine
 62
7
  6
CONTINUOUS
 10
18.4806196596
 20
0.8037037392
 11
19.2
 21
0.8037037392
  0
LWPOLYLINE
  5
470
100
AcDbEntity
  8
ASSI
100
AcDbPolyline
 62
250
  6
CONTINUOUS
 90
3
 70
0
 10
-19.2911606809
 20
0.4219250061
 10
-19.2611488739
 20
0.4217873457
 10
-18.4910910492
 20
0.421677429
  0
LWPOLYLINE
  5
471
100
AcDbEntity
  8
RACCORDO
100
AcDbPolyline
 62
250
  6
CONTINUOUS
 90
3
 70
0
 10
-19.2911606809
 20
0.4219250061
 10
-19.2611488739
 20
0.4217873457
 10
-18.4910910492
 20
0.421677429
  0
LWPOLYLINE
  5
472
100
AcDbEntity
  8
ASSI
100
AcDbPolyline
 62
250
  6
CONTINUOUS
 90
5
 70
0
 10
19.2
 20
0.8036580478
 10
19.2306517385
 20
0.802088297
 10
19.2611488907
 20
0.7973609191
 10
19.2911607042
 20
0.7894743543
 10
19.3203720252
 20
0.7784537639
  0
LWPOLYLINE
  5
473
100
AcDbEntity
  8
RACCORDO
100
AcDbPolyline
 62
250
  6
CONTINUOUS
 90
5
 70
0
 10
19.2
 20
0.8036580478
 10
19.2306517385
 20
0.802088297
 10
19.2611488907
 20
0.7973609191
 10
19.2911607042
 20
0.7894743543
 10
19.3203720252
 20
0.7784537639
  0
LWPOLYLINE
  5
474
100
AcDbEntity
  8
ASSI
100
AcDbPolyline
 62
250
  6
CONTINUOUS
 90
15
 70
0
 10
19.2
 20
0.7268674594
 10
19.2309008654
 20
0.7252720197
 10
19.2616015758
 20
0.7204757318
 10
19.2917664777
 20
0.7124898757
 10
19.3210990426
 20
0.7013436081
 10
19.349220651
 20
0.6871295353
 10
19.3756953745
 20
0.6700450592
 10
19.4001952061
 20
0.6503111677
 10
19.422492863
 20
0.6281209815
 10
19.4423510683
 20
0.6037080505
 10
19.4595525318
 20
0.5773312006
 10
19.473898681
 20
0.549285329
 10
19.4852239478
 20
0.5198898455
 10
19.4934025717
 20
0.4894730299
 10
19.4983460865
 20
0.4583664693
  0
LWPOLYLINE
  5
475
100
AcDbEntity
  8
RACCORDO
100
AcDbPolyline
 62
250
  6
CONTINUOUS
 90
15
 70
0
 10
19.2
 20
0.7268674594
 10
19.2309008654
 20
0.7252720197
 10
19.2616015758
 20
0.7204757318
 10
19.2917664777
 20
0.7124898757
 10
19.3210990426
 20
0.7013436081
 10
19.349220651
 20
0.6871295353
 10
19.3756953745
 20
0.6700450592
 10
19.4001952061
 20
0.6503111677
 10
19.422492863
 20
0.6281209815
 10
19.4423510683
 20
0.6037080505
 10
19.4595525318
 20
0.5773312006
 10
19.473898681
 20
0.549285329
 10
19.4852239478
 20
0.5198898455
 10
19.4934025717
 20
0.4894730299
 10
19.4983460865
 20
0.4583664693
  0
LINE
  5
476
100
AcDbEntity
  8
ASSI
100
AcDbLine
 62
250
  6
CONTINUOUS
 10
18.4418927933
 20
0.8061675689
 11
18.4806180102
 21
0.8036580478
  0
LINE
  5
477
100
AcDbEntity
  8
RACCORDO
100
AcDbLine
 62
250
  6
CONTINUOUS
 10
18.4418927933
 20
0.8061675689
 11
18.4806180102
 21
0.8036580478
  0
LINE
  5
478
100
AcDbEntity
  8
ASSI
100
AcDbLine
 62
250
  6
CONTINUOUS
 10
-17.5482400642
 20
9.0341795568
 11
-18.0086894484
 21
9.2017439023
  0
LINE
  5
479
100
AcDbEntity
  8
RACCORDO
100
AcDbLine
 62
250
  6
CONTINUOUS
 10
-17.5482400642
 20
9.0341795568
 11
-18.0086894484
 21
9.2017439023
  0
LINE
  5
47A
100
AcDbEntity
  8
RACCORDO
100
AcDbLine
 62
250
  6
CONTINUOUS
 10
3.6877357561
 20
-18.1332488047
 11
3.5769463383
 21
-24.4774700628
  0
LINE
  5
47B
100
AcDbEntity
  8
RACCORDO
100
AcDbLine
 62
7
  6
CONTINUOUS
 10
3.9825449351
 20
-18.4226434694
 11
3.8769006468
 21
-24.4722351383
  0
LINE
  5
47C
100
AcDbEntity
  8
ASSI
100
AcDbLine
 62
7
  6
CONTINUOUS
 10
8.0969740374
 20
18.7706793331
 11
8.1010039046
 21
18.7936474077
  0
LINE
  5
47D
100
AcDbEntity
  8
RACCORDO
100
AcDbLine
 62
7
  6
CONTINUOUS
 10
8.0969740374
 20
18.7706793331
 11
8.1010039046
 21
18.7936474077
  0
LINE
  5
47E
100
AcDbEntity
  8
ASSI
100
AcDbLine
 62
7
  6
CONTINUOUS
 10
8.0929811381
 20
18.7488513549
 11
8.0969740374
 21
18.7706793331
  0
LINE
  5
47F
100
AcDbEntity
  8
RACCORDO
100
AcDbLine
 62
7
  6
CONTINUOUS
 10
8.0929811381
 20
18.7488513549
 11
8.0969740374
 21
18.7706793331
  0
LINE
  5
480
100
AcDbEntity
  8
ASSI
100
AcDbLine
 62
7
  6
CONTINUOUS
 10
8.0890191617
 20
18.7281051238
 11
8.0929811381
 21
18.7488513549
  0
LINE
  5
481
100
AcDbEntity
  8
RACCORDO
100
AcDbLine
 62
7
  6
CONTINUOUS
 10
8.0890191617
 20
18.7281051238
 11
8.0929811381
 21
18.7488513549
  0
LWPOLYLINE
  5
482
100
AcDbEntity
  8
RACCORDO
100
AcDbPolyline
 62
7
  6
CONTINUOUS
 90
19
 70
0
 10
3.8769006468
 20
-24.4722351383
 10
3.8665897768
 20
-24.6737419192
 10
3.8431219263
 20
-24.8716383584
 10
3.8070932381
 20
-25.0651083996
 10
3.7593843155
 20
-25.2525647219
 10
3.7005278505
 20
-25.434213444
 10
3.6301686696
 20
-25.6118810961
 10
3.548138836
 20
-25.7856731208
 10
3.4550684136
 20
-25.9539791245
 10
3.3514223319
 20
-26.1159392781
 10
3.2376745856
 20
-26.270840481
 10
3.114265447
 20
-26.4181082172
 10
2.9817008951
 20
-26.5571509365
 10
2.8411858637
 20
-26.6868348042
 10
2.6927174796
 20
-26.8072844117
 10
2.534724992
 20
-26.9194603563
 10
2.3660485688
 20
-27.0233623525
 10
2.1885596473
 20
-27.1170358762
 10
1.9909707832
 20
-27.2043657792
  0
LWPOLYLINE
  5
483
100
AcDbEntity
  8
RACCORDO
100
AcDbPolyline
 62
250
  6
CONTINUOUS
 90
25
 70
0
 10
3.5769463383
 20
-24.4774700628
 10
3.5667158316
 20
-24.6599365374
 10
3.5457736089
 20
-24.8377930957
 10
3.5141196703
 20
-25.0110397376
 10
3.4715775028
 20
-25.1795635981
 10
3.4183236193
 20
-25.3434775422
 10
3.3548875589
 20
-25.5031201653
 10
3.2810842788
 20
-25.6592753792
 10
3.1970988218
 20
-25.8111592722
 10
3.1040158548
 20
-25.9567587042
 10
3.0017395793
 20
-26.0959378028
 10
2.8903657938
 20
-26.2288324405
 10
2.7712665617
 20
-26.3538370948
 10
2.645072705
 20
-26.4705588098
 10
2.5111534016
 20
-26.5793905414
 10
2.368988249
 20
-26.6799056348
 10
2.2171236324
 20
-26.7728821606
 10
2.0570131666
 20
-26.8575420481
 10
1.892497293
 20
-26.9311244306
 10
1.7227528924
 20
-26.9929065381
 10
1.5486030841
 20
-27.0436111405
 10
1.3763576669
 20
-27.0826456801
 10
1.2081199072
 20
-27.1098126379
 10
1.0417865387
 20
-27.1253095329
 10
0.8773575614
 20
-27.1291363652
  0
LINE
  5
484
100
AcDbEntity
  8
ASSI
100
AcDbLine
 62
7
  6
CONTINUOUS
 10
8.2638081885
 20
20.5304224005
 11
8.2822465209
 21
20.8302677905
  0
LINE
  5
485
100
AcDbEntity
  8
RACCORDO
100
AcDbLine
 62
7
  6
CONTINUOUS
 10
8.2638081885
 20
20.5304224005
 11
8.2822465209
 21
20.8302677905
  0
LINE
  5
486
100
AcDbEntity
  8
ASSI
100
AcDbLine
 62
7
  6
CONTINUOUS
 10
8.2463544447
 20
20.2665898037
 11
8.2638081885
 21
20.5304224005
  0
LINE
  5
487
100
AcDbEntity
  8
RACCORDO
100
AcDbLine
 62
7
  6
CONTINUOUS
 10
8.2463544447
 20
20.2665898037
 11
8.2638081885
 21
20.5304224005
  0
LINE
  5
488
100
AcDbEntity
  8
ASSI
100
AcDbLine
 62
7
  6
CONTINUOUS
 10
8.2298277911
 20
20.0344277169
 11
8.2463544447
 21
20.2665898037
  0
LINE
  5
489
100
AcDbEntity
  8
RACCORDO
100
AcDbLine
 62
7
  6
CONTINUOUS
 10
8.2298277911
 20
20.0344277169
 11
8.2463544447
 21
20.2665898037
  0
LINE
  5
48A
100
AcDbEntity
  8
ASSI
100
AcDbLine
 62
7
  6
CONTINUOUS
 10
8.2172292053
 20
19.8688882158
 11
8.2298277911
 21
20.0344277169
  0
LINE
  5
48B
100
AcDbEntity
  8
RACCORDO
100
AcDbLine
 62
7
  6
CONTINUOUS
 10
8.2172292053
 20
19.8688882158
 11
8.2298277911
 21
20.0344277169
  0
LINE
  5
48C
100
AcDbEntity
  8
ASSI
100
AcDbLine
 62
7
  6
CONTINUOUS
 10
8.2051512089
 20
19.7193519998
 11
8.2172292053
 21
19.8688882158
  0
LINE
  5
48D
100
AcDbEntity
  8
RACCORDO
100
AcDbLine
 62
7
  6
CONTINUOUS
 10
8.2051512089
 20
19.7193519998
 11
8.2172292053
 21
19.8688882158
  0
LINE
  5
48E
100
AcDbEntity
  8
ASSI
100
AcDbLine
 62
7
  6
CONTINUOUS
 10
8.1935690134
 20
19.5843289247
 11
8.2051512089
 21
19.7193519998
  0
LINE
  5
48F
100
AcDbEntity
  8
RACCORDO
100
AcDbLine
 62
7
  6
CONTINUOUS
 10
8.1935690134
 20
19.5843289247
 11
8.2051512089
 21
19.7193519998
  0
LINE
  5
490
100
AcDbEntity
  8
ASSI
100
AcDbLine
 62
7
  6
CONTINUOUS
 10
8.1824574428
 20
19.4624595079
 11
8.1935690134
 21
19.5843289247
  0
LINE
  5
491
100
AcDbEntity
  8
RACCORDO
100
AcDbLine
 62
7
  6
CONTINUOUS
 10
8.1824574428
 20
19.4624595079
 11
8.1935690134
 21
19.5843289247
  0
LINE
  5
492
100
AcDbEntity
  8
ASSI
100
AcDbLine
 62
7
  6
CONTINUOUS
 10
8.1744138578
 20
19.3788786106
 11
8.1824574428
 21
19.4624595079
  0
LINE
  5
493
100
AcDbEntity
  8
RACCORDO
100
AcDbLine
 62
7
  6
CONTINUOUS
 10
8.1744138578
 20
19.3788786106
 11
8.1824574428
 21
19.4624595079
  0
LINE
  5
494
100
AcDbEntity
  8
ASSI
100
AcDbLine
 62
7
  6
CONTINUOUS
 10
8.1666065746
 20
19.3014667897
 11
8.1744138578
 21
19.3788786106
  0
LINE
  5
495
100
AcDbEntity
  8
RACCORDO
100
AcDbLine
 62
7
  6
CONTINUOUS
 10
8.1666065746
 20
19.3014667897
 11
8.1744138578
 21
19.3788786106
  0
LINE
  5
496
100
AcDbEntity
  8
ASSI
100
AcDbLine
 62
7
  6
CONTINUOUS
 10
8.1590254272
 20
19.229783727
 11
8.1666065746
 21
19.3014667897
  0
LINE
  5
497
100
AcDbEntity
  8
RACCORDO
100
AcDbLine
 62
7
  6
CONTINUOUS
 10
8.1590254272
 20
19.229783727
 11
8.1666065746
 21
19.3014667897
  0
LINE
  5
498
100
AcDbEntity
  8
ASSI
100
AcDbLine
 62
7
  6
CONTINUOUS
 10
8.1516573629
 20
19.1633950527
 11
8.1590254272
 21
19.229783727
  0
LINE
  5
499
100
AcDbEntity
  8
RACCORDO
100
AcDbLine
 62
7
  6
CONTINUOUS
 10
8.1516573629
 20
19.1633950527
 11
8.1590254272
 21
19.229783727
  0
LINE
  5
49A
100
AcDbEntity
  8
ASSI
100
AcDbLine
 62
7
  6
CONTINUOUS
 10
8.1444898956
 20
19.1019048324
 11
8.1516573629
 21
19.1633950527
  0
LINE
  5
49B
100
AcDbEntity
  8
RACCORDO
100
AcDbLine
 62
7
  6
CONTINUOUS
 10
8.1444898956
 20
19.1019048324
 11
8.1516573629
 21
19.1633950527
  0
LINE
  5
49C
100
AcDbEntity
  8
ASSI
100
AcDbLine
 62
7
  6
CONTINUOUS
 10
8.1375141237
 20
19.0449765265
 11
8.1444898956
 21
19.1019048324
  0
LINE
  5
49D
100
AcDbEntity
  8
RACCORDO
100
AcDbLine
 62
7
  6
CONTINUOUS
 10
8.1375141237
 20
19.0449765265
 11
8.1444898956
 21
19.1019048324
  0
LINE
  5
49E
100
AcDbEntity
  8
ASSI
100
AcDbLine
 62
7
  6
CONTINUOUS
 10
8.132964855
 20
19.0093915419
 11
8.1375141237
 21
19.0449765265
  0
LINE
  5
49F
100
AcDbEntity
  8
RACCORDO
100
AcDbLine
 62
7
  6
CONTINUOUS
 10
8.132964855
 20
19.0093915419
 11
8.1375141237
 21
19.0449765265
  0
LINE
  5
4A0
100
AcDbEntity
  8
ASSI
100
AcDbLine
 62
7
  6
CONTINUOUS
 10
8.1284928253
 20
18.9756065411
 11
8.132964855
 21
19.0093915419
  0
LINE
  5
4A1
100
AcDbEntity
  8
RACCORDO
100
AcDbLine
 62
7
  6
CONTINUOUS
 10
8.1284928253
 20
18.9756065411
 11
8.132964855
 21
19.0093915419
  0
LINE
  5
4A2
100
AcDbEntity
  8
ASSI
100
AcDbLine
 62
7
  6
CONTINUOUS
 10
8.1240928899
 20
18.9435114379
 11
8.1284928253
 21
18.9756065411
  0
LINE
  5
4A3
100
AcDbEntity
  8
RACCORDO
100
AcDbLine
 62
7
  6
CONTINUOUS
 10
8.1240928899
 20
18.9435114379
 11
8.1284928253
 21
18.9756065411
  0
LINE
  5
4A4
100
AcDbEntity
  8
ASSI
100
AcDbLine
 62
7
  6
CONTINUOUS
 10
8.1197601147
 20
18.9130098557
 11
8.1240928899
 21
18.9435114379
  0
LINE
  5
4A5
100
AcDbEntity
  8
RACCORDO
100
AcDbLine
 62
7
  6
CONTINUOUS
 10
8.1197601147
 20
18.9130098557
 11
8.1240928899
 21
18.9435114379
  0
LINE
  5
4A6
100
AcDbEntity
  8
ASSI
100
AcDbLine
 62
7
  6
CONTINUOUS
 10
8.1154916759
 20
18.8840426951
 11
8.1197601147
 21
18.9130098557
  0
LINE
  5
4A7
100
AcDbEntity
  8
RACCORDO
100
AcDbLine
 62
7
  6
CONTINUOUS
 10
8.1154916759
 20
18.8840426951
 11
8.1197601147
 21
18.9130098557
  0
LINE
  5
4A8
100
AcDbEntity
  8
ASSI
100
AcDbLine
 62
7
  6
CONTINUOUS
 10
8.1112842777
 20
18.856531153
 11
8.1154916759
 21
18.8840426951
  0
LINE
  5
4A9
100
AcDbEntity
  8
RACCORDO
100
AcDbLine
 62
7
  6
CONTINUOUS
 10
8.1112842777
 20
18.856531153
 11
8.1154916759
 21
18.8840426951
  0
LINE
  5
4AA
100
AcDbEntity
  8
ASSI
100
AcDbLine
 62
7
  6
CONTINUOUS
 10
8.1071332855
 20
18.830396384
 11
8.1112842777
 21
18.856531153
  0
LINE
  5
4AB
100
AcDbEntity
  8
RACCORDO
100
AcDbLine
 62
7
  6
CONTINUOUS
 10
8.1071332855
 20
18.830396384
 11
8.1112842777
 21
18.856531153
  0
LWPOLYLINE
  5
4AC
100
AcDbEntity
  8
ASSI
100
AcDbPolyline
 62
7
  6
CONTINUOUS
 90
3
 70
0
 10
8.1010039046
 20
18.7936474077
 10
8.1030352114
 20
18.8055858207
 10
8.1071332855
 20
18.830396384
  0
LWPOLYLINE
  5
4AD
100
AcDbEntity
  8
RACCORDO
100
AcDbPolyline
 62
7
  6
CONTINUOUS
 90
3
 70
0
 10
8.1010039046
 20
18.7936474077
 10
8.1030352114
 20
18.8055858207
 10
8.1071332855
 20
18.830396384
  0
LINE
  5
4AE
100
AcDbEntity
  8
ASSI
100
AcDbLine
 62
250
  6
CONTINUOUS
 10
19.4983460865
 20
0.0264250531
 11
19.5
 21
0.0269740728
  0
LINE
  5
4AF
100
AcDbEntity
  8
RACCORDO
100
AcDbLine
 62
250
  6
CONTINUOUS
 10
19.4983460865
 20
0.0264250531
 11
19.5
 21
0.0269740728
  0
LWPOLYLINE
  5
4B0
100
AcDbEntity
  8
ASSI
100
AcDbPolyline
 62
250
  6
CONTINUOUS
 90
12
 70
0
 10
19.3203720252
 20
-4.2207847119
 10
19.3484271691
 20
-4.2348650741
 10
19.37494376
 20
-4.2518616153
 10
19.3996351871
 20
-4.2716362811
 10
19.4221782335
 20
-4.2939796445
 10
19.4422032159
 20
-4.3185373999
 10
19.4594630485
 20
-4.3449624324
 10
19.4738290694
 20
-4.373006917
 10
19.4851755842
 20
-4.4024098532
 10
19.4933794587
 20
-4.4328665894
 10
19.4983399196
 20
-4.4640229953
 10
19.4988479208
 20
-4.4692724043
  0
LWPOLYLINE
  5
4B1
100
AcDbEntity
  8
RACCORDO
100
AcDbPolyline
 62
250
  6
CONTINUOUS
 90
12
 70
0
 10
19.3203720252
 20
-4.2207847119
 10
19.3484271691
 20
-4.2348650741
 10
19.37494376
 20
-4.2518616153
 10
19.3996351871
 20
-4.2716362811
 10
19.4221782335
 20
-4.2939796445
 10
19.4422032159
 20
-4.3185373999
 10
19.4594630485
 20
-4.3449624324
 10
19.4738290694
 20
-4.373006917
 10
19.4851755842
 20
-4.4024098532
 10
19.4933794587
 20
-4.4328665894
 10
19.4983399196
 20
-4.4640229953
 10
19.4988479208
 20
-4.4692724043
  0
LINE
  5
4B2
100
AcDbEntity
  8
ASSI
100
AcDbLine
 62
7
  6
CONTINUOUS
 10
7.760364029
 20
20.1701387781
 11
7.7765378408
 21
19.9495600767
  0
LINE
  5
4B3
100
AcDbEntity
  8
RACCORDO
100
AcDbLine
 62
7
  6
CONTINUOUS
 10
7.760364029
 20
20.1701387781
 11
7.7765378408
 21
19.9495600767
  0
LINE
  5
4B4
100
AcDbEntity
  8
ASSI
100
AcDbLine
 62
7
  6
CONTINUOUS
 10
7.7432883585
 20
20.420824905
 11
7.760364029
 21
20.1701387781
  0
LINE
  5
4B5
100
AcDbEntity
  8
RACCORDO
100
AcDbLine
 62
7
  6
CONTINUOUS
 10
7.7432883585
 20
20.420824905
 11
7.760364029
 21
20.1701387781
  0
LINE
  5
4B6
100
AcDbEntity
  8
ASSI
100
AcDbLine
 62
7
  6
CONTINUOUS
 10
7.7252503931
 20
20.7057191354
 11
7.7432883585
 21
20.420824905
  0
LINE
  5
4B7
100
AcDbEntity
  8
RACCORDO
100
AcDbLine
 62
7
  6
CONTINUOUS
 10
7.7252503931
 20
20.7057191354
 11
7.7432883585
 21
20.420824905
  0
LINE
  5
4B8
100
AcDbEntity
  8
ASSI
100
AcDbLine
 62
7
  6
CONTINUOUS
 10
7.7022550834
 20
21.0993808889
 11
7.7252503931
 21
20.7057191354
  0
LINE
  5
4B9
100
AcDbEntity
  8
RACCORDO
100
AcDbLine
 62
7
  6
CONTINUOUS
 10
7.7022550834
 20
21.0993808889
 11
7.7252503931
 21
20.7057191354
  0
LINE
  5
4BA
100
AcDbEntity
  8
ASSI
100
AcDbLine
 62
7
  6
CONTINUOUS
 10
7.6776919327
 20
21.5583795376
 11
7.7022550834
 21
21.0993808889
  0
LINE
  5
4BB
100
AcDbEntity
  8
RACCORDO
100
AcDbLine
 62
7
  6
CONTINUOUS
 10
7.6776919327
 20
21.5583795376
 11
7.7022550834
 21
21.0993808889
  0
LINE
  5
4BC
100
AcDbEntity
  8
ASSI
100
AcDbLine
 62
7
  6
CONTINUOUS
 10
7.6514599492
 20
22.0936035018
 11
7.6776919327
 21
21.5583795376
  0
LINE
  5
4BD
100
AcDbEntity
  8
RACCORDO
100
AcDbLine
 62
7
  6
CONTINUOUS
 10
7.6514599492
 20
22.0936035018
 11
7.6776919327
 21
21.5583795376
  0
LINE
  5
4BE
100
AcDbEntity
  8
ASSI
100
AcDbLine
 62
7
  6
CONTINUOUS
 10
7.6234598297
 20
22.7177923087
 11
7.6514599492
 21
22.0936035018
  0
LINE
  5
4BF
100
AcDbEntity
  8
RACCORDO
100
AcDbLine
 62
7
  6
CONTINUOUS
 10
7.6234598297
 20
22.7177923087
 11
7.6514599492
 21
22.0936035018
  0
LINE
  5
4C0
100
AcDbEntity
  8
ASSI
100
AcDbLine
 62
7
  6
CONTINUOUS
 10
7.5935969497
 20
23.4458513215
 11
7.6234598297
 21
22.7177923087
  0
LINE
  5
4C1
100
AcDbEntity
  8
RACCORDO
100
AcDbLine
 62
7
  6
CONTINUOUS
 10
7.5935969497
 20
23.4458513215
 11
7.6234598297
 21
22.7177923087
  0
LINE
  5
4C2
100
AcDbEntity
  8
ASSI
100
AcDbLine
 62
7
  6
CONTINUOUS
 10
7.5672258996
 20
24.1443740298
 11
7.5935969497
 21
23.4458513215
  0
LINE
  5
4C3
100
AcDbEntity
  8
RACCORDO
100
AcDbLine
 62
7
  6
CONTINUOUS
 10
7.5672258996
 20
24.1443740298
 11
7.5935969497
 21
23.4458513215
  0
LINE
  5
4C4
100
AcDbEntity
  8
ASSI
100
AcDbLine
 62
7
  6
CONTINUOUS
 10
7.5394582717
 20
24.9388470265
 11
7.5672258996
 21
24.1443740298
  0
LINE
  5
4C5
100
AcDbEntity
  8
RACCORDO
100
AcDbLine
 62
7
  6
CONTINUOUS
 10
7.5394582717
 20
24.9388470265
 11
7.5672258996
 21
24.1443740298
  0
LINE
  5
4C6
100
AcDbEntity
  8
ASSI
100
AcDbLine
 62
7
  6
CONTINUOUS
 10
7.5102512568
 20
25.8426721645
 11
7.5394582717
 21
24.9388470265
  0
LINE
  5
4C7
100
AcDbEntity
  8
RACCORDO
100
AcDbLine
 62
7
  6
CONTINUOUS
 10
7.5102512568
 20
25.8426721645
 11
7.5394582717
 21
24.9388470265
  0
LINE
  5
4C8
100
AcDbEntity
  8
ASSI
100
AcDbLine
 62
7
  6
CONTINUOUS
 10
7.5024844622
 20
26.0952764861
 11
7.5102512568
 21
25.8426721645
  0
LINE
  5
4C9
100
AcDbEntity
  8
RACCORDO
100
AcDbLine
 62
7
  6
CONTINUOUS
 10
7.5024844622
 20
26.0952764861
 11
7.5102512568
 21
25.8426721645
  0
LINE
  5
4CA
100
AcDbEntity
  8
ASSI
100
AcDbLine
 62
7
  6
CONTINUOUS
 10
8.4662656567
 20
25.110286416
 11
8.4975155378
 21
26.0952764861
  0
LINE
  5
4CB
100
AcDbEntity
  8
RACCORDO
100
AcDbLine
 62
7
  6
CONTINUOUS
 10
8.4662656567
 20
25.110286416
 11
8.4975155378
 21
26.0952764861
  0
LINE
  5
4CC
100
AcDbEntity
  8
ASSI
100
AcDbLine
 62
7
  6
CONTINUOUS
 10
8.4382147534
 20
24.2952242801
 11
8.4662656567
 21
25.110286416
  0
LINE
  5
4CD
100
AcDbEntity
  8
RACCORDO
100
AcDbLine
 62
7
  6
CONTINUOUS
 10
8.4382147534
 20
24.2952242801
 11
8.4662656567
 21
25.110286416
  0
LINE
  5
4CE
100
AcDbEntity
  8
ASSI
100
AcDbLine
 62
7
  6
CONTINUOUS
 10
8.4064030378
 20
23.4458510029
 11
8.4382147534
 21
24.2952242801
  0
LINE
  5
4CF
100
AcDbEntity
  8
RACCORDO
100
AcDbLine
 62
7
  6
CONTINUOUS
 10
8.4064030378
 20
23.4458510029
 11
8.4382147534
 21
24.2952242801
  0
LINE
  5
4D0
100
AcDbEntity
  8
ASSI
100
AcDbLine
 62
7
  6
CONTINUOUS
 10
8.3765401494
 20
22.7177918208
 11
8.4064030378
 21
23.4458510029
  0
LINE
  5
4D1
100
AcDbEntity
  8
RACCORDO
100
AcDbLine
 62
7
  6
CONTINUOUS
 10
8.3765401494
 20
22.7177918208
 11
8.4064030378
 21
23.4458510029
  0
LINE
  5
4D2
100
AcDbEntity
  8
ASSI
100
AcDbLine
 62
7
  6
CONTINUOUS
 10
8.3440477289
 20
21.9985666857
 11
8.3765401494
 21
22.7177918208
  0
LINE
  5
4D3
100
AcDbEntity
  8
RACCORDO
100
AcDbLine
 62
7
  6
CONTINUOUS
 10
8.3440477289
 20
21.9985666857
 11
8.3765401494
 21
22.7177918208
  0
LINE
  5
4D4
100
AcDbEntity
  8
ASSI
100
AcDbLine
 62
7
  6
CONTINUOUS
 10
8.3181008447
 20
21.4768812928
 11
8.3440477289
 21
21.9985666857
  0
LINE
  5
4D5
100
AcDbEntity
  8
RACCORDO
100
AcDbLine
 62
7
  6
CONTINUOUS
 10
8.3181008447
 20
21.4768812928
 11
8.3440477289
 21
21.9985666857
  0
LINE
  5
4D6
100
AcDbEntity
  8
ASSI
100
AcDbLine
 62
7
  6
CONTINUOUS
 10
8.2938060046
 20
21.0294850699
 11
8.3181008447
 21
21.4768812928
  0
LINE
  5
4D7
100
AcDbEntity
  8
RACCORDO
100
AcDbLine
 62
7
  6
CONTINUOUS
 10
8.2938060046
 20
21.0294850699
 11
8.3181008447
 21
21.4768812928
  0
LINE
  5
4D8
100
AcDbEntity
  8
ASSI
100
AcDbLine
 62
7
  6
CONTINUOUS
 10
8.2822465209
 20
20.8302677905
 11
8.2938060046
 21
21.0294850699
  0
LINE
  5
4D9
100
AcDbEntity
  8
RACCORDO
100
AcDbLine
 62
7
  6
CONTINUOUS
 10
8.2822465209
 20
20.8302677905
 11
8.2938060046
 21
21.0294850699
  0
LINE
  5
4DA
100
AcDbEntity
  8
ASSI
100
AcDbLine
 62
250
  6
CONTINUOUS
 10
17.5482400642
 20
9.0341795568
 11
18.0381654348
 21
9.0427299335
  0
LINE
  5
4DB
100
AcDbEntity
  8
RACCORDO
100
AcDbLine
 62
250
  6
CONTINUOUS
 10
17.5482400642
 20
9.0341795568
 11
18.0381654348
 21
9.0427299335
  0
LINE
  5
4DC
100
AcDbEntity
  8
ASSI
100
AcDbLine
 62
250
  6
CONTINUOUS
 10
-18.0381654348
 20
9.0427299335
 11
-17.5482400642
 21
9.0341795568
  0
LINE
  5
4DD
100
AcDbEntity
  8
RACCORDO
100
AcDbLine
 62
250
  6
CONTINUOUS
 10
-18.0381654348
 20
9.0427299335
 11
-17.5482400642
 21
9.0341795568
  0
LINE
  5
4DE
100
AcDbEntity
  8
ASSI
100
AcDbLine
 62
7
  6
CONTINUOUS
 10
7.8359451154
 20
19.2769532884
 11
7.8434535736
 21
19.2070839232
  0
LINE
  5
4DF
100
AcDbEntity
  8
RACCORDO
100
AcDbLine
 62
7
  6
CONTINUOUS
 10
7.8359451154
 20
19.2769532884
 11
7.8434535736
 21
19.2070839232
  0
LINE
  5
4E0
100
AcDbEntity
  8
ASSI
100
AcDbLine
 62
7
  6
CONTINUOUS
 10
7.828214365
 20
19.3524075539
 11
7.8359451154
 21
19.2769532884
  0
LINE
  5
4E1
100
AcDbEntity
  8
RACCORDO
100
AcDbLine
 62
7
  6
CONTINUOUS
 10
7.828214365
 20
19.3524075539
 11
7.8359451154
 21
19.2769532884
  0
LINE
  5
4E2
100
AcDbEntity
  8
ASSI
100
AcDbLine
 62
7
  6
CONTINUOUS
 10
7.8202505421
 20
19.4338823042
 11
7.828214365
 21
19.3524075539
  0
LINE
  5
4E3
100
AcDbEntity
  8
RACCORDO
100
AcDbLine
 62
7
  6
CONTINUOUS
 10
7.8202505421
 20
19.4338823042
 11
7.828214365
 21
19.3524075539
  0
LINE
  5
4E4
100
AcDbEntity
  8
ASSI
100
AcDbLine
 62
7
  6
CONTINUOUS
 10
7.8092515659
 20
19.5526938415
 11
7.8202505421
 21
19.4338823042
  0
LINE
  5
4E5
100
AcDbEntity
  8
RACCORDO
100
AcDbLine
 62
7
  6
CONTINUOUS
 10
7.8092515659
 20
19.5526938415
 11
7.8202505421
 21
19.4338823042
  0
LINE
  5
4E6
100
AcDbEntity
  8
ASSI
100
AcDbLine
 62
7
  6
CONTINUOUS
 10
7.7977898429
 20
19.684286524
 11
7.8092515659
 21
19.5526938415
  0
LINE
  5
4E7
100
AcDbEntity
  8
RACCORDO
100
AcDbLine
 62
7
  6
CONTINUOUS
 10
7.7977898429
 20
19.684286524
 11
7.8092515659
 21
19.5526938415
  0
LINE
  5
4E8
100
AcDbEntity
  8
ASSI
100
AcDbLine
 62
7
  6
CONTINUOUS
 10
7.7858382654
 20
19.8300574312
 11
7.7977898429
 21
19.684286524
  0
LINE
  5
4E9
100
AcDbEntity
  8
RACCORDO
100
AcDbLine
 62
7
  6
CONTINUOUS
 10
7.7858382654
 20
19.8300574312
 11
7.7977898429
 21
19.684286524
  0
LINE
  5
4EA
100
AcDbEntity
  8
ASSI
100
AcDbLine
 62
7
  6
CONTINUOUS
 10
7.7765378408
 20
19.9495600767
 11
7.7858382654
 21
19.8300574312
  0
LINE
  5
4EB
100
AcDbEntity
  8
RACCORDO
100
AcDbLine
 62
7
  6
CONTINUOUS
 10
7.7765378408
 20
19.9495600767
 11
7.7858382654
 21
19.8300574312
  0
LINE
  5
4EC
100
AcDbEntity
  8
ASSI
100
AcDbLine
 62
250
  6
CONTINUOUS
 10
11.1568983063
 20
26.6139071552
 11
11.1568983063
 21
27.4186208247
  0
LINE
  5
4ED
100
AcDbEntity
  8
RACCORDO
100
AcDbLine
 62
250
  6
CONTINUOUS
 10
11.1568983063
 20
26.6139071552
 11
11.1568983063
 21
27.4186208247
  0
LINE
  5
4EE
100
AcDbEntity
  8
RACCORDO
100
AcDbLine
 62
7
  6
CONTINUOUS
 10
-3.7030325839
 20
-18.1488886452
 11
-3.6877357561
 21
-18.1332488047
  0
LINE
  5
4EF
100
AcDbEntity
  8
RACCORDO
100
AcDbLine
 62
7
  6
CONTINUOUS
 10
-3.7841221186
 20
-18.2306968852
 11
-3.7030325839
 21
-18.1488886452
  0
LINE
  5
4F0
100
AcDbEntity
  8
RACCORDO
100
AcDbLine
 62
7
  6
CONTINUOUS
 10
-3.8324780799
 20
-18.2791007943
 11
-3.7841221186
 21
-18.2306968852
  0
LINE
  5
4F1
100
AcDbEntity
  8
RACCORDO
100
AcDbLine
 62
7
  6
CONTINUOUS
 10
-3.901928067
 20
-18.3478887491
 11
-3.8324780799
 21
-18.2791007943
  0
LINE
  5
4F2
100
AcDbEntity
  8
RACCORDO
100
AcDbLine
 62
7
  6
CONTINUOUS
 10
-3.9369127327
 20
-18.381906348
 11
-3.901928067
 21
-18.3478887491
  0
LINE
  5
4F3
100
AcDbEntity
  8
ASSI
100
AcDbLine
 62
250
  6
CONTINUOUS
 10
19.4983460865
 20
-4.9728134227
 11
19.5
 21
-4.9722644029
  0
LINE
  5
4F4
100
AcDbEntity
  8
RACCORDO
100
AcDbLine
 62
250
  6
CONTINUOUS
 10
19.4983460865
 20
-4.9728134227
 11
19.5
 21
-4.9722644029
  0
LINE
  5
4F5
100
AcDbEntity
  8
ASSI
100
AcDbLine
 62
250
  6
CONTINUOUS
 10
-15.6210202674
 20
15.7628103444
 11
-15.1605708832
 21
15.5952459989
  0
LINE
  5
4F6
100
AcDbEntity
  8
RACCORDO
100
AcDbLine
 62
250
  6
CONTINUOUS
 10
-15.6210202674
 20
15.7628103444
 11
-15.1605708832
 21
15.5952459989
  0
LINE
  5
4F7
100
AcDbEntity
  8
ASSI
100
AcDbLine
 62
250
  6
CONTINUOUS
 10
-14.810105167
 20
16.5752748645
 11
-15.2705545511
 21
16.74283921
  0
LINE
  5
4F8
100
AcDbEntity
  8
RACCORDO
100
AcDbLine
 62
250
  6
CONTINUOUS
 10
-14.810105167
 20
16.5752748645
 11
-15.2705545511
 21
16.74283921
  0
LWPOLYLINE
  5
4F9
100
AcDbEntity
  8
ASSI
100
AcDbPolyline
 62
250
  6
CONTINUOUS
 90
12
 70
0
 10
19.3203720252
 20
0.7784537639
 10
19.3484271691
 20
0.7643734016
 10
19.37494376
 20
0.7473768605
 10
19.3996351871
 20
0.7276021947
 10
19.4221782335
 20
0.7052588313
 10
19.4422032159
 20
0.6807010759
 10
19.4594630485
 20
0.6542760434
 10
19.4738290694
 20
0.6262315588
 10
19.4851755842
 20
0.5968286226
 10
19.4933794587
 20
0.5663718864
 10
19.4983399196
 20
0.5352154805
 10
19.4988479208
 20
0.5299660715
  0
LWPOLYLINE
  5
4FA
100
AcDbEntity
  8
RACCORDO
100
AcDbPolyline
 62
250
  6
CONTINUOUS
 90
12
 70
0
 10
19.3203720252
 20
0.7784537639
 10
19.3484271691
 20
0.7643734016
 10
19.37494376
 20
0.7473768605
 10
19.3996351871
 20
0.7276021947
 10
19.4221782335
 20
0.7052588313
 10
19.4422032159
 20
0.6807010759
 10
19.4594630485
 20
0.6542760434
 10
19.4738290694
 20
0.6262315588
 10
19.4851755842
 20
0.5968286226
 10
19.4933794587
 20
0.5663718864
 10
19.4983399196
 20
0.5352154805
 10
19.4988479208
 20
0.5299660715
  0
LINE
  5
4FB
100
AcDbEntity
  8
ASSI
100
AcDbLine
 62
7
  6
CONTINUOUS
 10
7.9109805741
 20
18.7281064767
 11
7.914915033
 21
18.708407821
  0
LINE
  5
4FC
100
AcDbEntity
  8
RACCORDO
100
AcDbLine
 62
7
  6
CONTINUOUS
 10
7.9109805741
 20
18.7281064767
 11
7.914915033
 21
18.708407821
  0
LINE
  5
4FD
100
AcDbEntity
  8
ASSI
100
AcDbLine
 62
7
  6
CONTINUOUS
 10
7.9070186114
 20
18.7488526954
 11
7.9109805741
 21
18.7281064767
  0
LINE
  5
4FE
100
AcDbEntity
  8
RACCORDO
100
AcDbLine
 62
7
  6
CONTINUOUS
 10
7.9070186114
 20
18.7488526954
 11
7.9109805741
 21
18.7281064767
  0
LINE
  5
4FF
100
AcDbEntity
  8
ASSI
100
AcDbLine
 62
7
  6
CONTINUOUS
 10
7.9030257246
 20
18.7706806618
 11
7.9070186114
 21
18.7488526954
  0
LINE
  5
500
100
AcDbEntity
  8
RACCORDO
100
AcDbLine
 62
7
  6
CONTINUOUS
 10
7.9030257246
 20
18.7706806618
 11
7.9070186114
 21
18.7488526954
  0
LINE
  5
501
100
AcDbEntity
  8
ASSI
100
AcDbLine
 62
7
  6
CONTINUOUS
 10
7.8989958685
 20
18.7936487277
 11
7.9030257246
 21
18.7706806618
  0
LINE
  5
502
100
AcDbEntity
  8
RACCORDO
100
AcDbLine
 62
7
  6
CONTINUOUS
 10
7.8989958685
 20
18.7936487277
 11
7.9030257246
 21
18.7706806618
  0
LINE
  5
503
100
AcDbEntity
  8
ASSI
100
AcDbLine
 62
7
  6
CONTINUOUS
 10
7.8949213946
 20
18.8178367122
 11
7.8989958685
 21
18.7936487277
  0
LINE
  5
504
100
AcDbEntity
  8
RACCORDO
100
AcDbLine
 62
7
  6
CONTINUOUS
 10
7.8949213946
 20
18.8178367122
 11
7.8989958685
 21
18.7936487277
  0
LINE
  5
505
100
AcDbEntity
  8
ASSI
100
AcDbLine
 62
7
  6
CONTINUOUS
 10
7.8907979252
 20
18.8432962968
 11
7.8949213946
 21
18.8178367122
  0
LINE
  5
506
100
AcDbEntity
  8
RACCORDO
100
AcDbLine
 62
7
  6
CONTINUOUS
 10
7.8907979252
 20
18.8432962968
 11
7.8949213946
 21
18.8178367122
  0
LINE
  5
507
100
AcDbEntity
  8
ASSI
100
AcDbLine
 62
7
  6
CONTINUOUS
 10
7.8866194269
 20
18.870106246
 11
7.8907979252
 21
18.8432962968
  0
LINE
  5
508
100
AcDbEntity
  8
RACCORDO
100
AcDbLine
 62
7
  6
CONTINUOUS
 10
7.8866194269
 20
18.870106246
 11
7.8907979252
 21
18.8432962968
  0
LINE
  5
509
100
AcDbEntity
  8
ASSI
100
AcDbLine
 62
7
  6
CONTINUOUS
 10
7.8823815158
 20
18.8983455972
 11
7.8866194269
 21
18.870106246
  0
LINE
  5
50A
100
AcDbEntity
  8
RACCORDO
100
AcDbLine
 62
7
  6
CONTINUOUS
 10
7.8823815158
 20
18.8983455972
 11
7.8866194269
 21
18.870106246
  0
LINE
  5
50B
100
AcDbEntity
  8
ASSI
100
AcDbLine
 62
7
  6
CONTINUOUS
 10
7.8780814552
 20
18.9280674964
 11
7.8823815158
 21
18.8983455972
  0
LINE
  5
50C
100
AcDbEntity
  8
RACCORDO
100
AcDbLine
 62
7
  6
CONTINUOUS
 10
7.8780814552
 20
18.9280674964
 11
7.8823815158
 21
18.8983455972
  0
LINE
  5
50D
100
AcDbEntity
  8
ASSI
100
AcDbLine
 62
7
  6
CONTINUOUS
 10
7.873715979
 20
18.9593487605
 11
7.8780814552
 21
18.9280674964
  0
LINE
  5
50E
100
AcDbEntity
  8
RACCORDO
100
AcDbLine
 62
7
  6
CONTINUOUS
 10
7.873715979
 20
18.9593487605
 11
7.8780814552
 21
18.9280674964
  0
LINE
  5
50F
100
AcDbEntity
  8
ASSI
100
AcDbLine
 62
7
  6
CONTINUOUS
 10
7.869280003
 20
18.9922888095
 11
7.873715979
 21
18.9593487605
  0
LINE
  5
510
100
AcDbEntity
  8
RACCORDO
100
AcDbLine
 62
7
  6
CONTINUOUS
 10
7.869280003
 20
18.9922888095
 11
7.873715979
 21
18.9593487605
  0
LINE
  5
511
100
AcDbEntity
  8
ASSI
100
AcDbLine
 62
7
  6
CONTINUOUS
 10
7.864770254
 20
19.0269558742
 11
7.869280003
 21
18.9922888095
  0
LINE
  5
512
100
AcDbEntity
  8
RACCORDO
100
AcDbLine
 62
7
  6
CONTINUOUS
 10
7.864770254
 20
19.0269558742
 11
7.869280003
 21
18.9922888095
  0
LINE
  5
513
100
AcDbEntity
  8
ASSI
100
AcDbLine
 62
7
  6
CONTINUOUS
 10
7.8578562647
 20
19.0824348359
 11
7.864770254
 21
19.0269558742
  0
LINE
  5
514
100
AcDbEntity
  8
RACCORDO
100
AcDbLine
 62
7
  6
CONTINUOUS
 10
7.8578562647
 20
19.0824348359
 11
7.864770254
 21
19.0269558742
  0
LINE
  5
515
100
AcDbEntity
  8
ASSI
100
AcDbLine
 62
7
  6
CONTINUOUS
 10
7.8507534655
 20
19.1423699248
 11
7.8578562647
 21
19.0824348359
  0
LINE
  5
516
100
AcDbEntity
  8
RACCORDO
100
AcDbLine
 62
7
  6
CONTINUOUS
 10
7.8507534655
 20
19.1423699248
 11
7.8578562647
 21
19.0824348359
  0
LINE
  5
517
100
AcDbEntity
  8
ASSI
100
AcDbLine
 62
7
  6
CONTINUOUS
 10
7.8434535736
 20
19.2070839232
 11
7.8507534655
 21
19.1423699248
  0
LINE
  5
518
100
AcDbEntity
  8
RACCORDO
100
AcDbLine
 62
7
  6
CONTINUOUS
 10
7.8434535736
 20
19.2070839232
 11
7.8507534655
 21
19.1423699248
  0
LINE
  5
519
100
AcDbEntity
  8
ASSI
100
AcDbLine
 62
250
  6
CONTINUOUS
 10
11.6173476905
 20
26.7814715007
 11
11.6173476905
 21
27.0962597996
  0
LINE
  5
51A
100
AcDbEntity
  8
RACCORDO
100
AcDbLine
 62
250
  6
CONTINUOUS
 10
11.6173476905
 20
26.7814715007
 11
11.6173476905
 21
27.0962597996
  0
LWPOLYLINE
  5
51B
100
AcDbEntity
  8
RACCORDO
100
AcDbPolyline
 62
7
  6
CONTINUOUS
 90
8
 70
0
 10
-3.9823679183
 20
-18.4226856576
 10
-3.9810233418
 20
-18.4218243143
 10
-3.9775604103
 20
-18.4192124992
 10
-3.9722808348
 20
-18.4148956933
 10
-3.9653233054
 20
-18.4086307302
 10
-3.9568827463
 20
-18.4006587933
 10
-3.9472914531
 20
-18.3917079576
 10
-3.9369127327
 20
-18.381906348
  0
LWPOLYLINE
  5
51C
100
AcDbEntity
  8
ASSI
100
AcDbPolyline
 62
7
  6
CONTINUOUS
 90
9
 70
0
 10
18.3241601453
 20
-4.0704441848
 10
18.3467425588
 20
-4.0982456583
 10
18.3724783538
 20
-4.1231584759
 10
18.4010007467
 20
-4.1448270094
 10
18.4319031667
 20
-4.1629419734
 10
18.4647451339
 20
-4.1772448293
 10
18.4990585677
 20
-4.1875314149
 10
18.5343542986
 20
-4.1936547793
 10
18.5678948936
 20
-4.1955356417
  0
LWPOLYLINE
  5
51D
100
AcDbEntity
  8
RACCORDO
100
AcDbPolyline
 62
7
  6
CONTINUOUS
 90
9
 70
0
 10
18.3241601453
 20
-4.0704441848
 10
18.3467425588
 20
-4.0982456583
 10
18.3724783538
 20
-4.1231584759
 10
18.4010007467
 20
-4.1448270094
 10
18.4319031667
 20
-4.1629419734
 10
18.4647451339
 20
-4.1772448293
 10
18.4990585677
 20
-4.1875314149
 10
18.5343542986
 20
-4.1936547793
 10
18.5678948936
 20
-4.1955356417
  0
LWPOLYLINE
  5
51E
100
AcDbEntity
  8
ASSI
100
AcDbPolyline
 62
250
  6
CONTINUOUS
 90
8
 70
0
 10
18.3098485905
 20
-4.0486155918
 10
18.3317589917
 20
-4.0806400183
 10
18.3576205556
 20
-4.1095686648
 10
18.3870005485
 20
-4.134917477
 10
18.4194073643
 20
-4.1562623013
 10
18.4542987497
 20
-4.1732459814
 10
18.491090878
 20
-4.1855843345
 10
18.5291681179
 20
-4.1930709069
  0
LWPOLYLINE
  5
51F
100
AcDbEntity
  8
RACCORDO
100
AcDbPolyline
 62
250
  6
CONTINUOUS
 90
8
 70
0
 10
18.3098485905
 20
-4.0486155918
 10
18.3317589917
 20
-4.0806400183
 10
18.3576205556
 20
-4.1095686648
 10
18.3870005485
 20
-4.134917477
 10
18.4194073643
 20
-4.1562623013
 10
18.4542987497
 20
-4.1732459814
 10
18.491090878
 20
-4.1855843345
 10
18.5291681179
 20
-4.1930709069
  0
LWPOLYLINE
  5
520
100
AcDbEntity
  8
ASSI
100
AcDbPolyline
 62
7
  6
CONTINUOUS
 90
74
 70
0
 10
7.914915033
 20
18.708407821
 10
7.9168732173
 20
18.6989363646
 10
7.9188255154
 20
18.6897166583
 10
7.9207739664
 20
18.6807337925
 10
7.9227182921
 20
18.6719879081
 10
7.9246587707
 20
18.6634788641
 10
7.9265982753
 20
18.6551913283
 10
7.9285364478
 20
18.6471252717
 10
7.9304736463
 20
18.6392807234
 10
7.9324138182
 20
18.6316424378
 10
7.9343565152
 20
18.6242100694
 10
7.9363021856
 20
18.6169839637
 10
7.9382561225
 20
18.609949912
 10
7.9402177183
 20
18.603107216
 10
7.9421875806
 20
18.5964565739
 10
7.944172825
 20
18.5899858716
 10
7.9461720095
 20
18.5836953076
 10
7.948186576
 20
18.5775846834
 10
7.9502279661
 20
18.5716412892
 10
7.9522937847
 20
18.5658643733
 10
7.9543864268
 20
18.5602546874
 10
7.9565245194
 20
18.5548017757
 10
7.9587040879
 20
18.5495019556
 10
7.9609291068
 20
18.5443589097
 10
7.9632301265
 20
18.5393732302
 10
7.9656060587
 20
18.5345266318
 10
7.9680579916
 20
18.5298373998
 10
7.9706197405
 20
18.5253609823
 10
7.9732927716
 20
18.5210696508
 10
7.9760756187
 20
18.5169911337
 10
7.9789976977
 20
18.5132640645
 10
7.9820507974
 20
18.5098581277
 10
7.985243129
 20
18.5068036388
 10
7.9886287413
 20
18.5043301775
 10
7.9922900698
 20
18.5024335569
 10
7.9961446791
 20
18.5011179638
 10
7.9999993118
 20
18.5006255393
 10
8.0038539823
 20
18.5011176955
 10
8.0077086763
 20
18.5024330203
 10
8.0113700931
 20
18.5043294181
 10
8.014755786
 20
18.5068027237
 10
8.0179482018
 20
18.5098571023
 10
8.0210013798
 20
18.513262954
 10
8.0239235274
 20
18.5169899605
 10
8.0267064373
 20
18.5210684401
 10
8.0293795265
 20
18.5253597477
 10
8.0319413295
 20
18.5298361556
 10
8.0343933118
 20
18.5345253915
 10
8.0367692871
 20
18.5393719938
 10
8.0390703422
 20
18.5443576735
 10
8.0412953903
 20
18.5495007196
 10
8.0434749842
 20
18.5548005381
 10
8.0456130989
 20
18.5602534456
 10
8.0477057594
 20
18.5658631255
 10
8.0497715941
 20
18.5716400334
 10
8.0518129984
 20
18.5775834176
 10
8.0538275769
 20
18.5836940298
 10
8.0558267723
 20
18.5899845813
 10
8.0578120266
 20
18.5964552704
 10
8.0597818979
 20
18.6031058988
 10
8.0617435024
 20
18.6099485823
 10
8.0636974479
 20
18.6169826231
 10
8.0656431266
 20
18.6242087191
 10
8.0675858318
 20
18.6316410793
 10
8.0695260119
 20
18.6392793584
 10
8.0714632185
 20
18.6471239018
 10
8.0734013991
 20
18.6551899549
 10
8.0753409116
 20
18.6634774888
 10
8.0772813981
 20
18.6719865324
 10
8.0792257317
 20
18.6807324177
 10
8.0811741904
 20
18.6897152858
 10
8.0831264963
 20
18.6989349957
 10
8.0850846881
 20
18.7084064564
 10
8.0890191617
 20
18.7281051238
  0
LWPOLYLINE
  5
521
100
AcDbEntity
  8
RACCORDO
100
AcDbPolyline
 62
7
  6
CONTINUOUS
 90
74
 70
0
 10
7.914915033
 20
18.708407821
 10
7.9168732173
 20
18.6989363646
 10
7.9188255154
 20
18.6897166583
 10
7.9207739664
 20
18.6807337925
 10
7.9227182921
 20
18.6719879081
 10
7.9246587707
 20
18.6634788641
 10
7.9265982753
 20
18.6551913283
 10
7.9285364478
 20
18.6471252717
 10
7.9304736463
 20
18.6392807234
 10
7.9324138182
 20
18.6316424378
 10
7.9343565152
 20
18.6242100694
 10
7.9363021856
 20
18.6169839637
 10
7.9382561225
 20
18.609949912
 10
7.9402177183
 20
18.603107216
 10
7.9421875806
 20
18.5964565739
 10
7.944172825
 20
18.5899858716
 10
7.9461720095
 20
18.5836953076
 10
7.948186576
 20
18.5775846834
 10
7.9502279661
 20
18.5716412892
 10
7.9522937847
 20
18.5658643733
 10
7.9543864268
 20
18.5602546874
 10
7.9565245194
 20
18.5548017757
 10
7.9587040879
 20
18.5495019556
 10
7.9609291068
 20
18.5443589097
 10
7.9632301265
 20
18.5393732302
 10
7.9656060587
 20
18.5345266318
 10
7.9680579916
 20
18.5298373998
 10
7.9706197405
 20
18.5253609823
 10
7.9732927716
 20
18.5210696508
 10
7.9760756187
 20
18.5169911337
 10
7.9789976977
 20
18.5132640645
 10
7.9820507974
 20
18.5098581277
 10
7.985243129
 20
18.5068036388
 10
7.9886287413
 20
18.5043301775
 10
7.9922900698
 20
18.5024335569
 10
7.9961446791
 20
18.5011179638
 10
7.9999993118
 20
18.5006255393
 10
8.0038539823
 20
18.5011176955
 10
8.0077086763
 20
18.5024330203
 10
8.0113700931
 20
18.5043294181
 10
8.014755786
 20
18.5068027237
 10
8.0179482018
 20
18.5098571023
 10
8.0210013798
 20
18.513262954
 10
8.0239235274
 20
18.5169899605
 10
8.0267064373
 20
18.5210684401
 10
8.0293795265
 20
18.5253597477
 10
8.0319413295
 20
18.5298361556
 10
8.0343933118
 20
18.5345253915
 10
8.0367692871
 20
18.5393719938
 10
8.0390703422
 20
18.5443576735
 10
8.0412953903
 20
18.5495007196
 10
8.0434749842
 20
18.5548005381
 10
8.0456130989
 20
18.5602534456
 10
8.0477057594
 20
18.5658631255
 10
8.0497715941
 20
18.5716400334
 10
8.0518129984
 20
18.5775834176
 10
8.0538275769
 20
18.5836940298
 10
8.0558267723
 20
18.5899845813
 10
8.0578120266
 20
18.5964552704
 10
8.0597818979
 20
18.6031058988
 10
8.0617435024
 20
18.6099485823
 10
8.0636974479
 20
18.6169826231
 10
8.0656431266
 20
18.6242087191
 10
8.0675858318
 20
18.6316410793
 10
8.0695260119
 20
18.6392793584
 10
8.0714632185
 20
18.6471239018
 10
8.0734013991
 20
18.6551899549
 10
8.0753409116
 20
18.6634774888
 10
8.0772813981
 20
18.6719865324
 10
8.0792257317
 20
18.6807324177
 10
8.0811741904
 20
18.6897152858
 10
8.0831264963
 20
18.6989349957
 10
8.0850846881
 20
18.7084064564
 10
8.0890191617
 20
18.7281051238
  0
LINE
  5
522
100
AcDbEntity
  8
ASSI
100
AcDbLine
 62
250
  6
CONTINUOUS
 10
15.1605708832
 20
16.0851713695
 11
15.1605708832
 21
15.5952459989
  0
LINE
  5
523
100
AcDbEntity
  8
RACCORDO
100
AcDbLine
 62
250
  6
CONTINUOUS
 10
15.1605708832
 20
16.0851713695
 11
15.1605708832
 21
15.5952459989
  0
LINE
  5
524
100
AcDbEntity
  8
ASSI
100
AcDbLine
 62
250
  6
CONTINUOUS
 10
15.6210202674
 20
15.7628103444
 11
15.6210202674
 21
15.7629884688
  0
LINE
  5
525
100
AcDbEntity
  8
RACCORDO
100
AcDbLine
 62
250
  6
CONTINUOUS
 10
15.6210202674
 20
15.7628103444
 11
15.6210202674
 21
15.7629884688
  0
LINE
  5
526
100
AcDbEntity
  8
ASSI
100
AcDbLine
 62
250
  6
CONTINUOUS
 10
15.6210202674
 20
16.118093538
 11
15.6210202674
 21
16.1182716624
  0
LINE
  5
527
100
AcDbEntity
  8
RACCORDO
100
AcDbLine
 62
250
  6
CONTINUOUS
 10
15.6210202674
 20
16.118093538
 11
15.6210202674
 21
16.1182716624
  0
LINE
  5
528
100
AcDbEntity
  8
ASSI
100
AcDbLine
 62
250
  6
CONTINUOUS
 10
15.1605708832
 20
15.5952459989
 11
-15.1605708832
 21
15.5952459989
  0
LINE
  5
529
100
AcDbEntity
  8
RACCORDO
100
AcDbLine
 62
250
  6
CONTINUOUS
 10
15.1605708832
 20
15.5952459989
 11
-15.1605708832
 21
15.5952459989
  0
LWPOLYLINE
  5
52A
100
AcDbEntity
  8
ASSI
100
AcDbPolyline
 62
250
  6
CONTINUOUS
 90
10
 70
0
 10
-7.7551255714
 20
26.0952764861
 10
-7.7254556156
 20
26.0712364726
 10
-7.695974923
 20
26.0457870394
 10
-7.6668715483
 20
26.0190905258
 10
-7.638331136
 20
25.9913172231
 10
-7.610535745
 20
25.9626442973
 10
-7.5836626864
 20
25.9332546596
 10
-7.5578833808
 20
25.9033357875
 10
-7.5333622651
 20
25.8730785278
 10
-7.5102557529
 20
25.8426758885
  0
LWPOLYLINE
  5
52B
100
AcDbEntity
  8
RACCORDO
100
AcDbPolyline
 62
250
  6
CONTINUOUS
 90
10
 70
0
 10
-7.7551255714
 20
26.0952764861
 10
-7.7254556156
 20
26.0712364726
 10
-7.695974923
 20
26.0457870394
 10
-7.6668715483
 20
26.0190905258
 10
-7.638331136
 20
25.9913172231
 10
-7.610535745
 20
25.9626442973
 10
-7.5836626864
 20
25.9332546596
 10
-7.5578833808
 20
25.9033357875
 10
-7.5333622651
 20
25.8730785278
 10
-7.5102557529
 20
25.8426758885
  0
LWPOLYLINE
  5
52C
100
AcDbEntity
  8
ASSI
100
AcDbPolyline
 62
7
  6
CONTINUOUS
 90
9
 70
0
 10
18.2368848207
 20
0.928794291
 10
18.2594672342
 20
0.9009928175
 10
18.2852030291
 20
0.8760799999
 10
18.313725422
 20
0.8544114664
 10
18.3446278421
 20
0.8362965024
 10
18.3774698093
 20
0.8219936465
 10
18.4117832431
 20
0.8117070609
 10
18.4470789739
 20
0.8055836965
 10
18.480619569
 20
0.8037028341
  0
LWPOLYLINE
  5
52D
100
AcDbEntity
  8
RACCORDO
100
AcDbPolyline
 62
7
  6
CONTINUOUS
 90
9
 70
0
 10
18.2368848207
 20
0.928794291
 10
18.2594672342
 20
0.9009928175
 10
18.2852030291
 20
0.8760799999
 10
18.313725422
 20
0.8544114664
 10
18.3446278421
 20
0.8362965024
 10
18.3774698093
 20
0.8219936465
 10
18.4117832431
 20
0.8117070609
 10
18.4470789739
 20
0.8055836965
 10
18.480619569
 20
0.8037028341
  0
LWPOLYLINE
  5
52E
100
AcDbEntity
  8
ASSI
100
AcDbPolyline
 62
250
  6
CONTINUOUS
 90
8
 70
0
 10
18.2225732659
 20
0.950622884
 10
18.2444836671
 20
0.9185984574
 10
18.2703452309
 20
0.889669811
 10
18.2997252239
 20
0.8643209987
 10
18.3321320396
 20
0.8429761744
 10
18.367023425
 20
0.8259924944
 10
18.4038155533
 20
0.8136541413
 10
18.4418927933
 20
0.8061675689
  0
LWPOLYLINE
  5
52F
100
AcDbEntity
  8
RACCORDO
100
AcDbPolyline
 62
250
  6
CONTINUOUS
 90
8
 70
0
 10
18.2225732659
 20
0.950622884
 10
18.2444836671
 20
0.9185984574
 10
18.2703452309
 20
0.889669811
 10
18.2997252239
 20
0.8643209987
 10
18.3321320396
 20
0.8429761744
 10
18.367023425
 20
0.8259924944
 10
18.4038155533
 20
0.8136541413
 10
18.4418927933
 20
0.8061675689
  0
LWPOLYLINE
  5
530
100
AcDbEntity
  8
ASSI
100
AcDbPolyline
 62
7
  6
CONTINUOUS
 90
6
 70
0
 10
18.2679909934
 20
-3.9030853603
 10
18.2710279421
 20
-3.9387710959
 10
18.2782959417
 20
-3.9738412875
 10
18.2896915927
 20
-4.0077958364
 10
18.3050525577
 20
-4.0401504551
 10
18.3241601453
 20
-4.0704441848
  0
LWPOLYLINE
  5
531
100
AcDbEntity
  8
RACCORDO
100
AcDbPolyline
 62
7
  6
CONTINUOUS
 90
6
 70
0
 10
18.2679909934
 20
-3.9030853603
 10
18.2710279421
 20
-3.9387710959
 10
18.2782959417
 20
-3.9738412875
 10
18.2896915927
 20
-4.0077958364
 10
18.3050525577
 20
-4.0401504551
 10
18.3241601453
 20
-4.0704441848
  0
LWPOLYLINE
  5
532
100
AcDbEntity
  8
ASSI
100
AcDbPolyline
 62
7
  6
CONTINUOUS
 90
6
 70
0
 10
18.1807156688
 20
1.0961531155
 10
18.1837526174
 20
1.0604673799
 10
18.191020617
 20
1.0253971883
 10
18.2024162681
 20
0.9914426394
 10
18.2177772331
 20
0.9590880207
 10
18.2368848207
 20
0.928794291
  0
LWPOLYLINE
  5
533
100
AcDbEntity
  8
RACCORDO
100
AcDbPolyline
 62
7
  6
CONTINUOUS
 90
6
 70
0
 10
18.1807156688
 20
1.0961531155
 10
18.1837526174
 20
1.0604673799
 10
18.191020617
 20
1.0253971883
 10
18.2024162681
 20
0.9914426394
 10
18.2177772331
 20
0.9590880207
 10
18.2368848207
 20
0.928794291
  0
LWPOLYLINE
  5
534
100
AcDbEntity
  8
ASSI
100
AcDbPolyline
 62
250
  6
CONTINUOUS
 90
13
 70
0
 10
18.2679390263
 20
-3.9776516323
 10
18.2711244067
 20
-4.0163213314
 10
18.2792755447
 20
-4.0542563714
 10
18.292256044
 20
-4.0908219963
 10
18.3098487002
 20
-4.1254063651
 10
18.3317591353
 20
-4.1574307899
 10
18.3576207246
 20
-4.1863594191
 10
18.3870007294
 20
-4.211708202
 10
18.4194075405
 20
-4.23305299
 10
18.4542989051
 20
-4.2500366333
 10
18.4910909968
 20
-4.2623749543
 10
18.5291681843
 20
-4.2698615038
 10
18.5678933349
 20
-4.2723710163
  0
LWPOLYLINE
  5
535
100
AcDbEntity
  8
RACCORDO
100
AcDbPolyline
 62
250
  6
CONTINUOUS
 90
13
 70
0
 10
18.2679390263
 20
-3.9776516323
 10
18.2711244067
 20
-4.0163213314
 10
18.2792755447
 20
-4.0542563714
 10
18.292256044
 20
-4.0908219963
 10
18.3098487002
 20
-4.1254063651
 10
18.3317591353
 20
-4.1574307899
 10
18.3576207246
 20
-4.1863594191
 10
18.3870007294
 20
-4.211708202
 10
18.4194075405
 20
-4.23305299
 10
18.4542989051
 20
-4.2500366333
 10
18.4910909968
 20
-4.2623749543
 10
18.5291681843
 20
-4.2698615038
 10
18.5678933349
 20
-4.2723710163
  0
LWPOLYLINE
  5
536
100
AcDbEntity
  8
ASSI
100
AcDbPolyline
 62
250
  6
CONTINUOUS
 90
5
 70
0
 10
18.2710841801
 20
-3.9390424604
 10
18.2711243957
 20
-3.9395306686
 10
18.2792755075
 20
-3.977465652
 10
18.2922559718
 20
-4.01403124
 10
18.3098485905
 20
-4.0486155918
  0
LWPOLYLINE
  5
537
100
AcDbEntity
  8
RACCORDO
100
AcDbPolyline
 62
250
  6
CONTINUOUS
 90
5
 70
0
 10
18.2710841801
 20
-3.9390424604
 10
18.2711243957
 20
-3.9395306686
 10
18.2792755075
 20
-3.977465652
 10
18.2922559718
 20
-4.01403124
 10
18.3098485905
 20
-4.0486155918
  0
LWPOLYLINE
  5
538
100
AcDbEntity
  8
ASSI
100
AcDbPolyline
 62
250
  6
CONTINUOUS
 90
13
 70
0
 10
18.1806637017
 20
1.0215868435
 10
18.1838490821
 20
0.9829171444
 10
18.1920002201
 20
0.9449821044
 10
18.2049807194
 20
0.9084164794
 10
18.2225733755
 20
0.8738321107
 10
18.2444838107
 20
0.8418076859
 10
18.2703453999
 20
0.8128790566
 10
18.2997254047
 20
0.7875302737
 10
18.3321322158
 20
0.7661854857
 10
18.3670235804
 20
0.7492018425
 10
18.4038156721
 20
0.7368635215
 10
18.4418928596
 20
0.7293769719
 10
18.4806180102
 20
0.7268674594
  0
LWPOLYLINE
  5
539
100
AcDbEntity
  8
RACCORDO
100
AcDbPolyline
 62
250
  6
CONTINUOUS
 90
13
 70
0
 10
18.1806637017
 20
1.0215868435
 10
18.1838490821
 20
0.9829171444
 10
18.1920002201
 20
0.9449821044
 10
18.2049807194
 20
0.9084164794
 10
18.2225733755
 20
0.8738321107
 10
18.2444838107
 20
0.8418076859
 10
18.2703453999
 20
0.8128790566
 10
18.2997254047
 20
0.7875302737
 10
18.3321322158
 20
0.7661854857
 10
18.3670235804
 20
0.7492018425
 10
18.4038156721
 20
0.7368635215
 10
18.4418928596
 20
0.7293769719
 10
18.4806180102
 20
0.7268674594
  0
LWPOLYLINE
  5
53A
100
AcDbEntity
  8
ASSI
100
AcDbPolyline
 62
250
  6
CONTINUOUS
 90
5
 70
0
 10
18.1838088554
 20
1.0601960154
 10
18.183849071
 20
1.0597078072
 10
18.1920001829
 20
1.0217728238
 10
18.2049806472
 20
0.9852072358
 10
18.2225732659
 20
0.950622884
  0
LWPOLYLINE
  5
53B
100
AcDbEntity
  8
RACCORDO
100
AcDbPolyline
 62
250
  6
CONTINUOUS
 90
5
 70
0
 10
18.1838088554
 20
1.0601960154
 10
18.183849071
 20
1.0597078072
 10
18.1920001829
 20
1.0217728238
 10
18.2049806472
 20
0.9852072358
 10
18.2225732659
 20
0.950622884
  0
LINE
  5
53C
100
AcDbEntity
  8
ASSI
100
AcDbLine
 62
250
  6
CONTINUOUS
 10
18.5957598569
 20
-5.2714198036
 11
18.5958147603
 21
-5.2722644029
  0
LINE
  5
53D
100
AcDbEntity
  8
RACCORDO
100
AcDbLine
 62
250
  6
CONTINUOUS
 10
18.5957598569
 20
-5.2714198036
 11
18.5958147603
 21
-5.2722644029
  0
LINE
  5
53E
100
AcDbEntity
  8
ASSI
100
AcDbLine
 62
250
  6
CONTINUOUS
 10
17.5482400642
 20
9.0341795568
 11
18.0100746294
 21
-17.4283353316
  0
LINE
  5
53F
100
AcDbEntity
  8
RACCORDO
100
AcDbLine
 62
250
  6
CONTINUOUS
 10
17.5482400642
 20
9.0341795568
 11
18.0100746294
 21
-17.4283353316
  0
LINE
  5
540
100
AcDbEntity
  8
ASSI
100
AcDbLine
 62
7
  6
CONTINUOUS
 10
18.0381654348
 20
9.0427299335
 11
18.5
 21
-17.4197849549
  0
LINE
  5
541
100
AcDbEntity
  8
RACCORDO
100
AcDbLine
 62
7
  6
CONTINUOUS
 10
18.0381654348
 20
9.0427299335
 11
18.5
 21
-17.4197849549
  0
LINE
  5
542
100
AcDbEntity
  8
ASSI
100
AcDbLine
 62
7
  6
CONTINUOUS
 10
18.0381654348
 20
9.4021880759
 11
18.1838450641
 21
1.0600212981
  0
LINE
  5
543
100
AcDbEntity
  8
RACCORDO
100
AcDbLine
 62
7
  6
CONTINUOUS
 10
18.0381654348
 20
9.4021880759
 11
18.1838450641
 21
1.0600212981
  0
LINE
  5
544
100
AcDbEntity
  8
ASSI
100
AcDbLine
 62
7
  6
CONTINUOUS
 10
18.2116578147
 20
-0.5326420357
 11
18.2711494354
 21
-3.9393573363
  0
LINE
  5
545
100
AcDbEntity
  8
RACCORDO
100
AcDbLine
 62
7
  6
CONTINUOUS
 10
18.2116578147
 20
-0.5326420357
 11
18.2711494354
 21
-3.9393573363
  0
LINE
  5
546
100
AcDbEntity
  8
ASSI
100
AcDbLine
 62
7
  6
CONTINUOUS
 10
18.2989568511
 20
-5.5317151709
 11
18.4109715335
 21
-11.9460997167
  0
LINE
  5
547
100
AcDbEntity
  8
RACCORDO
100
AcDbLine
 62
7
  6
CONTINUOUS
 10
18.2989568511
 20
-5.5317151709
 11
18.4109715335
 21
-11.9460997167
  0
LINE
  5
548
100
AcDbEntity
  8
ASSI
100
AcDbLine
 62
7
  6
CONTINUOUS
 10
18.4524100675
 20
-14.3190269623
 11
18.5
 21
-17.0442065635
  0
LINE
  5
549
100
AcDbEntity
  8
RACCORDO
100
AcDbLine
 62
7
  6
CONTINUOUS
 10
18.4524100675
 20
-14.3190269623
 11
18.5
 21
-17.0442065635
  0
LINE
  5
54A
100
AcDbEntity
  8
RACCORDO
100
AcDbLine
 62
250
  6
CONTINUOUS
 10
17.9877662171
 20
-18.4227789557
 11
17.9877662171
 21
-18.1332488047
  0
LINE
  5
54B
100
AcDbEntity
  8
ASSI
100
AcDbLine
 62
250
  6
CONTINUOUS
 10
18.0086894484
 20
9.5612020447
 11
18.0086894484
 21
9.2017439023
  0
LINE
  5
54C
100
AcDbEntity
  8
RACCORDO
100
AcDbLine
 62
250
  6
CONTINUOUS
 10
18.0086894484
 20
9.5612020447
 11
18.0086894484
 21
9.2017439023
  0
LINE
  5
54D
100
AcDbEntity
  8
ASSI
100
AcDbLine
 62
250
  6
CONTINUOUS
 10
18.0381654348
 20
9.4021880759
 11
18.0381654348
 21
9.0427299335
  0
LINE
  5
54E
100
AcDbEntity
  8
RACCORDO
100
AcDbLine
 62
250
  6
CONTINUOUS
 10
18.0381654348
 20
9.4021880759
 11
18.0381654348
 21
9.0427299335
  0
LINE
  5
54F
100
AcDbEntity
  8
ASSI
100
AcDbLine
 62
250
  6
CONTINUOUS
 10
18.4806245797
 20
0.8037037303
 11
18.4806179955
 21
0.8036580478
  0
LINE
  5
550
100
AcDbEntity
  8
RACCORDO
100
AcDbLine
 62
250
  6
CONTINUOUS
 10
18.4806245797
 20
0.8037037303
 11
18.4806179955
 21
0.8036580478
  0
LINE
  5
551
100
AcDbEntity
  8
ASSI
100
AcDbLine
 62
250
  6
CONTINUOUS
 10
-15.2097223698
 20
16.0827003414
 11
-15.2596574936
 21
16.0752279404
  0
LINE
  5
552
100
AcDbEntity
  8
RACCORDO
100
AcDbLine
 62
250
  6
CONTINUOUS
 10
-15.2097223698
 20
16.0827003414
 11
-15.2596574936
 21
16.0752279404
  0
LINE
  5
553
100
AcDbEntity
  8
ASSI
100
AcDbLine
 62
250
  6
CONTINUOUS
 10
-15.2103720715
 20
16.082812537
 11
-15.1605708832
 21
16.0853494939
  0
LINE
  5
554
100
AcDbEntity
  8
RACCORDO
100
AcDbLine
 62
250
  6
CONTINUOUS
 10
-15.2103720715
 20
16.082812537
 11
-15.1605708832
 21
16.0853494939
  0
LINE
  5
555
100
AcDbEntity
  8
ASSI
100
AcDbLine
 62
250
  6
CONTINUOUS
 10
15.1605708832
 20
16.0851713695
 11
-15.1605708832
 21
16.0851713695
  0
LINE
  5
556
100
AcDbEntity
  8
RACCORDO
100
AcDbLine
 62
250
  6
CONTINUOUS
 10
15.1605708832
 20
16.0851713695
 11
-15.1605708832
 21
16.0851713695
  0
LINE
  5
557
100
AcDbEntity
  8
ASSI
100
AcDbLine
 62
250
  6
CONTINUOUS
 10
-14.810105167
 20
16.5752748645
 11
14.810105167
 21
16.5752748645
  0
LINE
  5
558
100
AcDbEntity
  8
RACCORDO
100
AcDbLine
 62
250
  6
CONTINUOUS
 10
-14.810105167
 20
16.5752748645
 11
14.810105167
 21
16.5752748645
  0
LINE
  5
559
100
AcDbEntity
  8
ASSI
100
AcDbLine
 62
250
  6
CONTINUOUS
 10
15.1605708832
 20
16.0853494939
 11
15.2103720715
 21
16.082812537
  0
LINE
  5
55A
100
AcDbEntity
  8
RACCORDO
100
AcDbLine
 62
250
  6
CONTINUOUS
 10
15.1605708832
 20
16.0853494939
 11
15.2103720715
 21
16.082812537
  0
LINE
  5
55B
100
AcDbEntity
  8
ASSI
100
AcDbLine
 62
250
  6
CONTINUOUS
 10
15.2600237021
 20
16.0749740659
 11
15.2105646036
 21
16.0826147074
  0
LINE
  5
55C
100
AcDbEntity
  8
RACCORDO
100
AcDbLine
 62
250
  6
CONTINUOUS
 10
15.2600237021
 20
16.0749740659
 11
15.2105646036
 21
16.0826147074
  0
LINE
  5
55D
100
AcDbEntity
  8
ASSI
100
AcDbLine
 62
250
  6
CONTINUOUS
 10
11.6173476905
 20
27.0962597996
 11
11.6173238494
 21
27.0963507978
  0
LINE
  5
55E
100
AcDbEntity
  8
RACCORDO
100
AcDbLine
 62
250
  6
CONTINUOUS
 10
11.6173476905
 20
27.0962597996
 11
11.6173238494
 21
27.0963507978
  0
LINE
  5
55F
100
AcDbEntity
  8
ASSI
100
AcDbLine
 62
250
  6
CONTINUOUS
 10
18.5084845323
 20
-0.2721813278
 11
18.5085394356
 21
-0.2730259272
  0
LINE
  5
560
100
AcDbEntity
  8
RACCORDO
100
AcDbLine
 62
250
  6
CONTINUOUS
 10
18.5084845323
 20
-0.2721813278
 11
18.5085394356
 21
-0.2730259272
  0
LINE
  5
561
100
AcDbEntity
  8
ASSI
100
AcDbLine
 62
250
  6
CONTINUOUS
 10
19.4983460865
 20
-4.5408720065
 11
19.5
 21
-4.5723253249
  0
LINE
  5
562
100
AcDbEntity
  8
RACCORDO
100
AcDbLine
 62
250
  6
CONTINUOUS
 10
19.4983460865
 20
-4.5408720065
 11
19.5
 21
-4.5723253249
  0
LINE
  5
563
100
AcDbEntity
  8
ASSI
100
AcDbLine
 62
250
  6
CONTINUOUS
 10
19.4983460865
 20
0.4583664693
 11
19.5
 21
0.4269131509
  0
LINE
  5
564
100
AcDbEntity
  8
RACCORDO
100
AcDbLine
 62
250
  6
CONTINUOUS
 10
19.4983460865
 20
0.4583664693
 11
19.5
 21
0.4269131509
  0
LINE
  5
565
100
AcDbEntity
  8
ASSI
100
AcDbLine
 62
7
  6
CONTINUOUS
 10
19.4988479208
 20
-4.4692724043
 11
19.5
 21
-4.4955347366
  0
LINE
  5
566
100
AcDbEntity
  8
RACCORDO
100
AcDbLine
 62
7
  6
CONTINUOUS
 10
19.4988479208
 20
-4.4692724043
 11
19.5
 21
-4.4955347366
  0
LINE
  5
567
100
AcDbEntity
  8
ASSI
100
AcDbLine
 62
7
  6
CONTINUOUS
 10
19.4988479208
 20
0.5299660715
 11
19.5
 21
0.5037037392
  0
LINE
  5
568
100
AcDbEntity
  8
RACCORDO
100
AcDbLine
 62
7
  6
CONTINUOUS
 10
19.4988479208
 20
0.5299660715
 11
19.5
 21
0.5037037392
  0
LWPOLYLINE
  5
569
100
AcDbEntity
  8
ASSI
100
AcDbPolyline
 62
250
  6
CONTINUOUS
 90
10
 70
0
 10
18.0381654348
 20
9.0427299335
 10
18.0375178847
 20
9.0607690088
 10
18.0362061584
 20
9.0787719899
 10
18.0342320364
 20
9.0967144385
 10
18.0315981987
 20
9.1145719983
 10
18.0283082206
 20
9.1323204284
 10
18.024366568
 20
9.149935636
 10
18.0197785916
 20
9.167393709
 10
18.0145505194
 20
9.1846709489
 10
18.0086894484
 20
9.2017439023
  0
LWPOLYLINE
  5
56A
100
AcDbEntity
  8
RACCORDO
100
AcDbPolyline
 62
250
  6
CONTINUOUS
 90
10
 70
0
 10
18.0381654348
 20
9.0427299335
 10
18.0375178847
 20
9.0607690088
 10
18.0362061584
 20
9.0787719899
 10
18.0342320364
 20
9.0967144385
 10
18.0315981987
 20
9.1145719983
 10
18.0283082206
 20
9.1323204284
 10
18.024366568
 20
9.149935636
 10
18.0197785916
 20
9.167393709
 10
18.0145505194
 20
9.1846709489
 10
18.0086894484
 20
9.2017439023
  0
LINE
  5
56B
100
AcDbEntity
  8
ASSI
100
AcDbLine
 62
250
  6
CONTINUOUS
 10
18.5853476991
 20
-4.9775001249
 11
18.5957598569
 21
-5.2714198036
  0
LINE
  5
56C
100
AcDbEntity
  8
RACCORDO
100
AcDbLine
 62
250
  6
CONTINUOUS
 10
18.5853476991
 20
-4.9775001249
 11
18.5957598569
 21
-5.2714198036
  0
LINE
  5
56D
100
AcDbEntity
  8
ASSI
100
AcDbLine
 62
250
  6
CONTINUOUS
 10
18.4980723744
 20
0.0217383509
 11
18.5084845323
 21
-0.2721813278
  0
LINE
  5
56E
100
AcDbEntity
  8
RACCORDO
100
AcDbLine
 62
250
  6
CONTINUOUS
 10
18.4980723744
 20
0.0217383509
 11
18.5084845323
 21
-0.2721813278
  0
LWPOLYLINE
  5
56F
100
AcDbEntity
  8
ASSI
100
AcDbPolyline
 62
250
  6
CONTINUOUS
 90
3
 70
0
 10
18.5678933281
 20
-4.2723710163
 10
18.5679401257
 20
-4.2739925507
 10
18.5783671404
 20
-4.5775610468
  0
LWPOLYLINE
  5
570
100
AcDbEntity
  8
RACCORDO
100
AcDbPolyline
 62
250
  6
CONTINUOUS
 90
3
 70
0
 10
18.5678933281
 20
-4.2723710163
 10
18.5679401257
 20
-4.2739925507
 10
18.5783671404
 20
-4.5775610468
  0
LWPOLYLINE
  5
571
100
AcDbEntity
  8
ASSI
100
AcDbPolyline
 62
250
  6
CONTINUOUS
 90
3
 70
0
 10
18.4806180035
 20
0.7268674594
 10
18.4806648011
 20
0.7252459251
 10
18.4910918158
 20
0.421677429
  0
LWPOLYLINE
  5
572
100
AcDbEntity
  8
RACCORDO
100
AcDbPolyline
 62
250
  6
CONTINUOUS
 90
3
 70
0
 10
18.4806180035
 20
0.7268674594
 10
18.4806648011
 20
0.7252459251
 10
18.4910918158
 20
0.421677429
  0
LINE
  5
573
100
AcDbEntity
  8
ASSI
100
AcDbLine
 62
250
  6
CONTINUOUS
 10
18.4910910492
 20
0.421677429
 11
18.4980730752
 21
0.0217383509
  0
LINE
  5
574
100
AcDbEntity
  8
RACCORDO
100
AcDbLine
 62
250
  6
CONTINUOUS
 10
18.4910910492
 20
0.421677429
 11
18.4980730752
 21
0.0217383509
  0
LINE
  5
575
100
AcDbEntity
  8
ASSI
100
AcDbLine
 62
250
  6
CONTINUOUS
 10
18.5783663738
 20
-4.5775610468
 11
18.5853483998
 21
-4.9775001249
  0
LINE
  5
576
100
AcDbEntity
  8
RACCORDO
100
AcDbLine
 62
250
  6
CONTINUOUS
 10
18.5783663738
 20
-4.5775610468
 11
18.5853483998
 21
-4.9775001249
  0
LINE
  5
577
100
AcDbEntity
  8
ASSI
100
AcDbLine
 62
250
  6
CONTINUOUS
 10
18.4806180102
 20
0.8036580478
 11
18.4806180102
 21
0.7268674594
  0
LINE
  5
578
100
AcDbEntity
  8
RACCORDO
100
AcDbLine
 62
250
  6
CONTINUOUS
 10
18.4806180102
 20
0.8036580478
 11
18.4806180102
 21
0.7268674594
  0
LINE
  5
579
100
AcDbEntity
  8
ASSI
100
AcDbLine
 62
250
  6
CONTINUOUS
 10
18.5678933349
 20
-4.195580428
 11
18.5678933349
 21
-4.2723710163
  0
LINE
  5
57A
100
AcDbEntity
  8
RACCORDO
100
AcDbLine
 62
250
  6
CONTINUOUS
 10
18.5678933349
 20
-4.195580428
 11
18.5678933349
 21
-4.2723710163
  0
LINE
  5
57B
100
AcDbEntity
  8
ASSI
100
AcDbLine
 62
250
  6
CONTINUOUS
 10
19.2
 20
-5.2722644029
 11
19.2
 21
-4.195580428
  0
LINE
  5
57C
100
AcDbEntity
  8
RACCORDO
100
AcDbLine
 62
250
  6
CONTINUOUS
 10
19.2
 20
-5.2722644029
 11
19.2
 21
-4.195580428
  0
LINE
  5
57D
100
AcDbEntity
  8
ASSI
100
AcDbLine
 62
250
  6
CONTINUOUS
 10
19.2
 20
-0.2730259272
 11
19.2
 21
0.8036580478
  0
LINE
  5
57E
100
AcDbEntity
  8
RACCORDO
100
AcDbLine
 62
250
  6
CONTINUOUS
 10
19.2
 20
-0.2730259272
 11
19.2
 21
0.8036580478
  0
LINE
  5
57F
100
AcDbEntity
  8
ASSI
100
AcDbLine
 62
7
  6
CONTINUOUS
 10
19.5
 20
-4.9722644029
 11
19.5
 21
-4.4955347366
  0
LINE
  5
580
100
AcDbEntity
  8
RACCORDO
100
AcDbLine
 62
7
  6
CONTINUOUS
 10
19.5
 20
-4.9722644029
 11
19.5
 21
-4.4955347366
  0
LINE
  5
581
100
AcDbEntity
  8
ASSI
100
AcDbLine
 62
7
  6
CONTINUOUS
 10
19.5
 20
0.0269740728
 11
19.5
 21
0.5037037392
  0
LINE
  5
582
100
AcDbEntity
  8
RACCORDO
100
AcDbLine
 62
7
  6
CONTINUOUS
 10
19.5
 20
0.0269740728
 11
19.5
 21
0.5037037392
  0
LINE
  5
583
100
AcDbEntity
  8
RACCORDO
100
AcDbLine
 62
250
  6
CONTINUOUS
 10
17.9877662171
 20
-18.1332488047
 11
18.0000761524
 21
-17.4283353316
  0
LINE
  5
584
100
AcDbEntity
  8
RACCORDO
100
AcDbLine
 62
7
  6
CONTINUOUS
 10
18.4876900647
 20
-18.1245239306
 11
18.5
 21
-17.4196104575
  0
LINE
  5
585
100
AcDbEntity
  8
ASSI
100
AcDbLine
 62
7
  6
CONTINUOUS
 10
19.4988479208
 20
0.0007117406
 11
19.5
 21
0.0269740728
  0
LINE
  5
586
100
AcDbEntity
  8
RACCORDO
100
AcDbLine
 62
7
  6
CONTINUOUS
 10
19.4988479208
 20
0.0007117406
 11
19.5
 21
0.0269740728
  0
LINE
  5
587
100
AcDbEntity
  8
ASSI
100
AcDbLine
 62
7
  6
CONTINUOUS
 10
19.4988479208
 20
-4.9985267352
 11
19.5
 21
-4.9722644029
  0
LINE
  5
588
100
AcDbEntity
  8
RACCORDO
100
AcDbLine
 62
7
  6
CONTINUOUS
 10
19.4988479208
 20
-4.9985267352
 11
19.5
 21
-4.9722644029
  0
LINE
  5
589
100
AcDbEntity
  8
ASSI
100
AcDbLine
 62
250
  6
CONTINUOUS
 10
18.5678999043
 20
-4.1955347455
 11
18.5678933201
 21
-4.195580428
  0
LINE
  5
58A
100
AcDbEntity
  8
RACCORDO
100
AcDbLine
 62
250
  6
CONTINUOUS
 10
18.5678999043
 20
-4.1955347455
 11
18.5678933201
 21
-4.195580428
  0
LINE
  5
58B
100
AcDbEntity
  8
ASSI
100
AcDbLine
 62
250
  6
CONTINUOUS
 10
-15.2585704509
 20
16.0752729552
 11
-15.307916725
 21
16.0626742539
  0
LINE
  5
58C
100
AcDbEntity
  8
RACCORDO
100
AcDbLine
 62
250
  6
CONTINUOUS
 10
-15.2585704509
 20
16.0752729552
 11
-15.307916725
 21
16.0626742539
  0
LINE
  5
58D
100
AcDbEntity
  8
ASSI
100
AcDbLine
 62
250
  6
CONTINUOUS
 10
15.3084328581
 20
16.0623331047
 11
15.2596574936
 21
16.0752279404
  0
LINE
  5
58E
100
AcDbEntity
  8
RACCORDO
100
AcDbLine
 62
250
  6
CONTINUOUS
 10
15.3084328581
 20
16.0623331047
 11
15.2596574936
 21
16.0752279404
  0
LINE
  5
58F
100
AcDbEntity
  8
ASSI
100
AcDbLine
 62
250
  6
CONTINUOUS
 10
15.3552848148
 20
16.0448290297
 11
15.307916725
 21
16.0626742539
  0
LINE
  5
590
100
AcDbEntity
  8
RACCORDO
100
AcDbLine
 62
250
  6
CONTINUOUS
 10
15.3552848148
 20
16.0448290297
 11
15.307916725
 21
16.0626742539
  0
LWPOLYLINE
  5
591
100
AcDbEntity
  8
ASSI
100
AcDbPolyline
 62
250
  6
CONTINUOUS
 90
22
 70
0
 10
-8.4897488595
 20
25.8426758401
 10
-8.4542002737
 20
25.8268063332
 10
-8.4160681968
 20
25.8124707096
 10
-8.3753090831
 20
25.7996735985
 10
-8.3316937163
 20
25.788407665
 10
-8.2854123991
 20
25.7786907547
 10
-8.2371103864
 20
25.7705641431
 10
-8.1867681635
 20
25.7640327479
 10
-8.1345583524
 20
25.7591000267
 10
-8.0814976621
 20
25.7558011364
 10
-8.0277208864
 20
25.7541469796
 10
-7.9733879108
 20
25.7541297645
 10
-7.919589251
 20
25.7557513055
 10
-7.8664589421
 20
25.7590258826
 10
-7.8141592233
 20
25.7639362615
 10
-7.7637854841
 20
25.7704314624
 10
-7.71561325
 20
25.7784776185
 10
-7.6695128817
 20
25.7880997363
 10
-7.6258969685
 20
25.7993316147
 10
-7.5848903236
 20
25.8121809612
 10
-7.5463523755
 20
25.8266304738
 10
-7.5102511407
 20
25.8426758401
  0
LWPOLYLINE
  5
592
100
AcDbEntity
  8
RACCORDO
100
AcDbPolyline
 62
250
  6
CONTINUOUS
 90
22
 70
0
 10
-8.4897488595
 20
25.8426758401
 10
-8.4542002737
 20
25.8268063332
 10
-8.4160681968
 20
25.8124707096
 10
-8.3753090831
 20
25.7996735985
 10
-8.3316937163
 20
25.788407665
 10
-8.2854123991
 20
25.7786907547
 10
-8.2371103864
 20
25.7705641431
 10
-8.1867681635
 20
25.7640327479
 10
-8.1345583524
 20
25.7591000267
 10
-8.0814976621
 20
25.7558011364
 10
-8.0277208864
 20
25.7541469796
 10
-7.9733879108
 20
25.7541297645
 10
-7.919589251
 20
25.7557513055
 10
-7.8664589421
 20
25.7590258826
 10
-7.8141592233
 20
25.7639362615
 10
-7.7637854841
 20
25.7704314624
 10
-7.71561325
 20
25.7784776185
 10
-7.6695128817
 20
25.7880997363
 10
-7.6258969685
 20
25.7993316147
 10
-7.5848903236
 20
25.8121809612
 10
-7.5463523755
 20
25.8266304738
 10
-7.5102511407
 20
25.8426758401
  0
LWPOLYLINE
  5
593
100
AcDbEntity
  8
ASSI
100
AcDbPolyline
 62
250
  6
CONTINUOUS
 90
3
 70
0
 10
15.6163370897
 20
16.1281705949
 10
15.6103082873
 20
16.1433599036
 10
15.6038384736
 20
16.1603355179
  0
LWPOLYLINE
  5
594
100
AcDbEntity
  8
RACCORDO
100
AcDbPolyline
 62
250
  6
CONTINUOUS
 90
3
 70
0
 10
15.6163370897
 20
16.1281705949
 10
15.6103082873
 20
16.1433599036
 10
15.6038384736
 20
16.1603355179
  0
LINE
  5
595
100
AcDbEntity
  8
ASSI
100
AcDbLine
 62
7
  6
CONTINUOUS
 10
15.6098051211
 20
16.1451113245
 11
15.6086980564
 21
16.1478967039
  0
LINE
  5
596
100
AcDbEntity
  8
RACCORDO
100
AcDbLine
 62
7
  6
CONTINUOUS
 10
15.6098051211
 20
16.1451113245
 11
15.6086980564
 21
16.1478967039
  0
LINE
  5
597
100
AcDbEntity
  8
ASSI
100
AcDbLine
 62
7
  6
CONTINUOUS
 10
15.6086980564
 20
16.1478967039
 11
15.6038384736
 21
16.1603355179
  0
LINE
  5
598
100
AcDbEntity
  8
RACCORDO
100
AcDbLine
 62
7
  6
CONTINUOUS
 10
15.6086980564
 20
16.1478967039
 11
15.6038384736
 21
16.1603355179
  0
LWPOLYLINE
  5
599
100
AcDbEntity
  8
ASSI
100
AcDbPolyline
 62
250
  6
CONTINUOUS
 90
3
 70
0
 10
15.6022317087
 20
16.1644810247
 10
15.6017729209
 20
16.1654363307
 10
15.5966093514
 20
16.1790928955
  0
LWPOLYLINE
  5
59A
100
AcDbEntity
  8
RACCORDO
100
AcDbPolyline
 62
250
  6
CONTINUOUS
 90
3
 70
0
 10
15.6022317087
 20
16.1644810247
 10
15.6017729209
 20
16.1654363307
 10
15.5966093514
 20
16.1790928955
  0
LINE
  5
59B
100
AcDbEntity
  8
ASSI
100
AcDbLine
 62
7
  6
CONTINUOUS
 10
15.6038384736
 20
16.1603355179
 11
15.5966093514
 21
16.1790928955
  0
LINE
  5
59C
100
AcDbEntity
  8
RACCORDO
100
AcDbLine
 62
7
  6
CONTINUOUS
 10
15.6038384736
 20
16.1603355179
 11
15.5966093514
 21
16.1790928955
  0
LINE
  5
59D
100
AcDbEntity
  8
ASSI
100
AcDbLine
 62
250
  6
CONTINUOUS
 10
15.5921328887
 20
16.1908262502
 11
15.5907794121
 21
16.1942799447
  0
LINE
  5
59E
100
AcDbEntity
  8
RACCORDO
100
AcDbLine
 62
250
  6
CONTINUOUS
 10
15.5921328887
 20
16.1908262502
 11
15.5907794121
 21
16.1942799447
  0
LINE
  5
59F
100
AcDbEntity
  8
ASSI
100
AcDbLine
 62
7
  6
CONTINUOUS
 10
15.5966093514
 20
16.1790928955
 11
15.5842311658
 21
16.2116916142
  0
LINE
  5
5A0
100
AcDbEntity
  8
RACCORDO
100
AcDbLine
 62
7
  6
CONTINUOUS
 10
15.5966093514
 20
16.1790928955
 11
15.5842311658
 21
16.2116916142
  0
LINE
  5
5A1
100
AcDbEntity
  8
ASSI
100
AcDbLine
 62
7
  6
CONTINUOUS
 10
15.5842311658
 20
16.2116916142
 11
15.5431121199
 21
16.3214690067
  0
LINE
  5
5A2
100
AcDbEntity
  8
RACCORDO
100
AcDbLine
 62
7
  6
CONTINUOUS
 10
15.5842311658
 20
16.2116916142
 11
15.5431121199
 21
16.3214690067
  0
LINE
  5
5A3
100
AcDbEntity
  8
ASSI
100
AcDbLine
 62
250
  6
CONTINUOUS
 10
15.5438604563
 20
16.3194318273
 11
15.5431121199
 21
16.3214690067
  0
LINE
  5
5A4
100
AcDbEntity
  8
RACCORDO
100
AcDbLine
 62
250
  6
CONTINUOUS
 10
15.5438604563
 20
16.3194318273
 11
15.5431121199
 21
16.3214690067
  0
LINE
  5
5A5
100
AcDbEntity
  8
ASSI
100
AcDbLine
 62
7
  6
CONTINUOUS
 10
15.5431121199
 20
16.3214690067
 11
15.4578559781
 21
16.5519756856
  0
LINE
  5
5A6
100
AcDbEntity
  8
RACCORDO
100
AcDbLine
 62
7
  6
CONTINUOUS
 10
15.5431121199
 20
16.3214690067
 11
15.4578559781
 21
16.5519756856
  0
LINE
  5
5A7
100
AcDbEntity
  8
ASSI
100
AcDbLine
 62
7
  6
CONTINUOUS
 10
15.4578559781
 20
16.5519756856
 11
15.3354602062
 21
16.8857877603
  0
LINE
  5
5A8
100
AcDbEntity
  8
RACCORDO
100
AcDbLine
 62
7
  6
CONTINUOUS
 10
15.4578559781
 20
16.5519756856
 11
15.3354602062
 21
16.8857877603
  0
LINE
  5
5A9
100
AcDbEntity
  8
ASSI
100
AcDbLine
 62
7
  6
CONTINUOUS
 10
15.6210202674
 20
16.1182716624
 11
18.0086894484
 21
9.5612020447
  0
LINE
  5
5AA
100
AcDbEntity
  8
RACCORDO
100
AcDbLine
 62
7
  6
CONTINUOUS
 10
15.6210202674
 20
16.1182716624
 11
18.0086894484
 21
9.5612020447
  0
LINE
  5
5AB
100
AcDbEntity
  8
ASSI
100
AcDbLine
 62
7
  6
CONTINUOUS
 10
15.3354602062
 20
16.8857877603
 11
11.6173476905
 21
27.0962597996
  0
LINE
  5
5AC
100
AcDbEntity
  8
RACCORDO
100
AcDbLine
 62
7
  6
CONTINUOUS
 10
15.3354602062
 20
16.8857877603
 11
11.6173476905
 21
27.0962597996
  0
LINE
  5
5AD
100
AcDbEntity
  8
ASSI
100
AcDbLine
 62
250
  6
CONTINUOUS
 10
17.5482400642
 20
9.0341795568
 11
15.1605708832
 21
15.5952459989
  0
LINE
  5
5AE
100
AcDbEntity
  8
RACCORDO
100
AcDbLine
 62
250
  6
CONTINUOUS
 10
17.5482400642
 20
9.0341795568
 11
15.1605708832
 21
15.5952459989
  0
LINE
  5
5AF
100
AcDbEntity
  8
ASSI
100
AcDbLine
 62
250
  6
CONTINUOUS
 10
14.810105167
 20
16.5752748645
 11
11.1568983063
 21
26.6139071552
  0
LINE
  5
5B0
100
AcDbEntity
  8
RACCORDO
100
AcDbLine
 62
250
  6
CONTINUOUS
 10
14.810105167
 20
16.5752748645
 11
11.1568983063
 21
26.6139071552
  0
LINE
  5
5B1
100
AcDbEntity
  8
ASSI
100
AcDbLine
 62
7
  6
CONTINUOUS
 10
18.0086894484
 20
9.2017439023
 11
15.6210202674
 21
15.7628103444
  0
LINE
  5
5B2
100
AcDbEntity
  8
RACCORDO
100
AcDbLine
 62
7
  6
CONTINUOUS
 10
18.0086894484
 20
9.2017439023
 11
15.6210202674
 21
15.7628103444
  0
LINE
  5
5B3
100
AcDbEntity
  8
ASSI
100
AcDbLine
 62
7
  6
CONTINUOUS
 10
15.2705545511
 20
16.74283921
 11
11.6173476905
 21
26.7814715007
  0
LINE
  5
5B4
100
AcDbEntity
  8
RACCORDO
100
AcDbLine
 62
7
  6
CONTINUOUS
 10
15.2705545511
 20
16.74283921
 11
11.6173476905
 21
26.7814715007
  0
LINE
  5
5B5
100
AcDbEntity
  8
ASSI
100
AcDbLine
 62
250
  6
CONTINUOUS
 10
15.2705545511
 20
16.74283921
 11
15.3947111688
 21
16.4005898906
  0
LINE
  5
5B6
100
AcDbEntity
  8
RACCORDO
100
AcDbLine
 62
250
  6
CONTINUOUS
 10
15.2705545511
 20
16.74283921
 11
15.3947111688
 21
16.4005898906
  0
LINE
  5
5B7
100
AcDbEntity
  8
ASSI
100
AcDbLine
 62
250
  6
CONTINUOUS
 10
15.3947111688
 20
16.4005898906
 11
15.5016297073
 21
16.1037271882
  0
LINE
  5
5B8
100
AcDbEntity
  8
RACCORDO
100
AcDbLine
 62
250
  6
CONTINUOUS
 10
15.3947111688
 20
16.4005898906
 11
15.5016297073
 21
16.1037271882
  0
LINE
  5
5B9
100
AcDbEntity
  8
ASSI
100
AcDbLine
 62
250
  6
CONTINUOUS
 10
15.5016297073
 20
16.1037271882
 11
15.5774730254
 21
15.8908047383
  0
LINE
  5
5BA
100
AcDbEntity
  8
RACCORDO
100
AcDbLine
 62
250
  6
CONTINUOUS
 10
15.5016297073
 20
16.1037271882
 11
15.5774730254
 21
15.8908047383
  0
LWPOLYLINE
  5
5BB
100
AcDbEntity
  8
ASSI
100
AcDbPolyline
 62
250
  6
CONTINUOUS
 90
6
 70
0
 10
15.5774730254
 20
15.8908047383
 10
15.6017729212
 20
15.8213928666
 10
15.6103082878
 20
15.7965749839
 10
15.6163370902
 20
15.7786413411
 10
15.61990775
 20
15.7674458361
 10
15.6210202674
 20
15.7629884688
  0
LWPOLYLINE
  5
5BC
100
AcDbEntity
  8
RACCORDO
100
AcDbPolyline
 62
250
  6
CONTINUOUS
 90
6
 70
0
 10
15.5774730254
 20
15.8908047383
 10
15.6017729212
 20
15.8213928666
 10
15.6103082878
 20
15.7965749839
 10
15.6163370902
 20
15.7786413411
 10
15.61990775
 20
15.7674458361
 10
15.6210202674
 20
15.7629884688
  0
LWPOLYLINE
  5
5BD
100
AcDbEntity
  8
ASSI
100
AcDbPolyline
 62
7
  6
CONTINUOUS
 90
10
 70
0
 10
18.0086894484
 20
9.5612020447
 10
18.014495434
 20
9.5442996194
 10
18.0196982768
 20
9.5271357286
 10
18.0242843442
 20
9.5097313558
 10
18.0282456745
 20
9.4920839344
 10
18.0315632668
 20
9.4742398233
 10
18.0342161395
 20
9.4562959631
 10
18.0361996011
 20
9.4383018076
 10
18.0375162278
 20
9.4202576135
 10
18.0381654348
 20
9.4021880759
  0
LWPOLYLINE
  5
5BE
100
AcDbEntity
  8
RACCORDO
100
AcDbPolyline
 62
7
  6
CONTINUOUS
 90
10
 70
0
 10
18.0086894484
 20
9.5612020447
 10
18.014495434
 20
9.5442996194
 10
18.0196982768
 20
9.5271357286
 10
18.0242843442
 20
9.5097313558
 10
18.0282456745
 20
9.4920839344
 10
18.0315632668
 20
9.4742398233
 10
18.0342161395
 20
9.4562959631
 10
18.0361996011
 20
9.4383018076
 10
18.0375162278
 20
9.4202576135
 10
18.0381654348
 20
9.4021880759
  0
LINE
  5
5BF
100
AcDbEntity
  8
ASSI
100
AcDbLine
 62
250
  6
CONTINUOUS
 10
15.270529911
 20
17.0638359801
 11
15.2705545511
 21
17.0637427725
  0
LINE
  5
5C0
100
AcDbEntity
  8
RACCORDO
100
AcDbLine
 62
250
  6
CONTINUOUS
 10
15.270529911
 20
17.0638359801
 11
15.2705545511
 21
17.0637427725
  0
LINE
  5
5C1
100
AcDbEntity
  8
ASSI
100
AcDbLine
 62
250
  6
CONTINUOUS
 10
15.6210202674
 20
16.1182716624
 11
15.6209964263
 21
16.1183626606
  0
LINE
  5
5C2
100
AcDbEntity
  8
RACCORDO
100
AcDbLine
 62
250
  6
CONTINUOUS
 10
15.6210202674
 20
16.1182716624
 11
15.6209964263
 21
16.1183626606
  0
LINE
  5
5C3
100
AcDbEntity
  8
ASSI
100
AcDbLine
 62
250
  6
CONTINUOUS
 10
-11.6173476905
 20
26.7814715007
 11
-11.1568983063
 21
26.6139071552
  0
LINE
  5
5C4
100
AcDbEntity
  8
RACCORDO
100
AcDbLine
 62
250
  6
CONTINUOUS
 10
-11.6173476905
 20
26.7814715007
 11
-11.1568983063
 21
26.6139071552
  0
LINE
  5
5C5
100
AcDbEntity
  8
ASSI
100
AcDbLine
 62
250
  6
CONTINUOUS
 10
15.4000966155
 20
16.0226471772
 11
15.3546499686
 21
16.0452814898
  0
LINE
  5
5C6
100
AcDbEntity
  8
RACCORDO
100
AcDbLine
 62
250
  6
CONTINUOUS
 10
15.4000966155
 20
16.0226471772
 11
15.3546499686
 21
16.0452814898
  0
LINE
  5
5C7
100
AcDbEntity
  8
ASSI
100
AcDbLine
 62
250
  6
CONTINUOUS
 10
15.4424128898
 20
15.9960154425
 11
15.3993732315
 21
16.0232297763
  0
LINE
  5
5C8
100
AcDbEntity
  8
RACCORDO
100
AcDbLine
 62
250
  6
CONTINUOUS
 10
15.4424128898
 20
15.9960154425
 11
15.3993732315
 21
16.0232297763
  0
LINE
  5
5C9
100
AcDbEntity
  8
ASSI
100
AcDbLine
 62
250
  6
CONTINUOUS
 10
15.4818456886
 20
15.9651659996
 11
15.441623337
 21
15.9967474922
  0
LINE
  5
5CA
100
AcDbEntity
  8
RACCORDO
100
AcDbLine
 62
250
  6
CONTINUOUS
 10
15.4818456886
 20
15.9651659996
 11
15.441623337
 21
15.9967474922
  0
LINE
  5
5CB
100
AcDbEntity
  8
ASSI
100
AcDbLine
 62
250
  6
CONTINUOUS
 10
15.5179229797
 20
15.9304552526
 11
15.4809627219
 21
15.9661089012
  0
LINE
  5
5CC
100
AcDbEntity
  8
RACCORDO
100
AcDbLine
 62
250
  6
CONTINUOUS
 10
15.5179229797
 20
15.9304552526
 11
15.4809627219
 21
15.9661089012
  0
LINE
  5
5CD
100
AcDbEntity
  8
ASSI
100
AcDbLine
 62
250
  6
CONTINUOUS
 10
15.5501491185
 20
15.8924023463
 11
15.5169839676
 21
15.9316313121
  0
LINE
  5
5CE
100
AcDbEntity
  8
RACCORDO
100
AcDbLine
 62
250
  6
CONTINUOUS
 10
15.5501491185
 20
15.8924023463
 11
15.5169839676
 21
15.9316313121
  0
LWPOLYLINE
  5
5CF
100
AcDbEntity
  8
ASSI
100
AcDbPolyline
 62
250
  6
CONTINUOUS
 90
4
 70
0
 10
14.810105167
 20
16.5752748645
 10
14.842312168
 20
16.5315601316
 10
14.8736980451
 20
16.4882283028
 10
14.9042627982
 20
16.4456231578
  0
LWPOLYLINE
  5
5D0
100
AcDbEntity
  8
RACCORDO
100
AcDbPolyline
 62
250
  6
CONTINUOUS
 90
4
 70
0
 10
14.810105167
 20
16.5752748645
 10
14.842312168
 20
16.5315601316
 10
14.8736980451
 20
16.4882283028
 10
14.9042627982
 20
16.4456231578
  0
LINE
  5
5D1
100
AcDbEntity
  8
ASSI
100
AcDbLine
 62
250
  6
CONTINUOUS
 10
14.9042627982
 20
16.4456231578
 11
15.0411737847
 21
16.2557364921
  0
LINE
  5
5D2
100
AcDbEntity
  8
RACCORDO
100
AcDbLine
 62
250
  6
CONTINUOUS
 10
14.9042627982
 20
16.4456231578
 11
15.0411737847
 21
16.2557364921
  0
LINE
  5
5D3
100
AcDbEntity
  8
ASSI
100
AcDbLine
 62
250
  6
CONTINUOUS
 10
15.0411737847
 20
16.2557364921
 11
15.1013734252
 21
16.1713944853
  0
LINE
  5
5D4
100
AcDbEntity
  8
RACCORDO
100
AcDbLine
 62
250
  6
CONTINUOUS
 10
15.0411737847
 20
16.2557364921
 11
15.1013734252
 21
16.1713944853
  0
LINE
  5
5D5
100
AcDbEntity
  8
ASSI
100
AcDbLine
 62
250
  6
CONTINUOUS
 10
15.1013734252
 20
16.1713944853
 11
15.1170239525
 21
16.1492576985
  0
LINE
  5
5D6
100
AcDbEntity
  8
RACCORDO
100
AcDbLine
 62
250
  6
CONTINUOUS
 10
15.1013734252
 20
16.1713944853
 11
15.1170239525
 21
16.1492576985
  0
LWPOLYLINE
  5
5D7
100
AcDbEntity
  8
ASSI
100
AcDbPolyline
 62
250
  6
CONTINUOUS
 90
6
 70
0
 10
15.1170239525
 20
16.1492576985
 10
15.1413180808
 20
16.1144769706
 10
15.1498515464
 20
16.1021424965
 10
15.1558811317
 20
16.0932238097
 10
15.159454244
 20
16.0876485815
 10
15.1605708832
 20
16.0853494939
  0
LWPOLYLINE
  5
5D8
100
AcDbEntity
  8
RACCORDO
100
AcDbPolyline
 62
250
  6
CONTINUOUS
 90
6
 70
0
 10
15.1170239525
 20
16.1492576985
 10
15.1413180808
 20
16.1144769706
 10
15.1498515464
 20
16.1021424965
 10
15.1558811317
 20
16.0932238097
 10
15.159454244
 20
16.0876485815
 10
15.1605708832
 20
16.0853494939
  0
LINE
  5
5D9
100
AcDbEntity
  8
ASSI
100
AcDbLine
 62
250
  6
CONTINUOUS
 10
15.5782020292
 20
15.851496305
 11
15.5493140199
 21
15.893671792
  0
LINE
  5
5DA
100
AcDbEntity
  8
RACCORDO
100
AcDbLine
 62
250
  6
CONTINUOUS
 10
15.5782020292
 20
15.851496305
 11
15.5493140199
 21
15.893671792
  0
LINE
  5
5DB
100
AcDbEntity
  8
ASSI
100
AcDbLine
 62
250
  6
CONTINUOUS
 10
15.6210202674
 20
16.118093538
 11
15.6199077497
 21
16.119748473
  0
LINE
  5
5DC
100
AcDbEntity
  8
RACCORDO
100
AcDbLine
 62
250
  6
CONTINUOUS
 10
15.6210202674
 20
16.118093538
 11
15.6199077497
 21
16.119748473
  0
LINE
  5
5DD
100
AcDbEntity
  8
ASSI
100
AcDbLine
 62
250
  6
CONTINUOUS
 10
15.6018885413
 20
15.808142488
 11
15.5776180527
 21
15.852623469
  0
LINE
  5
5DE
100
AcDbEntity
  8
RACCORDO
100
AcDbLine
 62
250
  6
CONTINUOUS
 10
15.6018885413
 20
15.808142488
 11
15.5776180527
 21
15.852623469
  0
LINE
  5
5DF
100
AcDbEntity
  8
ASSI
100
AcDbLine
 62
250
  6
CONTINUOUS
 10
11.5978398289
 20
27.1423696524
 11
11.6173476905
 21
27.0962597996
  0
LINE
  5
5E0
100
AcDbEntity
  8
RACCORDO
100
AcDbLine
 62
250
  6
CONTINUOUS
 10
11.5978398289
 20
27.1423696524
 11
11.6173476905
 21
27.0962597996
  0
LINE
  5
5E1
100
AcDbEntity
  8
ASSI
100
AcDbLine
 62
250
  6
CONTINUOUS
 10
15.601602935
 20
15.80891146
 11
15.6210202674
 21
15.7629884688
  0
LINE
  5
5E2
100
AcDbEntity
  8
RACCORDO
100
AcDbLine
 62
250
  6
CONTINUOUS
 10
15.601602935
 20
15.80891146
 11
15.6210202674
 21
15.7629884688
  0
LINE
  5
5E3
100
AcDbEntity
  8
ASSI
100
AcDbLine
 62
250
  6
CONTINUOUS
 10
15.6210202674
 20
16.1182716624
 11
15.6016654329
 21
16.1638687185
  0
LINE
  5
5E4
100
AcDbEntity
  8
RACCORDO
100
AcDbLine
 62
250
  6
CONTINUOUS
 10
15.6210202674
 20
16.1182716624
 11
15.6016654329
 21
16.1638687185
  0
LWPOLYLINE
  5
5E5
100
AcDbEntity
  8
ASSI
100
AcDbPolyline
 62
250
  6
CONTINUOUS
 90
13
 70
0
 10
11.6173476905
 20
26.7814715007
 10
11.5982159644
 20
26.8268036443
 10
11.5745294522
 20
26.8701574613
 10
11.5464765416
 20
26.9110635025
 10
11.5142504028
 20
26.9491164088
 10
11.4781731116
 20
26.9838271558
 10
11.4387403128
 20
27.0146765988
 10
11.3964240386
 20
27.0413083335
 10
11.3516122378
 20
27.063490186
 10
11.3047602811
 20
27.080994261
 10
11.2563511251
 20
27.0936352221
 10
11.2068920267
 20
27.1012758636
 10
11.1568983063
 20
27.1038325258
  0
LWPOLYLINE
  5
5E6
100
AcDbEntity
  8
RACCORDO
100
AcDbPolyline
 62
250
  6
CONTINUOUS
 90
13
 70
0
 10
11.6173476905
 20
26.7814715007
 10
11.5982159644
 20
26.8268036443
 10
11.5745294522
 20
26.8701574613
 10
11.5464765416
 20
26.9110635025
 10
11.5142504028
 20
26.9491164088
 10
11.4781731116
 20
26.9838271558
 10
11.4387403128
 20
27.0146765988
 10
11.3964240386
 20
27.0413083335
 10
11.3516122378
 20
27.063490186
 10
11.3047602811
 20
27.080994261
 10
11.2563511251
 20
27.0936352221
 10
11.2068920267
 20
27.1012758636
 10
11.1568983063
 20
27.1038325258
  0
LWPOLYLINE
  5
5E7
100
AcDbEntity
  8
ASSI
100
AcDbPolyline
 62
7
  6
CONTINUOUS
 90
3
 70
0
 10
15.6097475061
 20
16.1452465195
 10
15.6099214672
 20
16.1448230638
 10
15.6098051211
 20
16.1451113245
  0
LWPOLYLINE
  5
5E8
100
AcDbEntity
  8
RACCORDO
100
AcDbPolyline
 62
7
  6
CONTINUOUS
 90
3
 70
0
 10
15.6097475061
 20
16.1452465195
 10
15.6099214672
 20
16.1448230638
 10
15.6098051211
 20
16.1451113245
  0
LWPOLYLINE
  5
5E9
100
AcDbEntity
  8
RACCORDO
100
AcDbPolyline
 62
250
  6
CONTINUOUS
 90
9
 70
0
 10
18.4876900235
 20
-18.1245275949
 10
18.4852396713
 20
-18.1258741187
 10
18.4780289116
 20
-18.1271496704
 10
18.4662722278
 20
-18.1283389266
 10
18.4501247886
 20
-18.1294387026
 10
18.4299222987
 20
-18.1304331273
 10
18.4063936655
 20
-18.1313009688
 10
18.3801508903
 20
-18.132045382
 10
18.3516012382
 20
-18.1326723688
  0
LWPOLYLINE
  5
5EA
100
AcDbEntity
  8
RACCORDO
100
AcDbPolyline
 62
250
  6
CONTINUOUS
 90
13
 70
0
 10
3.8769006468
 20
-24.4722351383
 10
3.8743235157
 20
-24.4735565018
 10
3.8666600608
 20
-24.474765725
 10
3.8540413769
 20
-24.4758421259
 10
3.8366833051
 20
-24.4767672947
 10
3.8148827569
 20
-24.4775254077
 10
3.7890126502
 20
-24.4781034983
 10
3.7595154913
 20
-24.4784916802
 10
3.7268958103
 20
-24.4786833155
 10
3.6917115647
 20
-24.478675128
 10
3.6545645566
 20
-24.4784672597
 10
3.6160901319
 20
-24.4780632675
 10
3.5769463383
 20
-24.4774700628
  0
LINE
  5
5EB
100
AcDbEntity
  8
ASSI
100
AcDbLine
 62
7
  6
CONTINUOUS
 10
-8.4975155378
 20
26.0952764861
 11
-7.5024844622
 21
26.0952764861
  0
LINE
  5
5EC
100
AcDbEntity
  8
RACCORDO
100
AcDbLine
 62
7
  6
CONTINUOUS
 10
-8.4975155378
 20
26.0952764861
 11
-7.5024844622
 21
26.0952764861
  0
LINE
  5
5ED
100
AcDbEntity
  8
ASSI
100
AcDbLine
 62
7
  6
CONTINUOUS
 10
7.5024844622
 20
26.0952764861
 11
8.4975155378
 21
26.0952764861
  0
LINE
  5
5EE
100
AcDbEntity
  8
RACCORDO
100
AcDbLine
 62
7
  6
CONTINUOUS
 10
7.5024844622
 20
26.0952764861
 11
8.4975155378
 21
26.0952764861
  0
LINE
  5
5EF
100
AcDbEntity
  8
ASSI
100
AcDbLine
 62
250
  6
CONTINUOUS
 10
-11.1568983063
 20
26.6139071552
 11
11.1568983063
 21
26.6139071552
  0
LINE
  5
5F0
100
AcDbEntity
  8
RACCORDO
100
AcDbLine
 62
250
  6
CONTINUOUS
 10
-11.1568983063
 20
26.6139071552
 11
11.1568983063
 21
26.6139071552
  0
LINE
  5
5F1
100
AcDbEntity
  8
ASSI
100
AcDbLine
 62
250
  6
CONTINUOUS
 10
-11.1568983063
 20
27.1038325258
 11
11.1568983063
 21
27.1038325258
  0
LINE
  5
5F2
100
AcDbEntity
  8
RACCORDO
100
AcDbLine
 62
250
  6
CONTINUOUS
 10
-11.1568983063
 20
27.1038325258
 11
11.1568983063
 21
27.1038325258
  0
LWPOLYLINE
  5
5F3
100
AcDbEntity
  8
ASSI
100
AcDbPolyline
 62
250
  6
CONTINUOUS
 90
22
 70
0
 10
7.5102511405
 20
25.8426758401
 10
7.5457997263
 20
25.8268063332
 10
7.5839318032
 20
25.8124707096
 10
7.6246909169
 20
25.7996735985
 10
7.6683062837
 20
25.788407665
 10
7.7145876009
 20
25.7786907547
 10
7.7628896136
 20
25.7705641431
 10
7.8132318365
 20
25.7640327479
 10
7.8654416476
 20
25.7591000267
 10
7.9185023379
 20
25.7558011364
 10
7.9722791136
 20
25.7541469796
 10
8.0266120892
 20
25.7541297645
 10
8.080410749
 20
25.7557513055
 10
8.1335410579
 20
25.7590258826
 10
8.1858407767
 20
25.7639362615
 10
8.2362145159
 20
25.7704314624
 10
8.28438675
 20
25.7784776185
 10
8.3304871183
 20
25.7880997363
 10
8.3741030315
 20
25.7993316147
 10
8.4151096764
 20
25.8121809612
 10
8.4536476245
 20
25.8266304738
 10
8.4897488593
 20
25.8426758401
  0
LWPOLYLINE
  5
5F4
100
AcDbEntity
  8
RACCORDO
100
AcDbPolyline
 62
250
  6
CONTINUOUS
 90
22
 70
0
 10
7.5102511405
 20
25.8426758401
 10
7.5457997263
 20
25.8268063332
 10
7.5839318032
 20
25.8124707096
 10
7.6246909169
 20
25.7996735985
 10
7.6683062837
 20
25.788407665
 10
7.7145876009
 20
25.7786907547
 10
7.7628896136
 20
25.7705641431
 10
7.8132318365
 20
25.7640327479
 10
7.8654416476
 20
25.7591000267
 10
7.9185023379
 20
25.7558011364
 10
7.9722791136
 20
25.7541469796
 10
8.0266120892
 20
25.7541297645
 10
8.080410749
 20
25.7557513055
 10
8.1335410579
 20
25.7590258826
 10
8.1858407767
 20
25.7639362615
 10
8.2362145159
 20
25.7704314624
 10
8.28438675
 20
25.7784776185
 10
8.3304871183
 20
25.7880997363
 10
8.3741030315
 20
25.7993316147
 10
8.4151096764
 20
25.8121809612
 10
8.4536476245
 20
25.8266304738
 10
8.4897488593
 20
25.8426758401
  0
LWPOLYLINE
  5
5F5
100
AcDbEntity
  8
ASSI
100
AcDbPolyline
 62
250
  6
CONTINUOUS
 90
10
 70
0
 10
8.2448744286
 20
26.0952764861
 10
8.2745443844
 20
26.0712364726
 10
8.304025077
 20
26.0457870394
 10
8.3331284517
 20
26.0190905258
 10
8.361668864
 20
25.9913172231
 10
8.389464255
 20
25.9626442973
 10
8.4163373136
 20
25.9332546596
 10
8.4421166192
 20
25.9033357875
 10
8.4666377348
 20
25.8730785278
 10
8.4897442471
 20
25.8426758885
  0
LWPOLYLINE
  5
5F6
100
AcDbEntity
  8
RACCORDO
100
AcDbPolyline
 62
250
  6
CONTINUOUS
 90
10
 70
0
 10
8.2448744286
 20
26.0952764861
 10
8.2745443844
 20
26.0712364726
 10
8.304025077
 20
26.0457870394
 10
8.3331284517
 20
26.0190905258
 10
8.361668864
 20
25.9913172231
 10
8.389464255
 20
25.9626442973
 10
8.4163373136
 20
25.9332546596
 10
8.4421166192
 20
25.9033357875
 10
8.4666377348
 20
25.8730785278
 10
8.4897442471
 20
25.8426758885
  0
LINE
  5
5F7
100
AcDbEntity
  8
ASSI
100
AcDbLine
 62
250
  6
CONTINUOUS
 10
-11.2068920267
 20
27.4160641625
 11
-11.1568983063
 21
27.4186208247
  0
LINE
  5
5F8
100
AcDbEntity
  8
RACCORDO
100
AcDbLine
 62
250
  6
CONTINUOUS
 10
-11.2068920267
 20
27.4160641625
 11
-11.1568983063
 21
27.4186208247
  0
LWPOLYLINE
  5
5F9
100
AcDbEntity
  8
ASSI
100
AcDbPolyline
 62
250
  6
CONTINUOUS
 90
13
 70
0
 10
-11.1568983063
 20
27.1038325258
 10
-11.2060497929
 20
27.1013614976
 10
-11.2548978739
 20
27.0939341114
 10
-11.3029369538
 20
27.0815673718
 10
-11.349719789
 20
27.0643048341
 10
-11.3946772814
 20
27.0422822814
 10
-11.4371533422
 20
27.0157876184
 10
-11.4766506459
 20
26.9851435374
 10
-11.5128199556
 20
26.9506343941
 10
-11.5452951923
 20
26.9126054566
 10
-11.5737368645
 20
26.8714443532
 10
-11.5978398289
 20
26.8275813535
 10
-11.6173476905
 20
26.7814715007
  0
LWPOLYLINE
  5
5FA
100
AcDbEntity
  8
RACCORDO
100
AcDbPolyline
 62
250
  6
CONTINUOUS
 90
13
 70
0
 10
-11.1568983063
 20
27.1038325258
 10
-11.2060497929
 20
27.1013614976
 10
-11.2548978739
 20
27.0939341114
 10
-11.3029369538
 20
27.0815673718
 10
-11.349719789
 20
27.0643048341
 10
-11.3946772814
 20
27.0422822814
 10
-11.4371533422
 20
27.0157876184
 10
-11.4766506459
 20
26.9851435374
 10
-11.5128199556
 20
26.9506343941
 10
-11.5452951923
 20
26.9126054566
 10
-11.5737368645
 20
26.8714443532
 10
-11.5978398289
 20
26.8275813535
 10
-11.6173476905
 20
26.7814715007
  0
LINE
  5
5FB
100
AcDbEntity
  8
ASSI
100
AcDbLine
 62
7
  6
CONTINUOUS
 10
11.1568983063
 20
27.4186954541
 11
-11.1568983063
 21
27.4186954541
  0
LINE
  5
5FC
100
AcDbEntity
  8
RACCORDO
100
AcDbLine
 62
7
  6
CONTINUOUS
 10
11.1568983063
 20
27.4186954541
 11
-11.1568983063
 21
27.4186954541
  0
LWPOLYLINE
  5
5FD
100
AcDbEntity
  8
ASSI
100
AcDbPolyline
 62
250
  6
CONTINUOUS
 90
12
 70
0
 10
11.1568983063
 20
27.4186208247
 10
11.2060497929
 20
27.4161497965
 10
11.2548978739
 20
27.4087224103
 10
11.3029369538
 20
27.3963556707
 10
11.349719789
 20
27.379093133
 10
11.3946772814
 20
27.3570705803
 10
11.4371533422
 20
27.3305759173
 10
11.4766506459
 20
27.2999318363
 10
11.5128199556
 20
27.265422693
 10
11.5452951923
 20
27.2273937555
 10
11.5737368645
 20
27.1862326521
 10
11.5978398289
 20
27.1423696524
  0
LWPOLYLINE
  5
5FE
100
AcDbEntity
  8
RACCORDO
100
AcDbPolyline
 62
250
  6
CONTINUOUS
 90
12
 70
0
 10
11.1568983063
 20
27.4186208247
 10
11.2060497929
 20
27.4161497965
 10
11.2548978739
 20
27.4087224103
 10
11.3029369538
 20
27.3963556707
 10
11.349719789
 20
27.379093133
 10
11.3946772814
 20
27.3570705803
 10
11.4371533422
 20
27.3305759173
 10
11.4766506459
 20
27.2999318363
 10
11.5128199556
 20
27.265422693
 10
11.5452951923
 20
27.2273937555
 10
11.5737368645
 20
27.1862326521
 10
11.5978398289
 20
27.1423696524
  0
ARC
  5
5FF
100
AcDbEntity
  8
ASSI
100
AcDbCircle
 62
7
  6
CONTINUOUS
 10
11.1568983063
 20
26.9286954541
 40
0.49
100
AcDbArc
 50
20.0081475844
 51
90.0
  0
ARC
  5
600
100
AcDbEntity
  8
ASSI
100
AcDbCircle
 62
7
  6
CONTINUOUS
 10
-11.1568983063
 20
26.9286954541
 40
0.49
100
AcDbArc
 50
90.0
 51
159.9915823199
  0
ARC
  5
601
100
AcDbEntity
  8
ASSI
100
AcDbCircle
 62
7
  6
CONTINUOUS
 10
-15.1605708832
 20
15.9507073169
 40
0.49
100
AcDbArc
 50
155.8101446491
 51
159.9915823199
  0
ARC
  5
602
100
AcDbEntity
  8
RACCORDO
100
AcDbCircle
 62
7
  6
CONTINUOUS
 10
11.1568983063
 20
26.9286954541
 40
0.49
100
AcDbArc
 50
20.0081475844
 51
90.0
  0
ARC
  5
603
100
AcDbEntity
  8
RACCORDO
100
AcDbCircle
 62
7
  6
CONTINUOUS
 10
-11.1568983063
 20
26.9286954541
 40
0.49
100
AcDbArc
 50
90.0
 51
159.9915823199
  0
ARC
  5
604
100
AcDbEntity
  8
RACCORDO
100
AcDbCircle
 62
7
  6
CONTINUOUS
 10
-15.1605708832
 20
15.9507073169
 40
0.49
100
AcDbArc
 50
155.8101446491
 51
159.9915823199
  0
ARC
  5
605
100
AcDbEntity
  8
ASSI
100
AcDbCircle
 62
7
  6
CONTINUOUS
 10
19.2
 20
0.0269740728
 40
0.3
100
AcDbArc
 50
270.0
 51
354.9778296281
  0
ARC
  5
606
100
AcDbEntity
  8
ASSI
100
AcDbCircle
 62
7
  6
CONTINUOUS
 10
19.2
 20
0.5037037392
 40
0.3
100
AcDbArc
 50
5.0221703744
 51
90.0
  0
ARC
  5
607
100
AcDbEntity
  8
ASSI
100
AcDbCircle
 62
7
  6
CONTINUOUS
 10
19.2
 20
-4.9722644029
 40
0.3
100
AcDbArc
 50
270.0
 51
354.9778296259
  0
ARC
  5
608
100
AcDbEntity
  8
ASSI
100
AcDbCircle
 62
7
  6
CONTINUOUS
 10
19.2
 20
-4.4955347366
 40
0.3
100
AcDbArc
 50
5.0221703736
 51
90.0
  0
ARC
  5
609
100
AcDbEntity
  8
ASSI
100
AcDbCircle
 62
7
  6
CONTINUOUS
 10
-19.2
 20
0.0269740728
 40
0.3
100
AcDbArc
 50
184.016234732
 51
270.0
  0
ARC
  5
60A
100
AcDbEntity
  8
ASSI
100
AcDbCircle
 62
7
  6
CONTINUOUS
 10
-19.2
 20
0.5037037392
 40
0.3
100
AcDbArc
 50
90.0
 51
175.9837652702
  0
ARC
  5
60B
100
AcDbEntity
  8
ASSI
100
AcDbCircle
 62
7
  6
CONTINUOUS
 10
-19.2
 20
-4.9722644029
 40
0.3
100
AcDbArc
 50
184.016234728
 51
270.0
  0
ARC
  5
60C
100
AcDbEntity
  8
ASSI
100
AcDbCircle
 62
7
  6
CONTINUOUS
 10
-19.2
 20
-4.4955347366
 40
0.3
100
AcDbArc
 50
90.0
 51
175.9837652712
  0
ARC
  5
60D
100
AcDbEntity
  8
RACCORDO
100
AcDbCircle
 62
7
  6
CONTINUOUS
 10
19.2
 20
0.0269740728
 40
0.3
100
AcDbArc
 50
270.0
 51
354.9778296281
  0
ARC
  5
60E
100
AcDbEntity
  8
RACCORDO
100
AcDbCircle
 62
7
  6
CONTINUOUS
 10
19.2
 20
0.5037037392
 40
0.3
100
AcDbArc
 50
5.0221703744
 51
90.0
  0
ARC
  5
60F
100
AcDbEntity
  8
RACCORDO
100
AcDbCircle
 62
7
  6
CONTINUOUS
 10
19.2
 20
-4.9722644029
 40
0.3
100
AcDbArc
 50
270.0
 51
354.9778296259
  0
ARC
  5
610
100
AcDbEntity
  8
RACCORDO
100
AcDbCircle
 62
7
  6
CONTINUOUS
 10
19.2
 20
-4.4955347366
 40
0.3
100
AcDbArc
 50
5.0221703736
 51
90.0
  0
ARC
  5
611
100
AcDbEntity
  8
RACCORDO
100
AcDbCircle
 62
7
  6
CONTINUOUS
 10
-19.2
 20
0.0269740728
 40
0.3
100
AcDbArc
 50
184.016234732
 51
270.0
  0
ARC
  5
612
100
AcDbEntity
  8
RACCORDO
100
AcDbCircle
 62
7
  6
CONTINUOUS
 10
-19.2
 20
0.5037037392
 40
0.3
100
AcDbArc
 50
90.0
 51
175.9837652702
  0
ARC
  5
613
100
AcDbEntity
  8
RACCORDO
100
AcDbCircle
 62
7
  6
CONTINUOUS
 10
-19.2
 20
-4.9722644029
 40
0.3
100
AcDbArc
 50
184.016234728
 51
270.0
  0
ARC
  5
614
100
AcDbEntity
  8
RACCORDO
100
AcDbCircle
 62
7
  6
CONTINUOUS
 10
-19.2
 20
-4.4955347366
 40
0.3
100
AcDbArc
 50
90.0
 51
175.9837652712
  0
ELLIPSE
  5
615
100
AcDbEntity
  8
DRAFT
100
AcDbEllipse
 62
7
  6
CONTINUOUS
 10
0.0
 20
-23.9075099559
 30
0.0
 11
0.0
 21
-1.6002437249
 31
0.0
 40
0.9998476952
 41
-1.5596530873
 42
1.5596530873
  0
ELLIPSE
  5
616
100
AcDbEntity
  8
RACCORDO
100
AcDbEllipse
 62
7
  6
CONTINUOUS
 10
17.999923836
 20
-17.4196077992
 30
0.0
 11
0.500076164
 21
-0.0000026591
 31
0.0
 40
0.0174524056
 41
4.7126936597
 42
6.2831854
  0
ELLIPSE
  5
617
100
AcDbEntity
  8
RACCORDO
100
AcDbEllipse
 62
7
  6
CONTINUOUS
 10
-17.999923836
 20
-17.4196077992
 30
0.0
 11
0.500076164
 21
0.0000026591
 31
0.0
 40
0.0174524056
 41
3.1415925608
 42
4.7120843011
  0
ELLIPSE
  5
618
100
AcDbEntity
  8
DRAFT
100
AcDbEllipse
 62
7
  6
CONTINUOUS
 10
0.0
 20
-23.9253652364
 30
0.0
 11
1.6
 21
-0.0
 31
0.0
 40
0.9995430623
 41
0.0
 42
6.2831853072
  0
ELLIPSE
  5
619
100
AcDbEntity
  8
ASSI
100
AcDbEllipse
 62
7
  6
CONTINUOUS
 10
18.0099253593
 20
-17.4197823498
 30
0.0
 11
0.4900746407
 21
-0.0000026059
 31
0.0
 40
0.0174524056
 41
-1.5704916475
 42
0.0000000928
  0
ELLIPSE
  5
61A
100
AcDbEntity
  8
ASSI
100
AcDbEllipse
 62
7
  6
CONTINUOUS
 10
-18.0099253593
 20
-17.4197823498
 30
0.0
 11
0.4900746407
 21
0.0000026059
 31
0.0
 40
0.0174524056
 41
3.1415925608
 42
4.7120843011
  0
ELLIPSE
  5
61B
100
AcDbEntity
  8
RACCORDO
100
AcDbEllipse
 62
7
  6
CONTINUOUS
 10
18.0099253593
 20
-17.4197823498
 30
0.0
 11
0.4900746407
 21
-0.0000026059
 31
0.0
 40
0.0174524056
 41
-1.5704916475
 42
0.0000000928
  0
ELLIPSE
  5
61C
100
AcDbEntity
  8
RACCORDO
100
AcDbEllipse
 62
7
  6
CONTINUOUS
 10
-18.0099253593
 20
-17.4197823498
 30
0.0
 11
0.4900746407
 21
0.0000026059
 31
0.0
 40
0.0174524056
 41
3.1415925608
 42
4.7120843011
  0
ENDSEC
  0
SECTION
  2
OBJECTS
  0
DICTIONARY
  5
C
100
AcDbDictionary
280
0
281
1
  3
ACAD_GROUP
350
D
  3
ACAD_MLINESTYLE
350
17
  3
ACAD_LAYOUT
350
1A
  3
ACAD_PLOTSETTINGS
350
19
  3
ACAD_PLOTSTYLENAME
350
E
  0
DICTIONARY
  5
D
102
{ACAD_REACTORS
330
C
102
}
100
AcDbDictionary
280
0
281
1
  0
ACDBDICTIONARYWDFLT
  5
E
102
{ACAD_REACTORS
330
C
102
}
100
AcDbDictionary
281
1
  3
Normal
350
F
100
AcDbDictionaryWithDefault
340
F
  0
DICTIONARY
  5
17
102
{ACAD_REACTORS
330
C
102
}
100
AcDbDictionary
280
0
281
1
  3
Standard
350
18
  0
DICTIONARY
  5
19
102
{ACAD_REACTORS
330
C
102
}
100
AcDbDictionary
281
1
  0
DICTIONARY
  5
1A
102
{ACAD_REACTORS
330
C
102
}
100
AcDbDictionary
281
1
  3
Model
350
61D
  3
Layout1
350
61E
  0
ACDBPLACEHOLDER
  5
F
102
{ACAD_REACTORS
330
E
102
}
  0
MLINESTYLE
  5
18
102
{ACAD_REACTORS
330
17
102
}
100
AcDbMlineStyle
  2
STANDARD
 70
0
  3

 62
256
 51
90.0
 52
90.0
 71
2
 49
0.5
 62
256
  6
BYLAYER
 49
-0.5
 62
256
  6
BYLAYER
  0
LAYOUT
  5
61D
102
{ACAD_REACTORS
330
1A
102
}
100
AcDbPlotSettings
  1

  2
none_device
  4
ISO_A3_(420.00_x_297.00_MM)
  6

 40
0.0
 41
0.0
 42
0.0
 43
0.0
 44
420.0
 45
297.0
 46
0.0
 47
0.0
 48
0.0
 49
0.0
140
0.0
141
0.0
142
1.0
143
1.0
 70
1024
 72
1
 73
0
 74
0
  7

 75
0
147
1.0
148
0.0
149
0.0
100
AcDbLayout
  1
Model
 70
0
 71
0
 10
0.0
 20
0.0
 11
420.0
 21
297.0
 12
0.0
 22
0.0
 32
0.0
 14
0.0
 24
0.0
 34
0.0
 15
0.0
 25
0.0
 35
0.0
146
0.0
 13
0.0
 23
0.0
 33
0.0
 16
1.0
 26
0.0
 36
0.0
 17
0.0
 27
1.0
 37
0.0
 76
0
330
235
345
0
346
0
  0
LAYOUT
  5
61E
102
{ACAD_REACTORS
330
1A
102
}
100
AcDbPlotSettings
  1

  2
none_device
  4
ISO_A3_(420.00_x_297.00_MM)
  6

 40
0.0
 41
0.0
 42
0.0
 43
0.0
 44
420.0
 45
297.0
 46
0.0
 47
0.0
 48
0.0
 49
0.0
140
0.0
141
0.0
142
1.0
143
1.0
 70
0
 72
1
 73
0
 74
0
  7

 75
0
147
1.0
148
0.0
149
0.0
100
AcDbLayout
  1
Layout1
 70
0
 71
1
 10
0.0
 20
0.0
 11
420.0
 21
297.0
 12
0.0
 22
0.0
 32
0.0
 14
0.0
 24
0.0
 34
0.0
 15
0.0
 25
0.0
 35
0.0
146
0.0
 13
0.0
 23
0.0
 33
0.0
 16
1.0
 26
0.0
 36
0.0
 17
0.0
 27
1.0
 37
0.0
 76
0
330
236
345
0
346
0
  0
ENDSEC
  0
EOF
