  0
SECTION
  2
HEADER
  9
$ACADVER
  1
AC1024
  9
$DWGCODEPAGE
  3
ANSI_1252
  9
$EXTMAX
 10
297.0
 20
210.0
 30
0.0
  9
$EXTMIN
 10
0.0
 20
0.0
 30
0.0
  9
$LIMMIN
 10
0.0
 20
0.0
  9
$LIMMAX
 10
297.0
 20
210.0
  9
$VIEWCTR
 10
148.5
 20
105.0
  9
$VIEWSIZE
 40
210.0
  9
$CLAYER
  8
0
  9
$LTSCALE
 40
16.335
  9
$CELTYPE
  6
BYLAYER
  9
$DIMSCALE
 40
1.0
  9
$DIMASZ
 40
3.0
  9
$DIMEXO
 40
0.5
  9
$DIMDLI
 40
11.286
  9
$DIMEXE
 40
1.5
  9
$DIMCEN
 40
2.673
  9
$DIMLFAC
 40
1.0
  9
$DIMBLK
  1
_FILLED
  9
$DIMALT
 70
0
  9
$DIMALTF
 40
0.0393700787
  9
$DIMTXT
 40
3.0
  9
$DIMTOL
 70
1
  9
$DIMLIM
 70
0
  9
$DIMTFAC
 40
1.0
  9
$DIMTP
 40
0.01
  9
$DIMTM
 40
0.01
  9
$DIMGAP
 40
0.625
  9
$DIMDSEP
 70
44
  9
$AUNITS
 70
0
  9
$PDMODE
 70
3
  9
$PDSIZE
 40
3.0
  9
$HANDSEED
  5
6D6
  9
$TILEMODE
 70
1
  9
$MEASUREMENT
 70
1
  9
$INSUNITS
 70
4
  0
ENDSEC
  0
SECTION
  2
CLASSES
  0
CLASS
  1
ACDBDICTIONARYWDFLT
  2
AcDbDictionaryWithDefault
  3
AutoCAD 2000
 90
0
 91
1
280
0
281
0
  0
CLASS
  1
ACDBPLACEHOLDER
  2
AcDbPlaceHolder
  3
AutoCAD 2000
 90
0
 91
1
280
0
281
0
  0
CLASS
  1
LAYOUT
  2
AcDbLayout
  3
AutoCAD 2000
 90
0
 91
0
280
0
281
0
  0
ENDSEC
  0
SECTION
  2
TABLES
  0
TABLE
  2
VPORT
  5
8
100
AcDbSymbolTable
 70
2
  0
VPORT
  5
1F4
100
AcDbSymbolTableRecord
100
AcDbViewportTableRecord
  2
*ACTIVE
 70
0
 10
0.0
 20
0.0
 11
1.0
 21
1.0
 12
148.5
 22
105.0
 13
0.0
 23
0.0
 14
1.0
 24
1.0
 15
0.0
 25
0.0
 16
0.0
 26
0.0
 36
1.0
 17
0.0
 27
0.0
 37
0.0
 40
210.0
 41
1.4142857143
 42
50.0
 43
0.0
 44
0.0
 50
0.0
 51
0.0
 71
0
 72
100
 73
1
 74
1
 75
0
 76
0
 77
0
 78
0
  0
ENDTAB
  0
TABLE
  2
LTYPE
  5
5
100
AcDbSymbolTable
 70
6
  0
LTYPE
  5
14
100
AcDbSymbolTableRecord
100
AcDbLinetypeTableRecord
  2
BYBLOCK
 70
0
  3

 72
65
 73
0
 40
0.0
  0
LTYPE
  5
15
100
AcDbSymbolTableRecord
100
AcDbLinetypeTableRecord
  2
BYLAYER
 70
0
  3

 72
65
 73
0
 40
0.0
  0
LTYPE
  5
16
100
AcDbSymbolTableRecord
100
AcDbLinetypeTableRecord
  2
CONTINUOUS
 70
64
  3
Solid line
 72
65
 73
0
 40
0.0
  0
LTYPE
  5
1F5
100
AcDbSymbolTableRecord
100
AcDbLinetypeTableRecord
  2
CENTER
 70
64
  3
____ _ ____ _ ____ _ ____ _ ____ _ ____ _ ____
 72
65
 73
4
 40
0.6
 49
0.375
 74
0
 49
-0.075
 74
0
 49
0.075
 74
0
 49
-0.075
 74
0
  0
LTYPE
  5
1F6
100
AcDbSymbolTableRecord
100
AcDbLinetypeTableRecord
  2
HIDDEN
 70
64
  3
- - - - - - - - - - - - - - - - - - - -
 72
65
 73
2
 40
0.2
 49
0.1
 74
0
 49
-0.1
 74
0
  0
LTYPE
  5
1F7
100
AcDbSymbolTableRecord
100
AcDbLinetypeTableRecord
  2
PHANTOM
 70
64
  3
_____ _ _ _____ _ _ _____ _ _ _____
 72
65
 73
6
 40
0.8
 49
0.45
 74
0
 49
-0.05
 74
0
 49
0.1
 74
0
 49
-0.05
 74
0
 49
0.1
 74
0
 49
-0.05
 74
0
  0
LTYPE
  5
1F8
100
AcDbSymbolTableRecord
100
AcDbLinetypeTableRecord
  2
DOT
 70
64
  3
. . . . . . . . . . . . . . . . . . . .
 72
65
 73
2
 40
0.2
 49
0.1
 74
0
 49
-0.1
 74
0
  0
LTYPE
  5
1F9
100
AcDbSymbolTableRecord
100
AcDbLinetypeTableRecord
  2
DASHED
 70
64
  3
- - - - - - - - - - - - - - - - - - - -
 72
65
 73
2
 40
0.2
 49
0.1
 74
0
 49
-0.1
 74
0
  0
ENDTAB
  0
TABLE
  2
LAYER
  5
2
100
AcDbSymbolTable
 70
36
  0
LAYER
  5
10
100
AcDbSymbolTableRecord
100
AcDbLayerTableRecord
  2
0
 70
0
 62
7
  6
CONTINUOUS
370
-3
390
F
  0
LAYER
  5
1FA
100
AcDbSymbolTableRecord
100
AcDbLayerTableRecord
  2
DEFAULT_1
 70
0
 62
7
  6
CENTER
370
-3
390
F
  0
LAYER
  5
1FB
100
AcDbSymbolTableRecord
100
AcDbLayerTableRecord
  2
DEFAULT_2
 70
0
 62
7
  6
HIDDEN
370
-3
390
F
  0
LAYER
  5
1FC
100
AcDbSymbolTableRecord
100
AcDbLayerTableRecord
  2
DEFAULT_3
 70
0
 62
7
  6
PHANTOM
370
-3
390
F
  0
LAYER
  5
1FD
100
AcDbSymbolTableRecord
100
AcDbLayerTableRecord
  2
0402_C_REF_70000
 70
0
 62
7
  6
CONTINUOUS
370
-3
390
F
  0
LAYER
  5
1FE
100
AcDbSymbolTableRecord
100
AcDbLayerTableRecord
  2
0402_C_REF_70000_1
 70
0
 62
7
  6
CONTINUOUS
370
-3
390
F
  0
LAYER
  5
1FF
100
AcDbSymbolTableRecord
100
AcDbLayerTableRecord
  2
0402_C_REF_70000_10
 70
0
 62
7
  6
CONTINUOUS
370
-3
390
F
  0
LAYER
  5
200
100
AcDbSymbolTableRecord
100
AcDbLayerTableRecord
  2
0402_C_REF_70000_11
 70
0
 62
7
  6
CONTINUOUS
370
-3
390
F
  0
LAYER
  5
201
100
AcDbSymbolTableRecord
100
AcDbLayerTableRecord
  2
0402_C_REF_70000_12
 70
0
 62
7
  6
CONTINUOUS
370
-3
390
F
  0
LAYER
  5
202
100
AcDbSymbolTableRecord
100
AcDbLayerTableRecord
  2
0402_C_REF_70000_13
 70
0
 62
7
  6
CONTINUOUS
370
-3
390
F
  0
LAYER
  5
203
100
AcDbSymbolTableRecord
100
AcDbLayerTableRecord
  2
0402_C_REF_70000_14
 70
0
 62
7
  6
CONTINUOUS
370
-3
390
F
  0
LAYER
  5
204
100
AcDbSymbolTableRecord
100
AcDbLayerTableRecord
  2
0402_C_REF_70000_15
 70
0
 62
7
  6
CONTINUOUS
370
-3
390
F
  0
LAYER
  5
205
100
AcDbSymbolTableRecord
100
AcDbLayerTableRecord
  2
0402_C_REF_70000_16
 70
0
 62
7
  6
CONTINUOUS
370
-3
390
F
  0
LAYER
  5
206
100
AcDbSymbolTableRecord
100
AcDbLayerTableRecord
  2
0402_C_REF_70000_17
 70
0
 62
7
  6
CONTINUOUS
370
-3
390
F
  0
LAYER
  5
207
100
AcDbSymbolTableRecord
100
AcDbLayerTableRecord
  2
0402_C_REF_70000_18
 70
0
 62
7
  6
CONTINUOUS
370
-3
390
F
  0
LAYER
  5
208
100
AcDbSymbolTableRecord
100
AcDbLayerTableRecord
  2
0402_C_REF_70000_19
 70
0
 62
7
  6
CONTINUOUS
370
-3
390
F
  0
LAYER
  5
209
100
AcDbSymbolTableRecord
100
AcDbLayerTableRecord
  2
0402_C_REF_70000_2
 70
0
 62
7
  6
CONTINUOUS
370
-3
390
F
  0
LAYER
  5
20A
100
AcDbSymbolTableRecord
100
AcDbLayerTableRecord
  2
0402_C_REF_70000_20
 70
0
 62
7
  6
CONTINUOUS
370
-3
390
F
  0
LAYER
  5
20B
100
AcDbSymbolTableRecord
100
AcDbLayerTableRecord
  2
0402_C_REF_70000_21
 70
0
 62
7
  6
CONTINUOUS
370
-3
390
F
  0
LAYER
  5
20C
100
AcDbSymbolTableRecord
100
AcDbLayerTableRecord
  2
0402_C_REF_70000_22
 70
0
 62
7
  6
CONTINUOUS
370
-3
390
F
  0
LAYER
  5
20D
100
AcDbSymbolTableRecord
100
AcDbLayerTableRecord
  2
0402_C_REF_70000_23
 70
0
 62
7
  6
CONTINUOUS
370
-3
390
F
  0
LAYER
  5
20E
100
AcDbSymbolTableRecord
100
AcDbLayerTableRecord
  2
0402_C_REF_70000_24
 70
0
 62
7
  6
CONTINUOUS
370
-3
390
F
  0
LAYER
  5
20F
100
AcDbSymbolTableRecord
100
AcDbLayerTableRecord
  2
0402_C_REF_70000_25
 70
0
 62
7
  6
CONTINUOUS
370
-3
390
F
  0
LAYER
  5
210
100
AcDbSymbolTableRecord
100
AcDbLayerTableRecord
  2
0402_C_REF_70000_26
 70
0
 62
7
  6
CONTINUOUS
370
-3
390
F
  0
LAYER
  5
211
100
AcDbSymbolTableRecord
100
AcDbLayerTableRecord
  2
0402_C_REF_70000_3
 70
0
 62
7
  6
CONTINUOUS
370
-3
390
F
  0
LAYER
  5
212
100
AcDbSymbolTableRecord
100
AcDbLayerTableRecord
  2
0402_C_REF_70000_4
 70
0
 62
7
  6
CONTINUOUS
370
-3
390
F
  0
LAYER
  5
213
100
AcDbSymbolTableRecord
100
AcDbLayerTableRecord
  2
0402_C_REF_70000_5
 70
0
 62
7
  6
CONTINUOUS
370
-3
390
F
  0
LAYER
  5
214
100
AcDbSymbolTableRecord
100
AcDbLayerTableRecord
  2
0402_C_REF_70000_6
 70
0
 62
7
  6
CONTINUOUS
370
-3
390
F
  0
LAYER
  5
215
100
AcDbSymbolTableRecord
100
AcDbLayerTableRecord
  2
0402_C_REF_70000_7
 70
0
 62
7
  6
CONTINUOUS
370
-3
390
F
  0
LAYER
  5
216
100
AcDbSymbolTableRecord
100
AcDbLayerTableRecord
  2
0402_C_REF_70000_8
 70
0
 62
7
  6
CONTINUOUS
370
-3
390
F
  0
LAYER
  5
217
100
AcDbSymbolTableRecord
100
AcDbLayerTableRecord
  2
0402_C_REF_70000_9
 70
0
 62
7
  6
CONTINUOUS
370
-3
390
F
  0
LAYER
  5
218
100
AcDbSymbolTableRecord
100
AcDbLayerTableRecord
  2
0402_R_REF_30000
 70
0
 62
7
  6
CONTINUOUS
370
-3
390
F
  0
LAYER
  5
219
100
AcDbSymbolTableRecord
100
AcDbLayerTableRecord
  2
0402_R_REF_30000_1
 70
0
 62
7
  6
CONTINUOUS
370
-3
390
F
  0
LAYER
  5
21A
100
AcDbSymbolTableRecord
100
AcDbLayerTableRecord
  2
0402_R_REF_30000_10
 70
0
 62
7
  6
CONTINUOUS
370
-3
390
F
  0
LAYER
  5
21B
100
AcDbSymbolTableRecord
100
AcDbLayerTableRecord
  2
0402_R_REF_30000_11
 70
0
 62
7
  6
CONTINUOUS
370
-3
390
F
  0
LAYER
  5
21C
100
AcDbSymbolTableRecord
100
AcDbLayerTableRecord
  2
0402_R_REF_30000_12
 70
0
 62
7
  6
CONTINUOUS
370
-3
390
F
  0
LAYER
  5
21D
100
AcDbSymbolTableRecord
100
AcDbLayerTableRecord
  2
0402_R_REF_30000_13
 70
0
 62
7
  6
CONTINUOUS
370
-3
390
F
  0
LAYER
  5
21E
100
AcDbSymbolTableRecord
100
AcDbLayerTableRecord
  2
0402_R_REF_30000_14
 70
0
 62
7
  6
CONTINUOUS
370
-3
390
F
  0
LAYER
  5
21F
100
AcDbSymbolTableRecord
100
AcDbLayerTableRecord
  2
0402_R_REF_30000_2
 70
0
 62
7
  6
CONTINUOUS
370
-3
390
F
  0
LAYER
  5
220
100
AcDbSymbolTableRecord
100
AcDbLayerTableRecord
  2
0402_R_REF_30000_3
 70
0
 62
7
  6
CONTINUOUS
370
-3
390
F
  0
LAYER
  5
221
100
AcDbSymbolTableRecord
100
AcDbLayerTableRecord
  2
0402_R_REF_30000_4
 70
0
 62
7
  6
CONTINUOUS
370
-3
390
F
  0
LAYER
  5
222
100
AcDbSymbolTableRecord
100
AcDbLayerTableRecord
  2
0402_R_REF_30000_5
 70
0
 62
7
  6
CONTINUOUS
370
-3
390
F
  0
LAYER
  5
223
100
AcDbSymbolTableRecord
100
AcDbLayerTableRecord
  2
0402_R_REF_30000_6
 70
0
 62
7
  6
CONTINUOUS
370
-3
390
F
  0
LAYER
  5
224
100
AcDbSymbolTableRecord
100
AcDbLayerTableRecord
  2
0402_R_REF_30000_7
 70
0
 62
7
  6
CONTINUOUS
370
-3
390
F
  0
LAYER
  5
225
100
AcDbSymbolTableRecord
100
AcDbLayerTableRecord
  2
0402_R_REF_30000_8
 70
0
 62
7
  6
CONTINUOUS
370
-3
390
F
  0
LAYER
  5
226
100
AcDbSymbolTableRecord
100
AcDbLayerTableRecord
  2
0402_R_REF_30000_9
 70
0
 62
7
  6
CONTINUOUS
370
-3
390
F
  0
LAYER
  5
227
100
AcDbSymbolTableRecord
100
AcDbLayerTableRecord
  2
0603_C_REF_90000
 70
0
 62
7
  6
CONTINUOUS
370
-3
390
F
  0
LAYER
  5
228
100
AcDbSymbolTableRecord
100
AcDbLayerTableRecord
  2
0603_C_REF_90000_1
 70
0
 62
7
  6
CONTINUOUS
370
-3
390
F
  0
LAYER
  5
229
100
AcDbSymbolTableRecord
100
AcDbLayerTableRecord
  2
0603_C_REF_90000_2
 70
0
 62
7
  6
CONTINUOUS
370
-3
390
F
  0
LAYER
  5
22A
100
AcDbSymbolTableRecord
100
AcDbLayerTableRecord
  2
0603_C_REF_90000_3
 70
0
 62
7
  6
CONTINUOUS
370
-3
390
F
  0
LAYER
  5
22B
100
AcDbSymbolTableRecord
100
AcDbLayerTableRecord
  2
0603_C_REF_90000_4
 70
0
 62
7
  6
CONTINUOUS
370
-3
390
F
  0
LAYER
  5
22C
100
AcDbSymbolTableRecord
100
AcDbLayerTableRecord
  2
0603_C_REF_90000_5
 70
0
 62
7
  6
CONTINUOUS
370
-3
390
F
  0
LAYER
  5
22D
100
AcDbSymbolTableRecord
100
AcDbLayerTableRecord
  2
0603_C_REF_90000_6
 70
0
 62
7
  6
CONTINUOUS
370
-3
390
F
  0
LAYER
  5
22E
100
AcDbSymbolTableRecord
100
AcDbLayerTableRecord
  2
0603_C_REF_90000_7
 70
0
 62
7
  6
CONTINUOUS
370
-3
390
F
  0
LAYER
  5
22F
100
AcDbSymbolTableRecord
100
AcDbLayerTableRecord
  2
0603_R_REF_55000
 70
0
 62
7
  6
CONTINUOUS
370
-3
390
F
  0
LAYER
  5
230
100
AcDbSymbolTableRecord
100
AcDbLayerTableRecord
  2
0603_R_REF_55000_1
 70
0
 62
7
  6
CONTINUOUS
370
-3
390
F
  0
LAYER
  5
231
100
AcDbSymbolTableRecord
100
AcDbLayerTableRecord
  2
0603_R_REF_55000_2
 70
0
 62
7
  6
CONTINUOUS
370
-3
390
F
  0
LAYER
  5
232
100
AcDbSymbolTableRecord
100
AcDbLayerTableRecord
  2
0603_R_REF_55000_3
 70
0
 62
7
  6
CONTINUOUS
370
-3
390
F
  0
LAYER
  5
233
100
AcDbSymbolTableRecord
100
AcDbLayerTableRecord
  2
0603_R_REF_55000_4
 70
0
 62
7
  6
CONTINUOUS
370
-3
390
F
  0
LAYER
  5
234
100
AcDbSymbolTableRecord
100
AcDbLayerTableRecord
  2
0603_R_REF_55000_5
 70
0
 62
7
  6
CONTINUOUS
370
-3
390
F
  0
LAYER
  5
235
100
AcDbSymbolTableRecord
100
AcDbLayerTableRecord
  2
0603_R_REF_55000_6
 70
0
 62
7
  6
CONTINUOUS
370
-3
390
F
  0
LAYER
  5
236
100
AcDbSymbolTableRecord
100
AcDbLayerTableRecord
  2
0603_R_REF_55000_7
 70
0
 62
7
  6
CONTINUOUS
370
-3
390
F
  0
LAYER
  5
237
100
AcDbSymbolTableRecord
100
AcDbLayerTableRecord
  2
06___PRT_ALL_SURFS
 70
0
 62
7
  6
CONTINUOUS
370
-3
390
F
  0
LAYER
  5
238
100
AcDbSymbolTableRecord
100
AcDbLayerTableRecord
  2
06___PRT_ALL_SURFS_1
 70
0
 62
7
  6
CONTINUOUS
370
-3
390
F
  0
LAYER
  5
239
100
AcDbSymbolTableRecord
100
AcDbLayerTableRecord
  2
06___PRT_ALL_SURFS_12
 70
0
 62
7
  6
CONTINUOUS
370
-3
390
F
  0
LAYER
  5
23A
100
AcDbSymbolTableRecord
100
AcDbLayerTableRecord
  2
06___PRT_ALL_SURFS_13
 70
0
 62
7
  6
CONTINUOUS
370
-3
390
F
  0
LAYER
  5
23B
100
AcDbSymbolTableRecord
100
AcDbLayerTableRecord
  2
06___PRT_ALL_SURFS_14
 70
0
 62
7
  6
CONTINUOUS
370
-3
390
F
  0
LAYER
  5
23C
100
AcDbSymbolTableRecord
100
AcDbLayerTableRecord
  2
06___PRT_ALL_SURFS_16
 70
0
 62
7
  6
CONTINUOUS
370
-3
390
F
  0
LAYER
  5
23D
100
AcDbSymbolTableRecord
100
AcDbLayerTableRecord
  2
06___PRT_ALL_SURFS_2
 70
0
 62
7
  6
CONTINUOUS
370
-3
390
F
  0
LAYER
  5
23E
100
AcDbSymbolTableRecord
100
AcDbLayerTableRecord
  2
06___PRT_ALL_SURFS_21
 70
0
 62
7
  6
CONTINUOUS
370
-3
390
F
  0
LAYER
  5
23F
100
AcDbSymbolTableRecord
100
AcDbLayerTableRecord
  2
06___PRT_ALL_SURFS_23
 70
0
 62
7
  6
CONTINUOUS
370
-3
390
F
  0
LAYER
  5
240
100
AcDbSymbolTableRecord
100
AcDbLayerTableRecord
  2
06___PRT_ALL_SURFS_26
 70
0
 62
7
  6
CONTINUOUS
370
-3
390
F
  0
LAYER
  5
241
100
AcDbSymbolTableRecord
100
AcDbLayerTableRecord
  2
06___PRT_ALL_SURFS_3
 70
0
 62
7
  6
CONTINUOUS
370
-3
390
F
  0
LAYER
  5
242
100
AcDbSymbolTableRecord
100
AcDbLayerTableRecord
  2
06___PRT_ALL_SURFS_30
 70
0
 62
7
  6
CONTINUOUS
370
-3
390
F
  0
LAYER
  5
243
100
AcDbSymbolTableRecord
100
AcDbLayerTableRecord
  2
06___PRT_ALL_SURFS_32
 70
0
 62
7
  6
CONTINUOUS
370
-3
390
F
  0
LAYER
  5
244
100
AcDbSymbolTableRecord
100
AcDbLayerTableRecord
  2
06___PRT_ALL_SURFS_33
 70
0
 62
7
  6
CONTINUOUS
370
-3
390
F
  0
LAYER
  5
245
100
AcDbSymbolTableRecord
100
AcDbLayerTableRecord
  2
06___PRT_ALL_SURFS_4
 70
0
 62
7
  6
CONTINUOUS
370
-3
390
F
  0
LAYER
  5
246
100
AcDbSymbolTableRecord
100
AcDbLayerTableRecord
  2
06___PRT_ALL_SURFS_5
 70
0
 62
7
  6
CONTINUOUS
370
-3
390
F
  0
LAYER
  5
247
100
AcDbSymbolTableRecord
100
AcDbLayerTableRecord
  2
06___PRT_ALL_SURFS_7
 70
0
 62
7
  6
CONTINUOUS
370
-3
390
F
  0
LAYER
  5
248
100
AcDbSymbolTableRecord
100
AcDbLayerTableRecord
  2
06___PRT_ALL_SURFS_8
 70
0
 62
7
  6
CONTINUOUS
370
-3
390
F
  0
LAYER
  5
249
100
AcDbSymbolTableRecord
100
AcDbLayerTableRecord
  2
0805_C_REF_145000
 70
0
 62
7
  6
CONTINUOUS
370
-3
390
F
  0
LAYER
  5
24A
100
AcDbSymbolTableRecord
100
AcDbLayerTableRecord
  2
0805_R_REF_60000
 70
0
 62
7
  6
CONTINUOUS
370
-3
390
F
  0
LAYER
  5
24B
100
AcDbSymbolTableRecord
100
AcDbLayerTableRecord
  2
1206_C_REF_180000
 70
0
 62
7
  6
CONTINUOUS
370
-3
390
F
  0
LAYER
  5
24C
100
AcDbSymbolTableRecord
100
AcDbLayerTableRecord
  2
1206_C_REF_180000_1
 70
0
 62
7
  6
CONTINUOUS
370
-3
390
F
  0
LAYER
  5
24D
100
AcDbSymbolTableRecord
100
AcDbLayerTableRecord
  2
1206_C_REF_180000_2
 70
0
 62
7
  6
CONTINUOUS
370
-3
390
F
  0
LAYER
  5
24E
100
AcDbSymbolTableRecord
100
AcDbLayerTableRecord
  2
1206_R_REF_65000
 70
0
 62
7
  6
CONTINUOUS
370
-3
390
F
  0
LAYER
  5
24F
100
AcDbSymbolTableRecord
100
AcDbLayerTableRecord
  2
1210_R_H1_REF_100000
 70
0
 62
7
  6
CONTINUOUS
370
-3
390
F
  0
LAYER
  5
250
100
AcDbSymbolTableRecord
100
AcDbLayerTableRecord
  2
43901083C0
 70
0
 62
7
  6
CONTINUOUS
370
-3
390
F
  0
LAYER
  5
251
100
AcDbSymbolTableRecord
100
AcDbLayerTableRecord
  2
43901084A0
 70
0
 62
7
  6
CONTINUOUS
370
-3
390
F
  0
LAYER
  5
252
100
AcDbSymbolTableRecord
100
AcDbLayerTableRecord
  2
43901084B0
 70
0
 62
7
  6
CONTINUOUS
370
-3
390
F
  0
LAYER
  5
253
100
AcDbSymbolTableRecord
100
AcDbLayerTableRecord
  2
ASSI
 70
0
 62
7
  6
CONTINUOUS
370
-3
390
F
  0
LAYER
  5
254
100
AcDbSymbolTableRecord
100
AcDbLayerTableRecord
  2
CAP-E-6_3-11-2_5_1120000
 70
0
 62
7
  6
CONTINUOUS
370
-3
390
F
  0
LAYER
  5
255
100
AcDbSymbolTableRecord
100
AcDbLayerTableRecord
  2
CAP-E-8_0-11_5-3_5_1200000
 70
0
 62
7
  6
CONTINUOUS
370
-3
390
F
  0
LAYER
  5
256
100
AcDbSymbolTableRecord
100
AcDbLayerTableRecord
  2
CAP-E-8_0-11_5-3_5_1200000_1
 70
0
 62
7
  6
CONTINUOUS
370
-3
390
F
  0
LAYER
  5
257
100
AcDbSymbolTableRecord
100
AcDbLayerTableRecord
  2
CAP-E-SMD-6_6-6_3-7_7_810000
 70
0
 62
7
  6
CONTINUOUS
370
-3
390
F
  0
LAYER
  5
258
100
AcDbSymbolTableRecord
100
AcDbLayerTableRecord
  2
CAP-E-SMD-6_6-6_3-7_7_810000_1
 70
0
 62
7
  6
CONTINUOUS
370
-3
390
F
  0
LAYER
  5
259
100
AcDbSymbolTableRecord
100
AcDbLayerTableRecord
  2
CAP-E-SMD-6_6-6_3-7_7_810000_2
 70
0
 62
7
  6
CONTINUOUS
370
-3
390
F
  0
LAYER
  5
25A
100
AcDbSymbolTableRecord
100
AcDbLayerTableRecord
  2
CN_M_THT_P5_R1_P2_SET_1750000
 70
0
 62
7
  6
CONTINUOUS
370
-3
390
F
  0
LAYER
  5
25B
100
AcDbSymbolTableRecord
100
AcDbLayerTableRecord
  2
CN_M_THT_P5_R1_P2_SET_1750000_1
 70
0
 62
7
  6
CONTINUOUS
370
-3
390
F
  0
LAYER
  5
25C
100
AcDbSymbolTableRecord
100
AcDbLayerTableRecord
  2
CN_M_THT_P5_R1_P2_SET_1750000_2
 70
0
 62
7
  6
CONTINUOUS
370
-3
390
F
  0
LAYER
  5
25D
100
AcDbSymbolTableRecord
100
AcDbLayerTableRecord
  2
COLOR1
 70
0
 62
7
  6
CONTINUOUS
370
-3
390
F
  0
LAYER
  5
25E
100
AcDbSymbolTableRecord
100
AcDbLayerTableRecord
  2
COLOR14
 70
0
 62
7
  6
CONTINUOUS
370
-3
390
F
  0
LAYER
  5
25F
100
AcDbSymbolTableRecord
100
AcDbLayerTableRecord
  2
COLOR2
 70
0
 62
7
  6
CONTINUOUS
370
-3
390
F
  0
LAYER
  5
260
100
AcDbSymbolTableRecord
100
AcDbLayerTableRecord
  2
COLOR47
 70
0
 62
7
  6
CONTINUOUS
370
-3
390
F
  0
LAYER
  5
261
100
AcDbSymbolTableRecord
100
AcDbLayerTableRecord
  2
COLOR5
 70
0
 62
7
  6
CONTINUOUS
370
-3
390
F
  0
LAYER
  5
262
100
AcDbSymbolTableRecord
100
AcDbLayerTableRecord
  2
COLOR66
 70
0
 62
7
  6
CONTINUOUS
370
-3
390
F
  0
LAYER
  5
263
100
AcDbSymbolTableRecord
100
AcDbLayerTableRecord
  2
COORDINATE
 70
0
 62
7
  6
CONTINUOUS
370
-3
390
F
  0
LAYER
  5
264
100
AcDbSymbolTableRecord
100
AcDbLayerTableRecord
  2
COORD_ORIGINE
 70
0
 62
7
  6
CONTINUOUS
370
-3
390
F
  0
LAYER
  5
265
100
AcDbSymbolTableRecord
100
AcDbLayerTableRecord
  2
COPY_PUBLISH
 70
0
 62
7
  6
CONTINUOUS
370
-3
390
F
  0
LAYER
  5
266
100
AcDbSymbolTableRecord
100
AcDbLayerTableRecord
  2
COSMETIC
 70
0
 62
7
  6
CONTINUOUS
370
-3
390
F
  0
LAYER
  5
267
100
AcDbSymbolTableRecord
100
AcDbLayerTableRecord
  2
COSMETICI
 70
0
 62
7
  6
CONTINUOUS
370
-3
390
F
  0
LAYER
  5
268
100
AcDbSymbolTableRecord
100
AcDbLayerTableRecord
  2
CURVE
 70
0
 62
7
  6
CONTINUOUS
370
-3
390
F
  0
LAYER
  5
269
100
AcDbSymbolTableRecord
100
AcDbLayerTableRecord
  2
DB-SMD-ABS_145000
 70
0
 62
7
  6
CONTINUOUS
370
-3
390
F
  0
LAYER
  5
26A
100
AcDbSymbolTableRecord
100
AcDbLayerTableRecord
  2
DL_RGB_1_6-1_6-0_5MM_50000
 70
0
 62
7
  6
CONTINUOUS
370
-3
390
F
  0
LAYER
  5
26B
100
AcDbSymbolTableRecord
100
AcDbLayerTableRecord
  2
DO-214AC_230000
 70
0
 62
7
  6
CONTINUOUS
370
-3
390
F
  0
LAYER
  5
26C
100
AcDbSymbolTableRecord
100
AcDbLayerTableRecord
  2
DRAFT
 70
0
 62
7
  6
CONTINUOUS
370
-3
390
F
  0
LAYER
  5
26D
100
AcDbSymbolTableRecord
100
AcDbLayerTableRecord
  2
FSN-05_2540000
 70
0
 62
7
  6
CONTINUOUS
370
-3
390
F
  0
LAYER
  5
26E
100
AcDbSymbolTableRecord
100
AcDbLayerTableRecord
  2
GEOMETRIA_SOLIDA
 70
0
 62
7
  6
CONTINUOUS
370
-3
390
F
  0
LAYER
  5
26F
100
AcDbSymbolTableRecord
100
AcDbLayerTableRecord
  2
GEOMETRIA_SOLIDA_1
 70
0
 62
7
  6
CONTINUOUS
370
-3
390
F
  0
LAYER
  5
270
100
AcDbSymbolTableRecord
100
AcDbLayerTableRecord
  2
GEOMETRIA_SOLIDA_10
 70
0
 62
7
  6
CONTINUOUS
370
-3
390
F
  0
LAYER
  5
271
100
AcDbSymbolTableRecord
100
AcDbLayerTableRecord
  2
GEOMETRIA_SOLIDA_2
 70
0
 62
7
  6
CONTINUOUS
370
-3
390
F
  0
LAYER
  5
272
100
AcDbSymbolTableRecord
100
AcDbLayerTableRecord
  2
GEOMETRIA_SOLIDA_3
 70
0
 62
7
  6
CONTINUOUS
370
-3
390
F
  0
LAYER
  5
273
100
AcDbSymbolTableRecord
100
AcDbLayerTableRecord
  2
GEOMETRIA_SOLIDA_4
 70
0
 62
7
  6
CONTINUOUS
370
-3
390
F
  0
LAYER
  5
274
100
AcDbSymbolTableRecord
100
AcDbLayerTableRecord
  2
GEOMETRIA_SOLIDA_5
 70
0
 62
7
  6
CONTINUOUS
370
-3
390
F
  0
LAYER
  5
275
100
AcDbSymbolTableRecord
100
AcDbLayerTableRecord
  2
GEOMETRIA_SOLIDA_6
 70
0
 62
7
  6
CONTINUOUS
370
-3
390
F
  0
LAYER
  5
276
100
AcDbSymbolTableRecord
100
AcDbLayerTableRecord
  2
GEOMETRIA_SOLIDA_7
 70
0
 62
7
  6
CONTINUOUS
370
-3
390
F
  0
LAYER
  5
277
100
AcDbSymbolTableRecord
100
AcDbLayerTableRecord
  2
GEOMETRIA_SOLIDA_8
 70
0
 62
7
  6
CONTINUOUS
370
-3
390
F
  0
LAYER
  5
278
100
AcDbSymbolTableRecord
100
AcDbLayerTableRecord
  2
GEOMETRIA_SOLIDA_9
 70
0
 62
7
  6
CONTINUOUS
370
-3
390
F
  0
LAYER
  5
279
100
AcDbSymbolTableRecord
100
AcDbLayerTableRecord
  2
GRAFICA
 70
0
 62
7
  6
CONTINUOUS
370
-3
390
F
  0
LAYER
  5
27A
100
AcDbSymbolTableRecord
100
AcDbLayerTableRecord
  2
IGES_HOLGER
 70
0
 62
7
  6
CONTINUOUS
370
-3
390
F
  0
LAYER
  5
27B
100
AcDbSymbolTableRecord
100
AcDbLayerTableRecord
  2
IMPORT_IGES
 70
0
 62
7
  6
CONTINUOUS
370
-3
390
F
  0
LAYER
  5
27C
100
AcDbSymbolTableRecord
100
AcDbLayerTableRecord
  2
INTFCLR_1
 70
0
 62
7
  6
CONTINUOUS
370
-3
390
F
  0
LAYER
  5
27D
100
AcDbSymbolTableRecord
100
AcDbLayerTableRecord
  2
INTFCLR_3
 70
0
 62
7
  6
CONTINUOUS
370
-3
390
F
  0
LAYER
  5
27E
100
AcDbSymbolTableRecord
100
AcDbLayerTableRecord
  2
INTFCLR_4
 70
0
 62
7
  6
CONTINUOUS
370
-3
390
F
  0
LAYER
  5
27F
100
AcDbSymbolTableRecord
100
AcDbLayerTableRecord
  2
INTFCLR_5
 70
0
 62
7
  6
CONTINUOUS
370
-3
390
F
  0
LAYER
  5
280
100
AcDbSymbolTableRecord
100
AcDbLayerTableRecord
  2
INTFCLR_6
 70
0
 62
7
  6
CONTINUOUS
370
-3
390
F
  0
LAYER
  5
281
100
AcDbSymbolTableRecord
100
AcDbLayerTableRecord
  2
INTF_1
 70
0
 62
7
  6
CONTINUOUS
370
-3
390
F
  0
LAYER
  5
282
100
AcDbSymbolTableRecord
100
AcDbLayerTableRecord
  2
INTF_12
 70
0
 62
7
  6
CONTINUOUS
370
-3
390
F
  0
LAYER
  5
283
100
AcDbSymbolTableRecord
100
AcDbLayerTableRecord
  2
INTF_2
 70
0
 62
7
  6
CONTINUOUS
370
-3
390
F
  0
LAYER
  5
284
100
AcDbSymbolTableRecord
100
AcDbLayerTableRecord
  2
INTF_3
 70
0
 62
7
  6
CONTINUOUS
370
-3
390
F
  0
LAYER
  5
285
100
AcDbSymbolTableRecord
100
AcDbLayerTableRecord
  2
INTF_4
 70
0
 62
7
  6
CONTINUOUS
370
-3
390
F
  0
LAYER
  5
286
100
AcDbSymbolTableRecord
100
AcDbLayerTableRecord
  2
INTF_6
 70
0
 62
7
  6
CONTINUOUS
370
-3
390
F
  0
LAYER
  5
287
100
AcDbSymbolTableRecord
100
AcDbLayerTableRecord
  2
INTF_8
 70
0
 62
7
  6
CONTINUOUS
370
-3
390
F
  0
LAYER
  5
288
100
AcDbSymbolTableRecord
100
AcDbLayerTableRecord
  2
INTF_YELLOW
 70
0
 62
7
  6
CONTINUOUS
370
-3
390
F
  0
LAYER
  5
289
100
AcDbSymbolTableRecord
100
AcDbLayerTableRecord
  2
MINIMELF_R_REF_140000
 70
0
 62
7
  6
CONTINUOUS
370
-3
390
F
  0
LAYER
  5
28A
100
AcDbSymbolTableRecord
100
AcDbLayerTableRecord
  2
MINIMELF_R_REF_140000_1
 70
0
 62
7
  6
CONTINUOUS
370
-3
390
F
  0
LAYER
  5
28B
100
AcDbSymbolTableRecord
100
AcDbLayerTableRecord
  2
NOTE
 70
0
 62
7
  6
CONTINUOUS
370
-3
390
F
  0
LAYER
  5
28C
100
AcDbSymbolTableRecord
100
AcDbLayerTableRecord
  2
PIANI
 70
0
 62
7
  6
CONTINUOUS
370
-3
390
F
  0
LAYER
  5
28D
100
AcDbSymbolTableRecord
100
AcDbLayerTableRecord
  2
PIANI_ORIGINE
 70
0
 62
7
  6
CONTINUOUS
370
-3
390
F
  0
LAYER
  5
28E
100
AcDbSymbolTableRecord
100
AcDbLayerTableRecord
  2
PIANI_RIFERIMENTO
 70
0
 62
7
  6
CONTINUOUS
370
-3
390
F
  0
LAYER
  5
28F
100
AcDbSymbolTableRecord
100
AcDbLayerTableRecord
  2
PTC_EPCOS_B57153S0100M051_13000
 70
0
 62
7
  6
CONTINUOUS
370
-3
390
F
  0
LAYER
  5
290
100
AcDbSymbolTableRecord
100
AcDbLayerTableRecord
  2
PUNTI
 70
0
 62
7
  6
CONTINUOUS
370
-3
390
F
  0
LAYER
  5
291
100
AcDbSymbolTableRecord
100
AcDbLayerTableRecord
  2
P_4_5X9_H5_SMD_500000
 70
0
 62
7
  6
CONTINUOUS
370
-3
390
F
  0
LAYER
  5
292
100
AcDbSymbolTableRecord
100
AcDbLayerTableRecord
  2
RACCORDO
 70
0
 62
7
  6
CONTINUOUS
370
-3
390
F
  0
LAYER
  5
293
100
AcDbSymbolTableRecord
100
AcDbLayerTableRecord
  2
RGB__255__255__255__
 70
0
 62
7
  6
CONTINUOUS
370
-3
390
F
  0
LAYER
  5
294
100
AcDbSymbolTableRecord
100
AcDbLayerTableRecord
  2
RGB____0____0____0__
 70
0
 62
7
  6
CONTINUOUS
370
-3
390
F
  0
LAYER
  5
295
100
AcDbSymbolTableRecord
100
AcDbLayerTableRecord
  2
SC70-6_REF_H1_1_110000
 70
0
 62
7
  6
CONTINUOUS
370
-3
390
F
  0
LAYER
  5
296
100
AcDbSymbolTableRecord
100
AcDbLayerTableRecord
  2
SC88-6_REF_H1_1_110000
 70
0
 62
7
  6
CONTINUOUS
370
-3
390
F
  0
LAYER
  5
297
100
AcDbSymbolTableRecord
100
AcDbLayerTableRecord
  2
SIMBOLI
 70
0
 62
7
  6
CONTINUOUS
370
-3
390
F
  0
LAYER
  5
298
100
AcDbSymbolTableRecord
100
AcDbLayerTableRecord
  2
SMUSSO
 70
0
 62
7
  6
CONTINUOUS
370
-3
390
F
  0
LAYER
  5
299
100
AcDbSymbolTableRecord
100
AcDbLayerTableRecord
  2
SO8-5_0-6_2-1_75-REF_175000
 70
0
 62
7
  6
CONTINUOUS
370
-3
390
F
  0
LAYER
  5
29A
100
AcDbSymbolTableRecord
100
AcDbLayerTableRecord
  2
SOD123_REF_140000
 70
0
 62
7
  6
CONTINUOUS
370
-3
390
F
  0
LAYER
  5
29B
100
AcDbSymbolTableRecord
100
AcDbLayerTableRecord
  2
SOT23-5_REF_H1_5_150000
 70
0
 62
7
  6
CONTINUOUS
370
-3
390
F
  0
LAYER
  5
29C
100
AcDbSymbolTableRecord
100
AcDbLayerTableRecord
  2
SOT89_REF_H1_6_160000
 70
0
 62
7
  6
CONTINUOUS
370
-3
390
F
  0
LAYER
  5
29D
100
AcDbSymbolTableRecord
100
AcDbLayerTableRecord
  2
SOT89_REF_H1_6_160000_1
 70
0
 62
7
  6
CONTINUOUS
370
-3
390
F
  0
LAYER
  5
29E
100
AcDbSymbolTableRecord
100
AcDbLayerTableRecord
  2
SUB_SMA_143000
 70
0
 62
7
  6
CONTINUOUS
370
-3
390
F
  0
LAYER
  5
29F
100
AcDbSymbolTableRecord
100
AcDbLayerTableRecord
  2
SUB_SMA_143000_1
 70
0
 62
7
  6
CONTINUOUS
370
-3
390
F
  0
LAYER
  5
2A0
100
AcDbSymbolTableRecord
100
AcDbLayerTableRecord
  2
SUPERFICI
 70
0
 62
7
  6
CONTINUOUS
370
-3
390
F
  0
LAYER
  5
2A1
100
AcDbSymbolTableRecord
100
AcDbLayerTableRecord
  2
TP-RND-1_5_1000
 70
0
 62
7
  6
CONTINUOUS
370
-3
390
F
  0
LAYER
  5
2A2
100
AcDbSymbolTableRecord
100
AcDbLayerTableRecord
  2
TP-RND-1_5_1000_1
 70
0
 62
7
  6
CONTINUOUS
370
-3
390
F
  0
LAYER
  5
2A3
100
AcDbSymbolTableRecord
100
AcDbLayerTableRecord
  2
TP-RND-1_5_1000_2
 70
0
 62
7
  6
CONTINUOUS
370
-3
390
F
  0
LAYER
  5
2A4
100
AcDbSymbolTableRecord
100
AcDbLayerTableRecord
  2
TP-RND-1_5_1000_3
 70
0
 62
7
  6
CONTINUOUS
370
-3
390
F
  0
LAYER
  5
2A5
100
AcDbSymbolTableRecord
100
AcDbLayerTableRecord
  2
TP-RND-1_5_1000_4
 70
0
 62
7
  6
CONTINUOUS
370
-3
390
F
  0
LAYER
  5
2A6
100
AcDbSymbolTableRecord
100
AcDbLayerTableRecord
  2
TP-RND-1_5_1000_5
 70
0
 62
7
  6
CONTINUOUS
370
-3
390
F
  0
LAYER
  5
2A7
100
AcDbSymbolTableRecord
100
AcDbLayerTableRecord
  2
TP-RND-1_5_1000_6
 70
0
 62
7
  6
CONTINUOUS
370
-3
390
F
  0
LAYER
  5
2A8
100
AcDbSymbolTableRecord
100
AcDbLayerTableRecord
  2
TP_PROGRAMMAZIONE_SWD_1000
 70
0
 62
7
  6
CONTINUOUS
370
-3
390
F
  0
LAYER
  5
2A9
100
AcDbSymbolTableRecord
100
AcDbLayerTableRecord
  2
TP_PROGRAMMAZIONE_SWD_1000_1
 70
0
 62
7
  6
CONTINUOUS
370
-3
390
F
  0
LAYER
  5
2AA
100
AcDbSymbolTableRecord
100
AcDbLayerTableRecord
  2
TRASH
 70
0
 62
7
  6
CONTINUOUS
370
-3
390
F
  0
LAYER
  5
2AB
100
AcDbSymbolTableRecord
100
AcDbLayerTableRecord
  2
VAR_S07_D9_S3_6_H11_1100000
 70
0
 62
7
  6
CONTINUOUS
370
-3
390
F
  0
LAYER
  5
2AC
100
AcDbSymbolTableRecord
100
AcDbLayerTableRecord
  2
VG_CAP-REC-18_0-5_0-11_0-15_0-0
 70
0
 62
7
  6
CONTINUOUS
370
-3
390
F
  0
LAYER
  5
2AD
100
AcDbSymbolTableRecord
100
AcDbLayerTableRecord
  2
VG_CAP-RND-8_0-12_5-8_0-10_0-0_
 70
0
 62
7
  6
CONTINUOUS
370
-3
390
F
  0
LAYER
  5
2AE
100
AcDbSymbolTableRecord
100
AcDbLayerTableRecord
  2
VG_FUSE_8_5X4_3_H7_85_805000
 70
0
 62
7
  6
CONTINUOUS
370
-3
390
F
  0
LAYER
  5
2AF
100
AcDbSymbolTableRecord
100
AcDbLayerTableRecord
  2
VG_IND-CHIP-0402-POL-1_0-REF_10
 70
0
 62
7
  6
CONTINUOUS
370
-3
390
F
  0
LAYER
  5
2B0
100
AcDbSymbolTableRecord
100
AcDbLayerTableRecord
  2
VG_IND-CHIP-0402-POL-1_0-REF__1
 70
0
 62
7
  6
CONTINUOUS
370
-3
390
F
  0
LAYER
  5
2B1
100
AcDbSymbolTableRecord
100
AcDbLayerTableRecord
  2
VG_IND-RAD-7_8-9_5-5_0-0_7_1000
 70
0
 62
7
  6
CONTINUOUS
370
-3
390
F
  0
LAYER
  5
2B2
100
AcDbSymbolTableRecord
100
AcDbLayerTableRecord
  2
VG_INSOP24D-9_4-13_43-1_6-0_75-
 70
0
 62
7
  6
CONTINUOUS
370
-3
390
F
  0
LAYER
  5
2B3
100
AcDbSymbolTableRecord
100
AcDbLayerTableRecord
  2
VG_K_THT_20A_1FORM-A_2650000
 70
0
 62
7
  6
CONTINUOUS
370
-3
390
F
  0
LAYER
  5
2B4
100
AcDbSymbolTableRecord
100
AcDbLayerTableRecord
  2
VG_POWER56_110000
 70
0
 62
7
  6
CONTINUOUS
370
-3
390
F
  0
LAYER
  5
2B5
100
AcDbSymbolTableRecord
100
AcDbLayerTableRecord
  2
VG_QCS5F_40000
 70
0
 62
7
  6
CONTINUOUS
370
-3
390
F
  0
LAYER
  5
2B6
100
AcDbSymbolTableRecord
100
AcDbLayerTableRecord
  2
VG_QFN73-7_0-7_0-7_0-7_0-0_85-0
 70
0
 62
7
  6
CONTINUOUS
370
-3
390
F
  0
LAYER
  5
2B7
100
AcDbSymbolTableRecord
100
AcDbLayerTableRecord
  2
VG_SOT23_H1_1_REF_110000
 70
0
 62
7
  6
CONTINUOUS
370
-3
390
F
  0
LAYER
  5
2B8
100
AcDbSymbolTableRecord
100
AcDbLayerTableRecord
  2
VG_SOT23_H1_1_REF_110000_1
 70
0
 62
7
  6
CONTINUOUS
370
-3
390
F
  0
LAYER
  5
2B9
100
AcDbSymbolTableRecord
100
AcDbLayerTableRecord
  2
VG_SOT23_H1_1_REF_110000_2
 70
0
 62
7
  6
CONTINUOUS
370
-3
390
F
  0
LAYER
  5
2BA
100
AcDbSymbolTableRecord
100
AcDbLayerTableRecord
  2
VG_SOT23_H1_2_REF_120000
 70
0
 62
7
  6
CONTINUOUS
370
-3
390
F
  0
LAYER
  5
2BB
100
AcDbSymbolTableRecord
100
AcDbLayerTableRecord
  2
VG_TRA_RM6S_3_1250000
 70
0
 62
7
  6
CONTINUOUS
370
-3
390
F
  0
LAYER
  5
2BC
100
AcDbSymbolTableRecord
100
AcDbLayerTableRecord
  2
VG_USON-8L-4_1-4_1-0_6-EXPPAD_6
 70
0
 62
7
  6
CONTINUOUS
370
-3
390
F
  0
LAYER
  5
2BD
100
AcDbSymbolTableRecord
100
AcDbLayerTableRecord
  2
VG_X-SMT-2-3_2-1_5-1_0_100000
 70
0
 62
7
  6
CONTINUOUS
370
-3
390
F
  0
LAYER
  5
2BE
100
AcDbSymbolTableRecord
100
AcDbLayerTableRecord
  2
VG_X-SMT-2-5_0-3_2-1_5_150000
 70
0
 62
7
  6
CONTINUOUS
370
-3
390
F
  0
LAYER
  5
2BF
100
AcDbSymbolTableRecord
100
AcDbLayerTableRecord
  2
WHITE
 70
0
 62
7
  6
CONTINUOUS
370
-3
390
F
  0
LAYER
  5
2C0
100
AcDbSymbolTableRecord
100
AcDbLayerTableRecord
  2
___SHELL
 70
0
 62
7
  6
CONTINUOUS
370
-3
390
F
  0
ENDTAB
  0
TABLE
  2
STYLE
  5
3
100
AcDbSymbolTable
 70
1
  0
STYLE
  5
11
100
AcDbSymbolTableRecord
100
AcDbTextStyleTableRecord
  2
STANDARD
 70
0
 40
0.0
 41
0.8
 50
0.0
 71
0
 42
0.2
  3
txt
  4

  0
STYLE
  5
2C1
100
AcDbSymbolTableRecord
100
AcDbTextStyleTableRecord
  2
TEXTSTYLE_1
 70
0
 40
0.0
 41
0.8
 50
0.0
 71
0
 42
0.2
  3
gdt
  4

  0
ENDTAB
  0
TABLE
  2
VIEW
  5
6
100
AcDbSymbolTable
 70
0
  0
ENDTAB
  0
TABLE
  2
UCS
  5
7
100
AcDbSymbolTable
 70
0
  0
ENDTAB
  0
TABLE
  2
APPID
  5
9
100
AcDbSymbolTable
 70
1
  0
APPID
  5
2C2
100
AcDbSymbolTableRecord
100
AcDbRegAppTableRecord
  2
ACAD
 70
0
  0
ENDTAB
  0
TABLE
  2
BLOCK_RECORD
  5
1
100
AcDbSymbolTable
 70
0
  0
BLOCK_RECORD
  5
2C3
100
AcDbSymbolTableRecord
100
AcDbBlockTableRecord
  2
*Model_Space
  0
BLOCK_RECORD
  5
2C4
100
AcDbSymbolTableRecord
100
AcDbBlockTableRecord
  2
*Paper_Space
  0
BLOCK_RECORD
  5
2C5
100
AcDbSymbolTableRecord
100
AcDbBlockTableRecord
  2
_FILLED
  0
ENDTAB
  0
TABLE
  2
DIMSTYLE
  5
A
100
AcDbSymbolTable
 70
1
100
AcDbDimStyleTable
 71
0
  0
DIMSTYLE
105
2C6
100
AcDbSymbolTableRecord
100
AcDbDimStyleTableRecord
  2
STANDARD
 70
0
  3

  4

 40
1.0
 41
3.0
 42
0.5
 43
0.38
 44
1.5
 45
0.0
 46
0.0
 47
0.01
 48
0.01
140
3.0
141
0.09
142
0.0
143
25.4
144
1.0
145
0.0
146
1.0
147
0.625
 71
1
 72
0
 73
0
 74
0
 75
0
 76
0
 77
1
 78
8
 79
2
170
0
171
1
172
0
173
0
174
0
175
0
176
0
177
0
178
0
270
2
179
2
271
2
272
2
273
2
274
2
275
0
280
0
281
0
282
0
283
1
284
8
285
0
286
0
287
3
288
0
340
11
278
44
341
2C5
342
2C5
343
2C5
344
2C5
  0
ENDTAB
  0
ENDSEC
  0
SECTION
  2
BLOCKS
  0
BLOCK
  5
20
100
AcDbEntity
  8
0
100
AcDbBlockBegin
  2
*Model_Space
 70
0
 10
0.0
 20
0.0
 30
0.0
  3
*Model_Space
  1

  0
ENDBLK
  5
21
100
AcDbEntity
  8
0
100
AcDbBlockEnd
  0
BLOCK
  5
1C
100
AcDbEntity
  8
0
100
AcDbBlockBegin
  2
*Paper_Space
 70
0
 10
0.0
 20
0.0
 30
0.0
  3
*Paper_Space
  1

  0
ENDBLK
  5
1D
100
AcDbEntity
  8
0
100
AcDbBlockEnd
  0
BLOCK
  5
2C7
100
AcDbEntity
  8
0
100
AcDbBlockBegin
  2
_FILLED
 70
64
 10
0.0
 20
0.0
  3
_FILLED
  1

  0
SOLID
  5
2C8
100
AcDbEntity
  8
0
  6
BYBLOCK
 62
0
100
AcDbTrace
 10
0.0
 20
0.0
 11
-1.0
 21
0.3166666667
 12
-1.0
 22
-0.3166666667
 13
-1.0
 23
-0.3166666667
  0
ENDBLK
  5
2C9
100
AcDbEntity
  8
0
  6
BYBLOCK
 62
0
100
AcDbBlockEnd
  0
ENDSEC
  0
SECTION
  2
ENTITIES
  0
LINE
  5
2CA
100
AcDbEntity
  8
RACCORDO
100
AcDbLine
 62
7
  6
CONTINUOUS
 10
16.9001523048
 20
-54.9
 11
-6.4476348052
 21
-54.9
  0
LINE
  5
2CB
100
AcDbEntity
  8
RACCORDO
100
AcDbLine
 62
7
  6
CONTINUOUS
 10
-16.5523651948
 20
-54.9
 11
-16.9001523048
 21
-54.9
  0
LINE
  5
2CC
100
AcDbEntity
  8
DRAFT
100
AcDbLine
 62
7
  6
CONTINUOUS
 10
-6.5
 20
-54.8476348052
 11
-16.5
 21
-54.8476348052
  0
LINE
  5
2CD
100
AcDbEntity
  8
RACCORDO
100
AcDbLine
 62
7
  6
CONTINUOUS
 10
16.7954219153
 20
-54.7952696104
 11
-16.7954219153
 21
-54.7952696104
  0
LINE
  5
2CE
100
AcDbEntity
  8
0
100
AcDbLine
 62
7
  6
CONTINUOUS
 10
4.5
 20
-54.0
 11
-4.5
 21
-54.0
  0
LINE
  5
2CF
100
AcDbEntity
  8
0
100
AcDbLine
 62
7
  6
CONTINUOUS
 10
16.445
 20
-53.5
 11
5.5
 21
-53.5
  0
LINE
  5
2D0
100
AcDbEntity
  8
0
100
AcDbLine
 62
7
  6
CONTINUOUS
 10
-10.5
 20
-52.9
 11
-12.5
 21
-52.9
  0
LINE
  5
2D1
100
AcDbEntity
  8
RACCORDO
100
AcDbLine
 62
7
  6
CONTINUOUS
 10
3.9000761524
 20
-50.1
 11
-3.9000761524
 21
-50.1
  0
LINE
  5
2D2
100
AcDbEntity
  8
RACCORDO
100
AcDbLine
 62
7
  6
CONTINUOUS
 10
3.8250193732
 20
-50.0249432208
 11
-3.8250193732
 21
-50.0249432208
  0
LINE
  5
2D3
100
AcDbEntity
  8
0
100
AcDbLine
 62
7
  6
CONTINUOUS
 10
-12.5
 20
-48.9
 11
-10.5
 21
-48.9
  0
LINE
  5
2D4
100
AcDbEntity
  8
DRAFT
100
AcDbLine
 62
7
  6
CONTINUOUS
 10
-3.3110927272
 20
-48.6
 11
3.3110927272
 21
-48.6
  0
LINE
  5
2D5
100
AcDbEntity
  8
0
100
AcDbLine
 62
7
  6
CONTINUOUS
 10
16.445
 20
-47.2
 11
14.245
 21
-47.2
  0
LINE
  5
2D6
100
AcDbEntity
  8
RACCORDO
100
AcDbLine
 62
7
  6
CONTINUOUS
 10
4.5
 20
-46.75
 11
4.4
 21
-46.75
  0
LINE
  5
2D7
100
AcDbEntity
  8
RACCORDO
100
AcDbLine
 62
7
  6
CONTINUOUS
 10
3.2360359481
 20
-46.75
 11
-3.2360359481
 21
-46.75
  0
LINE
  5
2D8
100
AcDbEntity
  8
RACCORDO
100
AcDbLine
 62
7
  6
CONTINUOUS
 10
-4.4
 20
-46.75
 11
-4.5
 21
-46.75
  0
LINE
  5
2D9
100
AcDbEntity
  8
DRAFT
100
AcDbLine
 62
7
  6
CONTINUOUS
 10
5.5
 20
-46.6
 11
16.445
 21
-46.6
  0
LINE
  5
2DA
100
AcDbEntity
  8
DRAFT
100
AcDbLine
 62
7
  6
CONTINUOUS
 10
3.2622185454
 20
-46.4
 11
-3.2622185454
 21
-46.4
  0
LINE
  5
2DB
100
AcDbEntity
  8
DRAFT
100
AcDbLine
 62
7
  6
CONTINUOUS
 10
4.5
 20
-45.25
 11
4.4
 21
-45.25
  0
LINE
  5
2DC
100
AcDbEntity
  8
DRAFT
100
AcDbLine
 62
7
  6
CONTINUOUS
 10
-4.4
 20
-45.25
 11
-4.5
 21
-45.25
  0
LINE
  5
2DD
100
AcDbEntity
  8
DRAFT
100
AcDbLine
 62
7
  6
CONTINUOUS
 10
4.5
 20
-45.1993841668
 11
4.4
 21
-45.1993841668
  0
LINE
  5
2DE
100
AcDbEntity
  8
DRAFT
100
AcDbLine
 62
7
  6
CONTINUOUS
 10
-4.4
 20
-45.1993841668
 11
-4.5
 21
-45.1993841668
  0
LINE
  5
2DF
100
AcDbEntity
  8
DRAFT
100
AcDbLine
 62
250
  6
CONTINUOUS
 10
12.7150898701
 20
-44.75
 11
12.75
 21
-44.75
  0
LINE
  5
2E0
100
AcDbEntity
  8
0
100
AcDbLine
 62
7
  6
CONTINUOUS
 10
-4.5
 20
-44.7
 11
-4.4
 21
-44.7
  0
LINE
  5
2E1
100
AcDbEntity
  8
0
100
AcDbLine
 62
7
  6
CONTINUOUS
 10
4.4
 20
-44.7
 11
4.5
 21
-44.7
  0
LINE
  5
2E2
100
AcDbEntity
  8
0
100
AcDbLine
 62
7
  6
CONTINUOUS
 10
-4.5
 20
-43.7
 11
-3.65
 21
-43.7
  0
LINE
  5
2E3
100
AcDbEntity
  8
0
100
AcDbLine
 62
7
  6
CONTINUOUS
 10
3.65
 20
-43.7
 11
4.5
 21
-43.7
  0
LINE
  5
2E4
100
AcDbEntity
  8
DRAFT
100
AcDbLine
 62
7
  6
CONTINUOUS
 10
-6.4476348052
 20
-54.9
 11
-6.5
 21
-54.8476348052
  0
LINE
  5
2E5
100
AcDbEntity
  8
DRAFT
100
AcDbLine
 62
7
  6
CONTINUOUS
 10
-17.7952696104
 20
36.1047303896
 11
-17.9
 21
36.0
  0
LINE
  5
2E6
100
AcDbEntity
  8
DRAFT
100
AcDbLine
 62
7
  6
CONTINUOUS
 10
-3.2622185454
 20
-41.6
 11
3.2622185454
 21
-41.6
  0
LINE
  5
2E7
100
AcDbEntity
  8
IMPORT_IGES
100
AcDbLine
 62
7
  6
CONTINUOUS
 10
-3.15
 20
-40.36
 11
-3.2360359481
 21
-40.36
  0
LINE
  5
2E8
100
AcDbEntity
  8
IMPORT_IGES
100
AcDbLine
 62
7
  6
CONTINUOUS
 10
-3.15
 20
-39.85
 11
-3.2360359481
 21
-39.85
  0
LINE
  5
2E9
100
AcDbEntity
  8
IMPORT_IGES
100
AcDbLine
 62
7
  6
CONTINUOUS
 10
-3.15
 20
-39.09
 11
-3.2360359481
 21
-39.09
  0
LINE
  5
2EA
100
AcDbEntity
  8
IMPORT_IGES
100
AcDbLine
 62
7
  6
CONTINUOUS
 10
-3.15
 20
-38.58
 11
-3.2360359481
 21
-38.58
  0
LINE
  5
2EB
100
AcDbEntity
  8
DRAFT
100
AcDbLine
 62
7
  6
CONTINUOUS
 10
-17.7952696104
 20
-36.1047303896
 11
-17.9
 21
-36.0
  0
LINE
  5
2EC
100
AcDbEntity
  8
IMPORT_IGES
100
AcDbLine
 62
7
  6
CONTINUOUS
 10
-3.15
 20
-37.82
 11
-3.2360359481
 21
-37.82
  0
LINE
  5
2ED
100
AcDbEntity
  8
IMPORT_IGES
100
AcDbLine
 62
7
  6
CONTINUOUS
 10
-3.15
 20
-37.31
 11
-3.2360359481
 21
-37.31
  0
LINE
  5
2EE
100
AcDbEntity
  8
IMPORT_IGES
100
AcDbLine
 62
7
  6
CONTINUOUS
 10
-3.15
 20
-36.55
 11
-3.2360359481
 21
-36.55
  0
LINE
  5
2EF
100
AcDbEntity
  8
DRAFT
100
AcDbLine
 62
7
  6
CONTINUOUS
 10
-17.7952696104
 20
-36.1047303896
 11
-16.4884011428
 21
-36.1047303896
  0
LINE
  5
2F0
100
AcDbEntity
  8
DRAFT
100
AcDbLine
 62
7
  6
CONTINUOUS
 10
17.7952696104
 20
-36.1047303896
 11
16.4884011428
 21
-36.1047303896
  0
LINE
  5
2F1
100
AcDbEntity
  8
IMPORT_IGES
100
AcDbLine
 62
7
  6
CONTINUOUS
 10
-3.15
 20
-36.04
 11
-3.2360359481
 21
-36.04
  0
LINE
  5
2F2
100
AcDbEntity
  8
DRAFT
100
AcDbLine
 62
7
  6
CONTINUOUS
 10
-17.1976348052
 20
-36.0261825974
 11
-16.4884011428
 21
-36.0261825974
  0
LINE
  5
2F3
100
AcDbEntity
  8
DRAFT
100
AcDbLine
 62
7
  6
CONTINUOUS
 10
17.1976348052
 20
-36.0261825974
 11
16.4884011428
 21
-36.0261825974
  0
LINE
  5
2F4
100
AcDbEntity
  8
DRAFT
100
AcDbLine
 62
7
  6
CONTINUOUS
 10
-17.9
 20
-36.0
 11
-17.2238174026
 21
-36.0
  0
LINE
  5
2F5
100
AcDbEntity
  8
DRAFT
100
AcDbLine
 62
7
  6
CONTINUOUS
 10
17.9
 20
-36.0
 11
17.2238174026
 21
-36.0
  0
LINE
  5
2F6
100
AcDbEntity
  8
RACCORDO
100
AcDbLine
 62
7
  6
CONTINUOUS
 10
16.6483680519
 20
-35.9
 11
17.9
 21
-35.9
  0
LINE
  5
2F7
100
AcDbEntity
  8
RACCORDO
100
AcDbLine
 62
7
  6
CONTINUOUS
 10
-16.6483680519
 20
-35.9
 11
-17.9
 21
-35.9
  0
LINE
  5
2F8
100
AcDbEntity
  8
DRAFT
100
AcDbLine
 62
7
  6
CONTINUOUS
 10
-16.5174550649
 20
-35.2
 11
-16.4884011428
 21
-35.2
  0
LINE
  5
2F9
100
AcDbEntity
  8
DRAFT
100
AcDbLine
 62
7
  6
CONTINUOUS
 10
16.5174550649
 20
-35.2
 11
16.4884011428
 21
-35.2
  0
LINE
  5
2FA
100
AcDbEntity
  8
RACCORDO
100
AcDbLine
 62
250
  6
CONTINUOUS
 10
-17.7987606234
 20
-34.9
 11
-16.7321523635
 21
-34.9
  0
LINE
  5
2FB
100
AcDbEntity
  8
RACCORDO
100
AcDbLine
 62
250
  6
CONTINUOUS
 10
16.7321523635
 20
-34.9
 11
17.7987606234
 21
-34.9
  0
LINE
  5
2FC
100
AcDbEntity
  8
IMPORT_IGES
100
AcDbLine
 62
7
  6
CONTINUOUS
 10
-3.2360359481
 20
-34.65
 11
-3.15
 21
-34.65
  0
LINE
  5
2FD
100
AcDbEntity
  8
DRAFT
100
AcDbLine
 62
7
  6
CONTINUOUS
 10
-16.5296736104
 20
-34.5
 11
-16.4884011428
 21
-34.5
  0
LINE
  5
2FE
100
AcDbEntity
  8
DRAFT
100
AcDbLine
 62
7
  6
CONTINUOUS
 10
16.4884011428
 20
-34.5
 11
16.5296736104
 21
-34.5
  0
LINE
  5
2FF
100
AcDbEntity
  8
DRAFT
100
AcDbLine
 62
7
  6
CONTINUOUS
 10
-3.3110927272
 20
-34.011337067
 11
-3.25
 21
-33.99496732
  0
LINE
  5
300
100
AcDbEntity
  8
IMPORT_IGES
100
AcDbLine
 62
7
  6
CONTINUOUS
 10
-3.15
 20
-34.05
 11
-3.2360359481
 21
-34.05
  0
LINE
  5
301
100
AcDbEntity
  8
IMPORT_IGES
100
AcDbLine
 62
7
  6
CONTINUOUS
 10
-3.15
 20
-33.9
 11
-3.2360359481
 21
-33.9
  0
LINE
  5
302
100
AcDbEntity
  8
0
100
AcDbLine
 62
7
  6
CONTINUOUS
 10
16.7196821264
 20
-32.7
 11
17.1321523635
 21
-32.7
  0
LINE
  5
303
100
AcDbEntity
  8
0
100
AcDbLine
 62
7
  6
CONTINUOUS
 10
-16.7196821264
 20
-32.7
 11
-17.1321523635
 21
-32.7
  0
LINE
  5
304
100
AcDbEntity
  8
DRAFT
100
AcDbLine
 62
7
  6
CONTINUOUS
 10
17.8877814546
 20
-32.65
 11
17.8301797403
 21
-32.65
  0
LINE
  5
305
100
AcDbEntity
  8
DRAFT
100
AcDbLine
 62
7
  6
CONTINUOUS
 10
-17.8301797403
 20
-32.65
 11
-17.8877814546
 21
-32.65
  0
LINE
  5
306
100
AcDbEntity
  8
DRAFT
100
AcDbLine
 62
7
  6
CONTINUOUS
 10
16.4115988572
 20
-32.5
 11
16.699005808
 21
-32.5
  0
LINE
  5
307
100
AcDbEntity
  8
DRAFT
100
AcDbLine
 62
7
  6
CONTINUOUS
 10
-16.4115988572
 20
-32.5
 11
-16.699005808
 21
-32.5
  0
LINE
  5
308
100
AcDbEntity
  8
IMPORT_IGES
100
AcDbLine
 62
7
  6
CONTINUOUS
 10
-3.2360359481
 20
-31.5
 11
-3.15
 21
-31.5
  0
LINE
  5
309
100
AcDbEntity
  8
IMPORT_IGES
100
AcDbLine
 62
7
  6
CONTINUOUS
 10
-3.2360359481
 20
-31.35
 11
-3.15
 21
-31.35
  0
LINE
  5
30A
100
AcDbEntity
  8
DRAFT
100
AcDbLine
 62
7
  6
CONTINUOUS
 10
3.3110927272
 20
-34.011337067
 11
3.25
 21
-33.99496732
  0
LINE
  5
30B
100
AcDbEntity
  8
RACCORDO
100
AcDbLine
 62
250
  6
CONTINUOUS
 10
3.9000761524
 20
-50.1
 11
3.8250193732
 21
-50.0249432208
  0
LINE
  5
30C
100
AcDbEntity
  8
RACCORDO
100
AcDbLine
 62
250
  6
CONTINUOUS
 10
4.4
 20
-49.6000761524
 11
4.3249432208
 21
-49.5250193732
  0
LINE
  5
30D
100
AcDbEntity
  8
DRAFT
100
AcDbLine
 62
7
  6
CONTINUOUS
 10
16.5523651948
 20
54.9
 11
16.5
 21
54.8476348052
  0
LINE
  5
30E
100
AcDbEntity
  8
RACCORDO
100
AcDbLine
 62
250
  6
CONTINUOUS
 10
16.9001523048
 20
54.9
 11
16.7954219153
 21
54.7952696104
  0
LINE
  5
30F
100
AcDbEntity
  8
DRAFT
100
AcDbLine
 62
7
  6
CONTINUOUS
 10
3.3110927272
 20
-29.388662933
 11
3.25
 21
-29.40503268
  0
LINE
  5
310
100
AcDbEntity
  8
DRAFT
100
AcDbLine
 62
7
  6
CONTINUOUS
 10
16.6450293644
 20
-27.4585606807
 11
16.699005808
 21
-27.4491160269
  0
LINE
  5
311
100
AcDbEntity
  8
DRAFT
100
AcDbLine
 62
7
  6
CONTINUOUS
 10
-16.699005808
 20
-32.5508839731
 11
-16.6450293644
 21
-32.5414393193
  0
LINE
  5
312
100
AcDbEntity
  8
IMPORT_IGES
100
AcDbLine
 62
7
  6
CONTINUOUS
 10
-3.15
 20
-29.05
 11
-3.2360359481
 21
-29.05
  0
LINE
  5
313
100
AcDbEntity
  8
IMPORT_IGES
100
AcDbLine
 62
7
  6
CONTINUOUS
 10
-3.2360359481
 20
-28.55
 11
-3.15
 21
-28.55
  0
LINE
  5
314
100
AcDbEntity
  8
IMPORT_IGES
100
AcDbLine
 62
7
  6
CONTINUOUS
 10
-3.15
 20
-27.85
 11
-3.2360359481
 21
-27.85
  0
LINE
  5
315
100
AcDbEntity
  8
DRAFT
100
AcDbLine
 62
7
  6
CONTINUOUS
 10
16.4115988572
 20
-27.5
 11
16.699005808
 21
-27.5
  0
LINE
  5
316
100
AcDbEntity
  8
DRAFT
100
AcDbLine
 62
7
  6
CONTINUOUS
 10
-16.4115988572
 20
-27.5
 11
-16.699005808
 21
-27.5
  0
LINE
  5
317
100
AcDbEntity
  8
DRAFT
100
AcDbLine
 62
7
  6
CONTINUOUS
 10
-17.8877814546
 20
-27.35
 11
-17.8301797403
 21
-27.35
  0
LINE
  5
318
100
AcDbEntity
  8
IMPORT_IGES
100
AcDbLine
 62
7
  6
CONTINUOUS
 10
-3.2360359481
 20
-27.35
 11
-3.15
 21
-27.35
  0
LINE
  5
319
100
AcDbEntity
  8
DRAFT
100
AcDbLine
 62
7
  6
CONTINUOUS
 10
17.8301797403
 20
-27.35
 11
17.8877814546
 21
-27.35
  0
LINE
  5
31A
100
AcDbEntity
  8
0
100
AcDbLine
 62
7
  6
CONTINUOUS
 10
16.7196821264
 20
-27.3
 11
17.1321523635
 21
-27.3
  0
LINE
  5
31B
100
AcDbEntity
  8
0
100
AcDbLine
 62
7
  6
CONTINUOUS
 10
-16.7196821264
 20
-27.3
 11
-17.1321523635
 21
-27.3
  0
LINE
  5
31C
100
AcDbEntity
  8
DRAFT
100
AcDbLine
 62
7
  6
CONTINUOUS
 10
-16.6450293644
 20
-27.4585606807
 11
-16.699005808
 21
-27.4491160269
  0
LINE
  5
31D
100
AcDbEntity
  8
DRAFT
100
AcDbLine
 62
7
  6
CONTINUOUS
 10
16.699005808
 20
-32.5508839731
 11
16.6450293644
 21
-32.5414393193
  0
LINE
  5
31E
100
AcDbEntity
  8
DRAFT
100
AcDbLine
 62
7
  6
CONTINUOUS
 10
-3.3110927272
 20
-29.388662933
 11
-3.25
 21
-29.40503268
  0
LINE
  5
31F
100
AcDbEntity
  8
RACCORDO
100
AcDbLine
 62
250
  6
CONTINUOUS
 10
16.7954219153
 20
-54.7952696104
 11
16.9001523048
 21
-54.9
  0
LINE
  5
320
100
AcDbEntity
  8
DRAFT
100
AcDbLine
 62
7
  6
CONTINUOUS
 10
-17.7952696104
 20
18.0644466757
 11
-17.9
 21
17.75
  0
LINE
  5
321
100
AcDbEntity
  8
RACCORDO
100
AcDbLine
 62
250
  6
CONTINUOUS
 10
17.9
 20
53.9001523048
 11
17.7952696104
 21
53.7954219153
  0
LINE
  5
322
100
AcDbEntity
  8
RACCORDO
100
AcDbLine
 62
250
  6
CONTINUOUS
 10
-17.7987606234
 20
-25.1
 11
-16.7321523635
 21
-25.1
  0
LINE
  5
323
100
AcDbEntity
  8
RACCORDO
100
AcDbLine
 62
250
  6
CONTINUOUS
 10
16.7321523635
 20
-25.1
 11
17.7987606234
 21
-25.1
  0
LINE
  5
324
100
AcDbEntity
  8
RACCORDO
100
AcDbLine
 62
7
  6
CONTINUOUS
 10
16.6483680519
 20
-24.1
 11
17.9
 21
-24.1
  0
LINE
  5
325
100
AcDbEntity
  8
RACCORDO
100
AcDbLine
 62
7
  6
CONTINUOUS
 10
-16.6483680519
 20
-24.1
 11
-17.9
 21
-24.1
  0
LINE
  5
326
100
AcDbEntity
  8
DRAFT
100
AcDbLine
 62
7
  6
CONTINUOUS
 10
-17.9
 20
-24.0
 11
-17.2238174026
 21
-24.0
  0
LINE
  5
327
100
AcDbEntity
  8
DRAFT
100
AcDbLine
 62
7
  6
CONTINUOUS
 10
17.9
 20
-24.0
 11
17.2238174026
 21
-24.0
  0
LINE
  5
328
100
AcDbEntity
  8
DRAFT
100
AcDbLine
 62
7
  6
CONTINUOUS
 10
-17.2028713247
 20
-23.9790539221
 11
-16.4884011428
 21
-23.9790539221
  0
LINE
  5
329
100
AcDbEntity
  8
DRAFT
100
AcDbLine
 62
7
  6
CONTINUOUS
 10
17.2028713247
 20
-23.9790539221
 11
16.4884011428
 21
-23.9790539221
  0
LINE
  5
32A
100
AcDbEntity
  8
DRAFT
100
AcDbLine
 62
7
  6
CONTINUOUS
 10
-17.7952696104
 20
-23.8952696104
 11
-16.4884011428
 21
-23.8952696104
  0
LINE
  5
32B
100
AcDbEntity
  8
DRAFT
100
AcDbLine
 62
7
  6
CONTINUOUS
 10
17.7952696104
 20
-23.8952696104
 11
16.4884011428
 21
-23.8952696104
  0
LINE
  5
32C
100
AcDbEntity
  8
RACCORDO
100
AcDbLine
 62
250
  6
CONTINUOUS
 10
17.7952696104
 20
-53.7954219153
 11
17.9
 21
-53.9001523048
  0
LINE
  5
32D
100
AcDbEntity
  8
DRAFT
100
AcDbLine
 62
7
  6
CONTINUOUS
 10
-17.7952696104
 20
-20.5644466757
 11
-17.8563623377
 21
-20.3810194482
  0
LINE
  5
32E
100
AcDbEntity
  8
SMUSSO
100
AcDbLine
 62
7
  6
CONTINUOUS
 10
-17.8692566451
 20
-17.842305068
 11
-17.9
 21
-17.75
  0
LWPOLYLINE
  5
32F
100
AcDbEntity
  8
IMPORT_IGES
100
AcDbPolyline
 62
7
  6
CONTINUOUS
 90
7
 70
0
 10
3.15
 20
-22.4081857155
 10
3.1542117778
 20
-22.4072981718
 10
3.1746469759
 20
-22.4013376614
 10
3.1946799589
 20
-22.3938000321
 10
3.2141856447
 20
-22.3847192982
 10
3.2327887868
 20
-22.3741975021
 10
3.2360359481
 20
-22.3719935907
  0
LINE
  5
330
100
AcDbEntity
  8
0
100
AcDbLine
 62
7
  6
CONTINUOUS
 10
-4.5
 20
-21.25
 11
-3.65
 21
-21.25
  0
LINE
  5
331
100
AcDbEntity
  8
0
100
AcDbLine
 62
7
  6
CONTINUOUS
 10
-3.2360359481
 20
-21.25
 11
-3.15
 21
-21.25
  0
LINE
  5
332
100
AcDbEntity
  8
0
100
AcDbLine
 62
7
  6
CONTINUOUS
 10
3.15
 20
-21.25
 11
3.2360359481
 21
-21.25
  0
LINE
  5
333
100
AcDbEntity
  8
0
100
AcDbLine
 62
7
  6
CONTINUOUS
 10
3.65
 20
-21.25
 11
4.5
 21
-21.25
  0
LINE
  5
334
100
AcDbEntity
  8
DRAFT
100
AcDbLine
 62
7
  6
CONTINUOUS
 10
17.7952696104
 20
-20.5644466757
 11
4.5
 21
-20.5644466757
  0
LINE
  5
335
100
AcDbEntity
  8
DRAFT
100
AcDbLine
 62
7
  6
CONTINUOUS
 10
-4.5
 20
-20.5644466757
 11
-17.7952696104
 21
-20.5644466757
  0
LINE
  5
336
100
AcDbEntity
  8
DRAFT
100
AcDbLine
 62
7
  6
CONTINUOUS
 10
17.8563623377
 20
-20.3810194482
 11
4.5
 21
-20.3810194482
  0
LINE
  5
337
100
AcDbEntity
  8
DRAFT
100
AcDbLine
 62
7
  6
CONTINUOUS
 10
-4.5
 20
-20.3810194482
 11
-17.8563623377
 21
-20.3810194482
  0
LINE
  5
338
100
AcDbEntity
  8
DRAFT
100
AcDbLine
 62
7
  6
CONTINUOUS
 10
3.3110927272
 20
-19.3
 11
-3.3110927272
 21
-19.3
  0
LINE
  5
339
100
AcDbEntity
  8
IMPORT_IGES
100
AcDbLine
 62
7
  6
CONTINUOUS
 10
3.15
 20
-31.85
 11
3.2360359481
 21
-31.9360359481
  0
LINE
  5
33A
100
AcDbEntity
  8
IMPORT_IGES
100
AcDbLine
 62
7
  6
CONTINUOUS
 10
-3.1641545367
 20
-24.9787634843
 11
-3.15
 21
-24.992918021
  0
LINE
  5
33B
100
AcDbEntity
  8
DRAFT
100
AcDbLine
 62
7
  6
CONTINUOUS
 10
-3.3110927272
 20
-34.011337067
 11
-3.65
 21
-33.4243324515
  0
LINE
  5
33C
100
AcDbEntity
  8
DRAFT
100
AcDbLine
 62
7
  6
CONTINUOUS
 10
-3.65
 20
-33.302146997
 11
-3.25
 21
-33.99496732
  0
LINE
  5
33D
100
AcDbEntity
  8
SMUSSO
100
AcDbLine
 62
7
  6
CONTINUOUS
 10
-17.8563623377
 20
-18.5810194482
 11
-17.8692566451
 21
-17.842305068
  0
LINE
  5
33E
100
AcDbEntity
  8
DRAFT
100
AcDbLine
 62
7
  6
CONTINUOUS
 10
-16.5296736104
 20
-34.5
 11
-16.5174550649
 21
-35.2
  0
LINE
  5
33F
100
AcDbEntity
  8
RACCORDO
100
AcDbLine
 62
7
  6
CONTINUOUS
 10
-17.9
 20
-35.9
 11
-17.9
 21
-53.9001523048
  0
LINE
  5
340
100
AcDbEntity
  8
RACCORDO
100
AcDbLine
 62
7
  6
CONTINUOUS
 10
-17.9
 20
35.9
 11
-17.9
 21
53.9001523048
  0
LINE
  5
341
100
AcDbEntity
  8
DRAFT
100
AcDbLine
 62
7
  6
CONTINUOUS
 10
-17.9
 20
-35.9
 11
-17.9
 21
35.9
  0
LINE
  5
342
100
AcDbEntity
  8
DRAFT
100
AcDbLine
 62
7
  6
CONTINUOUS
 10
-17.8877814546
 20
-32.65
 11
-17.8877814546
 21
-27.35
  0
LINE
  5
343
100
AcDbEntity
  8
DRAFT
100
AcDbLine
 62
7
  6
CONTINUOUS
 10
-17.8877814546
 20
27.35
 11
-17.8877814546
 21
32.65
  0
LINE
  5
344
100
AcDbEntity
  8
SMUSSO
100
AcDbLine
 62
7
  6
CONTINUOUS
 10
-17.8563623377
 20
-20.3810194482
 11
-17.8563623377
 21
-18.5810194482
  0
LINE
  5
345
100
AcDbEntity
  8
DRAFT
100
AcDbLine
 62
7
  6
CONTINUOUS
 10
-17.8301797403
 20
32.65
 11
-17.8301797403
 21
27.35
  0
LINE
  5
346
100
AcDbEntity
  8
DRAFT
100
AcDbLine
 62
7
  6
CONTINUOUS
 10
-17.8301797403
 20
-27.35
 11
-17.8301797403
 21
-32.65
  0
LINE
  5
347
100
AcDbEntity
  8
RACCORDO
100
AcDbLine
 62
7
  6
CONTINUOUS
 10
-17.7987606234
 20
-34.9
 11
-17.7987606234
 21
-25.1
  0
LINE
  5
348
100
AcDbEntity
  8
RACCORDO
100
AcDbLine
 62
7
  6
CONTINUOUS
 10
-17.7987606234
 20
25.1
 11
-17.7987606234
 21
34.9
  0
LINE
  5
349
100
AcDbEntity
  8
RACCORDO
100
AcDbLine
 62
7
  6
CONTINUOUS
 10
-17.7952696104
 20
-53.7954219153
 11
-17.7952696104
 21
-36.1047303896
  0
LINE
  5
34A
100
AcDbEntity
  8
DRAFT
100
AcDbLine
 62
7
  6
CONTINUOUS
 10
-17.7952696104
 20
-23.8952696104
 11
-17.7952696104
 21
-20.5644466757
  0
LINE
  5
34B
100
AcDbEntity
  8
DRAFT
100
AcDbLine
 62
7
  6
CONTINUOUS
 10
-17.7952696104
 20
18.0644466757
 11
-17.7952696104
 21
23.8952696104
  0
LINE
  5
34C
100
AcDbEntity
  8
RACCORDO
100
AcDbLine
 62
7
  6
CONTINUOUS
 10
-17.7952696104
 20
36.1047303896
 11
-17.7952696104
 21
53.7954219153
  0
LINE
  5
34D
100
AcDbEntity
  8
DRAFT
100
AcDbLine
 62
7
  6
CONTINUOUS
 10
-17.2389072728
 20
-24.0
 11
-17.2389072728
 21
-24.1
  0
LINE
  5
34E
100
AcDbEntity
  8
DRAFT
100
AcDbLine
 62
7
  6
CONTINUOUS
 10
-17.2389072728
 20
-35.9
 11
-17.2389072728
 21
-36.0
  0
LINE
  5
34F
100
AcDbEntity
  8
DRAFT
100
AcDbLine
 62
7
  6
CONTINUOUS
 10
-17.2389072728
 20
24.0
 11
-17.2389072728
 21
24.1
  0
LINE
  5
350
100
AcDbEntity
  8
DRAFT
100
AcDbLine
 62
7
  6
CONTINUOUS
 10
-17.2389072728
 20
35.9
 11
-17.2389072728
 21
36.0
  0
LINE
  5
351
100
AcDbEntity
  8
DRAFT
100
AcDbLine
 62
7
  6
CONTINUOUS
 10
-17.2214522078
 20
36.0261825974
 11
-17.2214522078
 21
35.9
  0
LINE
  5
352
100
AcDbEntity
  8
DRAFT
100
AcDbLine
 62
7
  6
CONTINUOUS
 10
-17.2214522078
 20
24.1
 11
-17.2214522078
 21
23.9790539221
  0
LINE
  5
353
100
AcDbEntity
  8
DRAFT
100
AcDbLine
 62
7
  6
CONTINUOUS
 10
-17.2214522078
 20
-23.9790539221
 11
-17.2214522078
 21
-24.1
  0
LINE
  5
354
100
AcDbEntity
  8
DRAFT
100
AcDbLine
 62
7
  6
CONTINUOUS
 10
-17.2214522078
 20
-35.9
 11
-17.2214522078
 21
-36.0261825974
  0
LINE
  5
355
100
AcDbEntity
  8
0
100
AcDbLine
 62
7
  6
CONTINUOUS
 10
-17.1321523635
 20
32.7
 11
-17.1321523635
 21
27.3
  0
LINE
  5
356
100
AcDbEntity
  8
0
100
AcDbLine
 62
7
  6
CONTINUOUS
 10
-17.1321523635
 20
-32.7
 11
-17.1321523635
 21
-27.3
  0
LINE
  5
357
100
AcDbEntity
  8
RACCORDO
100
AcDbLine
 62
7
  6
CONTINUOUS
 10
-16.7321523635
 20
-34.9
 11
-16.7321523635
 21
-32.7
  0
LINE
  5
358
100
AcDbEntity
  8
RACCORDO
100
AcDbLine
 62
7
  6
CONTINUOUS
 10
-16.7321523635
 20
-27.3
 11
-16.7321523635
 21
-25.1
  0
LINE
  5
359
100
AcDbEntity
  8
RACCORDO
100
AcDbLine
 62
7
  6
CONTINUOUS
 10
-16.7321523635
 20
25.1
 11
-16.7321523635
 21
27.3
  0
LINE
  5
35A
100
AcDbEntity
  8
RACCORDO
100
AcDbLine
 62
7
  6
CONTINUOUS
 10
-16.7321523635
 20
32.7
 11
-16.7321523635
 21
34.9
  0
LINE
  5
35B
100
AcDbEntity
  8
0
100
AcDbLine
 62
7
  6
CONTINUOUS
 10
-16.7196821264
 20
32.7
 11
-16.7196821264
 21
27.3
  0
LINE
  5
35C
100
AcDbEntity
  8
0
100
AcDbLine
 62
7
  6
CONTINUOUS
 10
-16.7196821264
 20
-32.7
 11
-16.7196821264
 21
-27.3
  0
LINE
  5
35D
100
AcDbEntity
  8
DRAFT
100
AcDbLine
 62
7
  6
CONTINUOUS
 10
-16.699005808
 20
32.5508839731
 11
-16.699005808
 21
27.4491160269
  0
LINE
  5
35E
100
AcDbEntity
  8
DRAFT
100
AcDbLine
 62
7
  6
CONTINUOUS
 10
-16.699005808
 20
-27.4491160269
 11
-16.699005808
 21
-32.5508839731
  0
LINE
  5
35F
100
AcDbEntity
  8
DRAFT
100
AcDbLine
 62
7
  6
CONTINUOUS
 10
-16.6483680519
 20
36.0261825974
 11
-16.6483680519
 21
35.9
  0
LINE
  5
360
100
AcDbEntity
  8
DRAFT
100
AcDbLine
 62
7
  6
CONTINUOUS
 10
-16.6483680519
 20
24.1
 11
-16.6483680519
 21
23.9790539221
  0
LINE
  5
361
100
AcDbEntity
  8
DRAFT
100
AcDbLine
 62
7
  6
CONTINUOUS
 10
-16.6483680519
 20
-23.9790539221
 11
-16.6483680519
 21
-24.1
  0
LINE
  5
362
100
AcDbEntity
  8
DRAFT
100
AcDbLine
 62
7
  6
CONTINUOUS
 10
-16.6483680519
 20
-35.9
 11
-16.6483680519
 21
-36.0261825974
  0
LINE
  5
363
100
AcDbEntity
  8
DRAFT
100
AcDbLine
 62
7
  6
CONTINUOUS
 10
-16.6450293644
 20
-32.5414393193
 11
-16.6450293644
 21
-32.5
  0
LINE
  5
364
100
AcDbEntity
  8
DRAFT
100
AcDbLine
 62
7
  6
CONTINUOUS
 10
-16.6450293644
 20
-27.5
 11
-16.6450293644
 21
-27.4585606807
  0
LINE
  5
365
100
AcDbEntity
  8
DRAFT
100
AcDbLine
 62
7
  6
CONTINUOUS
 10
-16.6450293644
 20
27.4585606807
 11
-16.6450293644
 21
27.5
  0
LINE
  5
366
100
AcDbEntity
  8
DRAFT
100
AcDbLine
 62
7
  6
CONTINUOUS
 10
-16.6450293644
 20
32.5
 11
-16.6450293644
 21
32.5414393193
  0
LINE
  5
367
100
AcDbEntity
  8
DRAFT
100
AcDbLine
 62
7
  6
CONTINUOUS
 10
-16.5296736104
 20
-34.5
 11
-16.5296736104
 21
-32.5
  0
LINE
  5
368
100
AcDbEntity
  8
DRAFT
100
AcDbLine
 62
7
  6
CONTINUOUS
 10
-16.5296736104
 20
32.5
 11
-16.5296736104
 21
34.5
  0
LINE
  5
369
100
AcDbEntity
  8
DRAFT
100
AcDbLine
 62
7
  6
CONTINUOUS
 10
-16.5174550649
 20
36.0261825974
 11
-16.5174550649
 21
35.2
  0
LINE
  5
36A
100
AcDbEntity
  8
DRAFT
100
AcDbLine
 62
7
  6
CONTINUOUS
 10
-16.5174550649
 20
-35.2
 11
-16.5174550649
 21
-36.0261825974
  0
LINE
  5
36B
100
AcDbEntity
  8
DRAFT
100
AcDbLine
 62
7
  6
CONTINUOUS
 10
-16.4884011428
 20
36.1047303896
 11
-16.4884011428
 21
32.5
  0
LINE
  5
36C
100
AcDbEntity
  8
DRAFT
100
AcDbLine
 62
7
  6
CONTINUOUS
 10
-16.4884011428
 20
27.5
 11
-16.4884011428
 21
23.8952696104
  0
LINE
  5
36D
100
AcDbEntity
  8
DRAFT
100
AcDbLine
 62
7
  6
CONTINUOUS
 10
-16.4884011428
 20
-23.8952696104
 11
-16.4884011428
 21
-27.5
  0
LINE
  5
36E
100
AcDbEntity
  8
DRAFT
100
AcDbLine
 62
7
  6
CONTINUOUS
 10
-16.4884011428
 20
-32.5
 11
-16.4884011428
 21
-36.1047303896
  0
LINE
  5
36F
100
AcDbEntity
  8
DRAFT
100
AcDbLine
 62
7
  6
CONTINUOUS
 10
-16.45
 20
32.5
 11
-16.45
 21
27.5
  0
LINE
  5
370
100
AcDbEntity
  8
DRAFT
100
AcDbLine
 62
7
  6
CONTINUOUS
 10
-16.45
 20
-27.5
 11
-16.45
 21
-32.5
  0
LINE
  5
371
100
AcDbEntity
  8
DRAFT
100
AcDbLine
 62
7
  6
CONTINUOUS
 10
-16.445
 20
46.4746666345
 11
-16.445
 21
53.5
  0
LINE
  5
372
100
AcDbEntity
  8
DRAFT
100
AcDbLine
 62
7
  6
CONTINUOUS
 10
-16.4115988572
 20
32.5
 11
-16.4115988572
 21
27.5
  0
LINE
  5
373
100
AcDbEntity
  8
DRAFT
100
AcDbLine
 62
7
  6
CONTINUOUS
 10
-16.4115988572
 20
-27.5
 11
-16.4115988572
 21
-32.5
  0
LINE
  5
374
100
AcDbEntity
  8
DRAFT
100
AcDbLine
 62
7
  6
CONTINUOUS
 10
-15.0
 20
18.0176397269
 11
-15.0
 21
15.95
  0
LINE
  5
375
100
AcDbEntity
  8
DRAFT
100
AcDbLine
 62
7
  6
CONTINUOUS
 10
-16.5174550649
 20
35.2
 11
-16.5296736104
 21
34.5
  0
LINE
  5
376
100
AcDbEntity
  8
SMUSSO
100
AcDbLine
 62
7
  6
CONTINUOUS
 10
17.8563623377
 20
-18.5810194482
 11
4.5
 21
-18.5810194482
  0
LINE
  5
377
100
AcDbEntity
  8
SMUSSO
100
AcDbLine
 62
7
  6
CONTINUOUS
 10
-4.5
 20
-18.5810194482
 11
-17.8563623377
 21
-18.5810194482
  0
LINE
  5
378
100
AcDbEntity
  8
SMUSSO
100
AcDbLine
 62
7
  6
CONTINUOUS
 10
17.8692566451
 20
-17.842305068
 11
4.5
 21
-17.842305068
  0
LINE
  5
379
100
AcDbEntity
  8
SMUSSO
100
AcDbLine
 62
7
  6
CONTINUOUS
 10
-4.5
 20
-17.842305068
 11
-17.8692566451
 21
-17.842305068
  0
LINE
  5
37A
100
AcDbEntity
  8
DRAFT
100
AcDbLine
 62
7
  6
CONTINUOUS
 10
17.9
 20
-17.75
 11
4.5
 21
-17.75
  0
LINE
  5
37B
100
AcDbEntity
  8
DRAFT
100
AcDbLine
 62
7
  6
CONTINUOUS
 10
-4.5
 20
-17.75
 11
-17.9
 21
-17.75
  0
LINE
  5
37C
100
AcDbEntity
  8
DRAFT
100
AcDbLine
 62
7
  6
CONTINUOUS
 10
-4.3249432208
 20
-17.6
 11
4.3249432208
 21
-17.6
  0
LINE
  5
37D
100
AcDbEntity
  8
DRAFT
100
AcDbLine
 62
7
  6
CONTINUOUS
 10
-4.3598533507
 20
-15.6
 11
4.3598533507
 21
-15.6
  0
LINE
  5
37E
100
AcDbEntity
  8
IMPORT_IGES
100
AcDbLine
 62
7
  6
CONTINUOUS
 10
-3.15
 20
-23.1365892819
 11
-3.2360359481
 21
-23.0505533338
  0
LINE
  5
37F
100
AcDbEntity
  8
IMPORT_IGES
100
AcDbLine
 62
250
  6
CONTINUOUS
 10
-3.15
 20
-22.8537465694
 11
-3.2360359481
 21
-22.7677106214
  0
LINE
  5
380
100
AcDbEntity
  8
0
100
AcDbLine
 62
7
  6
CONTINUOUS
 10
-14.245
 20
53.5
 11
-14.245
 21
47.2
  0
LINE
  5
381
100
AcDbEntity
  8
DRAFT
100
AcDbLine
 62
7
  6
CONTINUOUS
 10
-13.25
 20
15.95
 11
-13.25
 21
18.0176397269
  0
LINE
  5
382
100
AcDbEntity
  8
DRAFT
100
AcDbLine
 62
7
  6
CONTINUOUS
 10
-12.75
 20
44.75
 11
-12.75
 21
46.6
  0
LINE
  5
383
100
AcDbEntity
  8
DRAFT
100
AcDbLine
 62
7
  6
CONTINUOUS
 10
-12.7150898701
 20
44.75
 11
-12.7150898701
 21
46.6
  0
LINE
  5
384
100
AcDbEntity
  8
DRAFT
100
AcDbLine
 62
7
  6
CONTINUOUS
 10
-11.75
 20
18.0176397269
 11
-11.75
 21
15.95
  0
LINE
  5
385
100
AcDbEntity
  8
DRAFT
100
AcDbLine
 62
7
  6
CONTINUOUS
 10
3.65
 20
-30.097853003
 11
3.25
 21
-29.40503268
  0
LINE
  5
386
100
AcDbEntity
  8
DRAFT
100
AcDbLine
 62
7
  6
CONTINUOUS
 10
3.65
 20
-29.9756675485
 11
3.3110927272
 21
-29.388662933
  0
LINE
  5
387
100
AcDbEntity
  8
0
100
AcDbLine
 62
7
  6
CONTINUOUS
 10
-7.8104799151
 20
-10.321264404
 11
-7.752776618
 21
-10.4674698795
  0
LINE
  5
388
100
AcDbEntity
  8
0
100
AcDbLine
 62
7
  6
CONTINUOUS
 10
-10.0
 20
-5.9078313253
 11
-9.5032003684
 21
-7.2
  0
LWPOLYLINE
  5
389
100
AcDbEntity
  8
0
100
AcDbPolyline
 62
7
  6
CONTINUOUS
 90
37
 70
0
 10
-10.0
 20
-8.7475903614
 10
-9.9944088321
 20
-8.7846761977
 10
-9.9857108102
 20
-8.8206931509
 10
-9.9739059342
 20
-8.8556412211
 10
-9.9586424525
 20
-8.8900775531
 10
-9.9402721168
 20
-8.9234450021
 10
-9.9198501821
 20
-8.9540721332
 10
-9.8977152792
 20
-8.9813475388
 10
-9.8735287775
 20
-9.0058826264
 10
-9.8473300396
 20
-9.0278401846
 10
-9.8193207147
 20
-9.047299557
 10
-9.7892991536
 20
-9.0641813999
 10
-9.7566997713
 20
-9.0784104704
 10
-9.7210053753
 20
-9.0901491484
 10
-9.6827331582
 20
-9.0992350541
 10
-9.6428691122
 20
-9.1051058049
 10
-9.6006987806
 20
-9.107578874
 10
-9.5569366201
 20
-9.1068367882
 10
-9.5147119925
 20
-9.1028647466
 10
-9.4749345814
 20
-9.0955991977
 10
-9.4366947032
 20
-9.0851036929
 10
-9.4003926693
 20
-9.0715540849
 10
-9.3660989066
 20
-9.054840304
 10
-9.3337429882
 20
-9.0350724199
 10
-9.3035139452
 20
-9.0127564944
 10
-9.2751063195
 20
-8.9875891297
 10
-9.2488255693
 20
-8.9598737236
 10
-9.2257771004
 20
-8.931026531
 10
-9.2064086736
 20
-8.9016137694
 10
-9.1902725283
 20
-8.8710692213
 10
-9.1771307875
 20
-8.8391104888
 10
-9.1669134897
 20
-8.8051645472
 10
-9.1596905966
 20
-8.7698044212
 10
-9.1554341167
 20
-8.7344667861
 10
-9.1542416031
 20
-8.6989737253
 10
-9.1560155028
 20
-8.6635031555
 10
-9.1604351657
 20
-8.6300255023
  0
LWPOLYLINE
  5
38A
100
AcDbEntity
  8
0
100
AcDbPolyline
 62
7
  6
CONTINUOUS
 90
46
 70
0
 10
-7.9951807229
 20
-8.4465737429
 10
-7.9945218065
 20
-8.4992951511
 10
-7.992374058
 20
-8.5502267195
 10
-7.9887374775
 20
-8.5993684481
 10
-7.9836490386
 20
-8.6467713755
 10
-7.9770717676
 20
-8.6923844632
 10
-7.968894744
 20
-8.7360545954
 10
-7.9591319165
 20
-8.7778599851
 10
-7.9477693365
 20
-8.8177224194
 10
-7.9346542377
 20
-8.8552541443
 10
-7.919755715
 20
-8.8904851371
 10
-7.9031046735
 20
-8.9233854205
 10
-7.8846410618
 20
-8.9534773082
 10
-7.8643044549
 20
-8.9805114681
 10
-7.8421552777
 20
-9.0047372324
 10
-7.8183147537
 20
-9.0264249109
 10
-7.7929534738
 20
-9.0456682268
 10
-7.765900847
 20
-9.062373457
 10
-7.7367663245
 20
-9.0765297421
 10
-7.7051737071
 20
-9.0882186876
 10
-7.6714991939
 20
-9.097358688
 10
-7.6364808328
 20
-9.1036940681
 10
-7.5995025961
 20
-9.1071354415
 10
-7.5611805115
 20
-9.1077721947
 10
-7.5241007105
 20
-9.1056168118
 10
-7.4888921055
 20
-9.1006241744
 10
-7.4549257841
 20
-9.092839401
 10
-7.4229011399
 20
-9.0824103311
 10
-7.3931714686
 20
-9.0694273012
 10
-7.3653834746
 20
-9.0537999748
 10
-7.3391766642
 20
-9.0354051821
 10
-7.3144234913
 20
-9.0142362811
 10
-7.291251502
 20
-8.9902999137
 10
-7.2696828411
 20
-8.9634928361
 10
-7.2496233542
 20
-8.933681914
 10
-7.2311671957
 20
-8.9010002815
 10
-7.2146189734
 20
-8.865744097
 10
-7.2000838745
 20
-8.827864921
 10
-7.1874567119
 20
-8.7874111929
 10
-7.1767265324
 20
-8.7448243893
 10
-7.1679918798
 20
-8.7001520865
 10
-7.1611542103
 20
-8.6533467082
 10
-7.1559069391
 20
-8.6047070017
 10
-7.1521478714
 20
-8.5543325495
 10
-7.1499792019
 20
-8.5021237692
 10
-7.1494009308
 20
-8.4480806606
  0
LWPOLYLINE
  5
38B
100
AcDbEntity
  8
0
100
AcDbPolyline
 62
7
  6
CONTINUOUS
 90
46
 70
0
 10
-7.1494009308
 20
-8.4480806606
 10
-7.1496151834
 20
-8.3952535583
 10
-7.1514080412
 20
-8.3442364643
 10
-7.1547795042
 20
-8.2950293788
 10
-7.1596359634
 20
-8.2475306995
 10
-7.1660710278
 20
-8.2018420285
 10
-7.1743655247
 20
-8.1582681728
 10
-7.18474012
 20
-8.1168813089
 10
-7.1969741476
 20
-8.0776092602
 10
-7.2106864365
 20
-8.0405403033
 10
-7.2255584291
 20
-8.0056409241
 10
-7.2419086829
 20
-7.9729446368
 10
-7.2603116988
 20
-7.9426402602
 10
-7.2810808578
 20
-7.9146706658
 10
-7.3039027789
 20
-7.8890929823
 10
-7.3284118193
 20
-7.8662674141
 10
-7.354481306
 20
-7.8462943407
 10
-7.3822379121
 20
-7.8290733827
 10
-7.4116960141
 20
-7.8146636058
 10
-7.4429807922
 20
-7.8031135283
 10
-7.4759670663
 20
-7.7943746319
 10
-7.5102936724
 20
-7.7883604276
 10
-7.546617905
 20
-7.7850062113
 10
-7.5842824696
 20
-7.7843766871
 10
-7.6209543186
 20
-7.7865794779
 10
-7.6561987359
 20
-7.7917174517
 10
-7.6904504376
 20
-7.7996877405
 10
-7.7226805247
 20
-7.8102893633
 10
-7.7524293333
 20
-7.8234411675
 10
-7.7801565272
 20
-7.8392243057
 10
-7.8062121993
 20
-7.8576812553
 10
-7.8306320821
 20
-7.8786902594
 10
-7.8533804431
 20
-7.9023730749
 10
-7.8747001769
 20
-7.9291374494
 10
-7.8948469004
 20
-7.9593091885
 10
-7.9135649967
 20
-7.9925624865
 10
-7.9303305096
 20
-8.0283276739
 10
-7.9449741499
 20
-8.0665883332
 10
-7.9576652069
 20
-8.1073608817
 10
-7.9683875917
 20
-8.1501249017
 10
-7.9769939746
 20
-8.194740822
 10
-7.9836316853
 20
-8.2413482137
 10
-7.9887266254
 20
-8.2898453721
 10
-7.9924207619
 20
-8.3401983957
 10
-7.9945721277
 20
-8.3924411859
 10
-7.9951807229
 20
-8.4465737429
  0
LINE
  5
38C
100
AcDbEntity
  8
0
100
AcDbLine
 62
7
  6
CONTINUOUS
 10
-10.0
 20
-9.7078313253
 11
-10.0
 21
-11.0
  0
LINE
  5
38D
100
AcDbEntity
  8
DRAFT
100
AcDbLine
 62
7
  6
CONTINUOUS
 10
-10.0
 20
15.95
 11
-10.0
 21
18.0176397269
  0
LINE
  5
38E
100
AcDbEntity
  8
0
100
AcDbLine
 62
7
  6
CONTINUOUS
 10
-9.8277108434
 20
-11.0
 11
-9.8277108434
 21
-9.7078313253
  0
LINE
  5
38F
100
AcDbEntity
  8
0
100
AcDbLine
 62
7
  6
CONTINUOUS
 10
-9.6162650602
 20
-9.7078313253
 11
-9.6162650602
 21
-9.856626506
  0
LINE
  5
390
100
AcDbEntity
  8
0
100
AcDbLine
 62
7
  6
CONTINUOUS
 10
-9.193373494
 20
-9.856626506
 11
-9.193373494
 21
-11.0
  0
LINE
  5
391
100
AcDbEntity
  8
0
100
AcDbLine
 62
7
  6
CONTINUOUS
 10
-9.0210843373
 20
-11.0
 11
-9.0210843373
 21
-9.856626506
  0
LINE
  5
392
100
AcDbEntity
  8
0
100
AcDbLine
 62
7
  6
CONTINUOUS
 10
-8.6577843349
 20
-4.0156626506
 11
-8.6577843349
 21
-5.3078313253
  0
LINE
  5
393
100
AcDbEntity
  8
0
100
AcDbLine
 62
7
  6
CONTINUOUS
 10
-8.6577843349
 20
-5.9078313253
 11
-8.6577843349
 21
-7.2
  0
LINE
  5
394
100
AcDbEntity
  8
0
100
AcDbLine
 62
7
  6
CONTINUOUS
 10
-8.5981927711
 20
-9.856626506
 11
-8.5981927711
 21
-9.7078313253
  0
LINE
  5
395
100
AcDbEntity
  8
0
100
AcDbLine
 62
7
  6
CONTINUOUS
 10
-8.4854951782
 20
-7.2
 11
-8.4854951782
 21
-5.9078313253
  0
LINE
  5
396
100
AcDbEntity
  8
0
100
AcDbLine
 62
7
  6
CONTINUOUS
 10
-8.4854951782
 20
-5.3078313253
 11
-8.4854951782
 21
-4.0156626506
  0
LINE
  5
397
100
AcDbEntity
  8
0
100
AcDbLine
 62
7
  6
CONTINUOUS
 10
-8.1957361421
 20
-4.0156626506
 11
-8.1957361421
 21
-5.3078313253
  0
LINE
  5
398
100
AcDbEntity
  8
0
100
AcDbLine
 62
7
  6
CONTINUOUS
 10
-8.0234469855
 20
-5.3078313253
 11
-8.0234469855
 21
-4.2114457831
  0
LINE
  5
399
100
AcDbEntity
  8
0
100
AcDbLine
 62
7
  6
CONTINUOUS
 10
-7.2355421687
 20
-9.7078313253
 11
-7.2355421687
 21
-11.0
  0
LWPOLYLINE
  5
39A
100
AcDbEntity
  8
0
100
AcDbPolyline
 62
7
  6
CONTINUOUS
 90
46
 70
0
 10
-7.3060241738
 20
-8.4452303016
 10
-7.3062647022
 20
-8.4860534425
 10
-7.3072574817
 20
-8.525648579
 10
-7.3090025125
 20
-8.5640157109
 10
-7.3114069275
 20
-8.6011330833
 10
-7.3145635937
 20
-8.6370224513
 10
-7.3187511122
 20
-8.6717490798
 10
-7.3239010132
 20
-8.7055136097
 10
-7.3300817665
 20
-8.7381154002
 10
-7.3377773823
 20
-8.7690177934
 10
-7.3470892134
 20
-8.7982321204
 10
-7.357915907
 20
-8.82574705
 10
-7.3704374153
 20
-8.8509919313
 10
-7.3848816027
 20
-8.8738004756
 10
-7.4010206048
 20
-8.8943389717
 10
-7.4183507802
 20
-8.912535634
 10
-7.436820121
 20
-8.9283536853
 10
-7.456480635
 20
-8.9418299029
 10
-7.476984704
 20
-8.9530028334
 10
-7.4983858938
 20
-8.961914396
 10
-7.5206306386
 20
-8.9685226715
 10
-7.5432106221
 20
-8.9727404488
 10
-7.5661998802
 20
-8.974536683
 10
-7.5895243771
 20
-8.973942419
 10
-7.6124536894
 20
-8.9709635806
 10
-7.6349399024
 20
-8.9655511262
 10
-7.6570309309
 20
-8.9577540975
 10
-7.6781400956
 20
-8.9477255433
 10
-7.6982198063
 20
-8.9354919004
 10
-7.7173176532
 20
-8.9210267321
 10
-7.7349897279
 20
-8.9044037767
 10
-7.751145346
 20
-8.8855927217
 10
-7.7658751919
 20
-8.8646238796
 10
-7.779007409
 20
-8.8416619268
 10
-7.7903810761
 20
-8.8165944499
 10
-7.8001571146
 20
-8.7895338623
 10
-7.8086464322
 20
-8.7609820806
 10
-7.8158557789
 20
-8.7310217619
 10
-7.8217784049
 20
-8.6995702492
 10
-7.8267049686
 20
-8.6668814883
 10
-7.8306351023
 20
-8.6330101396
 10
-7.8335691738
 20
-8.5979015427
 10
-7.8357989449
 20
-8.5616456616
 10
-7.8374216693
 20
-8.5242724844
 10
-7.8383400933
 20
-8.4857520231
 10
-7.8385542169
 20
-8.4460842776
  0
LWPOLYLINE
  5
39B
100
AcDbEntity
  8
0
100
AcDbPolyline
 62
7
  6
CONTINUOUS
 90
46
 70
0
 10
-7.8385542169
 20
-8.4460842776
 10
-7.8382876297
 20
-8.4072977877
 10
-7.8373151055
 20
-8.3696633203
 10
-7.8356366445
 20
-8.3331808755
 10
-7.8333019831
 20
-8.297835544
 10
-7.8302613848
 20
-8.2636422351
 10
-7.8263656398
 20
-8.2306456765
 10
-7.8216256466
 20
-8.1988143866
 10
-7.8160305067
 20
-8.1681798471
 10
-7.8093983154
 20
-8.1388812303
 10
-7.8017975775
 20
-8.1108497874
 10
-7.7931597881
 20
-8.0841542673
 10
-7.7830975278
 20
-8.0591400893
 10
-7.7715574157
 20
-8.035799491
 10
-7.7585928327
 20
-8.0141402349
 10
-7.7439765014
 20
-7.9945310278
 10
-7.7275068057
 20
-7.9770224273
 10
-7.7093853617
 20
-7.9615638759
 10
-7.6899897405
 20
-7.948372408
 10
-7.6692984271
 20
-7.9374685959
 10
-7.6473329365
 20
-7.9288318673
 10
-7.6245353845
 20
-7.9226175407
 10
-7.6006936394
 20
-7.9188477645
 10
-7.5760198329
 20
-7.9175003903
 10
-7.551592476
 20
-7.918664291
 10
-7.5274948469
 20
-7.9223912876
 10
-7.5036436673
 20
-7.928629559
 10
-7.4808676133
 20
-7.9373125149
 10
-7.4593446701
 20
-7.9484540922
 10
-7.4388968525
 20
-7.9620403539
 10
-7.4198188809
 20
-7.9779628992
 10
-7.4020771723
 20
-7.9962324496
 10
-7.3857053098
 20
-8.0168382836
 10
-7.3710987624
 20
-8.0396398363
 10
-7.3584724946
 20
-8.064740703
 10
-7.3476115419
 20
-8.0920372883
 10
-7.338266481
 20
-8.1210782409
 10
-7.3305177772
 20
-8.1518979416
 10
-7.324284965
 20
-8.1844620095
 10
-7.3190772254
 20
-8.2182159503
 10
-7.3148180445
 20
-8.2529522523
 10
-7.3115839361
 20
-8.2888784271
 10
-7.3091136226
 20
-8.3260625154
 10
-7.3073200115
 20
-8.3645271973
 10
-7.3062901952
 20
-8.4042497927
 10
-7.3060241738
 20
-8.4452303016
  0
LWPOLYLINE
  5
39C
100
AcDbEntity
  8
0
100
AcDbPolyline
 62
7
  6
CONTINUOUS
 90
37
 70
0
 10
-8.8487951807
 20
-8.4178181345
 10
-8.8481472123
 20
-8.3760309378
 10
-8.8461979343
 20
-8.3356733628
 10
-8.8429473465
 20
-8.2967454094
 10
-8.8384861341
 20
-8.259134843
 10
-8.8327236121
 20
-8.2229538982
 10
-8.8253877252
 20
-8.1885392795
 10
-8.8163315156
 20
-8.1559411957
 10
-8.8057019411
 20
-8.125109438
 10
-8.7936678198
 20
-8.0962300847
 10
-8.7801088886
 20
-8.0693076903
 10
-8.7651454107
 20
-8.0443377003
 10
-8.7493069936
 20
-8.0214925299
 10
-8.7328646993
 20
-8.0007454651
 10
-8.7155474659
 20
-7.9821232198
 10
-8.6970717158
 20
-7.965878351
 10
-8.6773415685
 20
-7.9521383345
 10
-8.6564529045
 20
-7.9407756944
 10
-8.6344097882
 20
-7.9316605601
 10
-8.610802434
 20
-7.9246775592
 10
-8.5860406275
 20
-7.919942064
 10
-8.5613577902
 20
-7.9176703205
 10
-8.5367469978
 20
-7.9180320397
 10
-8.5122151747
 20
-7.9208575106
 10
-8.4890165147
 20
-7.9258538462
 10
-8.4674448492
 20
-7.9331136636
 10
-8.4472063468
 20
-7.9425443458
 10
-8.4286737073
 20
-7.9535751544
 10
-8.41201672
 20
-7.9660379996
 10
-8.3970655955
 20
-7.9801009711
 10
-8.3836836657
 20
-7.9956976001
 10
-8.3719788607
 20
-8.0128156154
 10
-8.3618432505
 20
-8.0314672881
 10
-8.3528163762
 20
-8.0516229623
 10
-8.3447447518
 20
-8.0732727525
 10
-8.3377818633
 20
-8.0964265442
 10
-8.3319277108
 20
-8.1210843373
  0
LWPOLYLINE
  5
39D
100
AcDbEntity
  8
0
100
AcDbPolyline
 62
7
  6
CONTINUOUS
 90
34
 70
0
 10
-8.8253012048
 20
-8.6656061187
 10
-8.8236861358
 20
-8.6342951401
 10
-8.8197034189
 20
-8.6046872381
 10
-8.813353054
 20
-8.5767824127
 10
-8.8044714708
 20
-8.5505386669
 10
-8.7932222397
 20
-8.5259979977
 10
-8.7800960719
 20
-8.503286396
 10
-8.7651219909
 20
-8.4823847376
 10
-8.7482709732
 20
-8.4633121467
 10
-8.7299466593
 20
-8.446251987
 10
-8.7102325475
 20
-8.4311824074
 10
-8.6890451395
 20
-8.418125259
 10
-8.6665375809
 20
-8.4073294584
 10
-8.6424593627
 20
-8.3988400957
 10
-8.6170609941
 20
-8.3926120809
 10
-8.5912471474
 20
-8.3887590599
 10
-8.5648248839
 20
-8.3873497148
 10
-8.5379871425
 20
-8.3883153635
 10
-8.5122174125
 20
-8.3915636058
 10
-8.4879159159
 20
-8.3971173737
 10
-8.4646824307
 20
-8.4049537353
 10
-8.4427997813
 20
-8.4149114949
 10
-8.4223024861
 20
-8.4269829421
 10
-8.4031560266
 20
-8.4411757874
 10
-8.3855396719
 20
-8.4573519671
 10
-8.3693939809
 20
-8.4754937642
 10
-8.3547783947
 20
-8.4956188956
 10
-8.342050505
 20
-8.517642448
 10
-8.3312354261
 20
-8.5416087835
 10
-8.3223080438
 20
-8.5674735399
 10
-8.3155506067
 20
-8.5950187178
 10
-8.3110571978
 20
-8.6241716508
 10
-8.3087337343
 20
-8.6550050051
 10
-8.308580216
 20
-8.687518781
  0
LWPOLYLINE
  5
39E
100
AcDbEntity
  8
0
100
AcDbPolyline
 62
7
  6
CONTINUOUS
 90
34
 70
0
 10
-8.308580216
 20
-8.687518781
 10
-8.3104959094
 20
-8.7196526728
 10
-8.3144628044
 20
-8.7500235193
 10
-8.3204809009
 20
-8.7786313203
 10
-8.3286715264
 20
-8.8055838128
 10
-8.3389133534
 20
-8.8307732599
 10
-8.3508424
 20
-8.853876451
 10
-8.3643531873
 20
-8.8746987501
 10
-8.3795511942
 20
-8.8934347933
 10
-8.3963888754
 20
-8.9103452782
 10
-8.4150305576
 20
-8.9255904858
 10
-8.4353119142
 20
-8.9390101351
 10
-8.4566924191
 20
-8.9503840807
 10
-8.479311028
 20
-8.9597598963
 10
-8.5030287854
 20
-8.9670900082
 10
-8.5268882985
 20
-8.9720115504
 10
-8.5507707649
 20
-8.9743758687
 10
-8.574794987
 20
-8.9743316173
 10
-8.5983599798
 20
-8.9719618923
 10
-8.6213842819
 20
-8.9672668818
 10
-8.6439493546
 20
-8.9602463977
 10
-8.6656985964
 20
-8.9509829722
 10
-8.6865839998
 20
-8.9395668317
 10
-8.7066535724
 20
-8.9259077498
 10
-8.7256947354
 20
-8.9098175792
 10
-8.7438471652
 20
-8.8912113194
 10
-8.7609711853
 20
-8.8701739709
 10
-8.7764351875
 20
-8.8467723882
 10
-8.7903173175
 20
-8.8207044692
 10
-8.8025394296
 20
-8.792272316
 10
-8.8122354789
 20
-8.7624490884
 10
-8.8191167837
 20
-8.7315591729
 10
-8.8234720257
 20
-8.699278183
 10
-8.8253012048
 20
-8.6656061187
  0
LINE
  5
39F
100
AcDbEntity
  8
0
100
AcDbLine
 62
7
  6
CONTINUOUS
 10
-9.6670462486
 20
-8.3325301205
 11
-9.6851562257
 21
-8.4734939759
  0
LWPOLYLINE
  5
3A0
100
AcDbEntity
  8
0
100
AcDbPolyline
 62
7
  6
CONTINUOUS
 90
32
 70
0
 10
-9.8277108434
 20
-8.1445783133
 10
-9.8219330125
 20
-8.1148719254
 10
-9.8144663407
 20
-8.0871071616
 10
-9.8053108279
 20
-8.0612840221
 10
-9.794415633
 20
-8.0372980976
 10
-9.7818315971
 20
-8.0152537972
 10
-9.7677112435
 20
-7.9954643486
 10
-9.752106784
 20
-7.9780749045
 10
-9.7349660068
 20
-7.9629403122
 10
-9.7162848004
 20
-7.949938341
 10
-9.6959019928
 20
-7.9389729948
 10
-9.673978756
 20
-7.9301402697
 10
-9.6509944945
 20
-7.9236059228
 10
-9.6265341685
 20
-7.9194554794
 10
-9.6010128178
 20
-7.9176034142
 10
-9.5761549664
 20
-7.9179589089
 10
-9.5523058282
 20
-7.9205161384
 10
-9.5291201892
 20
-7.9252809278
 10
-9.5072869321
 20
-7.9321799333
 10
-9.4869124439
 20
-7.9413761741
 10
-9.4678903377
 20
-7.9527066312
 10
-9.4505903349
 20
-7.9656089035
 10
-9.4350392482
 20
-7.9800216148
 10
-9.4212102649
 20
-7.9960061414
 10
-9.4093926687
 20
-8.0131842105
 10
-9.3996674976
 20
-8.0315742169
 10
-9.3919537136
 20
-8.0511577658
 10
-9.3862974854
 20
-8.0715014005
 10
-9.3827588828
 20
-8.0928133218
 10
-9.3812778361
 20
-8.1148853289
 10
-9.3817203045
 20
-8.1366593619
 10
-9.3839428891
 20
-8.1580607985
  0
LWPOLYLINE
  5
3A1
100
AcDbEntity
  8
0
100
AcDbPolyline
 62
7
  6
CONTINUOUS
 90
15
 70
0
 10
-9.3839428891
 20
-8.1580607985
 10
-9.3880889887
 20
-8.1791642611
 10
-9.3944547595
 20
-8.1991355576
 10
-9.4030941535
 20
-8.2176705109
 10
-9.4139532186
 20
-8.235073298
 10
-9.4271662544
 20
-8.2514222577
 10
-9.4428803087
 20
-8.2669078688
 10
-9.4609483335
 20
-8.2813396524
 10
-9.4810634853
 20
-8.2942245101
 10
-9.5032310034
 20
-8.3055349838
 10
-9.5274456483
 20
-8.3152985316
 10
-9.5533848579
 20
-8.3231044292
 10
-9.5809411114
 20
-8.3288157683
 10
-9.6102219297
 20
-8.3325694572
 10
-9.6412273125
 20
-8.3343654959
  0
LINE
  5
3A2
100
AcDbEntity
  8
0
100
AcDbLine
 62
7
  6
CONTINUOUS
 10
-3.3727463518
 20
11.9109676218
 11
-3.4784823518
 21
11.8052316218
  0
LINE
  5
3A3
100
AcDbEntity
  8
0
100
AcDbLine
 62
7
  6
CONTINUOUS
 10
4.6602409639
 20
-8.1866716121
 11
4.8325301205
 21
-8.1470255203
  0
LWPOLYLINE
  5
3A4
100
AcDbEntity
  8
0
100
AcDbPolyline
 62
7
  6
CONTINUOUS
 90
37
 70
0
 10
-1.0490397939
 20
-8.4969879518
 10
-1.00806096
 20
-8.4901210177
 10
-0.9694100106
 20
-8.4813220295
 10
-0.9330869456
 20
-8.4705909873
 10
-0.8989461992
 20
-8.4578671551
 10
-0.8671333373
 20
-8.4432112688
 10
-0.8380850577
 20
-8.4268055363
 10
-0.8121139056
 20
-8.4089111415
 10
-0.7889073358
 20
-8.3892669004
 10
-0.7679644102
 20
-8.3672714681
 10
-0.7490281068
 20
-8.3426745658
 10
-0.7323554477
 20
-8.3157264723
 10
-0.7182165605
 20
-8.2865766786
 10
-0.7064587609
 20
-8.2547521056
 10
-0.6972347332
 20
-8.2207258325
 10
-0.6912726584
 20
-8.1860665881
 10
-0.68882799
 20
-8.1508173905
 10
-0.6896452745
 20
-8.1149352217
 10
-0.6936863319
 20
-8.0798597565
 10
-0.7012759009
 20
-8.0455789456
 10
-0.7120892429
 20
-8.0121048383
 10
-0.7251139613
 20
-7.980913257
 10
-0.7401756809
 20
-7.9524052374
 10
-0.757448777
 20
-7.9261797439
 10
-0.7764439794
 20
-7.9025094917
 10
-0.7968933513
 20
-7.8815550769
 10
-0.8190648296
 20
-7.8631559033
 10
-0.8432729544
 20
-7.847102898
 10
-0.869686999
 20
-7.8334293321
 10
-0.8981376901
 20
-7.8221019343
 10
-0.9284317482
 20
-7.8128118183
 10
-0.9606678298
 20
-7.8057177843
 10
-0.9947472783
 20
-7.800661032
 10
-1.030180844
 20
-7.7968562736
 10
-1.0668054437
 20
-7.7940417467
 10
-1.1047841605
 20
-7.7924792137
 10
-1.1441169944
 20
-7.7921686747
  0
LWPOLYLINE
  5
3A5
100
AcDbEntity
  8
0
100
AcDbPolyline
 62
7
  6
CONTINUOUS
 90
18
 70
0
 10
-5.5059318983
 20
-8.9672993778
 10
-5.535540597
 20
-8.972245586
 10
-5.5646897888
 20
-8.9745726827
 10
-5.5930949204
 20
-8.9741783115
 10
-5.6210405451
 20
-8.9711648289
 10
-5.6472885131
 20
-8.9658012903
 10
-5.6713988766
 20
-8.9581234257
 10
-5.6938115833
 20
-8.9480955053
 10
-5.7146083269
 20
-8.9358793944
 10
-5.733757254
 20
-8.9216294235
 10
-5.7512902179
 20
-8.9051912622
 10
-5.767384473
 20
-8.8862637849
 10
-5.7821123147
 20
-8.8645882701
 10
-5.7954014476
 20
-8.8404234392
 10
-5.8072122397
 20
-8.8142443314
 10
-5.8175314804
 20
-8.7862092931
 10
-5.8263723805
 20
-8.7561599778
 10
-5.8337349398
 20
-8.7240963855
  0
LWPOLYLINE
  5
3A6
100
AcDbEntity
  8
0
100
AcDbPolyline
 62
7
  6
CONTINUOUS
 90
18
 70
0
 10
-9.5155704525
 20
-8.9672993778
 10
-9.5451791512
 20
-8.972245586
 10
-9.574328343
 20
-8.9745726827
 10
-9.6027334747
 20
-8.9741783115
 10
-9.6306790994
 20
-8.9711648289
 10
-9.6569270673
 20
-8.9658012903
 10
-9.6810374308
 20
-8.9581234257
 10
-9.7034501375
 20
-8.9480955053
 10
-9.7242468811
 20
-8.9358793944
 10
-9.7433958082
 20
-8.9216294235
 10
-9.7609287721
 20
-8.9051912622
 10
-9.7770230273
 20
-8.8862637849
 10
-9.7917508689
 20
-8.8645882701
 10
-9.8050400018
 20
-8.8404234392
 10
-9.8168507939
 20
-8.8142443314
 10
-9.8271700347
 20
-8.7862092931
 10
-9.8360109347
 20
-8.7561599778
 10
-9.843373494
 20
-8.7240963855
  0
LINE
  5
3A7
100
AcDbEntity
  8
0
100
AcDbLine
 62
7
  6
CONTINUOUS
 10
-5.8337349398
 20
-8.7240963855
 11
-5.9903614458
 21
-8.7475903614
  0
LINE
  5
3A8
100
AcDbEntity
  8
0
100
AcDbLine
 62
7
  6
CONTINUOUS
 10
-6.3271084337
 20
-8.1210843373
 11
-6.1704819277
 21
-8.1054216867
  0
LINE
  5
3A9
100
AcDbEntity
  8
0
100
AcDbLine
 62
7
  6
CONTINUOUS
 10
-8.3319277108
 20
-8.1210843373
 11
-8.1753012048
 21
-8.1054216867
  0
LINE
  5
3AA
100
AcDbEntity
  8
0
100
AcDbLine
 62
7
  6
CONTINUOUS
 10
1.0891566265
 20
-8.6536144578
 11
0.9246987952
 21
-8.6614457831
  0
LINE
  5
3AB
100
AcDbEntity
  8
0
100
AcDbLine
 62
7
  6
CONTINUOUS
 10
1.7391566265
 20
-8.1602409639
 11
1.9114457831
 21
-8.1524096386
  0
LWPOLYLINE
  5
3AC
100
AcDbEntity
  8
0
100
AcDbPolyline
 62
7
  6
CONTINUOUS
 90
17
 70
0
 10
-1.4272176493
 20
-8.5126110825
 10
-1.3550460999
 20
-8.5118798296
 10
-1.3207198929
 20
-8.5129810178
 10
-1.2876477621
 20
-8.5152279776
 10
-1.255865573
 20
-8.5189190046
 10
-1.2258316113
 20
-8.5263475575
 10
-1.1978846335
 20
-8.538386768
 10
-1.171685883
 20
-8.5541635043
 10
-1.1466773766
 20
-8.5733518301
 10
-1.1229546589
 20
-8.5964165073
 10
-1.1004221851
 20
-8.622892774
 10
-1.0782353376
 20
-8.6510604087
 10
-1.0563056187
 20
-8.6804951683
 10
-1.034721526
 20
-8.7116212959
 10
-1.0129039347
 20
-8.7439912996
 10
-0.9907302798
 20
-8.7775180243
 10
-0.9683231263
 20
-8.8122886252
  0
LINE
  5
3AD
100
AcDbEntity
  8
0
100
AcDbLine
 62
7
  6
CONTINUOUS
 10
-1.1904649928
 20
-8.3640956354
 11
-1.253845154
 21
-8.3643622799
  0
LINE
  5
3AE
100
AcDbEntity
  8
0
100
AcDbLine
 62
7
  6
CONTINUOUS
 10
-10.0
 20
-11.0
 11
-9.8277108434
 21
-11.0
  0
LINE
  5
3AF
100
AcDbEntity
  8
0
100
AcDbLine
 62
7
  6
CONTINUOUS
 10
-9.193373494
 20
-11.0
 11
-9.0210843373
 21
-11.0
  0
LINE
  5
3B0
100
AcDbEntity
  8
0
100
AcDbLine
 62
7
  6
CONTINUOUS
 10
-8.5685804789
 20
-11.0
 11
-8.386746988
 21
-11.0
  0
LINE
  5
3B1
100
AcDbEntity
  8
0
100
AcDbLine
 62
7
  6
CONTINUOUS
 10
-7.556626506
 20
-11.0
 11
-7.373446866
 21
-11.0
  0
LINE
  5
3B2
100
AcDbEntity
  8
0
100
AcDbLine
 62
7
  6
CONTINUOUS
 10
-7.2355421687
 20
-11.0
 11
-6.4210843373
 21
-11.0
  0
LINE
  5
3B3
100
AcDbEntity
  8
0
100
AcDbLine
 62
7
  6
CONTINUOUS
 10
-5.8640813104
 20
-11.0
 11
-5.6917921537
 21
-11.0
  0
LINE
  5
3B4
100
AcDbEntity
  8
0
100
AcDbLine
 62
7
  6
CONTINUOUS
 10
-6.4210843373
 20
-10.8512048193
 11
-7.063253012
 21
-10.8512048193
  0
LINE
  5
3B5
100
AcDbEntity
  8
0
100
AcDbLine
 62
7
  6
CONTINUOUS
 10
-8.2505552997
 20
-10.6084337349
 11
-7.7007717664
 21
-10.6084337349
  0
LINE
  5
3B6
100
AcDbEntity
  8
0
100
AcDbLine
 62
7
  6
CONTINUOUS
 10
-7.752776618
 20
-10.4674698795
 11
-8.2014871204
 21
-10.4674698795
  0
LINE
  5
3B7
100
AcDbEntity
  8
0
100
AcDbLine
 62
7
  6
CONTINUOUS
 10
-9.6162650602
 20
-9.856626506
 11
-9.193373494
 21
-9.856626506
  0
LINE
  5
3B8
100
AcDbEntity
  8
0
100
AcDbLine
 62
7
  6
CONTINUOUS
 10
-9.0210843373
 20
-9.856626506
 11
-8.5981927711
 21
-9.856626506
  0
LINE
  5
3B9
100
AcDbEntity
  8
0
100
AcDbLine
 62
7
  6
CONTINUOUS
 10
-5.1749246839
 20
-9.7078313253
 11
-5.3828218436
 21
-9.7078313253
  0
LINE
  5
3BA
100
AcDbEntity
  8
0
100
AcDbLine
 62
7
  6
CONTINUOUS
 10
-6.1524943169
 20
-9.7078313253
 11
-6.3574548043
 21
-9.7078313253
  0
LINE
  5
3BB
100
AcDbEntity
  8
0
100
AcDbLine
 62
7
  6
CONTINUOUS
 10
-7.063253012
 20
-9.7078313253
 11
-7.2355421687
 21
-9.7078313253
  0
LINE
  5
3BC
100
AcDbEntity
  8
0
100
AcDbLine
 62
7
  6
CONTINUOUS
 10
-7.8910485338
 20
-9.7078313253
 11
-8.0774095788
 21
-9.7078313253
  0
LINE
  5
3BD
100
AcDbEntity
  8
0
100
AcDbLine
 62
7
  6
CONTINUOUS
 10
-8.5981927711
 20
-9.7078313253
 11
-9.6162650602
 21
-9.7078313253
  0
LINE
  5
3BE
100
AcDbEntity
  8
0
100
AcDbLine
 62
7
  6
CONTINUOUS
 10
-9.8277108434
 20
-9.7078313253
 11
-10.0
 21
-9.7078313253
  0
LINE
  5
3BF
100
AcDbEntity
  8
0
100
AcDbLine
 62
7
  6
CONTINUOUS
 10
-4.4397590361
 20
-9.0843373494
 11
-4.2674698795
 21
-9.0843373494
  0
LINE
  5
3C0
100
AcDbEntity
  8
0
100
AcDbLine
 62
7
  6
CONTINUOUS
 10
-3.8948700363
 20
-9.0843373494
 11
-3.7482774495
 21
-9.0843373494
  0
LINE
  5
3C1
100
AcDbEntity
  8
0
100
AcDbLine
 62
7
  6
CONTINUOUS
 10
-3.3668674699
 20
-9.0843373494
 11
-3.1945783133
 21
-9.0843373494
  0
LINE
  5
3C2
100
AcDbEntity
  8
0
100
AcDbLine
 62
7
  6
CONTINUOUS
 10
-3.0631587922
 20
-9.0843373494
 11
-2.8813253012
 21
-9.0843373494
  0
LINE
  5
3C3
100
AcDbEntity
  8
0
100
AcDbLine
 62
7
  6
CONTINUOUS
 10
-2.0512048193
 20
-9.0843373494
 11
-1.8680251792
 21
-9.0843373494
  0
LINE
  5
3C4
100
AcDbEntity
  8
0
100
AcDbLine
 62
7
  6
CONTINUOUS
 10
-1.7144578313
 20
-9.0843373494
 11
-1.5421686747
 21
-9.0843373494
  0
LINE
  5
3C5
100
AcDbEntity
  8
0
100
AcDbLine
 62
7
  6
CONTINUOUS
 10
-0.7967243752
 20
-9.0843373494
 11
-0.5943335806
 21
-9.0843373494
  0
LINE
  5
3C6
100
AcDbEntity
  8
0
100
AcDbLine
 62
7
  6
CONTINUOUS
 10
2.506626506
 20
-9.0843373494
 11
2.6789156627
 21
-9.0843373494
  0
LINE
  5
3C7
100
AcDbEntity
  8
0
100
AcDbLine
 62
7
  6
CONTINUOUS
 10
3.2975903614
 20
-9.0843373494
 11
3.4698795181
 21
-9.0843373494
  0
LINE
  5
3C8
100
AcDbEntity
  8
0
100
AcDbLine
 62
7
  6
CONTINUOUS
 10
4.9326243403
 20
-9.0843373494
 11
5.1144578313
 21
-9.0843373494
  0
LINE
  5
3C9
100
AcDbEntity
  8
0
100
AcDbLine
 62
7
  6
CONTINUOUS
 10
5.9445783133
 20
-9.0843373494
 11
6.1277579533
 21
-9.0843373494
  0
LINE
  5
3CA
100
AcDbEntity
  8
0
100
AcDbLine
 62
7
  6
CONTINUOUS
 10
7.1509695086
 20
-9.0843373494
 11
7.3363517425
 21
-9.0843373494
  0
LINE
  5
3CB
100
AcDbEntity
  8
0
100
AcDbLine
 62
7
  6
CONTINUOUS
 10
7.9963855422
 20
-9.0843373494
 11
8.1686746988
 21
-9.0843373494
  0
LINE
  5
3CC
100
AcDbEntity
  8
0
100
AcDbLine
 62
7
  6
CONTINUOUS
 10
-2.745133613
 20
-8.6927710843
 11
-2.1953500797
 21
-8.6927710843
  0
LINE
  5
3CD
100
AcDbEntity
  8
0
100
AcDbLine
 62
7
  6
CONTINUOUS
 10
5.2506495196
 20
-8.6927710843
 11
5.8004330529
 21
-8.6927710843
  0
LINE
  5
3CE
100
AcDbEntity
  8
0
100
AcDbLine
 62
7
  6
CONTINUOUS
 10
5.7484282012
 20
-8.5518072289
 11
5.2997176989
 21
-8.5518072289
  0
LINE
  5
3CF
100
AcDbEntity
  8
0
100
AcDbLine
 62
7
  6
CONTINUOUS
 10
-2.2473549313
 20
-8.5518072289
 11
-2.6960654336
 21
-8.5518072289
  0
LINE
  5
3D0
100
AcDbEntity
  8
0
100
AcDbLine
 62
7
  6
CONTINUOUS
 10
-1.5421686747
 20
-7.9409638554
 11
-1.1371422334
 21
-7.9409638554
  0
LINE
  5
3D1
100
AcDbEntity
  8
0
100
AcDbLine
 62
7
  6
CONTINUOUS
 10
2.0837349398
 20
-7.9409638554
 11
2.506626506
 21
-7.9409638554
  0
LINE
  5
3D2
100
AcDbEntity
  8
0
100
AcDbLine
 62
7
  6
CONTINUOUS
 10
2.6789156627
 20
-7.9409638554
 11
3.1018072289
 21
-7.9409638554
  0
LINE
  5
3D3
100
AcDbEntity
  8
0
100
AcDbLine
 62
7
  6
CONTINUOUS
 10
8.1686746988
 20
-7.7921686747
 11
7.9963855422
 21
-7.7921686747
  0
LINE
  5
3D4
100
AcDbEntity
  8
0
100
AcDbLine
 62
7
  6
CONTINUOUS
 10
7.8517508165
 20
-7.7921686747
 11
7.6674698795
 21
-7.7921686747
  0
LINE
  5
3D5
100
AcDbEntity
  8
0
100
AcDbLine
 62
7
  6
CONTINUOUS
 10
6.8373493976
 20
-7.7921686747
 11
6.654169877
 21
-7.7921686747
  0
LINE
  5
3D6
100
AcDbEntity
  8
0
100
AcDbLine
 62
7
  6
CONTINUOUS
 10
5.6101562855
 20
-7.7921686747
 11
5.4237952405
 21
-7.7921686747
  0
LINE
  5
3D7
100
AcDbEntity
  8
0
100
AcDbLine
 62
7
  6
CONTINUOUS
 10
3.4698795181
 20
-7.7921686747
 11
3.2975903614
 21
-7.7921686747
  0
LINE
  5
3D8
100
AcDbEntity
  8
0
100
AcDbLine
 62
7
  6
CONTINUOUS
 10
3.1018072289
 20
-7.7921686747
 11
2.0837349398
 21
-7.7921686747
  0
LINE
  5
3D9
100
AcDbEntity
  8
0
100
AcDbLine
 62
7
  6
CONTINUOUS
 10
-1.1441169944
 20
-7.7921686747
 11
-1.7144578313
 21
-7.7921686747
  0
LINE
  5
3DA
100
AcDbEntity
  8
0
100
AcDbLine
 62
7
  6
CONTINUOUS
 10
-2.3856268471
 20
-7.7921686747
 11
-2.5719878921
 21
-7.7921686747
  0
LINE
  5
3DB
100
AcDbEntity
  8
0
100
AcDbLine
 62
7
  6
CONTINUOUS
 10
-3.1945783133
 20
-7.7921686747
 11
-3.4187499552
 21
-7.7921686747
  0
LINE
  5
3DC
100
AcDbEntity
  8
0
100
AcDbLine
 62
7
  6
CONTINUOUS
 10
-4.1771648462
 20
-7.7921686747
 11
-4.4397590361
 21
-7.7921686747
  0
LINE
  5
3DD
100
AcDbEntity
  8
0
100
AcDbLine
 62
7
  6
CONTINUOUS
 10
-9.5032003684
 20
-7.2
 11
-9.3178181345
 21
-7.2
  0
LINE
  5
3DE
100
AcDbEntity
  8
0
100
AcDbLine
 62
7
  6
CONTINUOUS
 10
-8.6577843349
 20
-7.2
 11
-8.4854951782
 21
-7.2
  0
LINE
  5
3DF
100
AcDbEntity
  8
0
100
AcDbLine
 62
7
  6
CONTINUOUS
 10
-8.322750356
 20
-7.2
 11
-8.140916865
 21
-7.2
  0
LINE
  5
3E0
100
AcDbEntity
  8
0
100
AcDbLine
 62
7
  6
CONTINUOUS
 10
-7.3107963831
 20
-7.2
 11
-7.127616743
 21
-7.2
  0
LINE
  5
3E1
100
AcDbEntity
  8
0
100
AcDbLine
 62
7
  6
CONTINUOUS
 10
-6.9897120457
 20
-7.2
 11
-6.1752542144
 21
-7.2
  0
LINE
  5
3E2
100
AcDbEntity
  8
0
100
AcDbLine
 62
7
  6
CONTINUOUS
 10
-5.9716397566
 20
-7.2
 11
-5.0162180698
 21
-7.2
  0
LINE
  5
3E3
100
AcDbEntity
  8
0
100
AcDbLine
 62
7
  6
CONTINUOUS
 10
-3.9038027781
 20
-7.2
 11
-3.7184205442
 21
-7.2
  0
LINE
  5
3E4
100
AcDbEntity
  8
0
100
AcDbLine
 62
7
  6
CONTINUOUS
 10
-3.0583867445
 20
-7.2
 11
-2.8860975879
 21
-7.2
  0
LINE
  5
3E5
100
AcDbEntity
  8
0
100
AcDbLine
 62
7
  6
CONTINUOUS
 10
-1.2728445758
 20
-7.2
 11
-0.3174228891
 21
-7.2
  0
LINE
  5
3E6
100
AcDbEntity
  8
0
100
AcDbLine
 62
7
  6
CONTINUOUS
 10
-0.0746518047
 20
-7.2
 11
0.0976373519
 21
-7.2
  0
LINE
  5
3E7
100
AcDbEntity
  8
0
100
AcDbLine
 62
7
  6
CONTINUOUS
 10
0.7445783133
 20
-7.2
 11
0.9277578338
 21
-7.2
  0
LINE
  5
3E8
100
AcDbEntity
  8
0
100
AcDbLine
 62
7
  6
CONTINUOUS
 10
1.1078783157
 20
-7.2
 11
2.1337819302
 21
-7.2
  0
LINE
  5
3E9
100
AcDbEntity
  8
0
100
AcDbLine
 62
7
  6
CONTINUOUS
 10
2.1712255476
 20
-7.2
 11
2.3530590386
 21
-7.2
  0
LINE
  5
3EA
100
AcDbEntity
  8
0
100
AcDbLine
 62
7
  6
CONTINUOUS
 10
3.1831795206
 20
-7.2
 11
3.3663591606
 21
-7.2
  0
LINE
  5
3EB
100
AcDbEntity
  8
0
100
AcDbLine
 62
7
  6
CONTINUOUS
 10
4.3892036169
 20
-7.2
 11
4.545830123
 21
-7.2
  0
LINE
  5
3EC
100
AcDbEntity
  8
0
100
AcDbLine
 62
7
  6
CONTINUOUS
 10
5.4699265085
 20
-7.2
 11
5.6265530145
 21
-7.2
  0
LINE
  5
3ED
100
AcDbEntity
  8
0
100
AcDbLine
 62
7
  6
CONTINUOUS
 10
-1.5421686747
 20
-8.5126506024
 11
-1.4272176493
 21
-8.5126110825
  0
LINE
  5
3EE
100
AcDbEntity
  8
0
100
AcDbLine
 62
7
  6
CONTINUOUS
 10
-1.3907129726
 20
-8.363824882
 11
-1.5421686747
 21
-8.3638554217
  0
LINE
  5
3EF
100
AcDbEntity
  8
0
100
AcDbLine
 62
7
  6
CONTINUOUS
 10
-1.253845154
 20
-8.3643622799
 11
-1.3907129726
 21
-8.363824882
  0
LWPOLYLINE
  5
3F0
100
AcDbEntity
  8
0
100
AcDbPolyline
 62
7
  6
CONTINUOUS
 90
10
 70
0
 10
-9.6412273125
 20
-8.3343654959
 10
-9.6440263908
 20
-8.3343275156
 10
-9.6468438863
 20
-8.3342437575
 10
-9.6496797988
 20
-8.3341142217
 10
-9.6525354539
 20
-8.3339331878
 10
-9.655409526
 20
-8.333706376
 10
-9.6582980392
 20
-8.3334509473
 10
-9.661199668
 20
-8.333172622
 10
-9.6641157378
 20
-8.3328656797
 10
-9.6670462486
 20
-8.3325301205
  0
LWPOLYLINE
  5
3F1
100
AcDbEntity
  8
0
100
AcDbPolyline
 62
7
  6
CONTINUOUS
 90
10
 70
0
 10
-5.6315887583
 20
-8.3343654959
 10
-5.6343878366
 20
-8.3343275156
 10
-5.637205332
 20
-8.3342437575
 10
-5.6400412446
 20
-8.3341142217
 10
-5.6428968996
 20
-8.3339331878
 10
-5.6457709718
 20
-8.333706376
 10
-5.648659485
 20
-8.3334509473
 10
-5.6515611138
 20
-8.333172622
 10
-5.6544771836
 20
-8.3328656797
 10
-5.6574076944
 20
-8.3325301205
  0
LWPOLYLINE
  5
3F2
100
AcDbEntity
  8
0
100
AcDbPolyline
 62
7
  6
CONTINUOUS
 90
36
 70
0
 10
-1.1371422334
 20
-7.9409638554
 10
-1.1083479495
 20
-7.9413627458
 10
-1.0808200758
 20
-7.9432301474
 10
-1.0545586125
 20
-7.9465660602
 10
-1.0293835068
 20
-7.9513349437
 10
-1.0054748114
 20
-7.9575723385
 10
-0.9833726838
 20
-7.965384866
 10
-0.9633184665
 20
-7.9747049448
 10
-0.945070817
 20
-7.9856001563
 10
-0.9284458656
 20
-7.9983798658
 10
-0.9132982142
 20
-8.013271319
 10
-0.899773261
 20
-8.0300472702
 10
-0.88812333
 20
-8.0483353477
 10
-0.8782597609
 20
-8.068411355
 10
-0.8702712142
 20
-8.0899994886
 10
-0.8646759949
 20
-8.1118999665
 10
-0.8616472425
 20
-8.133952833
 10
-0.8610118176
 20
-8.1563180437
 10
-0.8627686069
 20
-8.1782756838
 10
-0.8670141443
 20
-8.1998036401
 10
-0.8736518959
 20
-8.2209240256
 10
-0.8823911468
 20
-8.2409832646
 10
-0.8932079835
 20
-8.2599822999
 10
-0.9061263195
 20
-8.2779201886
 10
-0.9209271803
 20
-8.294140526
 10
-0.9375816696
 20
-8.3084392696
 10
-0.9561186836
 20
-8.3210204619
 10
-0.976405937
 20
-8.3318398263
 10
-0.9985525987
 20
-8.340778178
 10
-1.0224494998
 20
-8.3479547018
 10
-1.0476368481
 20
-8.3536826757
 10
-1.0740791806
 20
-8.3578432874
 10
-1.1018119602
 20
-8.3605553493
 10
-1.1304817837
 20
-8.362488576
 10
-1.1600048663
 20
-8.3636815233
 10
-1.1904649928
 20
-8.3640956354
  0
LINE
  5
3F3
100
AcDbEntity
  8
0
100
AcDbLine
 62
7
  6
CONTINUOUS
 10
-9.9843373494
 20
-8.1210843373
 11
-9.8277108434
 21
-8.1445783133
  0
LINE
  5
3F4
100
AcDbEntity
  8
0
100
AcDbLine
 62
7
  6
CONTINUOUS
 10
-5.9746987952
 20
-8.1210843373
 11
-5.8180722892
 21
-8.1445783133
  0
LWPOLYLINE
  5
3F5
100
AcDbEntity
  8
0
100
AcDbPolyline
 62
7
  6
CONTINUOUS
 90
3
 70
0
 10
1.4046734156
 20
-8.4898295815
 10
1.4314503493
 20
-8.4961340886
 10
1.457791222
 20
-8.5025440819
  0
LWPOLYLINE
  5
3F6
100
AcDbEntity
  8
0
100
AcDbPolyline
 62
7
  6
CONTINUOUS
 90
42
 70
0
 10
1.4437076757
 20
-8.3217620034
 10
1.4191981346
 20
-8.3159203775
 10
1.3954085144
 20
-8.3099169491
 10
1.3723388154
 20
-8.3037517183
 10
1.3500140458
 20
-8.2974538777
 10
1.3284091973
 20
-8.2909942346
 10
1.3074492448
 20
-8.2842852108
 10
1.286931582
 20
-8.2774439669
 10
1.2670588152
 20
-8.2703533423
 10
1.2483637373
 20
-8.262574277
 10
1.2308864167
 20
-8.2541438139
 10
1.214586785
 20
-8.2450249101
 10
1.1998774304
 20
-8.234667377
 10
1.1868573798
 20
-8.2228278875
 10
1.1754276062
 20
-8.2097497687
 10
1.1657036178
 20
-8.1956128132
 10
1.1576318969
 20
-8.1803665547
 10
1.1512659611
 20
-8.1640614595
 10
1.146881871
 20
-8.1470287192
 10
1.1444678431
 20
-8.1292568851
 10
1.1440356609
 20
-8.1107574058
 10
1.1458967367
 20
-8.0918958186
 10
1.1502391377
 20
-8.0723743338
 10
1.1568747965
 20
-8.052490741
 10
1.1655509231
 20
-8.0335039469
 10
1.1763670758
 20
-8.0155464979
 10
1.1892236961
 20
-7.9984858476
 10
1.2035693191
 20
-7.9831832628
 10
1.2191868241
 20
-7.9700164452
 10
1.2362933316
 20
-7.9586076931
 10
1.2549887386
 20
-7.9486851693
 10
1.2754430563
 20
-7.940213845
 10
1.2974862734
 20
-7.9332287489
 10
1.3207082528
 20
-7.9275631298
 10
1.3450149338
 20
-7.9232159215
 10
1.3705003772
 20
-7.9201881902
 10
1.3970366275
 20
-7.9183163837
 10
1.4250325345
 20
-7.9174187244
 10
1.4540792485
 20
-7.9176769898
 10
1.4828222646
 20
-7.9194729608
 10
1.5112837707
 20
-7.9228645394
 10
1.5394415789
 20
-7.9277938235
  0
LINE
  5
3F7
100
AcDbEntity
  8
0
100
AcDbLine
 62
7
  6
CONTINUOUS
 10
4.8638554217
 20
-8.6740492756
 11
4.6915662651
 21
-8.6308545604
  0
LWPOLYLINE
  5
3F8
100
AcDbEntity
  8
0
100
AcDbPolyline
 62
7
  6
CONTINUOUS
 90
14
 70
0
 10
1.5394415789
 20
-7.9277938235
 10
1.5658746216
 20
-7.9344688874
 10
1.590138365
 20
-7.9429303941
 10
1.6126773427
 20
-7.9531376806
 10
1.6334040884
 20
-7.9651768318
 10
1.6522437001
 20
-7.9790045792
 10
1.6692710796
 20
-7.9946641913
 10
1.6846234656
 20
-8.0123715585
 10
1.6984458919
 20
-8.0322656603
 10
1.7105933246
 20
-8.0542075171
 10
1.7207679007
 20
-8.0779960808
 10
1.7288703326
 20
-8.103564335
 10
1.7349999078
 20
-8.1309792961
 10
1.7391566265
 20
-8.1602409639
  0
LWPOLYLINE
  5
3F9
100
AcDbEntity
  8
0
100
AcDbPolyline
 62
7
  6
CONTINUOUS
 90
7
 70
0
 10
1.457791222
 20
-8.5025440819
 10
1.5092176865
 20
-8.5155682972
 10
1.5343032782
 20
-8.5221825192
 10
1.5587941022
 20
-8.5292389186
 10
1.5826372563
 20
-8.5368497256
 10
1.6058856426
 20
-8.5449027099
 10
1.6285392612
 20
-8.5533978716
  0
LWPOLYLINE
  5
3FA
100
AcDbEntity
  8
0
100
AcDbPolyline
 62
7
  6
CONTINUOUS
 90
35
 70
0
 10
1.6285392612
 20
-8.5533978716
 10
1.6506719057
 20
-8.5627128413
 10
1.6709732495
 20
-8.5729518776
 10
1.6894432927
 20
-8.5841149806
 10
1.7061121334
 20
-8.5960910835
 10
1.7209496734
 20
-8.608991253
 10
1.7338656183
 20
-8.6231486893
 10
1.7448430036
 20
-8.6386246641
 10
1.7538987939
 20
-8.6553579057
 10
1.760993588
 20
-8.6734977989
 10
1.7662555546
 20
-8.6934629668
 10
1.7695565252
 20
-8.7148347864
 10
1.7704725926
 20
-8.7365067739
 10
1.7688244934
 20
-8.7585374847
 10
1.764791491
 20
-8.7808683635
 10
1.7584874688
 20
-8.80221726
 10
1.749989693
 20
-8.8222099333
 10
1.7392208974
 20
-8.8412206244
 10
1.7260631667
 20
-8.859089906
 10
1.7104570326
 20
-8.8758352823
 10
1.6924619633
 20
-8.8914392491
 10
1.6721384483
 20
-8.9056898665
 10
1.6493234596
 20
-8.9186993703
 10
1.6241800253
 20
-8.9303555248
 10
1.5972577181
 20
-8.9401096831
 10
1.5686823395
 20
-8.9478561798
 10
1.5383280882
 20
-8.9537006803
 10
1.5063671331
 20
-8.9574115345
 10
1.4723501772
 20
-8.95903602
 10
1.4367265176
 20
-8.9585268591
 10
1.4010162145
 20
-8.9555105684
 10
1.3649429669
 20
-8.9497550013
 10
1.3287830758
 20
-8.9414923045
 10
1.2948855045
 20
-8.9310454349
 10
1.2638662753
 20
-8.9183694325
  0
LWPOLYLINE
  5
3FB
100
AcDbEntity
  8
0
100
AcDbPolyline
 62
7
  6
CONTINUOUS
 90
12
 70
0
 10
1.2638662753
 20
-8.9183694325
 10
1.2351093659
 20
-8.9035092574
 10
1.2091156725
 20
-8.8869227461
 10
1.1861604998
 20
-8.8688446235
 10
1.1659685432
 20
-8.8490401649
 10
1.1482147848
 20
-8.8272630324
 10
1.1329052457
 20
-8.8034706304
 10
1.1200339049
 20
-8.7777055547
 10
1.1092576807
 20
-8.7498492546
 10
1.1004622126
 20
-8.7198622134
 10
1.0937618612
 20
-8.6877839478
 10
1.0891566265
 20
-8.6536144578
  0
LINE
  5
3FC
100
AcDbEntity
  8
0
100
AcDbLine
 62
7
  6
CONTINUOUS
 10
-6.3574548043
 20
-9.7078313253
 11
-5.8640813104
 21
-10.4526636737
  0
LINE
  5
3FD
100
AcDbEntity
  8
0
100
AcDbLine
 62
7
  6
CONTINUOUS
 10
-5.8887234927
 20
-10.1242427912
 11
-5.9733757976
 21
-9.9930945408
  0
LWPOLYLINE
  5
3FE
100
AcDbEntity
  8
0
100
AcDbPolyline
 62
7
  6
CONTINUOUS
 90
3
 70
0
 10
-5.9733757976
 20
-9.9930945408
 10
-6.0171279468
 20
-9.9248103305
 10
-6.061476524
 20
-9.8544336115
  0
LWPOLYLINE
  5
3FF
100
AcDbEntity
  8
0
100
AcDbPolyline
 62
7
  6
CONTINUOUS
 90
3
 70
0
 10
-5.7720631485
 20
-10.3099868092
 10
-5.8096450288
 20
-10.2495930746
 10
-5.8887234927
 20
-10.1242427912
  0
LINE
  5
400
100
AcDbEntity
  8
0
100
AcDbLine
 62
7
  6
CONTINUOUS
 10
-6.061476524
 20
-9.8544336115
 11
-6.1524943169
 21
-9.7078313253
  0
LINE
  5
401
100
AcDbEntity
  8
0
100
AcDbLine
 62
7
  6
CONTINUOUS
 10
-7.373446866
 20
-11.0
 11
-7.8910485338
 21
-9.7078313253
  0
LINE
  5
402
100
AcDbEntity
  8
0
100
AcDbLine
 62
7
  6
CONTINUOUS
 10
-7.127616743
 20
-7.2
 11
-7.6452184108
 21
-5.9078313253
  0
LINE
  5
403
100
AcDbEntity
  8
0
100
AcDbLine
 62
7
  6
CONTINUOUS
 10
-5.6240022852
 20
-5.3078313253
 11
-6.141603953
 21
-4.0156626506
  0
LINE
  5
404
100
AcDbEntity
  8
0
100
AcDbLine
 62
7
  6
CONTINUOUS
 10
-7.5646497922
 20
-6.521264404
 11
-7.5069464951
 21
-6.6674698795
  0
LINE
  5
405
100
AcDbEntity
  8
0
100
AcDbLine
 62
7
  6
CONTINUOUS
 10
-6.0610353344
 20
-4.6290957293
 11
-6.0033320372
 21
-4.7753012048
  0
LINE
  5
406
100
AcDbEntity
  8
0
100
AcDbLine
 62
7
  6
CONTINUOUS
 10
-10.0
 20
-4.0156626506
 11
-9.5032003684
 21
-5.3078313253
  0
LINE
  5
407
100
AcDbEntity
  8
0
100
AcDbLine
 62
7
  6
CONTINUOUS
 10
-7.7007717664
 20
-10.6084337349
 11
-7.556626506
 21
-11.0
  0
LINE
  5
408
100
AcDbEntity
  8
0
100
AcDbLine
 62
7
  6
CONTINUOUS
 10
-7.4549416434
 20
-6.8084337349
 11
-7.3107963831
 21
-7.2
  0
LINE
  5
409
100
AcDbEntity
  8
0
100
AcDbLine
 62
7
  6
CONTINUOUS
 10
-5.9513271856
 20
-4.9162650602
 11
-5.8071819252
 21
-5.3078313253
  0
LINE
  5
40A
100
AcDbEntity
  8
0
100
AcDbLine
 62
7
  6
CONTINUOUS
 10
-8.0234469855
 20
-4.2114457831
 11
-7.6508471423
 21
-5.3078313253
  0
LINE
  5
40B
100
AcDbEntity
  8
0
100
AcDbLine
 62
7
  6
CONTINUOUS
 10
-7.6129083618
 20
-4.9713833729
 11
-7.9331419521
 21
-4.0156626506
  0
LINE
  5
40C
100
AcDbEntity
  8
0
100
AcDbLine
 62
7
  6
CONTINUOUS
 10
-7.5919990663
 20
-5.0351448566
 11
-7.6129083618
 21
-4.9713833729
  0
LINE
  5
40D
100
AcDbEntity
  8
0
100
AcDbLine
 62
7
  6
CONTINUOUS
 10
-7.5784601525
 20
-5.0773810888
 11
-7.5919990663
 21
-5.0351448566
  0
LINE
  5
40E
100
AcDbEntity
  8
0
100
AcDbLine
 62
7
  6
CONTINUOUS
 10
-7.5653143956
 20
-5.1193900528
 11
-7.5784601525
 21
-5.0773810888
  0
LWPOLYLINE
  5
40F
100
AcDbEntity
  8
0
100
AcDbPolyline
 62
7
  6
CONTINUOUS
 90
6
 70
0
 10
-7.9834336752
 20
-9.8409638554
 10
-7.9630549994
 20
-9.9068914673
 10
-7.9411529961
 20
-9.9736989968
 10
-7.9177276653
 20
-10.0413864438
 10
-7.8924978658
 20
-10.1098989755
 10
-7.8104799151
 20
-10.321264404
  0
LWPOLYLINE
  5
410
100
AcDbEntity
  8
0
100
AcDbPolyline
 62
7
  6
CONTINUOUS
 90
6
 70
0
 10
-7.7376035522
 20
-6.0409638554
 10
-7.7172248764
 20
-6.1068914673
 10
-7.6953228731
 20
-6.1736989968
 10
-7.6718975424
 20
-6.2413864438
 10
-7.6466677429
 20
-6.3098989755
 10
-7.5646497922
 20
-6.521264404
  0
LWPOLYLINE
  5
411
100
AcDbEntity
  8
0
100
AcDbPolyline
 62
7
  6
CONTINUOUS
 90
25
 70
0
 10
-8.1650910191
 20
-8.5456951615
 10
-8.1763259829
 20
-8.5067049034
 10
-8.1908878722
 20
-8.4704415961
 10
-8.2080954064
 20
-8.4368562395
 10
-8.2277261576
 20
-8.406024903
 10
-8.2500025536
 20
-8.3778715172
 10
-8.2749105977
 20
-8.3521188744
 10
-8.3027023899
 20
-8.3284844031
 10
-8.3331258302
 20
-8.3072506748
 10
-8.3654106213
 20
-8.2889881951
 10
-8.3999058158
 20
-8.2736752681
 10
-8.4362623611
 20
-8.2613335897
 10
-8.4726628033
 20
-8.2525987538
 10
-8.5087480118
 20
-8.2477369518
 10
-8.5448771172
 20
-8.2464819922
 10
-8.5803100567
 20
-8.248670895
 10
-8.6149078023
 20
-8.2542674741
 10
-8.648809382
 20
-8.2633079154
 10
-8.6816918172
 20
-8.2757377963
 10
-8.7137490504
 20
-8.2916711362
 10
-8.7447871391
 20
-8.3109939157
 10
-8.7739012771
 20
-8.3333096534
 10
-8.8007898623
 20
-8.3584861889
 10
-8.8257544969
 20
-8.3866556826
 10
-8.8487951807
 20
-8.4178181345
  0
LWPOLYLINE
  5
412
100
AcDbEntity
  8
0
100
AcDbPolyline
 62
7
  6
CONTINUOUS
 90
25
 70
0
 10
-6.160271742
 20
-8.5456951615
 10
-6.1715067058
 20
-8.5067049034
 10
-6.1860685951
 20
-8.4704415961
 10
-6.2032761293
 20
-8.4368562395
 10
-6.2229068804
 20
-8.406024903
 10
-6.2451832765
 20
-8.3778715172
 10
-6.2700913206
 20
-8.3521188744
 10
-6.2978831128
 20
-8.3284844031
 10
-6.3283065531
 20
-8.3072506748
 10
-6.3605913442
 20
-8.2889881951
 10
-6.3950865387
 20
-8.2736752681
 10
-6.431443084
 20
-8.2613335897
 10
-6.4678435262
 20
-8.2525987538
 10
-6.5039287347
 20
-8.2477369518
 10
-6.5400578401
 20
-8.2464819922
 10
-6.5754907796
 20
-8.248670895
 10
-6.6100885252
 20
-8.2542674741
 10
-6.6439901049
 20
-8.2633079154
 10
-6.6768725401
 20
-8.2757377963
 10
-6.7089297733
 20
-8.2916711362
 10
-6.739967862
 20
-8.3109939157
 10
-6.769082
 20
-8.3333096534
 10
-6.7959705852
 20
-8.3584861889
 10
-6.8209352197
 20
-8.3866556826
 10
-6.8439759036
 20
-8.4178181345
  0
LWPOLYLINE
  5
413
100
AcDbEntity
  8
0
100
AcDbPolyline
 62
7
  6
CONTINUOUS
 90
10
 70
0
 10
-9.4135071667
 20
-7.0551204222
 10
-9.4200075372
 20
-7.032131506
 10
-9.4267711941
 20
-7.0090284107
 10
-9.4337981374
 20
-6.9858111364
 10
-9.4410954699
 20
-6.9624776691
 10
-9.4486560887
 20
-6.9390300228
 10
-9.4564586855
 20
-6.915474239
 10
-9.4644961574
 20
-6.8918123316
 10
-9.4727756074
 20
-6.8680422867
 10
-9.8168204794
 20
-5.9078313253
  0
LWPOLYLINE
  5
414
100
AcDbEntity
  8
0
100
AcDbPolyline
 62
7
  6
CONTINUOUS
 90
10
 70
0
 10
-9.4135071667
 20
-5.1629517475
 10
-9.4200075372
 20
-5.1399628313
 10
-9.4267711941
 20
-5.116859736
 10
-9.4337981374
 20
-5.0936424617
 10
-9.4410954699
 20
-5.0703089944
 10
-9.4486560887
 20
-5.0468613481
 10
-9.4564586855
 20
-5.0233055643
 10
-9.4644961574
 20
-4.9996436569
 10
-9.4727756074
 20
-4.975873612
 10
-9.8168204794
 20
-4.0156626506
  0
LWPOLYLINE
  5
415
100
AcDbEntity
  8
0
100
AcDbPolyline
 62
7
  6
CONTINUOUS
 90
13
 70
0
 10
-9.1604351657
 20
-8.6300255023
 10
-9.1674927209
 20
-8.5992364938
 10
-9.1771960394
 20
-8.5704404019
 10
-9.1892480842
 20
-8.5435204684
 10
-9.2035029041
 20
-8.518506728
 10
-9.2201064503
 20
-8.4953691461
 10
-9.2391995399
 20
-8.4739008603
 10
-9.2609753404
 20
-8.4538641168
 10
-9.2852406842
 20
-8.4354966695
 10
-9.3115568857
 20
-8.4193049181
 10
-9.3397777164
 20
-8.4054576626
 10
-9.3700494046
 20
-8.393786103
 10
-9.4023719506
 20
-8.3842902395
  0
LWPOLYLINE
  5
416
100
AcDbEntity
  8
0
100
AcDbPolyline
 62
7
  6
CONTINUOUS
 90
36
 70
0
 10
-8.9863139637
 20
-8.7125365487
 10
-8.975797721
 20
-8.760885575
 10
-8.9626677402
 20
-8.8062631128
 10
-8.9467243682
 20
-8.8487042341
 10
-8.9281672581
 20
-8.8881738668
 10
-8.9073133445
 20
-8.9242117326
 10
-8.8842329842
 20
-8.9565054124
 10
-8.8588558203
 20
-8.9853673252
 10
-8.8312877167
 20
-9.0112744505
 10
-8.801571058
 20
-9.034453826
 10
-8.7696634595
 20
-9.0546784139
 10
-8.7355436308
 20
-9.0717440799
 10
-8.698755697
 20
-9.0857143611
 10
-8.6597555329
 20
-9.0965257204
 10
-8.6198894731
 20
-9.1037834127
 10
-8.5787133073
 20
-9.1072870537
 10
-8.5366712457
 20
-9.1072370277
 10
-8.4964422536
 20
-9.1038397421
 10
-8.4588456945
 20
-9.097048715
 10
-8.4230622049
 20
-9.0869104284
 10
-8.3893126596
 20
-9.0737707356
 10
-8.3578252842
 20
-9.0578612674
 10
-8.3283718531
 20
-9.0389503931
 10
-8.3004885638
 20
-9.016689074
 10
-8.2737114956
 20
-8.990839038
 10
-8.2485045692
 20
-8.9616385572
 10
-8.2257957442
 20
-8.9294534095
 10
-8.2055917432
 20
-8.8942321663
 10
-8.1878858436
 20
-8.856026256
 10
-8.1735858365
 20
-8.8153557419
 10
-8.1628474337
 20
-8.7714651243
 10
-8.1555149234
 20
-8.7251099028
 10
-8.1520289612
 20
-8.6790766396
 10
-8.1527096399
 20
-8.6334925245
 10
-8.1572368667
 20
-8.5882303676
 10
-8.1650910191
 20
-8.5456951615
  0
LWPOLYLINE
  5
417
100
AcDbEntity
  8
0
100
AcDbPolyline
 62
7
  6
CONTINUOUS
 90
36
 70
0
 10
-6.9814946866
 20
-8.7125365487
 10
-6.9709784438
 20
-8.760885575
 10
-6.9578484631
 20
-8.8062631128
 10
-6.9419050911
 20
-8.8487042341
 10
-6.923347981
 20
-8.8881738668
 10
-6.9024940674
 20
-8.9242117326
 10
-6.8794137071
 20
-8.9565054124
 10
-6.8540365432
 20
-8.9853673252
 10
-6.8264684396
 20
-9.0112744505
 10
-6.7967517809
 20
-9.034453826
 10
-6.7648441824
 20
-9.0546784139
 10
-6.7307243537
 20
-9.0717440799
 10
-6.6939364198
 20
-9.0857143611
 10
-6.6549362558
 20
-9.0965257204
 10
-6.615070196
 20
-9.1037834127
 10
-6.5738940302
 20
-9.1072870537
 10
-6.5318519686
 20
-9.1072370277
 10
-6.4916229765
 20
-9.1038397421
 10
-6.4540264174
 20
-9.097048715
 10
-6.4182429278
 20
-9.0869104284
 10
-6.3844933825
 20
-9.0737707356
 10
-6.3530060071
 20
-9.0578612674
 10
-6.323552576
 20
-9.0389503931
 10
-6.2956692867
 20
-9.016689074
 10
-6.2688922185
 20
-8.990839038
 10
-6.2436852921
 20
-8.9616385572
 10
-6.2209764671
 20
-8.9294534095
 10
-6.2007724661
 20
-8.8942321663
 10
-6.1830665665
 20
-8.856026256
 10
-6.1687665594
 20
-8.8153557419
 10
-6.1580281566
 20
-8.7714651243
 10
-6.1506956463
 20
-8.7251099028
 10
-6.1472096841
 20
-8.6790766396
 10
-6.1478903628
 20
-8.6334925245
 10
-6.1524175896
 20
-8.5882303676
 10
-6.160271742
 20
-8.5456951615
  0
LWPOLYLINE
  5
418
100
AcDbEntity
  8
0
100
AcDbPolyline
 62
7
  6
CONTINUOUS
 90
41
 70
0
 10
-8.1753012048
 20
-8.1054216867
 10
-8.1828158785
 20
-8.0656067935
 10
-8.1929836329
 20
-8.0282166061
 10
-8.205804468
 20
-7.9932511245
 10
-8.221464464
 20
-7.9605511923
 10
-8.2397775407
 20
-7.930275966
 10
-8.2601854576
 20
-7.902902915
 10
-8.2824302728
 20
-7.8786729293
 10
-8.3067699283
 20
-7.8573451189
 10
-8.3334200092
 20
-7.8386742842
 10
-8.3623739877
 20
-7.8224903836
 10
-8.3936383915
 20
-7.8089634587
 10
-8.4274483895
 20
-7.7983584332
 10
-8.4645877791
 20
-7.7906452275
 10
-8.5042727629
 20
-7.7858539212
 10
-8.5443871169
 20
-7.7843396775
 10
-8.5849897644
 20
-7.7862000144
 10
-8.6260217823
 20
-7.7913374137
 10
-8.665190177
 20
-7.7998144843
 10
-8.7017475827
 20
-7.8116924946
 10
-8.7364413653
 20
-7.826910176
 10
-8.7692206294
 20
-7.8453463313
 10
-8.8001199166
 20
-7.8669364296
 10
-8.8291046854
 20
-7.8917450018
 10
-8.8560204159
 20
-7.9198444433
 10
-8.8808896352
 20
-7.951229863
 10
-8.9036898162
 20
-7.9859061519
 10
-8.9241988572
 20
-8.0239603787
 10
-8.9423694298
 20
-8.0656986272
 10
-8.9582488625
 20
-8.1108148136
 10
-8.9717570393
 20
-8.1584777541
 10
-8.9827748721
 20
-8.2085194112
 10
-8.9914214489
 20
-8.2611078224
 10
-8.9979739184
 20
-8.3159159173
 10
-9.0025012665
 20
-8.3739143986
 10
-9.0049345073
 20
-8.4341325637
 10
-9.0053438313
 20
-8.4933312338
 10
-9.0038552342
 20
-8.5509629933
 10
-9.0003427203
 20
-8.6075752578
 10
-8.9944984936
 20
-8.6615710952
 10
-8.9863139637
 20
-8.7125365487
  0
LWPOLYLINE
  5
419
100
AcDbEntity
  8
0
100
AcDbPolyline
 62
7
  6
CONTINUOUS
 90
41
 70
0
 10
-6.1704819277
 20
-8.1054216867
 10
-6.1779966014
 20
-8.0656067935
 10
-6.1881643558
 20
-8.0282166061
 10
-6.2009851909
 20
-7.9932511245
 10
-6.2166451869
 20
-7.9605511923
 10
-6.2349582635
 20
-7.930275966
 10
-6.2553661805
 20
-7.902902915
 10
-6.2776109957
 20
-7.8786729293
 10
-6.3019506512
 20
-7.8573451189
 10
-6.3286007321
 20
-7.8386742842
 10
-6.3575547106
 20
-7.8224903836
 10
-6.3888191144
 20
-7.8089634587
 10
-6.4226291124
 20
-7.7983584332
 10
-6.459768502
 20
-7.7906452275
 10
-6.4994534858
 20
-7.7858539212
 10
-6.5395678398
 20
-7.7843396775
 10
-6.5801704873
 20
-7.7862000144
 10
-6.6212025051
 20
-7.7913374137
 10
-6.6603708999
 20
-7.7998144843
 10
-6.6969283056
 20
-7.8116924946
 10
-6.7316220882
 20
-7.826910176
 10
-6.7644013523
 20
-7.8453463313
 10
-6.7953006395
 20
-7.8669364296
 10
-6.8242854083
 20
-7.8917450018
 10
-6.8512011388
 20
-7.9198444433
 10
-6.8760703581
 20
-7.951229863
 10
-6.898870539
 20
-7.9859061519
 10
-6.9193795801
 20
-8.0239603787
 10
-6.9375501527
 20
-8.0656986272
 10
-6.9534295854
 20
-8.1108148136
 10
-6.9669377622
 20
-8.1584777541
 10
-6.977955595
 20
-8.2085194112
 10
-6.9866021718
 20
-8.2611078224
 10
-6.9931546413
 20
-8.3159159173
 10
-6.9976819894
 20
-8.3739143986
 10
-7.0001152302
 20
-8.4341325637
 10
-7.0005245542
 20
-8.4933312338
 10
-6.9990359571
 20
-8.5509629933
 10
-6.9955234432
 20
-8.6075752578
 10
-6.9896792165
 20
-8.6615710952
 10
-6.9814946866
 20
-8.7125365487
  0
LWPOLYLINE
  5
41A
100
AcDbEntity
  8
0
100
AcDbPolyline
 62
7
  6
CONTINUOUS
 90
37
 70
0
 10
-5.9903614458
 20
-8.7475903614
 10
-5.9847702779
 20
-8.7846761977
 10
-5.976072256
 20
-8.8206931509
 10
-5.96426738
 20
-8.8556412211
 10
-5.9490038983
 20
-8.8900775531
 10
-5.9306335625
 20
-8.9234450021
 10
-5.9102116278
 20
-8.9540721332
 10
-5.888076725
 20
-8.9813475388
 10
-5.8638902233
 20
-9.0058826264
 10
-5.8376914853
 20
-9.0278401846
 10
-5.8096821604
 20
-9.047299557
 10
-5.7796605993
 20
-9.0641813999
 10
-5.747061217
 20
-9.0784104704
 10
-5.7113668211
 20
-9.0901491484
 10
-5.673094604
 20
-9.0992350541
 10
-5.6332305579
 20
-9.1051058049
 10
-5.5910602264
 20
-9.107578874
 10
-5.5472980659
 20
-9.1068367882
 10
-5.5050734383
 20
-9.1028647466
 10
-5.4652960271
 20
-9.0955991977
 10
-5.4270561489
 20
-9.0851036929
 10
-5.3907541151
 20
-9.0715540849
 10
-5.3564603523
 20
-9.054840304
 10
-5.3241044339
 20
-9.0350724199
 10
-5.293875391
 20
-9.0127564944
 10
-5.2654677653
 20
-8.9875891297
 10
-5.2391870151
 20
-8.9598737236
 10
-5.2161385462
 20
-8.931026531
 10
-5.1967701194
 20
-8.9016137694
 10
-5.180633974
 20
-8.8710692213
 10
-5.1674922333
 20
-8.8391104888
 10
-5.1572749355
 20
-8.8051645472
 10
-5.1500520423
 20
-8.7698044212
 10
-5.1457955625
 20
-8.7344667861
 10
-5.1446030489
 20
-8.6989737253
 10
-5.1463769485
 20
-8.6635031555
 10
-5.1507966115
 20
-8.6300255023
  0
LWPOLYLINE
  5
41B
100
AcDbEntity
  8
0
100
AcDbPolyline
 62
7
  6
CONTINUOUS
 90
37
 70
0
 10
-3.7318807204
 20
-4.884939759
 10
-3.7283461778
 20
-4.9293269937
 10
-3.7214586708
 20
-4.9719013218
 10
-3.7112181994
 20
-5.0126627433
 10
-3.6974025447
 20
-5.0519085735
 10
-3.6802339255
 20
-5.0893414971
 10
-3.6603789983
 20
-5.1240695685
 10
-3.6381220401
 20
-5.1557156139
 10
-3.6131787738
 20
-5.1846568072
 10
-3.5853630248
 20
-5.2111327234
 10
-3.5547103581
 20
-5.2353012979
 10
-3.5211852088
 20
-5.2570045955
 10
-3.4844947075
 20
-5.2760083856
 10
-3.4443292996
 20
-5.2922904124
 10
-3.4009985398
 20
-5.3058729318
 10
-3.3551382224
 20
-5.3165884804
 10
-3.3059833633
 20
-5.3244593853
 10
-3.2542989467
 20
-5.3294633195
 10
-3.2030157195
 20
-5.3313658381
 10
-3.1523327235
 20
-5.3301352038
 10
-3.1020509169
 20
-5.3258031538
 10
-3.0545039223
 20
-5.3182304557
 10
-3.0104215689
 20
-5.3072077609
 10
-2.9690740276
 20
-5.2929444179
 10
-2.9306054326
 20
-5.2759292392
 10
-2.8949141846
 20
-5.2559800817
 10
-2.862101883
 20
-5.2332790885
 10
-2.8326174607
 20
-5.2088615009
 10
-2.8066666993
 20
-5.1829727437
 10
-2.7840438172
 20
-5.1553673921
 10
-2.7645804022
 20
-5.1263444132
 10
-2.7482099095
 20
-5.0958079381
 10
-2.7349988838
 20
-5.0638538357
 10
-2.7249785471
 20
-5.0310686803
 10
-2.7181514841
 20
-4.997165732
 10
-2.7145151101
 20
-4.9624317306
 10
-2.7140928926
 20
-4.9283134704
  0
LINE
  5
41C
100
AcDbEntity
  8
DRAFT
100
AcDbLine
 62
7
  6
CONTINUOUS
 10
-4.3249432208
 20
-17.6
 11
-4.3598533507
 21
-15.6
  0
LINE
  5
41D
100
AcDbEntity
  8
0
100
AcDbLine
 62
7
  6
CONTINUOUS
 10
-7.1228445758
 20
-4.2271084337
 11
-7.1228445758
 21
-5.3078313253
  0
LINE
  5
41E
100
AcDbEntity
  8
0
100
AcDbLine
 62
7
  6
CONTINUOUS
 10
-7.063253012
 20
-10.8512048193
 11
-7.063253012
 21
-9.7078313253
  0
LINE
  5
41F
100
AcDbEntity
  8
0
100
AcDbLine
 62
7
  6
CONTINUOUS
 10
-6.9897120457
 20
-5.9078313253
 11
-6.9897120457
 21
-7.2
  0
LINE
  5
420
100
AcDbEntity
  8
0
100
AcDbLine
 62
7
  6
CONTINUOUS
 10
-6.9505554192
 20
-5.3078313253
 11
-6.9505554192
 21
-4.0156626506
  0
LINE
  5
421
100
AcDbEntity
  8
0
100
AcDbLine
 62
7
  6
CONTINUOUS
 10
-6.8174228891
 20
-7.0512048193
 11
-6.8174228891
 21
-5.9078313253
  0
LINE
  5
422
100
AcDbEntity
  8
0
100
AcDbLine
 62
7
  6
CONTINUOUS
 10
-6.4210843373
 20
-11.0
 11
-6.4210843373
 21
-10.8512048193
  0
LINE
  5
423
100
AcDbEntity
  8
0
100
AcDbLine
 62
7
  6
CONTINUOUS
 10
-6.1752542144
 20
-7.2
 11
-6.1752542144
 21
-7.0512048193
  0
LINE
  5
424
100
AcDbEntity
  8
DRAFT
100
AcDbLine
 62
7
  6
CONTINUOUS
 10
-6.0
 20
1.5
 11
-6.0
 21
-1.5
  0
LINE
  5
425
100
AcDbEntity
  8
0
100
AcDbLine
 62
7
  6
CONTINUOUS
 10
-5.9716397566
 20
-5.9078313253
 11
-5.9716397566
 21
-7.2
  0
LINE
  5
426
100
AcDbEntity
  8
RACCORDO
100
AcDbLine
 62
7
  6
CONTINUOUS
 10
-5.9371426149
 20
-0.9542982275
 11
-5.9371426149
 21
0.9542982275
  0
LINE
  5
427
100
AcDbEntity
  8
0
100
AcDbLine
 62
7
  6
CONTINUOUS
 10
-5.8640813104
 20
-10.4526636737
 11
-5.8640813104
 21
-11.0
  0
LINE
  5
428
100
AcDbEntity
  8
0
100
AcDbLine
 62
7
  6
CONTINUOUS
 10
-5.7993505999
 20
-7.0512048193
 11
-5.7993505999
 21
-6.6048192771
  0
LINE
  5
429
100
AcDbEntity
  8
0
100
AcDbLine
 62
7
  6
CONTINUOUS
 10
-5.7993505999
 20
-6.4560240964
 11
-5.7993505999
 21
-6.056626506
  0
LINE
  5
42A
100
AcDbEntity
  8
0
100
AcDbLine
 62
7
  6
CONTINUOUS
 10
-5.6917921537
 20
-11.0
 11
-5.6917921537
 21
-10.4526636737
  0
LINE
  5
42B
100
AcDbEntity
  8
0
100
AcDbLine
 62
7
  6
CONTINUOUS
 10
-5.4704349373
 20
-4.0156626506
 11
-5.4704349373
 21
-5.3078313253
  0
LINE
  5
42C
100
AcDbEntity
  8
0
100
AcDbLine
 62
7
  6
CONTINUOUS
 10
-5.2981457807
 20
-5.3078313253
 11
-5.2981457807
 21
-4.7361445783
  0
LINE
  5
42D
100
AcDbEntity
  8
0
100
AcDbLine
 62
7
  6
CONTINUOUS
 10
-5.2981457807
 20
-4.5873493976
 11
-5.2981457807
 21
-4.1644578313
  0
LINE
  5
42E
100
AcDbEntity
  8
0
100
AcDbLine
 62
7
  6
CONTINUOUS
 10
-5.0945313228
 20
-6.6048192771
 11
-5.0945313228
 21
-6.4560240964
  0
LINE
  5
42F
100
AcDbEntity
  8
0
100
AcDbLine
 62
7
  6
CONTINUOUS
 10
-5.047543371
 20
-6.056626506
 11
-5.047543371
 21
-5.9078313253
  0
LINE
  5
430
100
AcDbEntity
  8
0
100
AcDbLine
 62
7
  6
CONTINUOUS
 10
-5.0162180698
 20
-7.2
 11
-5.0162180698
 21
-7.0512048193
  0
LINE
  5
431
100
AcDbEntity
  8
RACCORDO
100
AcDbLine
 62
7
  6
CONTINUOUS
 10
-4.9823085464
 20
-0.9542982275
 11
-4.9823085464
 21
0.9542982275
  0
LINE
  5
432
100
AcDbEntity
  8
0
100
AcDbLine
 62
7
  6
CONTINUOUS
 10
-4.5
 20
-54.0
 11
-4.5
 21
-43.7
  0
LINE
  5
433
100
AcDbEntity
  8
DRAFT
100
AcDbLine
 62
7
  6
CONTINUOUS
 10
-4.5
 20
-21.25
 11
-4.5
 21
-20.3810194482
  0
LINE
  5
434
100
AcDbEntity
  8
SMUSSO
100
AcDbLine
 62
7
  6
CONTINUOUS
 10
-4.5
 20
-20.3810194482
 11
-4.5
 21
-17.75
  0
LINE
  5
435
100
AcDbEntity
  8
DRAFT
100
AcDbLine
 62
7
  6
CONTINUOUS
 10
-4.5
 20
-1.5
 11
-4.5
 21
1.5
  0
LINE
  5
436
100
AcDbEntity
  8
0
100
AcDbLine
 62
7
  6
CONTINUOUS
 10
-4.4397590361
 20
-7.7921686747
 11
-4.4397590361
 21
-9.0843373494
  0
LINE
  5
437
100
AcDbEntity
  8
RACCORDO
100
AcDbLine
 62
7
  6
CONTINUOUS
 10
-4.4
 20
-49.6000761524
 11
-4.4
 21
-43.7
  0
LINE
  5
438
100
AcDbEntity
  8
RACCORDO
100
AcDbLine
 62
7
  6
CONTINUOUS
 10
-4.4
 20
-21.25
 11
-4.4
 21
-16.7
  0
LINE
  5
439
100
AcDbEntity
  8
RACCORDO
100
AcDbLine
 62
7
  6
CONTINUOUS
 10
-4.3790539221
 20
-15.9
 11
-4.3790539221
 21
-16.4
  0
LINE
  5
43A
100
AcDbEntity
  8
RACCORDO
100
AcDbLine
 62
7
  6
CONTINUOUS
 10
-4.3249432208
 20
-49.5250193732
 11
-4.3249432208
 21
-43.7
  0
LINE
  5
43B
100
AcDbEntity
  8
RACCORDO
100
AcDbLine
 62
7
  6
CONTINUOUS
 10
-4.3249432208
 20
-21.25
 11
-4.3249432208
 21
-17.6
  0
LINE
  5
43C
100
AcDbEntity
  8
0
100
AcDbLine
 62
7
  6
CONTINUOUS
 10
-4.2674698795
 20
-9.0843373494
 11
-4.2674698795
 21
-7.9879518072
  0
LINE
  5
43D
100
AcDbEntity
  8
0
100
AcDbLine
 62
7
  6
CONTINUOUS
 10
-3.65
 20
-43.7
 11
-3.65
 21
-21.25
  0
LINE
  5
43E
100
AcDbEntity
  8
0
100
AcDbLine
 62
7
  6
CONTINUOUS
 10
-3.3668674699
 20
-8.0036144578
 11
-3.3668674699
 21
-9.0843373494
  0
LINE
  5
43F
100
AcDbEntity
  8
DRAFT
100
AcDbLine
 62
7
  6
CONTINUOUS
 10
-4.3776508009
 20
-15.6
 11
-4.3790539221
 21
-15.9
  0
LWPOLYLINE
  5
440
100
AcDbEntity
  8
0
100
AcDbPolyline
 62
7
  6
CONTINUOUS
 90
37
 70
0
 10
-6.8439759036
 20
-8.4178181345
 10
-6.8433279352
 20
-8.3760309378
 10
-6.8413786571
 20
-8.3356733628
 10
-6.8381280694
 20
-8.2967454094
 10
-6.833666857
 20
-8.259134843
 10
-6.827904335
 20
-8.2229538982
 10
-6.820568448
 20
-8.1885392795
 10
-6.8115122384
 20
-8.1559411957
 10
-6.800882664
 20
-8.125109438
 10
-6.7888485427
 20
-8.0962300847
 10
-6.7752896115
 20
-8.0693076903
 10
-6.7603261335
 20
-8.0443377003
 10
-6.7444877165
 20
-8.0214925299
 10
-6.7280454222
 20
-8.0007454651
 10
-6.7107281888
 20
-7.9821232198
 10
-6.6922524387
 20
-7.965878351
 10
-6.6725222914
 20
-7.9521383345
 10
-6.6516336274
 20
-7.9407756944
 10
-6.6295905111
 20
-7.9316605601
 10
-6.6059831569
 20
-7.9246775592
 10
-6.5812213504
 20
-7.919942064
 10
-6.5565385131
 20
-7.9176703205
 10
-6.5319277207
 20
-7.9180320397
 10
-6.5073958976
 20
-7.9208575106
 10
-6.4841972376
 20
-7.9258538462
 10
-6.4626255721
 20
-7.9331136636
 10
-6.4423870697
 20
-7.9425443458
 10
-6.4238544302
 20
-7.9535751544
 10
-6.4071974429
 20
-7.9660379996
 10
-6.3922463184
 20
-7.9801009711
 10
-6.3788643886
 20
-7.9956976001
 10
-6.3671595836
 20
-8.0128156154
 10
-6.3570239734
 20
-8.0314672881
 10
-6.3479970991
 20
-8.0516229623
 10
-6.3399254746
 20
-8.0732727525
 10
-6.3329625862
 20
-8.0964265442
 10
-6.3271084337
 20
-8.1210843373
  0
LWPOLYLINE
  5
441
100
AcDbEntity
  8
0
100
AcDbPolyline
 62
7
  6
CONTINUOUS
 90
34
 70
0
 10
-6.8204819277
 20
-8.6656061187
 10
-6.8188668587
 20
-8.6342951401
 10
-6.8148841418
 20
-8.6046872381
 10
-6.8085337769
 20
-8.5767824127
 10
-6.7996521937
 20
-8.5505386669
 10
-6.7884029626
 20
-8.5259979977
 10
-6.7752767948
 20
-8.503286396
 10
-6.7603027138
 20
-8.4823847376
 10
-6.7434516961
 20
-8.4633121467
 10
-6.7251273822
 20
-8.446251987
 10
-6.7054132704
 20
-8.4311824074
 10
-6.6842258624
 20
-8.418125259
 10
-6.6617183038
 20
-8.4073294584
 10
-6.6376400856
 20
-8.3988400957
 10
-6.6122417169
 20
-8.3926120809
 10
-6.5864278703
 20
-8.3887590599
 10
-6.5600056068
 20
-8.3873497148
 10
-6.5331678654
 20
-8.3883153635
 10
-6.5073981354
 20
-8.3915636058
 10
-6.4830966388
 20
-8.3971173737
 10
-6.4598631536
 20
-8.4049537353
 10
-6.4379805042
 20
-8.4149114949
 10
-6.417483209
 20
-8.4269829421
 10
-6.3983367495
 20
-8.4411757874
 10
-6.3807203948
 20
-8.4573519671
 10
-6.3645747038
 20
-8.4754937642
 10
-6.3499591176
 20
-8.4956188956
 10
-6.3372312279
 20
-8.517642448
 10
-6.326416149
 20
-8.5416087835
 10
-6.3174887667
 20
-8.5674735399
 10
-6.3107313296
 20
-8.5950187178
 10
-6.3062379207
 20
-8.6241716508
 10
-6.3039144572
 20
-8.6550050051
 10
-6.3037609389
 20
-8.687518781
  0
LWPOLYLINE
  5
442
100
AcDbEntity
  8
0
100
AcDbPolyline
 62
7
  6
CONTINUOUS
 90
34
 70
0
 10
-6.3037609389
 20
-8.687518781
 10
-6.3056766323
 20
-8.7196526728
 10
-6.3096435273
 20
-8.7500235193
 10
-6.3156616238
 20
-8.7786313203
 10
-6.3238522493
 20
-8.8055838128
 10
-6.3340940763
 20
-8.8307732599
 10
-6.3460231229
 20
-8.853876451
 10
-6.3595339102
 20
-8.8746987501
 10
-6.3747319171
 20
-8.8934347933
 10
-6.3915695983
 20
-8.9103452782
 10
-6.4102112805
 20
-8.9255904858
 10
-6.430492637
 20
-8.9390101351
 10
-6.451873142
 20
-8.9503840807
 10
-6.4744917509
 20
-8.9597598963
 10
-6.4982095083
 20
-8.9670900082
 10
-6.5220690214
 20
-8.9720115504
 10
-6.5459514878
 20
-8.9743758687
 10
-6.5699757099
 20
-8.9743316173
 10
-6.5935407027
 20
-8.9719618923
 10
-6.6165650048
 20
-8.9672668818
 10
-6.6391300774
 20
-8.9602463977
 10
-6.6608793193
 20
-8.9509829722
 10
-6.6817647227
 20
-8.9395668317
 10
-6.7018342953
 20
-8.9259077498
 10
-6.7208754583
 20
-8.9098175792
 10
-6.7390278881
 20
-8.8912113194
 10
-6.7561519082
 20
-8.8701739709
 10
-6.7716159104
 20
-8.8467723882
 10
-6.7854980404
 20
-8.8207044692
 10
-6.7977201525
 20
-8.792272316
 10
-6.8074162018
 20
-8.7624490884
 10
-6.8142975066
 20
-8.7315591729
 10
-6.8186527486
 20
-8.699278183
 10
-6.8204819277
 20
-8.6656061187
  0
LINE
  5
443
100
AcDbEntity
  8
0
100
AcDbLine
 62
7
  6
CONTINUOUS
 10
-5.6574076944
 20
-8.3325301205
 11
-5.6755176715
 21
-8.4734939759
  0
LWPOLYLINE
  5
444
100
AcDbEntity
  8
0
100
AcDbPolyline
 62
7
  6
CONTINUOUS
 90
32
 70
0
 10
-5.8180722892
 20
-8.1445783133
 10
-5.8122944583
 20
-8.1148719254
 10
-5.8048277865
 20
-8.0871071616
 10
-5.7956722737
 20
-8.0612840221
 10
-5.7847770787
 20
-8.0372980976
 10
-5.7721930428
 20
-8.0152537972
 10
-5.7580726893
 20
-7.9954643486
 10
-5.7424682298
 20
-7.9780749045
 10
-5.7253274526
 20
-7.9629403122
 10
-5.7066462462
 20
-7.949938341
 10
-5.6862634386
 20
-7.9389729948
 10
-5.6643402018
 20
-7.9301402697
 10
-5.6413559403
 20
-7.9236059228
 10
-5.6168956143
 20
-7.9194554794
 10
-5.5913742636
 20
-7.9176034142
 10
-5.5665164122
 20
-7.9179589089
 10
-5.5426672739
 20
-7.9205161384
 10
-5.519481635
 20
-7.9252809278
 10
-5.4976483779
 20
-7.9321799333
 10
-5.4772738897
 20
-7.9413761741
 10
-5.4582517835
 20
-7.9527066312
 10
-5.4409517807
 20
-7.9656089035
 10
-5.425400694
 20
-7.9800216148
 10
-5.4115717107
 20
-7.9960061414
 10
-5.3997541144
 20
-8.0131842105
 10
-5.3900289434
 20
-8.0315742169
 10
-5.3823151594
 20
-8.0511577658
 10
-5.3766589311
 20
-8.0715014005
 10
-5.3731203286
 20
-8.0928133218
 10
-5.3716392819
 20
-8.1148853289
 10
-5.3720817503
 20
-8.1366593619
 10
-5.3743043349
 20
-8.1580607985
  0
LWPOLYLINE
  5
445
100
AcDbEntity
  8
0
100
AcDbPolyline
 62
7
  6
CONTINUOUS
 90
15
 70
0
 10
-5.3743043349
 20
-8.1580607985
 10
-5.3784504345
 20
-8.1791642611
 10
-5.3848162053
 20
-8.1991355576
 10
-5.3934555993
 20
-8.2176705109
 10
-5.4043146644
 20
-8.235073298
 10
-5.4175277002
 20
-8.2514222577
 10
-5.4332417544
 20
-8.2669078688
 10
-5.4513097793
 20
-8.2813396524
 10
-5.4714249311
 20
-8.2942245101
 10
-5.4935924491
 20
-8.3055349838
 10
-5.5178070941
 20
-8.3152985316
 10
-5.5437463037
 20
-8.3231044292
 10
-5.5713025572
 20
-8.3288157683
 10
-5.6005833754
 20
-8.3325694572
 10
-5.6315887583
 20
-8.3343654959
  0
LWPOLYLINE
  5
446
100
AcDbEntity
  8
0
100
AcDbPolyline
 62
7
  6
CONTINUOUS
 90
3
 70
0
 10
-7.5426313466
 20
-5.0511002044
 10
-7.5503170782
 20
-5.0739324142
 10
-7.5653143956
 20
-5.1193900528
  0
LINE
  5
447
100
AcDbEntity
  8
0
100
AcDbLine
 62
7
  6
CONTINUOUS
 10
-7.5268527698
 20
-5.0052247845
 11
-7.5426313466
 21
-5.0511002044
  0
LINE
  5
448
100
AcDbEntity
  8
0
100
AcDbLine
 62
7
  6
CONTINUOUS
 10
-8.140916865
 20
-7.2
 11
-8.0047251767
 21
-6.8084337349
  0
LINE
  5
449
100
AcDbEntity
  8
0
100
AcDbLine
 62
7
  6
CONTINUOUS
 10
-6.6373024072
 20
-5.3078313253
 11
-6.5011107189
 21
-4.9162650602
  0
LINE
  5
44A
100
AcDbEntity
  8
0
100
AcDbLine
 62
7
  6
CONTINUOUS
 10
-8.386746988
 20
-11.0
 11
-8.2505552997
 21
-10.6084337349
  0
LINE
  5
44B
100
AcDbEntity
  8
0
100
AcDbLine
 62
7
  6
CONTINUOUS
 10
-7.5025792186
 20
-4.9359368937
 11
-7.5268527698
 21
-5.0052247845
  0
LINE
  5
44C
100
AcDbEntity
  8
0
100
AcDbLine
 62
7
  6
CONTINUOUS
 10
-7.5042545554
 20
-5.3078313253
 11
-7.1228445758
 21
-4.2271084337
  0
LWPOLYLINE
  5
44D
100
AcDbEntity
  8
0
100
AcDbPolyline
 62
7
  6
CONTINUOUS
 90
5
 70
0
 10
-7.820810074
 20
-6.3052892767
 10
-7.7968320915
 20
-6.237339428
 10
-7.7751791648
 20
-6.1705889894
 10
-7.7554363184
 20
-6.1051304652
 10
-7.7376035522
 20
-6.0409638554
  0
LWPOLYLINE
  5
44E
100
AcDbEntity
  8
0
100
AcDbPolyline
 62
7
  6
CONTINUOUS
 90
5
 70
0
 10
-6.3171956161
 20
-4.413120602
 10
-6.2932176336
 20
-4.3451707533
 10
-6.2715647069
 20
-4.2784203147
 10
-6.2518218605
 20
-4.2129617905
 10
-6.2339890944
 20
-4.1487951807
  0
LWPOLYLINE
  5
44F
100
AcDbEntity
  8
0
100
AcDbPolyline
 62
7
  6
CONTINUOUS
 90
5
 70
0
 10
-8.0666401969
 20
-10.1052892767
 10
-8.0426622144
 20
-10.037339428
 10
-8.0210092877
 20
-9.9705889894
 10
-8.0012664413
 20
-9.9051304652
 10
-7.9834336752
 20
-9.8409638554
  0
LINE
  5
450
100
AcDbEntity
  8
0
100
AcDbLine
 62
7
  6
CONTINUOUS
 10
-7.1747270611
 20
-4.0156626506
 11
-7.5025792186
 21
-4.9359368937
  0
LWPOLYLINE
  5
451
100
AcDbEntity
  8
0
100
AcDbPolyline
 62
7
  6
CONTINUOUS
 90
9
 70
0
 10
-9.3515151971
 20
-4.9757891367
 10
-9.3602199753
 20
-4.999496979
 10
-9.3686501085
 20
-5.0231189565
 10
-9.376803974
 20
-5.0466586215
 10
-9.3846831944
 20
-5.0701124216
 10
-9.3922926371
 20
-5.0934697
 10
-9.3996339246
 20
-5.1167269043
 10
-9.4067054345
 20
-5.1398875868
 10
-9.4135071667
 20
-5.1629517475
  0
LWPOLYLINE
  5
452
100
AcDbEntity
  8
0
100
AcDbPolyline
 62
7
  6
CONTINUOUS
 90
9
 70
0
 10
-9.3515151971
 20
-6.8679578114
 10
-9.3602199753
 20
-6.8916656537
 10
-9.3686501085
 20
-6.9152876312
 10
-9.376803974
 20
-6.9388272962
 10
-9.3846831944
 20
-6.9622810963
 10
-9.3922926371
 20
-6.9856383747
 10
-9.3996339246
 20
-7.008895579
 10
-9.4067054345
 20
-7.0320562615
 10
-9.4135071667
 20
-7.0551204222
  0
LINE
  5
453
100
AcDbEntity
  8
0
100
AcDbLine
 62
7
  6
CONTINUOUS
 10
-7.9556569974
 20
-6.6674698795
 11
-7.8732513532
 21
-6.4453422302
  0
LINE
  5
454
100
AcDbEntity
  8
0
100
AcDbLine
 62
7
  6
CONTINUOUS
 10
-6.4520425396
 20
-4.7753012048
 11
-6.3696368953
 21
-4.5531735555
  0
LINE
  5
455
100
AcDbEntity
  8
0
100
AcDbLine
 62
7
  6
CONTINUOUS
 10
-8.2014871204
 20
-10.4674698795
 11
-8.1190814761
 21
-10.2453422302
  0
LINE
  5
456
100
AcDbEntity
  8
0
100
AcDbLine
 62
7
  6
CONTINUOUS
 10
-7.8732513532
 20
-6.4453422302
 11
-7.820810074
 21
-6.3052892767
  0
LINE
  5
457
100
AcDbEntity
  8
0
100
AcDbLine
 62
7
  6
CONTINUOUS
 10
-6.3696368953
 20
-4.5531735555
 11
-6.3171956161
 21
-4.413120602
  0
LINE
  5
458
100
AcDbEntity
  8
0
100
AcDbLine
 62
7
  6
CONTINUOUS
 10
-8.1190814761
 20
-10.2453422302
 11
-8.0666401969
 21
-10.1052892767
  0
LINE
  5
459
100
AcDbEntity
  8
0
100
AcDbLine
 62
7
  6
CONTINUOUS
 10
-8.9866999975
 20
-4.0156626506
 11
-9.3515151971
 21
-4.9757891367
  0
LINE
  5
45A
100
AcDbEntity
  8
0
100
AcDbLine
 62
7
  6
CONTINUOUS
 10
-8.9866999975
 20
-5.9078313253
 11
-9.3515151971
 21
-6.8679578114
  0
LINE
  5
45B
100
AcDbEntity
  8
0
100
AcDbLine
 62
7
  6
CONTINUOUS
 10
-7.8315794558
 20
-5.9078313253
 11
-8.322750356
 21
-7.2
  0
LINE
  5
45C
100
AcDbEntity
  8
0
100
AcDbLine
 62
7
  6
CONTINUOUS
 10
-6.327964998
 20
-4.0156626506
 11
-6.8191358981
 21
-5.3078313253
  0
LINE
  5
45D
100
AcDbEntity
  8
0
100
AcDbLine
 62
7
  6
CONTINUOUS
 10
-8.0774095788
 20
-9.7078313253
 11
-8.5685804789
 21
-11.0
  0
LINE
  5
45E
100
AcDbEntity
  8
0
100
AcDbLine
 62
7
  6
CONTINUOUS
 10
-9.3178181345
 20
-5.3078313253
 11
-8.8024190605
 21
-4.0156626506
  0
LINE
  5
45F
100
AcDbEntity
  8
0
100
AcDbLine
 62
7
  6
CONTINUOUS
 10
-9.3178181345
 20
-7.2
 11
-8.8024190605
 21
-5.9078313253
  0
LINE
  5
460
100
AcDbEntity
  8
0
100
AcDbLine
 62
7
  6
CONTINUOUS
 10
-0.1139953518
 20
8.4407456218
 11
-1.2797893518
 21
7.2749526218
  0
LINE
  5
461
100
AcDbEntity
  8
0
100
AcDbLine
 62
7
  6
CONTINUOUS
 10
-1.3488023518
 20
7.2059386218
 11
-3.4784823518
 21
5.0762596218
  0
LINE
  5
462
100
AcDbEntity
  8
0
100
AcDbLine
 62
7
  6
CONTINUOUS
 10
1.9965086482
 20
10.5512496218
 11
1.5552356482
 21
10.1099766218
  0
LINE
  5
463
100
AcDbEntity
  8
0
100
AcDbLine
 62
7
  6
CONTINUOUS
 10
1.3001506482
 20
9.8548926218
 11
-0.0082603518
 21
8.5464806218
  0
LINE
  5
464
100
AcDbEntity
  8
0
100
AcDbLine
 62
7
  6
CONTINUOUS
 10
3.3562256482
 20
11.9109676218
 11
2.0712756482
 21
10.6260166218
  0
LINE
  5
465
100
AcDbEntity
  8
0
100
AcDbLine
 62
7
  6
CONTINUOUS
 10
1.4729876482
 20
10.0277296218
 11
1.3749176482
 21
9.9296586218
  0
LINE
  5
466
100
AcDbEntity
  8
0
100
AcDbLine
 62
7
  6
CONTINUOUS
 10
-1.2627763518
 20
7.0804946218
 11
-0.0082603518
 21
8.3350106218
  0
LINE
  5
467
100
AcDbEntity
  8
0
100
AcDbLine
 62
7
  6
CONTINUOUS
 10
0.0974746482
 20
8.4407456218
 11
1.4527126482
 21
9.7959836218
  0
LINE
  5
468
100
AcDbEntity
  8
0
100
AcDbLine
 62
7
  6
CONTINUOUS
 10
1.5350826482
 20
9.8783536218
 11
2.1225806482
 21
10.4658516218
  0
LINE
  5
469
100
AcDbEntity
  8
0
100
AcDbLine
 62
7
  6
CONTINUOUS
 10
-3.3727463518
 20
4.9705236218
 11
-1.3317893518
 21
7.0114796218
  0
LINE
  5
46A
100
AcDbEntity
  8
0
100
AcDbLine
 62
7
  6
CONTINUOUS
 10
2.1973476482
 20
10.5406166218
 11
3.4619616482
 21
11.8052316218
  0
LINE
  5
46B
100
AcDbEntity
  8
DRAFT
100
AcDbLine
 62
7
  6
CONTINUOUS
 10
17.7952696104
 20
23.8952696104
 11
17.9
 21
24.0
  0
LWPOLYLINE
  5
46C
100
AcDbEntity
  8
0
100
AcDbPolyline
 62
7
  6
CONTINUOUS
 90
32
 70
0
 10
-5.6755176715
 20
-8.4734939759
 10
-5.6410686691
 20
-8.4650192802
 10
-5.6078475386
 20
-8.4593167876
 10
-5.57585428
 20
-8.4563864979
 10
-5.544950016
 20
-8.4562731454
 10
-5.5152736239
 20
-8.4589319959
 10
-5.4872417355
 20
-8.4642288469
 10
-5.4609947671
 20
-8.4722187506
 10
-5.4363923026
 20
-8.4828466548
 10
-5.4134297252
 20
-8.4958131999
 10
-5.3918917815
 20
-8.5112389029
 10
-5.3719937249
 20
-8.5290032468
 10
-5.3543767002
 20
-8.548445321
 10
-5.3391284966
 20
-8.5694790379
 10
-5.3261613248
 20
-8.5921904851
 10
-5.3158529611
 20
-8.6161770151
 10
-5.3082423897
 20
-8.6414118066
 10
-5.3032906264
 20
-8.667921681
 10
-5.3012584947
 20
-8.6953844548
 10
-5.3022589765
 20
-8.7243125891
 10
-5.3061790899
 20
-8.7541936227
 10
-5.3129407131
 20
-8.7831679895
 10
-5.322781286
 20
-8.8110792959
 10
-5.3354633686
 20
-8.8380839353
 10
-5.350196519
 20
-8.8627915223
 10
-5.3667961996
 20
-8.8847477097
 10
-5.385446948
 20
-8.9044068446
 10
-5.4059119353
 20
-8.9217415827
 10
-5.4281728641
 20
-8.9368283762
 10
-5.4522480318
 20
-8.9495907729
 10
-5.4779555018
 20
-8.959772072
 10
-5.5059318983
 20
-8.9672993778
  0
LWPOLYLINE
  5
46D
100
AcDbEntity
  8
0
100
AcDbPolyline
 62
7
  6
CONTINUOUS
 90
32
 70
0
 10
-9.6851562257
 20
-8.4734939759
 10
-9.6507072233
 20
-8.4650192802
 10
-9.6174860928
 20
-8.4593167876
 10
-9.5854928342
 20
-8.4563864979
 10
-9.5545885702
 20
-8.4562731454
 10
-9.5249121781
 20
-8.4589319959
 10
-9.4968802897
 20
-8.4642288469
 10
-9.4706333214
 20
-8.4722187506
 10
-9.4460308568
 20
-8.4828466548
 10
-9.4230682795
 20
-8.4958131999
 10
-9.4015303357
 20
-8.5112389029
 10
-9.3816322791
 20
-8.5290032468
 10
-9.3640152544
 20
-8.548445321
 10
-9.3487670508
 20
-8.5694790379
 10
-9.335799879
 20
-8.5921904851
 10
-9.3254915153
 20
-8.6161770151
 10
-9.3178809439
 20
-8.6414118066
 10
-9.3129291806
 20
-8.667921681
 10
-9.3108970489
 20
-8.6953844548
 10
-9.3118975307
 20
-8.7243125891
 10
-9.3158176441
 20
-8.7541936227
 10
-9.3225792673
 20
-8.7831679895
 10
-9.3324198402
 20
-8.8110792959
 10
-9.3451019228
 20
-8.8380839353
 10
-9.3598350732
 20
-8.8627915223
 10
-9.3764347538
 20
-8.8847477097
 10
-9.3950855022
 20
-8.9044068446
 10
-9.4155504895
 20
-8.9217415827
 10
-9.4378114183
 20
-8.9368283762
 10
-9.461886586
 20
-8.9495907729
 10
-9.487594056
 20
-8.959772072
 10
-9.5155704525
 20
-8.9672993778
  0
LINE
  5
46E
100
AcDbEntity
  8
0
100
AcDbLine
 62
7
  6
CONTINUOUS
 10
-1.6957361421
 20
-6.3023342627
 11
-1.5234469855
 21
-6.2626881709
  0
LWPOLYLINE
  5
46F
100
AcDbEntity
  8
0
100
AcDbPolyline
 62
7
  6
CONTINUOUS
 90
37
 70
0
 10
-4.8050168998
 20
-4.7204819277
 10
-4.7640380659
 20
-4.7136149936
 10
-4.7253871165
 20
-4.7048160054
 10
-4.6890640516
 20
-4.6940849632
 10
-4.6549233052
 20
-4.681361131
 10
-4.6231104433
 20
-4.6667052448
 10
-4.5940621636
 20
-4.6502995122
 10
-4.5680910115
 20
-4.6324051174
 10
-4.5448844417
 20
-4.6127608763
 10
-4.5239415161
 20
-4.590765444
 10
-4.5050052128
 20
-4.5661685417
 10
-4.4883325536
 20
-4.5392204482
 10
-4.4741936664
 20
-4.5100706545
 10
-4.4624358668
 20
-4.4782460815
 10
-4.4532118391
 20
-4.4442198084
 10
-4.4472497643
 20
-4.409560564
 10
-4.444805096
 20
-4.3743113664
 10
-4.4456223805
 20
-4.3384291976
 10
-4.4496634378
 20
-4.3033537324
 10
-4.4572530069
 20
-4.2690729215
 10
-4.4680663488
 20
-4.2355988142
 10
-4.4810910673
 20
-4.2044072329
 10
-4.4961527868
 20
-4.1758992133
 10
-4.5134258829
 20
-4.1496737198
 10
-4.5324210853
 20
-4.1260034676
 10
-4.5528704573
 20
-4.1050490528
 10
-4.5750419356
 20
-4.0866498792
 10
-4.5992500604
 20
-4.0705968739
 10
-4.625664105
 20
-4.056923308
 10
-4.6541147961
 20
-4.0455959102
 10
-4.6844088541
 20
-4.0363057942
 10
-4.7166449358
 20
-4.0292117602
 10
-4.7507243843
 20
-4.0241550079
 10
-4.78615795
 20
-4.0203502496
 10
-4.8227825496
 20
-4.0175357226
 10
-4.8607612664
 20
-4.0159731896
 10
-4.9000941004
 20
-4.0156626506
  0
LINE
  5
470
100
AcDbEntity
  8
0
100
AcDbLine
 62
7
  6
CONTINUOUS
 10
-9.843373494
 20
-8.7240963855
 11
-10.0
 21
-8.7475903614
  0
LWPOLYLINE
  5
471
100
AcDbEntity
  8
0
100
AcDbPolyline
 62
7
  6
CONTINUOUS
 90
38
 70
0
 10
-1.933165299
 20
-4.775170093
 10
-1.8909395324
 20
-4.7729205635
 10
-1.8504970878
 20
-4.7685526162
 10
-1.8116257045
 20
-4.7620909421
 10
-1.7745376432
 20
-4.7535108503
 10
-1.7398696868
 20
-4.7427382679
 10
-1.7077527942
 20
-4.7296213321
 10
-1.6780560065
 20
-4.7143119058
 10
-1.6510232295
 20
-4.6971915048
 10
-1.62695716
 20
-4.6785627044
 10
-1.6055551013
 20
-4.6581229294
 10
-1.5861528683
 20
-4.6353459704
 10
-1.5684894602
 20
-4.6101478586
 10
-1.552825878
 20
-4.5826125628
 10
-1.539280939
 20
-4.5524657804
 10
-1.5275533345
 20
-4.5192177622
 10
-1.5179443732
 20
-4.4833582575
 10
-1.5114767992
 20
-4.4460822107
 10
-1.5084355644
 20
-4.4068765447
 10
-1.5085357169
 20
-4.3662543367
 10
-1.5119451442
 20
-4.326949763
 10
-1.5190120054
 20
-4.2894226365
 10
-1.5293881415
 20
-4.2532131444
 10
-1.5421969621
 20
-4.2196760244
 10
-1.5573025268
 20
-4.1892901998
 10
-1.5748407761
 20
-4.1615767474
 10
-1.5943429412
 20
-4.136453636
 10
-1.6154639667
 20
-4.1139648373
 10
-1.6385489079
 20
-4.0940663797
 10
-1.6641641625
 20
-4.0765443166
 10
-1.6926087065
 20
-4.0613670268
 10
-1.7235835639
 20
-4.0485661315
 10
-1.7567582042
 20
-4.0380225476
 10
-1.7922558177
 20
-4.0299285721
 10
-1.8299532142
 20
-4.0240919081
 10
-1.8691502921
 20
-4.0198165813
 10
-1.9096136842
 20
-4.0168706004
 10
-1.9515767577
 20
-4.0154859569
  0
LINE
  5
472
100
AcDbEntity
  8
0
100
AcDbLine
 62
7
  6
CONTINUOUS
 10
-3.5674228891
 20
-4.8771084337
 11
-3.7318807204
 21
-4.884939759
  0
LINE
  5
473
100
AcDbEntity
  8
0
100
AcDbLine
 62
7
  6
CONTINUOUS
 10
-2.9174228891
 20
-4.3837349398
 11
-2.7451337325
 21
-4.3759036145
  0
LWPOLYLINE
  5
474
100
AcDbEntity
  8
0
100
AcDbPolyline
 62
7
  6
CONTINUOUS
 90
17
 70
0
 10
-5.1831947552
 20
-4.7361050584
 10
-5.1110232059
 20
-4.7353738055
 10
-5.0766969989
 20
-4.7364749937
 10
-5.0436248681
 20
-4.7387219535
 10
-5.011842679
 20
-4.7424129805
 10
-4.9818087173
 20
-4.7498415334
 10
-4.9538617394
 20
-4.7618807439
 10
-4.927662989
 20
-4.7776574802
 10
-4.9026544825
 20
-4.796845806
 10
-4.8789317648
 20
-4.8199104832
 10
-4.8563992911
 20
-4.8463867499
 10
-4.8342124436
 20
-4.8745543846
 10
-4.8122827246
 20
-4.9039891442
 10
-4.790698632
 20
-4.9351152718
 10
-4.7688810407
 20
-4.9674852755
 10
-4.7467073858
 20
-5.0010120002
 10
-4.7243002323
 20
-5.0357826011
  0
LINE
  5
475
100
AcDbEntity
  8
0
100
AcDbLine
 62
7
  6
CONTINUOUS
 10
-4.9464420987
 20
-4.5875896113
 11
-5.00982226
 21
-4.5878562558
  0
LINE
  5
476
100
AcDbEntity
  8
0
100
AcDbLine
 62
7
  6
CONTINUOUS
 10
2.1337819302
 20
-7.0512048193
 11
1.3030497361
 21
-7.0512048193
  0
LINE
  5
477
100
AcDbEntity
  8
0
100
AcDbLine
 62
7
  6
CONTINUOUS
 10
-0.3174228891
 20
-7.0512048193
 11
-1.1005554192
 21
-7.0512048193
  0
LINE
  5
478
100
AcDbEntity
  8
0
100
AcDbLine
 62
7
  6
CONTINUOUS
 10
-5.0162180698
 20
-7.0512048193
 11
-5.7993505999
 21
-7.0512048193
  0
LINE
  5
479
100
AcDbEntity
  8
0
100
AcDbLine
 62
7
  6
CONTINUOUS
 10
-6.1752542144
 20
-7.0512048193
 11
-6.8174228891
 21
-7.0512048193
  0
LINE
  5
47A
100
AcDbEntity
  8
0
100
AcDbLine
 62
7
  6
CONTINUOUS
 10
4.8982397615
 20
-6.8945783133
 11
5.4699265085
 21
-6.8945783133
  0
LINE
  5
47B
100
AcDbEntity
  8
0
100
AcDbLine
 62
7
  6
CONTINUOUS
 10
5.6265530145
 20
-6.8945783133
 11
5.7988421712
 21
-6.8945783133
  0
LINE
  5
47C
100
AcDbEntity
  8
0
100
AcDbLine
 62
7
  6
CONTINUOUS
 10
-8.0047251767
 20
-6.8084337349
 11
-7.4549416434
 21
-6.8084337349
  0
LINE
  5
47D
100
AcDbEntity
  8
0
100
AcDbLine
 62
7
  6
CONTINUOUS
 10
2.4892507269
 20
-6.8084337349
 11
3.0390342602
 21
-6.8084337349
  0
LINE
  5
47E
100
AcDbEntity
  8
0
100
AcDbLine
 62
7
  6
CONTINUOUS
 10
5.7988421712
 20
-6.7457831325
 11
5.6265530145
 21
-6.7457831325
  0
LINE
  5
47F
100
AcDbEntity
  8
0
100
AcDbLine
 62
7
  6
CONTINUOUS
 10
5.4699265085
 20
-6.7457831325
 11
5.0551110002
 21
-6.7457831325
  0
LINE
  5
480
100
AcDbEntity
  8
0
100
AcDbLine
 62
7
  6
CONTINUOUS
 10
2.9870294085
 20
-6.6674698795
 11
2.5383189062
 21
-6.6674698795
  0
LINE
  5
481
100
AcDbEntity
  8
0
100
AcDbLine
 62
7
  6
CONTINUOUS
 10
-7.5069464951
 20
-6.6674698795
 11
-7.9556569974
 21
-6.6674698795
  0
LINE
  5
482
100
AcDbEntity
  8
0
100
AcDbLine
 62
7
  6
CONTINUOUS
 10
-5.7993505999
 20
-6.6048192771
 11
-5.0945313228
 21
-6.6048192771
  0
LINE
  5
483
100
AcDbEntity
  8
0
100
AcDbLine
 62
7
  6
CONTINUOUS
 10
-1.1005554192
 20
-6.6048192771
 11
-0.3957361421
 21
-6.6048192771
  0
LINE
  5
484
100
AcDbEntity
  8
0
100
AcDbLine
 62
7
  6
CONTINUOUS
 10
-0.3957361421
 20
-6.4560240964
 11
-1.1005554192
 21
-6.4560240964
  0
LINE
  5
485
100
AcDbEntity
  8
0
100
AcDbLine
 62
7
  6
CONTINUOUS
 10
-5.0945313228
 20
-6.4560240964
 11
-5.7993505999
 21
-6.4560240964
  0
LINE
  5
486
100
AcDbEntity
  8
0
100
AcDbLine
 62
7
  6
CONTINUOUS
 10
-5.7993505999
 20
-6.056626506
 11
-5.047543371
 21
-6.056626506
  0
LINE
  5
487
100
AcDbEntity
  8
0
100
AcDbLine
 62
7
  6
CONTINUOUS
 10
-1.1005554192
 20
-6.056626506
 11
-0.3487481903
 21
-6.056626506
  0
LINE
  5
488
100
AcDbEntity
  8
0
100
AcDbLine
 62
7
  6
CONTINUOUS
 10
1.1861915687
 20
-6.056626506
 11
1.9022684283
 21
-6.056626506
  0
LINE
  5
489
100
AcDbEntity
  8
0
100
AcDbLine
 62
7
  6
CONTINUOUS
 10
5.6265530145
 20
-5.9078313253
 11
5.5012518097
 21
-5.9078313253
  0
LINE
  5
48A
100
AcDbEntity
  8
0
100
AcDbLine
 62
7
  6
CONTINUOUS
 10
2.8487574928
 20
-5.9078313253
 11
2.6623964478
 21
-5.9078313253
  0
LINE
  5
48B
100
AcDbEntity
  8
0
100
AcDbLine
 62
7
  6
CONTINUOUS
 10
2.102456629
 20
-5.9078313253
 11
1.1861915687
 21
-5.9078313253
  0
LINE
  5
48C
100
AcDbEntity
  8
0
100
AcDbLine
 62
7
  6
CONTINUOUS
 10
0.9277578338
 20
-5.9078313253
 11
0.7554686772
 21
-5.9078313253
  0
LINE
  5
48D
100
AcDbEntity
  8
0
100
AcDbLine
 62
7
  6
CONTINUOUS
 10
0.1085278353
 20
-5.9078313253
 11
-0.0746518047
 21
-5.9078313253
  0
LINE
  5
48E
100
AcDbEntity
  8
0
100
AcDbLine
 62
7
  6
CONTINUOUS
 10
-0.3487481903
 20
-5.9078313253
 11
-1.2728445758
 21
-5.9078313253
  0
LINE
  5
48F
100
AcDbEntity
  8
0
100
AcDbLine
 62
7
  6
CONTINUOUS
 10
-2.8860975879
 20
-5.9078313253
 11
-3.0583867445
 21
-5.9078313253
  0
LINE
  5
490
100
AcDbEntity
  8
0
100
AcDbLine
 62
7
  6
CONTINUOUS
 10
-3.2030214702
 20
-5.9078313253
 11
-3.3873024072
 21
-5.9078313253
  0
LINE
  5
491
100
AcDbEntity
  8
0
100
AcDbLine
 62
7
  6
CONTINUOUS
 10
-4.2174228891
 20
-5.9078313253
 11
-4.4006024096
 21
-5.9078313253
  0
LINE
  5
492
100
AcDbEntity
  8
0
100
AcDbLine
 62
7
  6
CONTINUOUS
 10
-5.047543371
 20
-5.9078313253
 11
-5.9716397566
 21
-5.9078313253
  0
LINE
  5
493
100
AcDbEntity
  8
0
100
AcDbLine
 62
7
  6
CONTINUOUS
 10
-6.8174228891
 20
-5.9078313253
 11
-6.9897120457
 21
-5.9078313253
  0
LINE
  5
494
100
AcDbEntity
  8
0
100
AcDbLine
 62
7
  6
CONTINUOUS
 10
-7.6452184108
 20
-5.9078313253
 11
-7.8315794558
 21
-5.9078313253
  0
LINE
  5
495
100
AcDbEntity
  8
0
100
AcDbLine
 62
7
  6
CONTINUOUS
 10
-8.4854951782
 20
-5.9078313253
 11
-8.6577843349
 21
-5.9078313253
  0
LINE
  5
496
100
AcDbEntity
  8
0
100
AcDbLine
 62
7
  6
CONTINUOUS
 10
-8.8024190605
 20
-5.9078313253
 11
-8.9866999975
 21
-5.9078313253
  0
LINE
  5
497
100
AcDbEntity
  8
0
100
AcDbLine
 62
7
  6
CONTINUOUS
 10
-9.8168204794
 20
-5.9078313253
 11
-10.0
 21
-5.9078313253
  0
LINE
  5
498
100
AcDbEntity
  8
0
100
AcDbLine
 62
7
  6
CONTINUOUS
 10
4.545830123
 20
-5.9
 11
4.4448794583
 21
-5.9
  0
LINE
  5
499
100
AcDbEntity
  8
0
100
AcDbLine
 62
7
  6
CONTINUOUS
 10
-9.5032003684
 20
-5.3078313253
 11
-9.3178181345
 21
-5.3078313253
  0
LINE
  5
49A
100
AcDbEntity
  8
0
100
AcDbLine
 62
7
  6
CONTINUOUS
 10
-8.6577843349
 20
-5.3078313253
 11
-8.4854951782
 21
-5.3078313253
  0
LINE
  5
49B
100
AcDbEntity
  8
0
100
AcDbLine
 62
7
  6
CONTINUOUS
 10
-8.1957361421
 20
-5.3078313253
 11
-8.0234469855
 21
-5.3078313253
  0
LINE
  5
49C
100
AcDbEntity
  8
0
100
AcDbLine
 62
7
  6
CONTINUOUS
 10
-7.6508471423
 20
-5.3078313253
 11
-7.5042545554
 21
-5.3078313253
  0
LINE
  5
49D
100
AcDbEntity
  8
0
100
AcDbLine
 62
7
  6
CONTINUOUS
 10
-7.1228445758
 20
-5.3078313253
 11
-6.9505554192
 21
-5.3078313253
  0
LINE
  5
49E
100
AcDbEntity
  8
0
100
AcDbLine
 62
7
  6
CONTINUOUS
 10
-6.8191358981
 20
-5.3078313253
 11
-6.6373024072
 21
-5.3078313253
  0
LINE
  5
49F
100
AcDbEntity
  8
0
100
AcDbLine
 62
7
  6
CONTINUOUS
 10
-5.8071819252
 20
-5.3078313253
 11
-5.6240022852
 21
-5.3078313253
  0
LINE
  5
4A0
100
AcDbEntity
  8
0
100
AcDbLine
 62
7
  6
CONTINUOUS
 10
-5.4704349373
 20
-5.3078313253
 11
-5.2981457807
 21
-5.3078313253
  0
LINE
  5
4A1
100
AcDbEntity
  8
0
100
AcDbLine
 62
7
  6
CONTINUOUS
 10
-4.5527014811
 20
-5.3078313253
 11
-4.3503106866
 21
-5.3078313253
  0
LINE
  5
4A2
100
AcDbEntity
  8
0
100
AcDbLine
 62
7
  6
CONTINUOUS
 10
-2.4710373469
 20
-5.3078313253
 11
-2.2987481903
 21
-5.3078313253
  0
LINE
  5
4A3
100
AcDbEntity
  8
0
100
AcDbLine
 62
7
  6
CONTINUOUS
 10
-1.4233527656
 20
-5.3078313253
 11
-1.2415192746
 21
-5.3078313253
  0
LINE
  5
4A4
100
AcDbEntity
  8
0
100
AcDbLine
 62
7
  6
CONTINUOUS
 10
-0.4113987927
 20
-5.3078313253
 11
-0.2282191526
 21
-5.3078313253
  0
LINE
  5
4A5
100
AcDbEntity
  8
0
100
AcDbLine
 62
7
  6
CONTINUOUS
 10
-6.5011107189
 20
-4.9162650602
 11
-5.9513271856
 21
-4.9162650602
  0
LINE
  5
4A6
100
AcDbEntity
  8
0
100
AcDbLine
 62
7
  6
CONTINUOUS
 10
-1.1053275864
 20
-4.9162650602
 11
-0.5555440531
 21
-4.9162650602
  0
LINE
  5
4A7
100
AcDbEntity
  8
0
100
AcDbLine
 62
7
  6
CONTINUOUS
 10
-2.2987481903
 20
-4.7753012048
 11
-1.933165299
 21
-4.775170093
  0
LINE
  5
4A8
100
AcDbEntity
  8
0
100
AcDbLine
 62
7
  6
CONTINUOUS
 10
-0.6075489047
 20
-4.7753012048
 11
-1.056259407
 21
-4.7753012048
  0
LINE
  5
4A9
100
AcDbEntity
  8
0
100
AcDbLine
 62
7
  6
CONTINUOUS
 10
-6.0033320372
 20
-4.7753012048
 11
-6.4520425396
 21
-4.7753012048
  0
LINE
  5
4AA
100
AcDbEntity
  8
0
100
AcDbLine
 62
7
  6
CONTINUOUS
 10
-5.2981457807
 20
-4.1644578313
 11
-4.8931193393
 21
-4.1644578313
  0
LINE
  5
4AB
100
AcDbEntity
  8
0
100
AcDbLine
 62
7
  6
CONTINUOUS
 10
-0.7458208205
 20
-4.0156626506
 11
-0.9321818655
 21
-4.0156626506
  0
LINE
  5
4AC
100
AcDbEntity
  8
0
100
AcDbLine
 62
7
  6
CONTINUOUS
 10
-1.9515767577
 20
-4.0154859569
 11
-2.4710373469
 21
-4.0156626506
  0
LINE
  5
4AD
100
AcDbEntity
  8
0
100
AcDbLine
 62
7
  6
CONTINUOUS
 10
-4.9000941004
 20
-4.0156626506
 11
-5.4704349373
 21
-4.0156626506
  0
LINE
  5
4AE
100
AcDbEntity
  8
0
100
AcDbLine
 62
7
  6
CONTINUOUS
 10
-6.141603953
 20
-4.0156626506
 11
-6.327964998
 21
-4.0156626506
  0
LINE
  5
4AF
100
AcDbEntity
  8
0
100
AcDbLine
 62
7
  6
CONTINUOUS
 10
-6.9505554192
 20
-4.0156626506
 11
-7.1747270611
 21
-4.0156626506
  0
LINE
  5
4B0
100
AcDbEntity
  8
0
100
AcDbLine
 62
7
  6
CONTINUOUS
 10
-7.9331419521
 20
-4.0156626506
 11
-8.1957361421
 21
-4.0156626506
  0
LINE
  5
4B1
100
AcDbEntity
  8
0
100
AcDbLine
 62
7
  6
CONTINUOUS
 10
-8.4854951782
 20
-4.0156626506
 11
-8.6577843349
 21
-4.0156626506
  0
LINE
  5
4B2
100
AcDbEntity
  8
0
100
AcDbLine
 62
7
  6
CONTINUOUS
 10
-8.8024190605
 20
-4.0156626506
 11
-8.9866999975
 21
-4.0156626506
  0
LINE
  5
4B3
100
AcDbEntity
  8
0
100
AcDbLine
 62
7
  6
CONTINUOUS
 10
-9.8168204794
 20
-4.0156626506
 11
-10.0
 21
-4.0156626506
  0
LINE
  5
4B4
100
AcDbEntity
  8
0
100
AcDbLine
 62
7
  6
CONTINUOUS
 10
-2.1925046211
 20
-4.6263904783
 11
-2.2987481903
 21
-4.6265060241
  0
LINE
  5
4B5
100
AcDbEntity
  8
0
100
AcDbLine
 62
7
  6
CONTINUOUS
 10
-5.2981457807
 20
-4.7361445783
 11
-5.1831947552
 21
-4.7361050584
  0
LINE
  5
4B6
100
AcDbEntity
  8
0
100
AcDbLine
 62
7
  6
CONTINUOUS
 10
-2.2987481903
 20
-4.1644578313
 11
-2.0196783942
 21
-4.1642615784
  0
LINE
  5
4B7
100
AcDbEntity
  8
0
100
AcDbLine
 62
7
  6
CONTINUOUS
 10
-5.1466900786
 20
-4.5873188579
 11
-5.2981457807
 21
-4.5873493976
  0
LINE
  5
4B8
100
AcDbEntity
  8
0
100
AcDbLine
 62
7
  6
CONTINUOUS
 10
-5.00982226
 20
-4.5878562558
 11
-5.1466900786
 21
-4.5873188579
  0
LINE
  5
4B9
100
AcDbEntity
  8
0
100
AcDbLine
 62
7
  6
CONTINUOUS
 10
-2.0328729117
 20
-4.6270741419
 11
-2.1925046211
 21
-4.6263904783
  0
LWPOLYLINE
  5
4BA
100
AcDbEntity
  8
0
100
AcDbPolyline
 62
7
  6
CONTINUOUS
 90
40
 70
0
 10
-2.0196783942
 20
-4.1642615784
 10
-1.9658558081
 20
-4.1644942736
 10
-1.939995049
 20
-4.164989301
 10
-1.9147072228
 20
-4.1655913895
 10
-1.8901108281
 20
-4.1665255086
 10
-1.8665345881
 20
-4.1687052986
 10
-1.8440169508
 20
-4.1721293613
 10
-1.8225194682
 20
-4.176799095
 10
-1.8022555182
 20
-4.1836323347
 10
-1.7832650395
 20
-4.1929368332
 10
-1.7655080935
 20
-4.2044048378
 10
-1.7490782422
 20
-4.2180309252
 10
-1.7338059736
 20
-4.2339049831
 10
-1.7198607996
 20
-4.2519371239
 10
-1.7078448181
 20
-4.2718522608
 10
-1.6978105866
 20
-4.2938254081
 10
-1.6897055475
 20
-4.3176815514
 10
-1.6839741268
 20
-4.3426205612
 10
-1.68081142
 20
-4.3690308869
 10
-1.6800223315
 20
-4.396524079
 10
-1.681466
 20
-4.4231346587
 10
-1.6852236597
 20
-4.4485708977
 10
-1.6912140764
 20
-4.4731245244
 10
-1.6990526859
 20
-4.4957052451
 10
-1.708728982
 20
-4.5159244205
 10
-1.7202534709
 20
-4.5341706899
 10
-1.7332731069
 20
-4.5505196776
 10
-1.7475870548
 20
-4.56485654
 10
-1.7633961498
 20
-4.5772961207
 10
-1.7809498525
 20
-4.5882585743
 10
-1.8004750544
 20
-4.5978709967
 10
-1.8217448639
 20
-4.6060062921
 10
-1.8443280662
 20
-4.6127033271
 10
-1.8681983917
 20
-4.6178219075
 10
-1.89338211
 20
-4.6215022275
 10
-1.9195268151
 20
-4.6242037358
 10
-1.9465750183
 20
-4.6258572838
 10
-1.9745842084
 20
-4.62653202
 10
-2.0033744457
 20
-4.6268948388
 10
-2.0328729117
 20
-4.6270741419
  0
LWPOLYLINE
  5
4BB
100
AcDbEntity
  8
0
100
AcDbPolyline
 62
7
  6
CONTINUOUS
 90
36
 70
0
 10
-4.8931193393
 20
-4.1644578313
 10
-4.8643250554
 20
-4.1648567217
 10
-4.8367971818
 20
-4.1667241233
 10
-4.8105357184
 20
-4.1700600361
 10
-4.7853606127
 20
-4.1748289196
 10
-4.7614519173
 20
-4.1810663144
 10
-4.7393497897
 20
-4.1888788419
 10
-4.7192955724
 20
-4.1981989207
 10
-4.7010479229
 20
-4.2090941322
 10
-4.6844229715
 20
-4.2218738417
 10
-4.6692753202
 20
-4.2367652949
 10
-4.6557503669
 20
-4.2535412461
 10
-4.6441004359
 20
-4.2718293236
 10
-4.6342368669
 20
-4.2919053309
 10
-4.6262483201
 20
-4.3134934645
 10
-4.6206531008
 20
-4.3353939424
 10
-4.6176243485
 20
-4.3574468089
 10
-4.6169889236
 20
-4.3798120196
 10
-4.6187457129
 20
-4.4017696597
 10
-4.6229912503
 20
-4.423297616
 10
-4.6296290018
 20
-4.4444180015
 10
-4.6383682527
 20
-4.4644772405
 10
-4.6491850894
 20
-4.4834762758
 10
-4.6621034255
 20
-4.5014141645
 10
-4.6769042863
 20
-4.5176345019
 10
-4.6935587755
 20
-4.5319332455
 10
-4.7120957895
 20
-4.5445144378
 10
-4.7323830429
 20
-4.5553338022
 10
-4.7545297047
 20
-4.5642721539
 10
-4.7784266058
 20
-4.5714486777
 10
-4.8036139541
 20
-4.5771766516
 10
-4.8300562865
 20
-4.5813372633
 10
-4.8577890661
 20
-4.5840493252
 10
-4.8864588897
 20
-4.5859825519
 10
-4.9159819722
 20
-4.5871754992
 10
-4.9464420987
 20
-4.5875896113
  0
LWPOLYLINE
  5
4BC
100
AcDbEntity
  8
0
100
AcDbPolyline
 62
7
  6
CONTINUOUS
 90
3
 70
0
 10
-3.2519061
 20
-4.7133235574
 10
-3.2251291663
 20
-4.7196280645
 10
-3.1987882936
 20
-4.7260380578
  0
LWPOLYLINE
  5
4BD
100
AcDbEntity
  8
0
100
AcDbPolyline
 62
7
  6
CONTINUOUS
 90
42
 70
0
 10
-3.2128718398
 20
-4.5452559793
 10
-3.237381381
 20
-4.5394143534
 10
-3.2611710011
 20
-4.533410925
 10
-3.2842407002
 20
-4.5272456942
 10
-3.3065654698
 20
-4.5209478536
 10
-3.3281703182
 20
-4.5144882105
 10
-3.3491302708
 20
-4.5077791867
 10
-3.3696479336
 20
-4.5009379428
 10
-3.3895207004
 20
-4.4938473182
 10
-3.4082157783
 20
-4.4860682529
 10
-3.4256930989
 20
-4.4776377898
 10
-3.4419927306
 20
-4.468518886
 10
-3.4567020851
 20
-4.4581613529
 10
-3.4697221358
 20
-4.4463218634
 10
-3.4811519093
 20
-4.4332437446
 10
-3.4908758978
 20
-4.4191067891
 10
-3.4989476187
 20
-4.4038605306
 10
-3.5053135545
 20
-4.3875554354
 10
-3.5096976446
 20
-4.3705226951
 10
-3.5121116725
 20
-4.352750861
 10
-3.5125438546
 20
-4.3342513817
 10
-3.5106827789
 20
-4.3153897945
 10
-3.5063403779
 20
-4.2958683097
 10
-3.499704719
 20
-4.2759847169
 10
-3.4910285925
 20
-4.2569979228
 10
-3.4802124398
 20
-4.2390404738
 10
-3.4673558194
 20
-4.2219798235
 10
-3.4530101965
 20
-4.2066772387
 10
-3.4373926915
 20
-4.1935104211
 10
-3.420286184
 20
-4.182101669
 10
-3.401590777
 20
-4.1721791452
 10
-3.3811364593
 20
-4.1637078209
 10
-3.3590932422
 20
-4.1567227248
 10
-3.3358712628
 20
-4.1510571057
 10
-3.3115645818
 20
-4.1467098974
 10
-3.2860791384
 20
-4.1436821661
 10
-3.2595428881
 20
-4.1418103596
 10
-3.2315469811
 20
-4.1409127003
 10
-3.2025002671
 20
-4.1411709657
 10
-3.1737572509
 20
-4.1429669367
 10
-3.1452957449
 20
-4.1463585153
 10
-3.1171379366
 20
-4.1512877994
  0
LINE
  5
4BE
100
AcDbEntity
  8
0
100
AcDbLine
 62
7
  6
CONTINUOUS
 10
-1.4921216843
 20
-6.7897119262
 11
-1.6644108409
 21
-6.746517211
  0
LWPOLYLINE
  5
4BF
100
AcDbEntity
  8
0
100
AcDbPolyline
 62
7
  6
CONTINUOUS
 90
14
 70
0
 10
-3.1171379366
 20
-4.1512877994
 10
-3.090704894
 20
-4.1579628633
 10
-3.0664411506
 20
-4.16642437
 10
-3.0439021728
 20
-4.1766316565
 10
-3.0231754272
 20
-4.1886708077
 10
-3.0043358155
 20
-4.2024985551
 10
-2.987308436
 20
-4.2181581672
 10
-2.97195605
 20
-4.2358655344
 10
-2.9581336237
 20
-4.2557596362
 10
-2.945986191
 20
-4.2777014931
 10
-2.9358116149
 20
-4.3014900567
 10
-2.927709183
 20
-4.327058311
 10
-2.9215796078
 20
-4.354473272
 10
-2.9174228891
 20
-4.3837349398
  0
LWPOLYLINE
  5
4C0
100
AcDbEntity
  8
0
100
AcDbPolyline
 62
7
  6
CONTINUOUS
 90
7
 70
0
 10
-3.1987882936
 20
-4.7260380578
 10
-3.1473618291
 20
-4.7390622731
 10
-3.1222762374
 20
-4.7456764951
 10
-3.0977854134
 20
-4.7527328945
 10
-3.0739422593
 20
-4.7603437015
 10
-3.050693873
 20
-4.7683966858
 10
-3.0280402544
 20
-4.7768918475
  0
LWPOLYLINE
  5
4C1
100
AcDbEntity
  8
0
100
AcDbPolyline
 62
7
  6
CONTINUOUS
 90
35
 70
0
 10
-3.0280402544
 20
-4.7768918475
 10
-3.0059076099
 20
-4.7862068172
 10
-2.9856062661
 20
-4.7964458535
 10
-2.9671362229
 20
-4.8076089565
 10
-2.9504673822
 20
-4.8195850594
 10
-2.9356298422
 20
-4.8324852289
 10
-2.9227138973
 20
-4.8466426652
 10
-2.9117365119
 20
-4.86211864
 10
-2.9026807217
 20
-4.8788518816
 10
-2.8955859276
 20
-4.8969917748
 10
-2.890323961
 20
-4.9169569427
 10
-2.8870229904
 20
-4.9383287623
 10
-2.886106923
 20
-4.9600007498
 10
-2.8877550222
 20
-4.9820314606
 10
-2.8917880246
 20
-5.0043623394
 10
-2.8980920468
 20
-5.0257112359
 10
-2.9065898226
 20
-5.0457039092
 10
-2.9173586182
 20
-5.0647146003
 10
-2.9305163489
 20
-5.0825838819
 10
-2.946122483
 20
-5.0993292582
 10
-2.9641175523
 20
-5.114933225
 10
-2.9844410673
 20
-5.1291838424
 10
-3.0072560559
 20
-5.1421933462
 10
-3.0323994903
 20
-5.1538495007
 10
-3.0593217975
 20
-5.1636036591
 10
-3.0878971761
 20
-5.1713501557
 10
-3.1182514274
 20
-5.1771946562
 10
-3.1502123825
 20
-5.1809055104
 10
-3.1842293384
 20
-5.1825299959
 10
-3.219852998
 20
-5.182020835
 10
-3.2555633011
 20
-5.1790045443
 10
-3.2916365487
 20
-5.1732489772
 10
-3.3277964398
 20
-5.1649862804
 10
-3.3616940111
 20
-5.1545394108
 10
-3.3927132403
 20
-5.1418634084
  0
LWPOLYLINE
  5
4C2
100
AcDbEntity
  8
0
100
AcDbPolyline
 62
7
  6
CONTINUOUS
 90
10
 70
0
 10
1.7236163422
 20
-8.4046026909
 10
1.6961189573
 20
-8.3929664324
 10
1.667651043
 20
-8.3820414673
 10
1.6382125992
 20
-8.3718277956
 10
1.6077107793
 20
-8.3624632292
 10
1.57623843
 20
-8.3538099562
 10
1.544074091
 20
-8.3454545407
 10
1.5113106089
 20
-8.3372591708
 10
1.4778551372
 20
-8.3293616583
 10
1.4437076757
 20
-8.3217620034
  0
LWPOLYLINE
  5
4C3
100
AcDbEntity
  8
0
100
AcDbPolyline
 62
7
  6
CONTINUOUS
 90
10
 70
0
 10
-2.9329631734
 20
-4.6280966668
 10
-2.9604605582
 20
-4.6164604083
 10
-2.9889284726
 20
-4.6055354432
 10
-3.0183669164
 20
-4.5953217715
 10
-3.0488687363
 20
-4.5859572051
 10
-3.0803410856
 20
-4.5773039321
 10
-3.1125054246
 20
-4.5689485166
 10
-3.1452689067
 20
-4.5607531467
 10
-3.1787243784
 20
-4.5528556342
 10
-3.2128718398
 20
-4.5452559793
  0
LWPOLYLINE
  5
4C4
100
AcDbEntity
  8
0
100
AcDbPolyline
 62
7
  6
CONTINUOUS
 90
12
 70
0
 10
-3.3927132403
 20
-5.1418634084
 10
-3.4214701497
 20
-5.1270032333
 10
-3.4474638431
 20
-5.110416722
 10
-3.4704190158
 20
-5.0923385994
 10
-3.4906109724
 20
-5.0725341408
 10
-3.5083647308
 20
-5.0507570083
 10
-3.5236742699
 20
-5.0269646063
 10
-3.5365456107
 20
-5.0011995306
 10
-3.5473218349
 20
-4.9733432305
 10
-3.556117303
 20
-4.9433561893
 10
-3.5628176544
 20
-4.9112779237
 10
-3.5674228891
 20
-4.8771084337
  0
LINE
  5
4C5
100
AcDbEntity
  8
DRAFT
100
AcDbLine
 62
7
  6
CONTINUOUS
 10
17.7952696104
 20
-23.8952696104
 11
17.9
 21
-24.0
  0
LWPOLYLINE
  5
4C6
100
AcDbEntity
  8
0
100
AcDbPolyline
 62
7
  6
CONTINUOUS
 90
3
 70
0
 10
-4.7243002323
 20
-5.0357826011
 10
-4.6781498421
 20
-5.1084573136
 10
-4.5527014811
 20
-5.3078313253
  0
LWPOLYLINE
  5
4C7
100
AcDbEntity
  8
0
100
AcDbPolyline
 62
7
  6
CONTINUOUS
 90
3
 70
0
 10
-0.9683231263
 20
-8.8122886252
 10
-0.9221727361
 20
-8.8849633377
 10
-0.7967243752
 20
-9.0843373494
  0
LWPOLYLINE
  5
4C8
100
AcDbEntity
  8
0
100
AcDbPolyline
 62
7
  6
CONTINUOUS
 90
3
 70
0
 10
-4.3503106866
 20
-5.3078313253
 10
-4.4126842024
 20
-5.2086435218
 10
-4.4424360147
 20
-5.1608079923
  0
LWPOLYLINE
  5
4C9
100
AcDbEntity
  8
0
100
AcDbPolyline
 62
7
  6
CONTINUOUS
 90
3
 70
0
 10
-0.5943335806
 20
-9.0843373494
 10
-0.6567070965
 20
-8.9851495459
 10
-0.6864589088
 20
-8.9373140164
  0
LWPOLYLINE
  5
4CA
100
AcDbEntity
  8
0
100
AcDbPolyline
 62
7
  6
CONTINUOUS
 90
12
 70
0
 10
-4.4424360147
 20
-5.1608079923
 10
-4.4985730675
 20
-5.0683030516
 10
-4.5259516689
 20
-5.0243348924
 10
-4.5531555308
 20
-4.9821444503
 10
-4.580147783
 20
-4.9416521953
 10
-4.6075628346
 20
-4.9031454764
 10
-4.6347671132
 20
-4.8664939355
 10
-4.6623941914
 20
-4.8318279307
 10
-4.6929791964
 20
-4.7998258852
 10
-4.7273671707
 20
-4.77071394
 10
-4.7647130719
 20
-4.7442659542
 10
-4.8050168998
 20
-4.7204819277
  0
LWPOLYLINE
  5
4CB
100
AcDbEntity
  8
0
100
AcDbPolyline
 62
7
  6
CONTINUOUS
 90
12
 70
0
 10
-0.6864589088
 20
-8.9373140164
 10
-0.7425959616
 20
-8.8448090757
 10
-0.7699745629
 20
-8.8008409165
 10
-0.7971784249
 20
-8.7586504744
 10
-0.824170677
 20
-8.7181582194
 10
-0.8515857287
 20
-8.6796515005
 10
-0.8787900073
 20
-8.6429999596
 10
-0.9064170855
 20
-8.6083339548
 10
-0.9370020905
 20
-8.5763319093
 10
-0.9713900648
 20
-8.5472199641
 10
-1.0087359659
 20
-8.5207719783
 10
-1.0490397939
 20
-8.4969879518
  0
LINE
  5
4CC
100
AcDbEntity
  8
0
100
AcDbLine
 62
7
  6
CONTINUOUS
 10
-1.8680251792
 20
-9.0843373494
 11
-2.3856268471
 21
-7.7921686747
  0
LINE
  5
4CD
100
AcDbEntity
  8
0
100
AcDbLine
 62
7
  6
CONTINUOUS
 10
-2.3050582284
 20
-8.4056017534
 11
-2.2473549313
 21
-8.5518072289
  0
LINE
  5
4CE
100
AcDbEntity
  8
0
100
AcDbLine
 62
7
  6
CONTINUOUS
 10
-4.4006024096
 20
-5.9078313253
 11
-3.9038027781
 21
-7.2
  0
LINE
  5
4CF
100
AcDbEntity
  8
0
100
AcDbLine
 62
7
  6
CONTINUOUS
 10
-2.1953500797
 20
-8.6927710843
 11
-2.0512048193
 21
-9.0843373494
  0
LWPOLYLINE
  5
4D0
100
AcDbEntity
  8
0
100
AcDbPolyline
 62
7
  6
CONTINUOUS
 90
32
 70
0
 10
-2.5956509129
 20
-6.813459067
 10
-2.5772041548
 20
-6.8667154919
 10
-2.5561458112
 20
-6.915920663
 10
-2.5323030791
 20
-6.961354115
 10
-2.5061973677
 20
-7.002858068
 10
-2.4780239766
 20
-7.040231069
 10
-2.4475876061
 20
-7.0736745711
 10
-2.4148237661
 20
-7.1036351534
 10
-2.3799195605
 20
-7.1301860974
 10
-2.3426878855
 20
-7.1532541216
 10
-2.3025029395
 20
-7.1730659603
 10
-2.2589481985
 20
-7.1897339095
 10
-2.2124401865
 20
-7.2031456731
 10
-2.1636026746
 20
-7.2131910968
 10
-2.1114551502
 20
-7.2199272302
 10
-2.0569781257
 20
-7.2232970237
 10
-2.0037369095
 20
-7.2230191744
 10
-1.9523384393
 20
-7.2189370115
 10
-1.9021757773
 20
-7.2112072057
 10
-1.8549934188
 20
-7.2000184667
 10
-1.8115091961
 20
-7.185317957
 10
-1.7710052769
 20
-7.1671585141
 10
-1.7330726593
 20
-7.1458873595
 10
-1.6978315194
 20
-7.1219308837
 10
-1.6651616812
 20
-7.0948626962
 10
-1.6342936144
 20
-7.0637508476
 10
-1.6047212413
 20
-7.0283064304
 10
-1.5769506397
 20
-6.9888183519
 10
-1.5517305128
 20
-6.945221385
 10
-1.5293104285
 20
-6.8974937872
 10
-1.509440819
 20
-6.8456573009
 10
-1.4921216843
 20
-6.7897119262
  0
LWPOLYLINE
  5
4D1
100
AcDbEntity
  8
0
100
AcDbPolyline
 62
7
  6
CONTINUOUS
 90
39
 70
0
 10
-1.5234469855
 20
-6.2626881709
 10
-1.5403612502
 20
-6.2136258724
 10
-1.5601146915
 20
-6.1678100094
 10
-1.5827073094
 20
-6.1252405817
 10
-1.6084212973
 20
-6.0857339953
 10
-1.6369744617
 20
-6.0494738443
 10
-1.6675202231
 20
-6.017010911
 10
-1.6995956592
 20
-5.988719056
 10
-1.7336636923
 20
-5.9642244187
 10
-1.7702665094
 20
-5.9429561997
 10
-1.8094592487
 20
-5.9246270437
 10
-1.8511867721
 20
-5.9095243059
 10
-1.8958258518
 20
-5.8979392536
 10
-1.9441103431
 20
-5.8897724982
 10
-1.9953063907
 20
-5.8851234282
 10
-2.0475892003
 20
-5.8845814762
 10
-2.1016091168
 20
-5.88845771
 10
-2.1567157953
 20
-5.8964410619
 10
-2.2091334069
 20
-5.9081877618
 10
-2.2575955896
 20
-5.9236641226
 10
-2.3033687054
 20
-5.9429038315
 10
-2.3464760115
 20
-5.9656641801
 10
-2.3869204179
 20
-5.991943615
 10
-2.4246990146
 20
-6.0217436896
 10
-2.459826329
 20
-6.0548263565
 10
-2.492555436
 20
-6.0911455932
 10
-2.5226332606
 20
-6.1307474222
 10
-2.5493151054
 20
-6.1735318628
 10
-2.5724238608
 20
-6.2192919592
 10
-2.5921366364
 20
-6.2682346672
 10
-2.608240063
 20
-6.3208808745
 10
-2.6208662068
 20
-6.3781059115
 10
-2.6298830016
 20
-6.4390344477
 10
-2.6346808797
 20
-6.5015613794
 10
-2.6349250817
 20
-6.5664429156
 10
-2.6309503671
 20
-6.6329228473
 10
-2.6231514461
 20
-6.6966274438
 10
-2.6113132827
 20
-6.756430923
 10
-2.5956509129
 20
-6.813459067
  0
LINE
  5
4D2
100
AcDbEntity
  8
0
100
AcDbLine
 62
7
  6
CONTINUOUS
 10
-4.2674698795
 20
-7.9879518072
 11
-3.8948700363
 21
-9.0843373494
  0
LINE
  5
4D3
100
AcDbEntity
  8
0
100
AcDbLine
 62
7
  6
CONTINUOUS
 10
-3.8569312558
 20
-8.747889397
 11
-4.1771648462
 21
-7.7921686747
  0
LINE
  5
4D4
100
AcDbEntity
  8
0
100
AcDbLine
 62
7
  6
CONTINUOUS
 10
-3.8360219604
 20
-8.8116508807
 11
-3.8569312558
 21
-8.747889397
  0
LINE
  5
4D5
100
AcDbEntity
  8
0
100
AcDbLine
 62
7
  6
CONTINUOUS
 10
-3.8224830466
 20
-8.8538871129
 11
-3.8360219604
 21
-8.8116508807
  0
LINE
  5
4D6
100
AcDbEntity
  8
0
100
AcDbLine
 62
7
  6
CONTINUOUS
 10
-3.8093372896
 20
-8.8958960769
 11
-3.8224830466
 21
-8.8538871129
  0
LWPOLYLINE
  5
4D7
100
AcDbEntity
  8
0
100
AcDbPolyline
 62
7
  6
CONTINUOUS
 90
6
 70
0
 10
-6.2339890944
 20
-4.1487951807
 10
-6.2136104186
 20
-4.2147227926
 10
-6.1917084153
 20
-4.2815303221
 10
-6.1682830845
 20
-4.3492177691
 10
-6.143053285
 20
-4.4177303008
 10
-6.0610353344
 20
-4.6290957293
  0
LWPOLYLINE
  5
4D8
100
AcDbEntity
  8
0
100
AcDbPolyline
 62
7
  6
CONTINUOUS
 90
6
 70
0
 10
-2.4780119884
 20
-7.9253012048
 10
-2.4576333126
 20
-7.9912288167
 10
-2.4357313093
 20
-8.0580363462
 10
-2.4123059786
 20
-8.1257237932
 10
-2.3870761791
 20
-8.1942363249
 10
-2.3050582284
 20
-8.4056017534
  0
LWPOLYLINE
  5
4D9
100
AcDbEntity
  8
0
100
AcDbPolyline
 62
7
  6
CONTINUOUS
 90
10
 70
0
 10
-3.8141095763
 20
-7.0551204222
 10
-3.8206099469
 20
-7.032131506
 10
-3.8273736038
 20
-7.0090284107
 10
-3.834400547
 20
-6.9858111364
 10
-3.8416978795
 20
-6.9624776691
 10
-3.8492584983
 20
-6.9390300228
 10
-3.8570610951
 20
-6.915474239
 10
-3.8650985671
 20
-6.8918123316
 10
-3.873378017
 20
-6.8680422867
 10
-4.2174228891
 20
-5.9078313253
  0
LWPOLYLINE
  5
4DA
100
AcDbEntity
  8
0
100
AcDbPolyline
 62
7
  6
CONTINUOUS
 90
13
 70
0
 10
-5.1507966115
 20
-8.6300255023
 10
-5.1578541667
 20
-8.5992364938
 10
-5.1675574852
 20
-8.5704404019
 10
-5.17960953
 20
-8.5435204684
 10
-5.1938643499
 20
-8.518506728
 10
-5.2104678961
 20
-8.4953691461
 10
-5.2295609857
 20
-8.4739008603
 10
-5.2513367861
 20
-8.4538641168
 10
-5.27560213
 20
-8.4354966695
 10
-5.3019183315
 20
-8.4193049181
 10
-5.3301391621
 20
-8.4054576626
 10
-5.3604108504
 20
-8.393786103
 10
-5.3927333964
 20
-8.3842902395
  0
LWPOLYLINE
  5
4DB
100
AcDbEntity
  8
0
100
AcDbPolyline
 62
7
  6
CONTINUOUS
 90
17
 70
0
 10
-3.6828433831
 20
-4.3830539974
 10
-3.6778916565
 20
-4.4144878239
 10
-3.6700473676
 20
-4.4443606876
 10
-3.6591987837
 20
-4.4730505873
 10
-3.6452432668
 20
-4.5003532266
 10
-3.6281839621
 20
-4.5262393913
 10
-3.6080177243
 20
-4.5507382956
 10
-3.5846324796
 20
-4.5737332858
 10
-3.557803647
 20
-4.595276894
 10
-3.5277558074
 20
-4.6153165881
 10
-3.4950506293
 20
-4.6335781183
 10
-3.4595876576
 20
-4.6496713198
 10
-3.4214673473
 20
-4.6639863575
 10
-3.3815527331
 20
-4.6774194756
 10
-3.3401314928
 20
-4.6902694224
 10
-3.2969159485
 20
-4.7022374497
 10
-3.2519061
 20
-4.7133235574
  0
LWPOLYLINE
  5
4DC
100
AcDbEntity
  8
0
100
AcDbPolyline
 62
7
  6
CONTINUOUS
 90
36
 70
0
 10
-2.7451337325
 20
-4.3759036145
 10
-2.7490136034
 20
-4.3355088591
 10
-2.7558634508
 20
-4.2973532701
 10
-2.7656832745
 20
-4.2614368474
 10
-2.7784511074
 20
-4.2278454368
 10
-2.7941889166
 20
-4.1964931926
 10
-2.8129626041
 20
-4.1671225774
 10
-2.8346673905
 20
-4.1396577227
 10
-2.859408055
 20
-4.1141744971
 10
-2.8875648374
 20
-4.0906429694
 10
-2.9194114649
 20
-4.0687333847
 10
-2.9546742102
 20
-4.0487754978
 10
-2.9929121308
 20
-4.0317286418
 10
-3.0342269883
 20
-4.0178735032
 10
-3.0785170211
 20
-4.0069293953
 10
-3.1250360017
 20
-3.9990135914
 10
-3.1747674245
 20
-3.9940857477
 10
-3.2267277951
 20
-3.9921862079
 10
-3.2772204037
 20
-3.9935532764
 10
-3.3255308189
 20
-3.9983356625
 10
-3.3723734721
 20
-4.0063846569
 10
-3.4161949474
 20
-4.0174924356
 10
-3.4566112806
 20
-4.0319129291
 10
-3.4940064361
 20
-4.049392207
 10
-3.5279788905
 20
-4.0689606548
 10
-3.5583634852
 20
-4.0904966621
 10
-3.585325379
 20
-4.1141218393
 10
-3.6089585246
 20
-4.1392314024
 10
-3.6292031363
 20
-4.1656932226
 10
-3.6461189998
 20
-4.1936394288
 10
-3.659979426
 20
-4.2228616238
 10
-3.670935991
 20
-4.2536638954
 10
-3.6788371187
 20
-4.2857421558
 10
-3.6835013909
 20
-4.3179757449
 10
-3.6847908148
 20
-4.3504372068
 10
-3.6828433831
 20
-4.3830539974
  0
LWPOLYLINE
  5
4DD
100
AcDbEntity
  8
0
100
AcDbPolyline
 62
7
  6
CONTINUOUS
 90
13
 70
0
 10
-2.7140928926
 20
-4.9283134704
 10
-2.7170677793
 20
-4.894899823
 10
-2.7232568225
 20
-4.8621019166
 10
-2.7321346461
 20
-4.8310999307
 10
-2.7435297097
 20
-4.8023516551
 10
-2.7576135539
 20
-4.7753992999
 10
-2.7743754243
 20
-4.7500496744
 10
-2.7937450888
 20
-4.726354167
 10
-2.8157927797
 20
-4.7042613893
 10
-2.8407184393
 20
-4.6834239859
 10
-2.8685887152
 20
-4.6637261719
 10
-2.8993369599
 20
-4.6452837322
 10
-2.9329631734
 20
-4.6280966668
  0
LINE
  5
4DE
100
AcDbEntity
  8
0
100
AcDbLine
 62
7
  6
CONTINUOUS
 10
-1.3317893518
 20
7.0114796218
 11
-1.2326543518
 21
5.8783536218
  0
LINE
  5
4DF
100
AcDbEntity
  8
0
100
AcDbLine
 62
7
  6
CONTINUOUS
 10
-1.5855813518
 20
9.9123316218
 11
-1.3488023518
 21
7.2059386218
  0
LINE
  5
4E0
100
AcDbEntity
  8
0
100
AcDbLine
 62
7
  6
CONTINUOUS
 10
-1.6741863518
 20
10.9250816218
 11
-1.6058563518
 21
10.1440776218
  0
LINE
  5
4E1
100
AcDbEntity
  8
0
100
AcDbLine
 62
7
  6
CONTINUOUS
 10
-1.7230141814
 20
11.4831872127
 11
-1.7003503518
 21
11.2241476218
  0
LINE
  5
4E2
100
AcDbEntity
  8
0
100
AcDbLine
 62
7
  6
CONTINUOUS
 10
-1.6252983518
 20
11.2241476218
 11
-1.6437273162
 21
11.4347985328
  0
LINE
  5
4E3
100
AcDbEntity
  8
0
100
AcDbLine
 62
7
  6
CONTINUOUS
 10
-1.5236093518
 20
10.0618296218
 11
-1.5991333518
 21
10.9250816218
  0
LINE
  5
4E4
100
AcDbEntity
  8
0
100
AcDbLine
 62
7
  6
CONTINUOUS
 10
-1.2797893518
 20
7.2749526218
 11
-1.5033343518
 21
9.8300836218
  0
LINE
  5
4E5
100
AcDbEntity
  8
0
100
AcDbLine
 62
7
  6
CONTINUOUS
 10
-1.1641433518
 20
5.9531196218
 11
-1.2627763518
 21
7.0804946218
  0
LWPOLYLINE
  5
4E6
100
AcDbEntity
  8
0
100
AcDbPolyline
 62
7
  6
CONTINUOUS
 90
37
 70
0
 10
0.9246987952
 20
-8.6614457831
 10
0.9282333377
 20
-8.7058330178
 10
0.9351208448
 20
-8.7484073459
 10
0.9453613162
 20
-8.7891687674
 10
0.9591769709
 20
-8.8284145976
 10
0.97634559
 20
-8.8658475212
 10
0.9962005172
 20
-8.9005755926
 10
1.0184574755
 20
-8.932221638
 10
1.0434007418
 20
-8.9611628312
 10
1.0712164908
 20
-8.9876387475
 10
1.1018691575
 20
-9.011807322
 10
1.1353943068
 20
-9.0335106196
 10
1.1720848081
 20
-9.0525144096
 10
1.212250216
 20
-9.0687964365
 10
1.2555809758
 20
-9.0823789559
 10
1.3014412932
 20
-9.0930945045
 10
1.3505961523
 20
-9.1009654094
 10
1.4022805689
 20
-9.1059693436
 10
1.453563796
 20
-9.1078718622
 10
1.5042467921
 20
-9.1066412279
 10
1.5545285987
 20
-9.1023091779
 10
1.6020755933
 20
-9.0947364798
 10
1.6461579466
 20
-9.083713785
 10
1.687505488
 20
-9.069450442
 10
1.725974083
 20
-9.0524352633
 10
1.761665331
 20
-9.0324861058
 10
1.7944776326
 20
-9.0097851126
 10
1.8239620549
 20
-8.985367525
 10
1.8499128163
 20
-8.9594787678
 10
1.8725356984
 20
-8.9318734162
 10
1.8919991134
 20
-8.9028504373
 10
1.9083696061
 20
-8.8723139622
 10
1.9215806318
 20
-8.8403598598
 10
1.9316009685
 20
-8.8075747044
 10
1.9384280315
 20
-8.7736717561
 10
1.9420644054
 20
-8.7389377547
 10
1.942486623
 20
-8.7048194945
  0
LWPOLYLINE
  5
4E7
100
AcDbEntity
  8
0
100
AcDbPolyline
 62
7
  6
CONTINUOUS
 90
40
 70
0
 10
0.7521455942
 20
-8.4172796098
 10
0.7481123728
 20
-8.3539348386
 10
0.7404804919
 20
-8.2938698195
 10
0.7292499516
 20
-8.2370845524
 10
0.7143584657
 20
-8.1836975774
 10
0.6958683203
 20
-8.1335903544
 10
0.6739663738
 20
-8.0864072638
 10
0.6484468199
 20
-8.0419364085
 10
0.6195154648
 20
-8.0003896856
 10
0.5879765857
 20
-7.9620471664
 10
0.5538860948
 20
-7.9268709379
 10
0.5171880799
 20
-7.8948989132
 10
0.4785190815
 20
-7.866524902
 10
0.4383212575
 20
-7.8419225633
 10
0.39615245
 20
-7.8209182383
 10
0.3513227266
 20
-7.8033847602
 10
0.3031451357
 20
-7.7891094388
 10
0.2523066289
 20
-7.7783049645
 10
0.2001781282
 20
-7.7714822416
 10
0.1460677365
 20
-7.768883797
 10
0.0906673509
 20
-7.7702671039
 10
0.0374235852
 20
-7.775415487
 10
-0.0125154386
 20
-7.7843133109
 10
-0.0602978425
 20
-7.796976211
 10
-0.1059213795
 20
-7.8132344174
 10
-0.1494345518
 20
-7.8331409433
 10
-0.1907888572
 20
-7.8566427756
 10
-0.2298365414
 20
-7.8834111056
 10
-0.2666843084
 20
-7.9133865455
 10
-0.3012254542
 20
-7.9466284832
 10
-0.3329921129
 20
-7.9829862728
 10
-0.3619673228
 20
-8.0223239107
 10
-0.3881680455
 20
-8.0647774005
 10
-0.4111773002
 20
-8.1106041077
 10
-0.4310142267
 20
-8.1599420533
 10
-0.4476596852
 20
-8.2126532164
 10
-0.4606392752
 20
-8.2685808989
 10
-0.4697948632
 20
-8.3276728682
 10
-0.4752845827
 20
-8.3899813569
 10
-0.4771084337
 20
-8.4555063651
  0
LWPOLYLINE
  5
4E8
100
AcDbEntity
  8
0
100
AcDbPolyline
 62
7
  6
CONTINUOUS
 90
40
 70
0
 10
-0.4771084337
 20
-8.4555063651
 10
-0.4740965612
 20
-8.5179221181
 10
-0.4670525838
 20
-8.5775462009
 10
-0.4559765017
 20
-8.6343786134
 10
-0.4406096994
 20
-8.6885116665
 10
-0.4212107923
 20
-8.7398530494
 10
-0.3985556265
 20
-8.7881258296
 10
-0.3726011093
 20
-8.8333934927
 10
-0.3433903334
 20
-8.8755925531
 10
-0.311828423
 20
-8.9142556225
 10
-0.2781834936
 20
-8.9491882361
 10
-0.2421874297
 20
-8.9805848587
 10
-0.2039410096
 20
-9.0085614959
 10
-0.1636443188
 20
-9.0331526937
 10
-0.1210972717
 20
-9.0543239062
 10
-0.07580039
 20
-9.0720875015
 10
-0.0269821122
 20
-9.0866888432
 10
0.0245860001
 20
-9.0978825677
 10
0.0770887416
 20
-9.1049449523
 10
0.130805402
 20
-9.1075849177
 10
0.1854566914
 20
-9.1060935432
 10
0.2383895347
 20
-9.1006203439
 10
0.2889476729
 20
-9.0910587932
 10
0.3377873651
 20
-9.0775154176
 10
0.3842243134
 20
-9.060459312
 10
0.4279742009
 20
-9.0400118057
 10
0.4693213446
 20
-9.0160515695
 10
0.5084343973
 20
-8.9886837101
 10
0.5456153894
 20
-8.9577353526
 10
0.5805622906
 20
-8.9233793718
 10
0.6125376625
 20
-8.8862394996
 10
0.6414064489
 20
-8.8466299288
 10
0.667303706
 20
-8.8042364666
 10
0.6898971654
 20
-8.7587402658
 10
0.709197109
 20
-8.710134609
 10
0.7251932548
 20
-8.6584262137
 10
0.7375224877
 20
-8.6033163855
 10
0.7460637694
 20
-8.5447055598
 10
0.7509381382
 20
-8.4826933012
 10
0.7521455942
 20
-8.4172796098
  0
LINE
  5
4E9
100
AcDbEntity
  8
DRAFT
100
AcDbLine
 62
7
  6
CONTINUOUS
 10
-3.3110927272
 20
-19.3
 11
-3.3110927272
 21
-29.388662933
  0
LINE
  5
4EA
100
AcDbEntity
  8
DRAFT
100
AcDbLine
 62
7
  6
CONTINUOUS
 10
-3.3110927272
 20
-34.011337067
 11
-3.3110927272
 21
-48.6
  0
LINE
  5
4EB
100
AcDbEntity
  8
DRAFT
100
AcDbLine
 62
7
  6
CONTINUOUS
 10
-3.2622185454
 20
-46.4
 11
-3.2622185454
 21
-41.6
  0
LINE
  5
4EC
100
AcDbEntity
  8
DRAFT
100
AcDbLine
 62
7
  6
CONTINUOUS
 10
-3.25
 20
-29.40503268
 11
-3.25
 21
-33.99496732
  0
LINE
  5
4ED
100
AcDbEntity
  8
DRAFT
100
AcDbLine
 62
7
  6
CONTINUOUS
 10
-3.2360359481
 20
-19.3
 11
-3.2360359481
 21
-41.6
  0
LINE
  5
4EE
100
AcDbEntity
  8
DRAFT
100
AcDbLine
 62
7
  6
CONTINUOUS
 10
-3.2360359481
 20
-46.4
 11
-3.2360359481
 21
-48.6
  0
LINE
  5
4EF
100
AcDbEntity
  8
IMPORT_IGES
100
AcDbLine
 62
250
  6
CONTINUOUS
 10
-3.2
 20
-40.36
 11
-3.2
 21
-39.85
  0
LINE
  5
4F0
100
AcDbEntity
  8
IMPORT_IGES
100
AcDbLine
 62
250
  6
CONTINUOUS
 10
-3.2
 20
-39.09
 11
-3.2
 21
-38.58
  0
LINE
  5
4F1
100
AcDbEntity
  8
IMPORT_IGES
100
AcDbLine
 62
250
  6
CONTINUOUS
 10
-3.2
 20
-37.82
 11
-3.2
 21
-37.31
  0
LINE
  5
4F2
100
AcDbEntity
  8
IMPORT_IGES
100
AcDbLine
 62
250
  6
CONTINUOUS
 10
-3.2
 20
-36.55
 11
-3.2
 21
-36.04
  0
LINE
  5
4F3
100
AcDbEntity
  8
0
100
AcDbLine
 62
7
  6
CONTINUOUS
 10
-3.1945783133
 20
-9.0843373494
 11
-3.1945783133
 21
-7.7921686747
  0
LINE
  5
4F4
100
AcDbEntity
  8
0
100
AcDbLine
 62
7
  6
CONTINUOUS
 10
-3.15
 20
-21.25
 11
-3.15
 21
-41.6
  0
LINE
  5
4F5
100
AcDbEntity
  8
0
100
AcDbLine
 62
7
  6
CONTINUOUS
 10
-3.0583867445
 20
-5.9078313253
 11
-3.0583867445
 21
-7.2
  0
LINE
  5
4F6
100
AcDbEntity
  8
0
100
AcDbLine
 62
7
  6
CONTINUOUS
 10
-3.0
 20
3.527372
 11
-3.0
 21
2.027372
  0
LINE
  5
4F7
100
AcDbEntity
  8
0
100
AcDbLine
 62
7
  6
CONTINUOUS
 10
-2.8860975879
 20
-7.2
 11
-2.8860975879
 21
-5.9078313253
  0
LINE
  5
4F8
100
AcDbEntity
  8
0
100
AcDbLine
 62
7
  6
CONTINUOUS
 10
-2.4710373469
 20
-4.0156626506
 11
-2.4710373469
 21
-5.3078313253
  0
LINE
  5
4F9
100
AcDbEntity
  8
0
100
AcDbLine
 62
7
  6
CONTINUOUS
 10
-2.2987481903
 20
-5.3078313253
 11
-2.2987481903
 21
-4.7753012048
  0
LINE
  5
4FA
100
AcDbEntity
  8
0
100
AcDbLine
 62
7
  6
CONTINUOUS
 10
-2.2987481903
 20
-4.6265060241
 11
-2.2987481903
 21
-4.1644578313
  0
LINE
  5
4FB
100
AcDbEntity
  8
0
100
AcDbLine
 62
7
  6
CONTINUOUS
 10
-2.2886333518
 20
11.2241476218
 11
-2.2886333518
 21
10.9250816218
  0
LINE
  5
4FC
100
AcDbEntity
  8
0
100
AcDbLine
 62
7
  6
CONTINUOUS
 10
-1.7144578313
 20
-7.7921686747
 11
-1.7144578313
 21
-9.0843373494
  0
LINE
  5
4FD
100
AcDbEntity
  8
0
100
AcDbLine
 62
7
  6
CONTINUOUS
 10
-1.5421686747
 20
-9.0843373494
 11
-1.5421686747
 21
-8.5126506024
  0
LINE
  5
4FE
100
AcDbEntity
  8
0
100
AcDbLine
 62
7
  6
CONTINUOUS
 10
-1.5421686747
 20
-8.3638554217
 11
-1.5421686747
 21
-7.9409638554
  0
LINE
  5
4FF
100
AcDbEntity
  8
0
100
AcDbLine
 62
7
  6
CONTINUOUS
 10
-1.5035873518
 20
11.8596616218
 11
-1.5035874973
 21
11.5669630403
  0
LINE
  5
500
100
AcDbEntity
  8
0
100
AcDbLine
 62
7
  6
CONTINUOUS
 10
-1.5035873518
 20
11.4877087237
 11
-1.5035873518
 21
11.2241476218
  0
LINE
  5
501
100
AcDbEntity
  8
0
100
AcDbLine
 62
7
  6
CONTINUOUS
 10
-1.4288202888
 20
11.5921344282
 11
-1.4288203518
 21
11.7848946218
  0
LINE
  5
502
100
AcDbEntity
  8
0
100
AcDbLine
 62
7
  6
CONTINUOUS
 10
-1.4288203518
 20
11.2989146218
 11
-1.4288204516
 21
11.5134249221
  0
LINE
  5
503
100
AcDbEntity
  8
0
100
AcDbLine
 62
7
  6
CONTINUOUS
 10
-1.2728445758
 20
-5.9078313253
 11
-1.2728445758
 21
-7.2
  0
LINE
  5
504
100
AcDbEntity
  8
0
100
AcDbLine
 62
7
  6
CONTINUOUS
 10
-1.2326543518
 20
5.8783536218
 11
-1.2326543518
 21
5.2802216218
  0
LINE
  5
505
100
AcDbEntity
  8
0
100
AcDbLine
 62
7
  6
CONTINUOUS
 10
-1.2045223518
 20
11.7848946218
 11
-1.2045224031
 21
11.6578278187
  0
LINE
  5
506
100
AcDbEntity
  8
0
100
AcDbLine
 62
7
  6
CONTINUOUS
 10
-1.2045222703
 20
11.580508316
 11
-1.2045223518
 21
11.2989146218
  0
LINE
  5
507
100
AcDbEntity
  8
0
100
AcDbLine
 62
7
  6
CONTINUOUS
 10
-1.1297553824
 20
11.6765457496
 11
-1.1297553518
 21
11.8596616218
  0
LINE
  5
508
100
AcDbEntity
  8
0
100
AcDbLine
 62
7
  6
CONTINUOUS
 10
-1.1297553518
 20
11.2241476218
 11
-1.1297553518
 21
11.599614753
  0
LINE
  5
509
100
AcDbEntity
  8
0
100
AcDbLine
 62
7
  6
CONTINUOUS
 10
-1.1205043518
 20
5.3923716218
 11
-1.1205043518
 21
5.8409696218
  0
LINE
  5
50A
100
AcDbEntity
  8
0
100
AcDbLine
 62
7
  6
CONTINUOUS
 10
-1.1005554192
 20
-7.0512048193
 11
-1.1005554192
 21
-6.6048192771
  0
LINE
  5
50B
100
AcDbEntity
  8
0
100
AcDbLine
 62
7
  6
CONTINUOUS
 10
-1.1005554192
 20
-6.4560240964
 11
-1.1005554192
 21
-6.056626506
  0
LINE
  5
50C
100
AcDbEntity
  8
0
100
AcDbLine
 62
7
  6
CONTINUOUS
 10
-0.8962063518
 20
5.8409696218
 11
-0.8962063518
 21
5.3923716218
  0
LINE
  5
50D
100
AcDbEntity
  8
0
100
AcDbLine
 62
7
  6
CONTINUOUS
 10
-0.7840563518
 20
5.2802216218
 11
-0.7840563518
 21
5.8783536218
  0
LINE
  5
50E
100
AcDbEntity
  8
0
100
AcDbLine
 62
7
  6
CONTINUOUS
 10
-0.4942423518
 20
9.8035866218
 11
-0.4942423518
 21
9.4297546218
  0
LINE
  5
50F
100
AcDbEntity
  8
0
100
AcDbLine
 62
7
  6
CONTINUOUS
 10
-0.4194753518
 20
9.5045216218
 11
-0.4194753518
 21
9.7288216218
  0
LINE
  5
510
100
AcDbEntity
  8
0
100
AcDbLine
 62
7
  6
CONTINUOUS
 10
-0.3957361421
 20
-6.6048192771
 11
-0.3957361421
 21
-6.4560240964
  0
LINE
  5
511
100
AcDbEntity
  8
0
100
AcDbLine
 62
7
  6
CONTINUOUS
 10
-0.3487481903
 20
-6.056626506
 11
-0.3487481903
 21
-5.9078313253
  0
LINE
  5
512
100
AcDbEntity
  8
0
100
AcDbLine
 62
7
  6
CONTINUOUS
 10
-0.3447083474
 20
11.7079054933
 11
-0.3447083518
 21
11.5232136218
  0
LINE
  5
513
100
AcDbEntity
  8
0
100
AcDbLine
 62
7
  6
CONTINUOUS
 10
-0.3447083518
 20
11.9718116218
 11
-0.3447083474
 21
11.7827134904
  0
LINE
  5
514
100
AcDbEntity
  8
0
100
AcDbLine
 62
7
  6
CONTINUOUS
 10
-0.3174228891
 20
-7.2
 11
-0.3174228891
 21
-7.0512048193
  0
LINE
  5
515
100
AcDbEntity
  8
0
100
AcDbLine
 62
7
  6
CONTINUOUS
 10
-0.2699423518
 20
11.5979796218
 11
-0.269942344
 21
11.7097200884
  0
LINE
  5
516
100
AcDbEntity
  8
0
100
AcDbLine
 62
7
  6
CONTINUOUS
 10
-0.2699423501
 20
11.7844945037
 11
-0.2699423518
 21
11.8970446218
  0
LINE
  5
517
100
AcDbEntity
  8
0
100
AcDbLine
 62
7
  6
CONTINUOUS
 10
-0.0746518047
 20
-5.9078313253
 11
-0.0746518047
 21
-7.2
  0
LINE
  5
518
100
AcDbEntity
  8
0
100
AcDbLine
 62
7
  6
CONTINUOUS
 10
0.0976373519
 20
-7.2
 11
0.0976373519
 21
-6.2089701907
  0
LWPOLYLINE
  5
519
100
AcDbEntity
  8
0
100
AcDbPolyline
 62
7
  6
CONTINUOUS
 90
37
 70
0
 10
-0.3048192771
 20
-8.4575865927
 10
-0.304034511
 20
-8.4040204644
 10
-0.300519771
 20
-8.352921938
 10
-0.294275057
 20
-8.3042910135
 10
-0.2853045688
 20
-8.2578829486
 10
-0.2736041066
 20
-8.2139424856
 10
-0.2591610715
 20
-8.1732038513
 10
-0.2419160408
 20
-8.1360317138
 10
-0.2219284371
 20
-8.102061405
 10
-0.1993639295
 20
-8.0709331472
 10
-0.1743345949
 20
-8.0426081514
 10
-0.1467283564
 20
-8.0171252067
 10
-0.1163746524
 20
-7.9942409023
 10
-0.0829039326
 20
-7.9736165768
 10
-0.0466857473
 20
-7.9555908918
 10
-0.0086581862
 20
-7.9409364208
 10
0.0313642602
 20
-7.9297649064
 10
0.0731960823
 20
-7.9219646061
 10
0.1153426618
 20
-7.917972866
 10
0.1580703423
 20
-7.9180894055
 10
0.2011127801
 20
-7.9220145051
 10
0.2421763255
 20
-7.9292863522
 10
0.2805486766
 20
-7.9398454638
 10
0.3169421353
 20
-7.9537513228
 10
0.351199957
 20
-7.9707205652
 10
0.3831793402
 20
-7.9905566466
 10
0.4130230864
 20
-8.0134561115
 10
0.4410028563
 20
-8.0397252293
 10
0.4675363688
 20
-8.0695463036
 10
0.4922059049
 20
-8.1027370309
 10
0.5140299681
 20
-8.1390567701
 10
0.5328051881
 20
-8.1784706559
 10
0.5487349352
 20
-8.2210135537
 10
0.5614478239
 20
-8.2665494189
 10
0.5708200591
 20
-8.3150329034
 10
0.5769754359
 20
-8.3665093553
 10
0.5799139543
 20
-8.4209787747
  0
LWPOLYLINE
  5
51A
100
AcDbEntity
  8
0
100
AcDbPolyline
 62
7
  6
CONTINUOUS
 90
38
 70
0
 10
-1.6644108409
 20
-6.746517211
 10
-1.6757258383
 20
-6.7891576098
 10
-1.6892154178
 20
-6.8288211444
 10
-1.7048795795
 20
-6.8655078147
 10
-1.7228296008
 20
-6.8992812228
 10
-1.7429542042
 20
-6.9300777666
 10
-1.7649195576
 20
-6.9577066399
 10
-1.788446249
 20
-6.9819310008
 10
-1.8138136904
 20
-7.0029876912
 10
-1.8415262862
 20
-7.0213964308
 10
-1.8717521379
 20
-7.0374293898
 10
-1.904323144
 20
-7.0508143981
 10
-1.939239405
 20
-7.0612546656
 10
-1.9774045478
 20
-7.068840307
 10
-2.0179149455
 20
-7.0734812076
 10
-2.0580598177
 20
-7.074610234
 10
-2.0975926707
 20
-7.0718394708
 10
-2.1367599981
 20
-7.0655568334
 10
-2.1735905015
 20
-7.0563589337
 10
-2.2072005001
 20
-7.0444986374
 10
-2.2384736746
 20
-7.0297230787
 10
-2.2680897687
 20
-7.011870273
 10
-2.2962630208
 20
-6.9910407268
 10
-2.3227791925
 20
-6.9671339334
 10
-2.3476753124
 20
-6.9396863887
 10
-2.3713778803
 20
-6.908361325
 10
-2.3934603963
 20
-6.8734955099
 10
-2.4126803895
 20
-6.8356357412
 10
-2.428702905
 20
-6.7948429237
 10
-2.4418628976
 20
-6.7510561528
 10
-2.4519227611
 20
-6.7046395123
 10
-2.4586464714
 20
-6.6547181592
 10
-2.4622700525
 20
-6.6021669367
 10
-2.4632639702
 20
-6.5499744583
 10
-2.4618606028
 20
-6.49837423
 10
-2.457827572
 20
-6.4471327459
 10
-2.4509382087
 20
-6.3985381023
 10
-2.4410008388
 20
-6.3532415196
  0
LWPOLYLINE
  5
51B
100
AcDbEntity
  8
0
100
AcDbPolyline
 62
7
  6
CONTINUOUS
 90
30
 70
0
 10
-2.4410008388
 20
-6.3532415196
 10
-2.4282071364
 20
-6.3105917775
 10
-2.4129054552
 20
-6.2709233112
 10
-2.3949495909
 20
-6.2342442836
 10
-2.3744857477
 20
-6.2005465318
 10
-2.3523008924
 20
-6.1701400029
 10
-2.3288484905
 20
-6.1432945579
 10
-2.3036750764
 20
-6.1197403356
 10
-2.2762072204
 20
-6.0989777
 10
-2.246130328
 20
-6.0807790661
 10
-2.2137589937
 20
-6.0653720188
 10
-2.1794635719
 20
-6.0529396769
 10
-2.1425428044
 20
-6.0435699386
 10
-2.1036979493
 20
-6.0371749057
 10
-2.065403136
 20
-6.0336740025
 10
-2.0279751292
 20
-6.0331155912
 10
-1.9910971641
 20
-6.0354513095
 10
-1.9562930757
 20
-6.0404554944
 10
-1.9240696474
 20
-6.0480963694
 10
-1.8939200959
 20
-6.0584057109
 10
-1.8658479057
 20
-6.0712531858
 10
-1.8399625255
 20
-6.0865726982
 10
-1.8161545067
 20
-6.1044303438
 10
-1.7940989874
 20
-6.1248940774
 10
-1.7737685135
 20
-6.1479941792
 10
-1.7551905391
 20
-6.1737003689
 10
-1.7381225647
 20
-6.2019897607
 10
-1.7224837571
 20
-6.2328547259
 10
-1.7083549496
 20
-6.2663028932
 10
-1.6957361421
 20
-6.3023342627
  0
LWPOLYLINE
  5
51C
100
AcDbEntity
  8
0
100
AcDbPolyline
 62
7
  6
CONTINUOUS
 90
3
 70
0
 10
-3.7866542406
 20
-8.8276062285
 10
-3.7943399722
 20
-8.8504384383
 10
-3.8093372896
 20
-8.8958960769
  0
LINE
  5
51D
100
AcDbEntity
  8
0
100
AcDbLine
 62
7
  6
CONTINUOUS
 10
-3.7708756638
 20
-8.7817308086
 11
-3.7866542406
 21
-8.8276062285
  0
LINE
  5
51E
100
AcDbEntity
  8
0
100
AcDbLine
 62
7
  6
CONTINUOUS
 10
-2.8813253012
 20
-9.0843373494
 11
-2.745133613
 21
-8.6927710843
  0
LINE
  5
51F
100
AcDbEntity
  8
0
100
AcDbLine
 62
7
  6
CONTINUOUS
 10
-3.7466021127
 20
-8.7124429178
 11
-3.7708756638
 21
-8.7817308086
  0
LINE
  5
520
100
AcDbEntity
  8
0
100
AcDbLine
 62
7
  6
CONTINUOUS
 10
-3.7482774495
 20
-9.0843373494
 11
-3.3668674699
 21
-8.0036144578
  0
LWPOLYLINE
  5
521
100
AcDbEntity
  8
0
100
AcDbPolyline
 62
7
  6
CONTINUOUS
 90
5
 70
0
 10
-2.5612185102
 20
-8.1896266261
 10
-2.5372405277
 20
-8.1216767774
 10
-2.515587601
 20
-8.0549263388
 10
-2.4958447546
 20
-7.9894678146
 10
-2.4780119884
 20
-7.9253012048
  0
LINE
  5
522
100
AcDbEntity
  8
0
100
AcDbLine
 62
7
  6
CONTINUOUS
 10
-3.4187499552
 20
-7.7921686747
 11
-3.7466021127
 21
-8.7124429178
  0
LWPOLYLINE
  5
523
100
AcDbEntity
  8
0
100
AcDbPolyline
 62
7
  6
CONTINUOUS
 90
9
 70
0
 10
-3.7521176067
 20
-6.8679578114
 10
-3.760822385
 20
-6.8916656537
 10
-3.7692525181
 20
-6.9152876312
 10
-3.7774063836
 20
-6.9388272962
 10
-3.785285604
 20
-6.9622810963
 10
-3.7928950467
 20
-6.9856383747
 10
-3.8002363343
 20
-7.008895579
 10
-3.8073078441
 20
-7.0320562615
 10
-3.8141095763
 20
-7.0551204222
  0
LINE
  5
524
100
AcDbEntity
  8
0
100
AcDbLine
 62
7
  6
CONTINUOUS
 10
-2.6960654336
 20
-8.5518072289
 11
-2.6136597894
 21
-8.3296795796
  0
LINE
  5
525
100
AcDbEntity
  8
0
100
AcDbLine
 62
7
  6
CONTINUOUS
 10
-2.6136597894
 20
-8.3296795796
 11
-2.5612185102
 21
-8.1896266261
  0
LINE
  5
526
100
AcDbEntity
  8
0
100
AcDbLine
 62
7
  6
CONTINUOUS
 10
-3.3873024072
 20
-5.9078313253
 11
-3.7521176067
 21
-6.8679578114
  0
LINE
  5
527
100
AcDbEntity
  8
0
100
AcDbLine
 62
7
  6
CONTINUOUS
 10
-2.5719878921
 20
-7.7921686747
 11
-3.0631587922
 21
-9.0843373494
  0
LINE
  5
528
100
AcDbEntity
  8
0
100
AcDbLine
 62
7
  6
CONTINUOUS
 10
-3.7184205442
 20
-7.2
 11
-3.2030214702
 21
-5.9078313253
  0
LINE
  5
529
100
AcDbEntity
  8
RACCORDO
100
AcDbLine
 62
7
  6
CONTINUOUS
 10
-6.0
 20
-1.5
 11
-5.953993641
 21
-1.453993641
  0
LINE
  5
52A
100
AcDbEntity
  8
0
100
AcDbLine
 62
7
  6
CONTINUOUS
 10
3.3562256482
 20
4.9705236218
 11
3.4619616482
 21
5.0762596218
  0
LINE
  5
52B
100
AcDbEntity
  8
RACCORDO
100
AcDbLine
 62
7
  6
CONTINUOUS
 10
4.5
 20
-1.5
 11
4.8530095961
 21
-1.453993641
  0
LINE
  5
52C
100
AcDbEntity
  8
DRAFT
100
AcDbLine
 62
7
  6
CONTINUOUS
 10
-6.0
 20
-1.5
 11
-4.5
 21
-1.5
  0
LINE
  5
52D
100
AcDbEntity
  8
DRAFT
100
AcDbLine
 62
7
  6
CONTINUOUS
 10
4.5
 20
-1.5
 11
6.0
 21
-1.5
  0
LINE
  5
52E
100
AcDbEntity
  8
RACCORDO
100
AcDbLine
 62
250
  6
CONTINUOUS
 10
-5.953993641
 20
-1.453993641
 11
-4.8530095961
 21
-1.453993641
  0
LINE
  5
52F
100
AcDbEntity
  8
RACCORDO
100
AcDbLine
 62
250
  6
CONTINUOUS
 10
4.8530095961
 20
-1.453993641
 11
5.953993641
 21
-1.453993641
  0
LINE
  5
530
100
AcDbEntity
  8
RACCORDO
100
AcDbLine
 62
250
  6
CONTINUOUS
 10
-5.9371426149
 20
-0.9542982275
 11
-4.9823085464
 21
-0.9542982275
  0
LINE
  5
531
100
AcDbEntity
  8
RACCORDO
100
AcDbLine
 62
250
  6
CONTINUOUS
 10
4.9823085464
 20
-0.9542982275
 11
5.9371426149
 21
-0.9542982275
  0
LINE
  5
532
100
AcDbEntity
  8
RACCORDO
100
AcDbLine
 62
7
  6
CONTINUOUS
 10
-4.5
 20
-1.5
 11
-4.8530095961
 21
-1.453993641
  0
LINE
  5
533
100
AcDbEntity
  8
RACCORDO
100
AcDbLine
 62
7
  6
CONTINUOUS
 10
-6.0
 20
1.5
 11
-5.953993641
 21
1.453993641
  0
LINE
  5
534
100
AcDbEntity
  8
0
100
AcDbLine
 62
7
  6
CONTINUOUS
 10
0.0976373519
 20
-6.2089701907
 11
0.7445783133
 21
-7.2
  0
LINE
  5
535
100
AcDbEntity
  8
0
100
AcDbLine
 62
7
  6
CONTINUOUS
 10
0.7554686772
 20
-6.8988610151
 11
0.1085278353
 21
-5.9078313253
  0
LINE
  5
536
100
AcDbEntity
  8
0
100
AcDbLine
 62
7
  6
CONTINUOUS
 10
-0.2282191526
 20
-5.3078313253
 11
-0.7458208205
 21
-4.0156626506
  0
LINE
  5
537
100
AcDbEntity
  8
0
100
AcDbLine
 62
7
  6
CONTINUOUS
 10
3.3663591606
 20
-7.2
 11
2.8487574928
 21
-5.9078313253
  0
LINE
  5
538
100
AcDbEntity
  8
0
100
AcDbLine
 62
7
  6
CONTINUOUS
 10
-0.6652522018
 20
-4.6290957293
 11
-0.6075489047
 21
-4.7753012048
  0
LINE
  5
539
100
AcDbEntity
  8
0
100
AcDbLine
 62
7
  6
CONTINUOUS
 10
2.9293261114
 20
-6.521264404
 11
2.9870294085
 21
-6.6674698795
  0
LINE
  5
53A
100
AcDbEntity
  8
0
100
AcDbLine
 62
7
  6
CONTINUOUS
 10
-0.5555440531
 20
-4.9162650602
 11
-0.4113987927
 21
-5.3078313253
  0
LINE
  5
53B
100
AcDbEntity
  8
0
100
AcDbLine
 62
7
  6
CONTINUOUS
 10
3.0390342602
 20
-6.8084337349
 11
3.1831795206
 21
-7.2
  0
LWPOLYLINE
  5
53C
100
AcDbEntity
  8
0
100
AcDbPolyline
 62
7
  6
CONTINUOUS
 90
6
 70
0
 10
-0.8382059619
 20
-4.1487951807
 10
-0.8178272861
 20
-4.2147227926
 10
-0.7959252828
 20
-4.2815303221
 10
-0.772499952
 20
-4.3492177691
 10
-0.7472701525
 20
-4.4177303008
 10
-0.6652522018
 20
-4.6290957293
  0
LWPOLYLINE
  5
53D
100
AcDbEntity
  8
0
100
AcDbPolyline
 62
7
  6
CONTINUOUS
 90
17
 70
0
 10
0.9737361324
 20
-8.1595600215
 10
0.9786878591
 20
-8.190993848
 10
0.986532148
 20
-8.2208667117
 10
0.9973807319
 20
-8.2495566114
 10
1.0113362488
 20
-8.2768592507
 10
1.0283955535
 20
-8.3027454154
 10
1.0485617913
 20
-8.3272443197
 10
1.071947036
 20
-8.3502393099
 10
1.0987758686
 20
-8.3717829181
 10
1.1288237082
 20
-8.3918226122
 10
1.1615288863
 20
-8.4100841424
 10
1.196991858
 20
-8.4261773439
 10
1.2351121682
 20
-8.4404923816
 10
1.2750267825
 20
-8.4539254997
 10
1.3164480228
 20
-8.4667754465
 10
1.3596635671
 20
-8.4787434738
 10
1.4046734156
 20
-8.4898295815
  0
LWPOLYLINE
  5
53E
100
AcDbEntity
  8
0
100
AcDbPolyline
 62
7
  6
CONTINUOUS
 90
36
 70
0
 10
1.9114457831
 20
-8.1524096386
 10
1.9075659122
 20
-8.1120148832
 10
1.9007160648
 20
-8.0738592942
 10
1.8908962411
 20
-8.0379428715
 10
1.8781284082
 20
-8.0043514609
 10
1.862390599
 20
-7.9729992167
 10
1.8436169115
 20
-7.9436286015
 10
1.8219121251
 20
-7.9161637468
 10
1.7971714606
 20
-7.8906805212
 10
1.7690146782
 20
-7.8671489935
 10
1.7371680507
 20
-7.8452394088
 10
1.7019053054
 20
-7.8252815219
 10
1.6636673848
 20
-7.8082346659
 10
1.6223525273
 20
-7.7943795273
 10
1.5780624945
 20
-7.7834354194
 10
1.5315435139
 20
-7.7755196155
 10
1.4818120911
 20
-7.7705917718
 10
1.4298517205
 20
-7.768692232
 10
1.3793591119
 20
-7.7700593005
 10
1.3310486967
 20
-7.7748416866
 10
1.2842060435
 20
-7.782890681
 10
1.2403845682
 20
-7.7939984597
 10
1.199968235
 20
-7.8084189532
 10
1.1625730795
 20
-7.8258982311
 10
1.1286006251
 20
-7.8454666788
 10
1.0982160304
 20
-7.8670026862
 10
1.0712541366
 20
-7.8906278634
 10
1.047620991
 20
-7.9157374265
 10
1.0273763793
 20
-7.9421992467
 10
1.0104605158
 20
-7.9701454529
 10
0.9966000896
 20
-7.9993676479
 10
0.9856435245
 20
-8.0301699195
 10
0.9777423969
 20
-8.0622481799
 10
0.9730781247
 20
-8.094481769
 10
0.9717887008
 20
-8.1269432309
 10
0.9737361324
 20
-8.1595600215
  0
LWPOLYLINE
  5
53F
100
AcDbEntity
  8
0
100
AcDbPolyline
 62
7
  6
CONTINUOUS
 90
13
 70
0
 10
1.942486623
 20
-8.7048194945
 10
1.9395117363
 20
-8.6714058471
 10
1.9333226931
 20
-8.6386079407
 10
1.9244448695
 20
-8.6076059548
 10
1.9130498058
 20
-8.5788576792
 10
1.8989659617
 20
-8.551905324
 10
1.8822040913
 20
-8.5265556985
 10
1.8628344268
 20
-8.5028601911
 10
1.8407867359
 20
-8.4807674134
 10
1.8158610763
 20
-8.45993001
 10
1.7879908004
 20
-8.440232196
 10
1.7572425557
 20
-8.4217897563
 10
1.7236163422
 20
-8.4046026909
  0
LINE
  5
540
100
AcDbEntity
  8
DRAFT
100
AcDbLine
 62
7
  6
CONTINUOUS
 10
4.3776508009
 20
-15.6
 11
4.3790539221
 21
-15.9
  0
LINE
  5
541
100
AcDbEntity
  8
0
100
AcDbLine
 62
7
  6
CONTINUOUS
 10
0.5898697596
 20
11.6253091434
 11
0.5898696482
 21
11.5979796218
  0
LINE
  5
542
100
AcDbEntity
  8
0
100
AcDbLine
 62
7
  6
CONTINUOUS
 10
0.5898696482
 20
11.8970446218
 11
0.5898696724
 21
11.7017267374
  0
LINE
  5
543
100
AcDbEntity
  8
0
100
AcDbLine
 62
7
  6
CONTINUOUS
 10
0.6646366482
 20
11.5232136218
 11
0.664636655
 21
11.6085716505
  0
LINE
  5
544
100
AcDbEntity
  8
0
100
AcDbLine
 62
7
  6
CONTINUOUS
 10
0.6646366902
 20
11.6853238044
 11
0.6646366482
 21
11.9718116218
  0
LINE
  5
545
100
AcDbEntity
  8
0
100
AcDbLine
 62
7
  6
CONTINUOUS
 10
0.7394026482
 20
9.7288216218
 11
0.7394026482
 21
9.5045216218
  0
LINE
  5
546
100
AcDbEntity
  8
0
100
AcDbLine
 62
7
  6
CONTINUOUS
 10
0.7554686772
 20
-5.9078313253
 11
0.7554686772
 21
-6.8988610151
  0
LINE
  5
547
100
AcDbEntity
  8
0
100
AcDbLine
 62
7
  6
CONTINUOUS
 10
0.8141696482
 20
9.4297546218
 11
0.8141696482
 21
9.8035866218
  0
LINE
  5
548
100
AcDbEntity
  8
0
100
AcDbLine
 62
7
  6
CONTINUOUS
 10
0.9277578338
 20
-7.2
 11
0.9277578338
 21
-5.9078313253
  0
LINE
  5
549
100
AcDbEntity
  8
0
100
AcDbLine
 62
7
  6
CONTINUOUS
 10
1.1078783157
 20
-7.0449641367
 11
1.1078783157
 21
-7.2
  0
LINE
  5
54A
100
AcDbEntity
  8
0
100
AcDbLine
 62
7
  6
CONTINUOUS
 10
1.1861915687
 20
-5.9078313253
 11
1.1861915687
 21
-6.056626506
  0
LINE
  5
54B
100
AcDbEntity
  8
0
100
AcDbLine
 62
7
  6
CONTINUOUS
 10
1.3001506482
 20
10.6260166218
 11
1.3001506482
 21
9.8548926218
  0
LINE
  5
54C
100
AcDbEntity
  8
0
100
AcDbLine
 62
7
  6
CONTINUOUS
 10
1.3749176482
 20
9.9296586218
 11
1.3749176482
 21
10.5512496218
  0
LINE
  5
54D
100
AcDbEntity
  8
0
100
AcDbLine
 62
7
  6
CONTINUOUS
 10
1.8608976482
 20
10.9250816218
 11
1.8608977694
 21
11.0191634404
  0
LINE
  5
54E
100
AcDbEntity
  8
0
100
AcDbLine
 62
7
  6
CONTINUOUS
 10
2.0837349398
 20
-7.7921686747
 11
2.0837349398
 21
-7.9409638554
  0
LINE
  5
54F
100
AcDbEntity
  8
0
100
AcDbLine
 62
7
  6
CONTINUOUS
 10
2.102456629
 20
-6.056626506
 11
2.102456629
 21
-5.9078313253
  0
LINE
  5
550
100
AcDbEntity
  8
0
100
AcDbLine
 62
7
  6
CONTINUOUS
 10
2.1225806482
 20
10.4658516218
 11
2.1225806482
 21
9.8783536218
  0
LINE
  5
551
100
AcDbEntity
  8
0
100
AcDbLine
 62
7
  6
CONTINUOUS
 10
2.1337819302
 20
-7.2
 11
2.1337819302
 21
-7.0512048193
  0
LINE
  5
552
100
AcDbEntity
  8
0
100
AcDbLine
 62
7
  6
CONTINUOUS
 10
2.1973476482
 20
9.8035866218
 11
2.1973476482
 21
10.5406166218
  0
LINE
  5
553
100
AcDbEntity
  8
0
100
AcDbLine
 62
7
  6
CONTINUOUS
 10
2.506626506
 20
-7.9409638554
 11
2.506626506
 21
-9.0843373494
  0
LINE
  5
554
100
AcDbEntity
  8
0
100
AcDbLine
 62
7
  6
CONTINUOUS
 10
2.6789156627
 20
-9.0843373494
 11
2.6789156627
 21
-7.9409638554
  0
LINE
  5
555
100
AcDbEntity
  8
0
100
AcDbLine
 62
7
  6
CONTINUOUS
 10
3.0
 20
2.027372
 11
3.0
 21
3.527372
  0
LINE
  5
556
100
AcDbEntity
  8
0
100
AcDbLine
 62
7
  6
CONTINUOUS
 10
3.1018072289
 20
-7.9409638554
 11
3.1018072289
 21
-7.7921686747
  0
LINE
  5
557
100
AcDbEntity
  8
0
100
AcDbLine
 62
7
  6
CONTINUOUS
 10
3.15
 20
-41.6
 11
3.15
 21
-21.25
  0
LINE
  5
558
100
AcDbEntity
  8
DRAFT
100
AcDbLine
 62
7
  6
CONTINUOUS
 10
3.2360359481
 20
-48.6
 11
3.2360359481
 21
-46.4
  0
LINE
  5
559
100
AcDbEntity
  8
DRAFT
100
AcDbLine
 62
7
  6
CONTINUOUS
 10
3.2360359481
 20
-41.6
 11
3.2360359481
 21
-19.3
  0
LINE
  5
55A
100
AcDbEntity
  8
DRAFT
100
AcDbLine
 62
7
  6
CONTINUOUS
 10
3.25
 20
-33.99496732
 11
3.25
 21
-29.40503268
  0
LINE
  5
55B
100
AcDbEntity
  8
DRAFT
100
AcDbLine
 62
7
  6
CONTINUOUS
 10
3.2622185454
 20
-46.4
 11
3.2622185454
 21
-41.6
  0
LINE
  5
55C
100
AcDbEntity
  8
0
100
AcDbLine
 62
7
  6
CONTINUOUS
 10
3.2975903614
 20
-7.7921686747
 11
3.2975903614
 21
-9.0843373494
  0
LINE
  5
55D
100
AcDbEntity
  8
DRAFT
100
AcDbLine
 62
7
  6
CONTINUOUS
 10
3.3110927272
 20
-48.6
 11
3.3110927272
 21
-34.011337067
  0
LINE
  5
55E
100
AcDbEntity
  8
DRAFT
100
AcDbLine
 62
7
  6
CONTINUOUS
 10
3.3110927272
 20
-29.388662933
 11
3.3110927272
 21
-19.3
  0
LINE
  5
55F
100
AcDbEntity
  8
0
100
AcDbLine
 62
7
  6
CONTINUOUS
 10
3.4698795181
 20
-9.0843373494
 11
3.4698795181
 21
-7.7921686747
  0
LINE
  5
560
100
AcDbEntity
  8
0
100
AcDbLine
 62
7
  6
CONTINUOUS
 10
3.65
 20
-21.25
 11
3.65
 21
-43.7
  0
LINE
  5
561
100
AcDbEntity
  8
0
100
AcDbLine
 62
7
  6
CONTINUOUS
 10
4.0681192796
 20
-6.2249999403
 11
4.0681192796
 21
-6.3786896545
  0
LINE
  5
562
100
AcDbEntity
  8
RACCORDO
100
AcDbLine
 62
7
  6
CONTINUOUS
 10
4.3249432208
 20
-17.6
 11
4.3249432208
 21
-21.25
  0
LINE
  5
563
100
AcDbEntity
  8
RACCORDO
100
AcDbLine
 62
7
  6
CONTINUOUS
 10
4.3249432208
 20
-43.7
 11
4.3249432208
 21
-49.5250193732
  0
LWPOLYLINE
  5
564
100
AcDbEntity
  8
0
100
AcDbPolyline
 62
7
  6
CONTINUOUS
 90
37
 70
0
 10
0.5799139543
 20
-8.4209787747
 10
0.579454572
 20
-8.476526681
 10
0.5757285169
 20
-8.5292725874
 10
0.5687357891
 20
-8.579216494
 10
0.5583430273
 20
-8.6265065094
 10
0.5446835929
 20
-8.670994525
 10
0.5281575692
 20
-8.7122362142
 10
0.5087272794
 20
-8.7500130413
 10
0.4864304004
 20
-8.784543542
 10
0.4617800469
 20
-8.8160389977
 10
0.4347708124
 20
-8.8446119246
 10
0.4054081034
 20
-8.8701498066
 10
0.3742212537
 20
-8.8925263768
 10
0.3414608459
 20
-8.9117445779
 10
0.3068762974
 20
-8.9278014672
 10
0.2702451951
 20
-8.9405619502
 10
0.2308906095
 20
-8.9500535219
 10
0.18948947
 20
-8.9562486873
 10
0.1478501516
 20
-8.9589298665
 10
0.1058718987
 20
-8.9579968627
 10
0.0636554668
 20
-8.9535498727
 10
0.0233114977
 20
-8.945671908
 10
-0.0144293764
 20
-8.9343317045
 10
-0.0502977878
 20
-8.9195605263
 10
-0.0843749917
 20
-8.901535177
 10
-0.1168570394
 20
-8.8802322026
 10
-0.1475478796
 20
-8.855675057
 10
-0.1759406128
 20
-8.828110905
 10
-0.2021032581
 20
-8.7974881866
 10
-0.2259677965
 20
-8.7638584617
 10
-0.2468232721
 20
-8.7276235753
 10
-0.2645262038
 20
-8.6888701777
 10
-0.2792200728
 20
-8.6475116185
 10
-0.2906243659
 20
-8.603689791
 10
-0.2986455788
 20
-8.5574519932
 10
-0.3033772159
 20
-8.508750927
 10
-0.3048192771
 20
-8.4575865927
  0
LINE
  5
565
100
AcDbEntity
  8
IMPORT_IGES
100
AcDbLine
 62
7
  6
CONTINUOUS
 10
3.1765358811
 20
-21.9225274967
 11
3.1757739444
 21
-21.9559672144
  0
LINE
  5
566
100
AcDbEntity
  8
IMPORT_IGES
100
AcDbLine
 62
7
  6
CONTINUOUS
 10
3.1769466907
 20
-21.9082075986
 11
3.1765358811
 21
-21.9225274967
  0
LINE
  5
567
100
AcDbEntity
  8
IMPORT_IGES
100
AcDbLine
 62
7
  6
CONTINUOUS
 10
3.1757739444
 20
-21.9559672144
 11
3.1747217155
 21
-21.9928281251
  0
LWPOLYLINE
  5
568
100
AcDbEntity
  8
IMPORT_IGES
100
AcDbPolyline
 62
7
  6
CONTINUOUS
 90
5
 70
0
 10
3.1747217155
 20
-21.9928281251
 10
3.1734933671
 20
-22.0281910315
 10
3.1727487331
 20
-22.045306162
 10
3.1719092107
 20
-22.0620369245
 10
3.1709655377
 20
-22.0783889196
  0
LINE
  5
569
100
AcDbEntity
  8
0
100
AcDbLine
 62
7
  6
CONTINUOUS
 10
1.5514966482
 20
10.9250816218
 11
1.5253306482
 21
10.6260166218
  0
LINE
  5
56A
100
AcDbEntity
  8
0
100
AcDbLine
 62
7
  6
CONTINUOUS
 10
1.2176416482
 20
7.1091076218
 11
1.1702525824
 21
6.5674528691
  0
LINE
  5
56B
100
AcDbEntity
  8
0
100
AcDbLine
 62
7
  6
CONTINUOUS
 10
1.4527126482
 20
9.7959836218
 11
1.2346536482
 21
7.3035666218
  0
LINE
  5
56C
100
AcDbEntity
  8
0
100
AcDbLine
 62
7
  6
CONTINUOUS
 10
1.5187896482
 20
10.5512496218
 11
1.4729876482
 21
10.0277296218
  0
LINE
  5
56D
100
AcDbEntity
  8
0
100
AcDbLine
 62
7
  6
CONTINUOUS
 10
1.5552356482
 20
10.1099766218
 11
1.5938426482
 21
10.5512496218
  0
LINE
  5
56E
100
AcDbEntity
  8
0
100
AcDbLine
 62
7
  6
CONTINUOUS
 10
1.6003826482
 20
10.6260166218
 11
1.6265476482
 21
10.9250816218
  0
LINE
  5
56F
100
AcDbEntity
  8
0
100
AcDbLine
 62
7
  6
CONTINUOUS
 10
1.3036686482
 20
7.2345516218
 11
1.5284296482
 21
9.8035866218
  0
LINE
  5
570
100
AcDbEntity
  8
0
100
AcDbLine
 62
7
  6
CONTINUOUS
 10
1.2443615386
 20
6.5566660857
 11
1.2866556482
 21
7.0400946218
  0
LINE
  5
571
100
AcDbEntity
  8
0
100
AcDbLine
 62
7
  6
CONTINUOUS
 10
-1.2415192746
 20
-5.3078313253
 11
-1.1053275864
 21
-4.9162650602
  0
LWPOLYLINE
  5
572
100
AcDbEntity
  8
0
100
AcDbPolyline
 62
7
  6
CONTINUOUS
 90
5
 70
0
 10
-0.9214124836
 20
-4.413120602
 10
-0.8974345011
 20
-4.3451707533
 10
-0.8757815744
 20
-4.2784203147
 10
-0.856038728
 20
-4.2129617905
 10
-0.8382059619
 20
-4.1487951807
  0
LINE
  5
573
100
AcDbEntity
  8
0
100
AcDbLine
 62
7
  6
CONTINUOUS
 10
-1.056259407
 20
-4.7753012048
 11
-0.9738537628
 21
-4.5531735555
  0
LINE
  5
574
100
AcDbEntity
  8
0
100
AcDbLine
 62
7
  6
CONTINUOUS
 10
-0.9738537628
 20
-4.5531735555
 11
-0.9214124836
 21
-4.413120602
  0
LINE
  5
575
100
AcDbEntity
  8
0
100
AcDbLine
 62
7
  6
CONTINUOUS
 10
-0.9321818655
 20
-4.0156626506
 11
-1.4233527656
 21
-5.3078313253
  0
LINE
  5
576
100
AcDbEntity
  8
0
100
AcDbLine
 62
7
  6
CONTINUOUS
 10
-5.3828218436
 20
-9.7078313253
 11
-5.7720631485
 21
-10.3099868092
  0
LINE
  5
577
100
AcDbEntity
  8
0
100
AcDbLine
 62
7
  6
CONTINUOUS
 10
-5.6917921537
 20
-10.4526636737
 11
-5.1749246839
 21
-9.7078313253
  0
LINE
  5
578
100
AcDbEntity
  8
RACCORDO
100
AcDbLine
 62
7
  6
CONTINUOUS
 10
6.0
 20
1.5
 11
5.953993641
 21
1.453993641
  0
LINE
  5
579
100
AcDbEntity
  8
DRAFT
100
AcDbLine
 62
7
  6
CONTINUOUS
 10
-17.7952696104
 20
-23.8952696104
 11
-17.9
 21
-24.0
  0
LWPOLYLINE
  5
57A
100
AcDbEntity
  8
0
100
AcDbPolyline
 62
7
  6
CONTINUOUS
 90
11
 70
0
 10
-9.7794322467
 20
-7.823334625
 10
-9.8095924737
 20
-7.84006995
 10
-9.837240526
 20
-7.8590934426
 10
-9.8625540952
 20
-7.8807361706
 10
-9.8860181044
 20
-7.9054961706
 10
-9.9079643389
 20
-7.9335183664
 10
-9.9280610135
 20
-7.9646578342
 10
-9.9457976951
 20
-7.9989778387
 10
-9.9610042394
 20
-8.0364994682
 10
-9.9738507909
 20
-8.0772016344
 10
-9.9843373494
 20
-8.1210843373
  0
LWPOLYLINE
  5
57B
100
AcDbEntity
  8
0
100
AcDbPolyline
 62
7
  6
CONTINUOUS
 90
11
 70
0
 10
-5.7697936925
 20
-7.823334625
 10
-5.7999539195
 20
-7.84006995
 10
-5.8276019718
 20
-7.8590934426
 10
-5.852915541
 20
-7.8807361706
 10
-5.8763795502
 20
-7.9054961706
 10
-5.8983257847
 20
-7.9335183664
 10
-5.9184224592
 20
-7.9646578342
 10
-5.9361591409
 20
-7.9989778387
 10
-5.9513656852
 20
-8.0364994682
 10
-5.9642122367
 20
-8.0772016344
 10
-5.9746987952
 20
-8.1210843373
  0
LWPOLYLINE
  5
57C
100
AcDbEntity
  8
0
100
AcDbPolyline
 62
7
  6
CONTINUOUS
 90
33
 70
0
 10
-9.4023719506
 20
-8.3842902395
 10
-9.371645422
 20
-8.3678672798
 10
-9.3439619685
 20
-8.3500704956
 10
-9.3193215901
 20
-8.330899887
 10
-9.2978411946
 20
-8.3103947904
 10
-9.2794038741
 20
-8.2885158694
 10
-9.2636589059
 20
-8.2651451147
 10
-9.2504638905
 20
-8.2402230404
 10
-9.2399612272
 20
-8.2138091324
 10
-9.2322273918
 20
-8.1859638401
 10
-9.2271520935
 20
-8.1562549116
 10
-9.224845623
 20
-8.1251145986
 10
-9.2257153273
 20
-8.0939001058
 10
-9.2299196857
 20
-8.0627080294
 10
-9.2373002189
 20
-8.0314417731
 10
-9.2477888371
 20
-8.0011687528
 10
-9.2614188556
 20
-7.9720107455
 10
-9.278156959
 20
-7.9438459742
 10
-9.2978351112
 20
-7.9173765232
 10
-9.3205224854
 20
-7.8925782791
 10
-9.3461499084
 20
-7.8694753553
 10
-9.3743418245
 20
-7.8488421771
 10
-9.4050639016
 20
-7.8307170065
 10
-9.4383504717
 20
-7.8150615815
 10
-9.4739289755
 20
-7.8025355409
 10
-9.5125540779
 20
-7.7932179792
 10
-9.5534711138
 20
-7.787029802
 10
-9.594143529
 20
-7.7843933647
 10
-9.6344063754
 20
-7.7855952318
 10
-9.6744246009
 20
-7.7903488388
 10
-9.7121564946
 20
-7.7982168479
 10
-9.7469375366
 20
-7.8092185354
 10
-9.7794322467
 20
-7.823334625
  0
LINE
  5
57D
100
AcDbEntity
  8
RACCORDO
100
AcDbLine
 62
7
  6
CONTINUOUS
 10
-4.5
 20
1.5
 11
-4.8530095961
 21
1.453993641
  0
LINE
  5
57E
100
AcDbEntity
  8
RACCORDO
100
AcDbLine
 62
250
  6
CONTINUOUS
 10
5.9371426149
 20
0.9542982275
 11
4.9823085464
 21
0.9542982275
  0
LINE
  5
57F
100
AcDbEntity
  8
RACCORDO
100
AcDbLine
 62
250
  6
CONTINUOUS
 10
-4.9823085464
 20
0.9542982275
 11
-5.9371426149
 21
0.9542982275
  0
LINE
  5
580
100
AcDbEntity
  8
RACCORDO
100
AcDbLine
 62
250
  6
CONTINUOUS
 10
5.953993641
 20
1.453993641
 11
4.8530095961
 21
1.453993641
  0
LINE
  5
581
100
AcDbEntity
  8
RACCORDO
100
AcDbLine
 62
250
  6
CONTINUOUS
 10
-4.8530095961
 20
1.453993641
 11
-5.953993641
 21
1.453993641
  0
LINE
  5
582
100
AcDbEntity
  8
DRAFT
100
AcDbLine
 62
7
  6
CONTINUOUS
 10
6.0
 20
1.5
 11
4.5
 21
1.5
  0
LINE
  5
583
100
AcDbEntity
  8
DRAFT
100
AcDbLine
 62
7
  6
CONTINUOUS
 10
-4.5
 20
1.5
 11
-6.0
 21
1.5
  0
LINE
  5
584
100
AcDbEntity
  8
0
100
AcDbLine
 62
7
  6
CONTINUOUS
 10
-3.0
 20
2.027372
 11
3.0
 21
2.027372
  0
LINE
  5
585
100
AcDbEntity
  8
0
100
AcDbLine
 62
7
  6
CONTINUOUS
 10
3.0
 20
3.527372
 11
-3.0
 21
3.527372
  0
LINE
  5
586
100
AcDbEntity
  8
RACCORDO
100
AcDbLine
 62
7
  6
CONTINUOUS
 10
4.5
 20
1.5
 11
4.8530095961
 21
1.453993641
  0
LINE
  5
587
100
AcDbEntity
  8
0
100
AcDbLine
 62
7
  6
CONTINUOUS
 10
-3.4784823518
 20
5.0762596218
 11
-3.3727463518
 21
4.9705236218
  0
LINE
  5
588
100
AcDbEntity
  8
RACCORDO
100
AcDbLine
 62
7
  6
CONTINUOUS
 10
6.0
 20
-1.5
 11
5.953993641
 21
-1.453993641
  0
LINE
  5
589
100
AcDbEntity
  8
DRAFT
100
AcDbLine
 62
7
  6
CONTINUOUS
 10
-17.7952696104
 20
23.8952696104
 11
-17.9
 21
24.0
  0
LINE
  5
58A
100
AcDbEntity
  8
0
100
AcDbLine
 62
7
  6
CONTINUOUS
 10
6.1277579533
 20
-9.0843373494
 11
5.6101562855
 21
-7.7921686747
  0
LINE
  5
58B
100
AcDbEntity
  8
0
100
AcDbLine
 62
7
  6
CONTINUOUS
 10
5.6907249041
 20
-8.4056017534
 11
5.7484282012
 21
-8.5518072289
  0
LINE
  5
58C
100
AcDbEntity
  8
0
100
AcDbLine
 62
7
  6
CONTINUOUS
 10
6.654169877
 20
-7.7921686747
 11
7.1509695086
 21
-9.0843373494
  0
LINE
  5
58D
100
AcDbEntity
  8
0
100
AcDbLine
 62
7
  6
CONTINUOUS
 10
5.8004330529
 20
-8.6927710843
 11
5.9445783133
 21
-9.0843373494
  0
LWPOLYLINE
  5
58E
100
AcDbEntity
  8
0
100
AcDbPolyline
 62
7
  6
CONTINUOUS
 90
32
 70
0
 10
3.760326193
 20
-8.6977964164
 10
3.7787729512
 20
-8.7510528413
 10
3.7998312948
 20
-8.8002580124
 10
3.8236740268
 20
-8.8456914644
 10
3.8497797382
 20
-8.8871954174
 10
3.8779531294
 20
-8.9245684184
 10
3.9083894999
 20
-8.9580119205
 10
3.9411533399
 20
-8.9879725028
 10
3.9760575455
 20
-9.0145234468
 10
4.0132892205
 20
-9.037591471
 10
4.0534741665
 20
-9.0574033097
 10
4.0970289075
 20
-9.0740712589
 10
4.1435369194
 20
-9.0874830225
 10
4.1923744314
 20
-9.0975284462
 10
4.2445219558
 20
-9.1042645796
 10
4.2989989802
 20
-9.1076343731
 10
4.3522401964
 20
-9.1073565238
 10
4.4036386667
 20
-9.1032743609
 10
4.4538013287
 20
-9.0955445551
 10
4.5009836872
 20
-9.0843558161
 10
4.5444679099
 20
-9.0696553064
 10
4.5849718291
 20
-9.0514958635
 10
4.6229044467
 20
-9.0302247089
 10
4.6581455865
 20
-9.0062682331
 10
4.6908154247
 20
-8.9792000456
 10
4.7216834915
 20
-8.948088197
 10
4.7512558646
 20
-8.9126437797
 10
4.7790264663
 20
-8.8731557013
 10
4.8042465931
 20
-8.8295587344
 10
4.8266666775
 20
-8.7818311366
 10
4.846536287
 20
-8.7299946503
 10
4.8638554217
 20
-8.6740492756
  0
LWPOLYLINE
  5
58F
100
AcDbEntity
  8
0
100
AcDbPolyline
 62
7
  6
CONTINUOUS
 90
39
 70
0
 10
4.8325301205
 20
-8.1470255203
 10
4.8156158558
 20
-8.0979632218
 10
4.7958624145
 20
-8.0521473588
 10
4.7732697965
 20
-8.0095779311
 10
4.7475558087
 20
-7.9700713447
 10
4.7190026442
 20
-7.9338111937
 10
4.6884568828
 20
-7.9013482604
 10
4.6563814467
 20
-7.8730564054
 10
4.6223134137
 20
-7.8485617681
 10
4.5857105966
 20
-7.8272935491
 10
4.5465178572
 20
-7.8089643931
 10
4.5047903338
 20
-7.7938616553
 10
4.4601512542
 20
-7.782276603
 10
4.4118667628
 20
-7.7741098476
 10
4.3606707152
 20
-7.7694607776
 10
4.3083879056
 20
-7.7689188256
 10
4.2543679891
 20
-7.7727950594
 10
4.1992613106
 20
-7.7807784113
 10
4.146843699
 20
-7.7925251112
 10
4.0983815164
 20
-7.808001472
 10
4.0526084006
 20
-7.8272411809
 10
4.0095010945
 20
-7.8500015295
 10
3.9690566881
 20
-7.8762809644
 10
3.9312780913
 20
-7.906081039
 10
3.896150777
 20
-7.9391637059
 10
3.86342167
 20
-7.9754829426
 10
3.8333438453
 20
-8.0150847716
 10
3.8066620006
 20
-8.0578692122
 10
3.7835532451
 20
-8.1036293086
 10
3.7638404696
 20
-8.1525720166
 10
3.747737043
 20
-8.2052182239
 10
3.7351108992
 20
-8.2624432609
 10
3.7260941044
 20
-8.3233717971
 10
3.7212962263
 20
-8.3858987288
 10
3.7210520242
 20
-8.450780265
 10
3.7250267388
 20
-8.5172601967
 10
3.7328256599
 20
-8.5809647932
 10
3.7446638232
 20
-8.6407682724
 10
3.760326193
 20
-8.6977964164
  0
LWPOLYLINE
  5
590
100
AcDbEntity
  8
0
100
AcDbPolyline
 62
7
  6
CONTINUOUS
 90
6
 70
0
 10
2.7563723514
 20
-6.0409638554
 10
2.7767510272
 20
-6.1068914673
 10
2.7986530305
 20
-6.1736989968
 10
2.8220783612
 20
-6.2413864438
 10
2.8473081608
 20
-6.3098989755
 10
2.9293261114
 20
-6.521264404
  0
LWPOLYLINE
  5
591
100
AcDbEntity
  8
0
100
AcDbPolyline
 62
7
  6
CONTINUOUS
 90
6
 70
0
 10
5.5177711441
 20
-7.9253012048
 10
5.5381498199
 20
-7.9912288167
 10
5.5600518232
 20
-8.0580363462
 10
5.5834771539
 20
-8.1257237932
 10
5.6087069535
 20
-8.1942363249
 10
5.6907249041
 20
-8.4056017534
  0
LINE
  5
592
100
AcDbEntity
  8
RACCORDO
100
AcDbLine
 62
7
  6
CONTINUOUS
 10
4.3790539221
 20
-15.9
 11
4.3790539221
 21
-16.4
  0
LINE
  5
593
100
AcDbEntity
  8
0
100
AcDbLine
 62
7
  6
CONTINUOUS
 10
4.3892036169
 20
-6.187066977
 11
4.3892036169
 21
-7.2
  0
LINE
  5
594
100
AcDbEntity
  8
RACCORDO
100
AcDbLine
 62
7
  6
CONTINUOUS
 10
4.4
 20
-16.7
 11
4.4
 21
-21.25
  0
LINE
  5
595
100
AcDbEntity
  8
RACCORDO
100
AcDbLine
 62
7
  6
CONTINUOUS
 10
4.4
 20
-43.7
 11
4.4
 21
-49.6000761524
  0
LINE
  5
596
100
AcDbEntity
  8
DRAFT
100
AcDbLine
 62
7
  6
CONTINUOUS
 10
4.5
 20
1.5
 11
4.5
 21
-1.5
  0
LINE
  5
597
100
AcDbEntity
  8
DRAFT
100
AcDbLine
 62
7
  6
CONTINUOUS
 10
4.5
 20
-21.25
 11
4.5
 21
-20.3810194482
  0
LINE
  5
598
100
AcDbEntity
  8
SMUSSO
100
AcDbLine
 62
7
  6
CONTINUOUS
 10
4.5
 20
-20.3810194482
 11
4.5
 21
-17.75
  0
LINE
  5
599
100
AcDbEntity
  8
0
100
AcDbLine
 62
7
  6
CONTINUOUS
 10
4.5
 20
-43.7
 11
4.5
 21
-54.0
  0
LINE
  5
59A
100
AcDbEntity
  8
0
100
AcDbLine
 62
7
  6
CONTINUOUS
 10
4.545830123
 20
-7.2
 11
4.545830123
 21
-5.9
  0
LINE
  5
59B
100
AcDbEntity
  8
0
100
AcDbLine
 62
7
  6
CONTINUOUS
 10
4.8982397615
 20
-6.7457831325
 11
4.8982397615
 21
-6.8945783133
  0
LINE
  5
59C
100
AcDbEntity
  8
RACCORDO
100
AcDbLine
 62
7
  6
CONTINUOUS
 10
4.9823085464
 20
-0.9542982275
 11
4.9823085464
 21
0.9542982275
  0
LINE
  5
59D
100
AcDbEntity
  8
0
100
AcDbLine
 62
7
  6
CONTINUOUS
 10
5.4699265085
 20
-6.1692017325
 11
5.4699265085
 21
-6.7457831325
  0
LINE
  5
59E
100
AcDbEntity
  8
0
100
AcDbLine
 62
7
  6
CONTINUOUS
 10
5.4699265085
 20
-6.8945783133
 11
5.4699265085
 21
-7.2
  0
LINE
  5
59F
100
AcDbEntity
  8
0
100
AcDbLine
 62
7
  6
CONTINUOUS
 10
5.5
 20
-53.5
 11
5.5
 21
-46.6
  0
LINE
  5
5A0
100
AcDbEntity
  8
ASSI
100
AcDbLine
 62
7
  6
CONTINUOUS
 10
5.5
 20
46.6
 11
5.5
 21
53.5
  0
LINE
  5
5A1
100
AcDbEntity
  8
0
100
AcDbLine
 62
7
  6
CONTINUOUS
 10
5.6265530145
 20
-7.2
 11
5.6265530145
 21
-6.8945783133
  0
LINE
  5
5A2
100
AcDbEntity
  8
0
100
AcDbLine
 62
7
  6
CONTINUOUS
 10
5.6265530145
 20
-6.7457831325
 11
5.6265530145
 21
-5.9078313253
  0
LINE
  5
5A3
100
AcDbEntity
  8
0
100
AcDbLine
 62
7
  6
CONTINUOUS
 10
5.7988421712
 20
-6.8945783133
 11
5.7988421712
 21
-6.7457831325
  0
LINE
  5
5A4
100
AcDbEntity
  8
RACCORDO
100
AcDbLine
 62
7
  6
CONTINUOUS
 10
5.9371426149
 20
-0.9542982275
 11
5.9371426149
 21
0.9542982275
  0
LINE
  5
5A5
100
AcDbEntity
  8
DRAFT
100
AcDbLine
 62
7
  6
CONTINUOUS
 10
6.0
 20
-1.5
 11
6.0
 21
1.5
  0
LINE
  5
5A6
100
AcDbEntity
  8
0
100
AcDbLine
 62
7
  6
CONTINUOUS
 10
7.9963855422
 20
-7.7921686747
 11
7.9963855422
 21
-9.0843373494
  0
LINE
  5
5A7
100
AcDbEntity
  8
0
100
AcDbLine
 62
7
  6
CONTINUOUS
 10
8.1686746988
 20
-9.0843373494
 11
8.1686746988
 21
-7.7921686747
  0
LINE
  5
5A8
100
AcDbEntity
  8
DRAFT
100
AcDbLine
 62
7
  6
CONTINUOUS
 10
4.3249432208
 20
-17.6
 11
4.3598533507
 21
-15.6
  0
LWPOLYLINE
  5
5A9
100
AcDbEntity
  8
IMPORT_IGES
100
AcDbPolyline
 62
7
  6
CONTINUOUS
 90
8
 70
0
 10
3.1709655377
 20
-22.0783889196
 10
3.1686796023
 20
-22.1100313867
 10
3.1673373399
 20
-22.1253218588
 10
3.1652768484
 20
-22.1401538279
 10
3.1624574572
 20
-22.1546490297
 10
3.158919837
 20
-22.1686857285
 10
3.1542512383
 20
-22.1818058362
 10
3.15
 20
-22.1904346939
  0
LWPOLYLINE
  5
5AA
100
AcDbEntity
  8
IMPORT_IGES
100
AcDbPolyline
 62
7
  6
CONTINUOUS
 90
4
 70
0
 10
3.2001381952
 20
-21.3246662088
 10
3.2035194471
 20
-21.2904201642
 10
3.2042072147
 20
-21.2557411878
 10
3.2038469984
 20
-21.25
  0
LWPOLYLINE
  5
5AB
100
AcDbEntity
  8
IMPORT_IGES
100
AcDbPolyline
 62
7
  6
CONTINUOUS
 90
7
 70
0
 10
3.1837166706
 20
-21.8116486707
 10
3.182098046
 20
-21.8250226568
 10
3.1807093305
 20
-21.8385380971
 10
3.1795505241
 20
-21.8521949915
 10
3.1786662434
 20
-21.8659982584
 10
3.1780118719
 20
-21.8799429795
 10
3.1769466907
 20
-21.9082075986
  0
LWPOLYLINE
  5
5AC
100
AcDbEntity
  8
0
100
AcDbPolyline
 62
7
  6
CONTINUOUS
 90
38
 70
0
 10
4.6915662651
 20
-8.6308545604
 10
4.6802512677
 20
-8.6734949592
 10
4.6667616881
 20
-8.7131584938
 10
4.6510975264
 20
-8.7498451641
 10
4.6331475052
 20
-8.7836185722
 10
4.6130229018
 20
-8.814415116
 10
4.5910575483
 20
-8.8420439893
 10
4.567530857
 20
-8.8662683502
 10
4.5421634156
 20
-8.8873250406
 10
4.5144508197
 20
-8.9057337802
 10
4.4842249681
 20
-8.9217667392
 10
4.451653962
 20
-8.9351517475
 10
4.416737701
 20
-8.945592015
 10
4.3785725582
 20
-8.9531776564
 10
4.3380621605
 20
-8.957818557
 10
4.2979172882
 20
-8.9589475834
 10
4.2583844353
 20
-8.9561768202
 10
4.2192171078
 20
-8.9498941828
 10
4.1823866044
 20
-8.9406962831
 10
4.1487766059
 20
-8.9288359867
 10
4.1175034314
 20
-8.9140604281
 10
4.0878873373
 20
-8.8962076224
 10
4.0597140852
 20
-8.8753780762
 10
4.0331979134
 20
-8.8514712828
 10
4.0083017936
 20
-8.8240237381
 10
3.9845992257
 20
-8.7926986744
 10
3.9625167097
 20
-8.7578328593
 10
3.9432967165
 20
-8.7199730906
 10
3.927274201
 20
-8.6791802731
 10
3.9141142083
 20
-8.6353935022
 10
3.9040543448
 20
-8.5889768617
 10
3.8973306346
 20
-8.5390555086
 10
3.8937070535
 20
-8.4865042861
 10
3.8927131358
 20
-8.4343118077
 10
3.8941165032
 20
-8.3827115794
 10
3.898149534
 20
-8.3314700952
 10
3.9050388972
 20
-8.2828754517
 10
3.9149762671
 20
-8.237578869
  0
LWPOLYLINE
  5
5AD
100
AcDbEntity
  8
0
100
AcDbPolyline
 62
7
  6
CONTINUOUS
 90
30
 70
0
 10
3.9149762671
 20
-8.237578869
 10
3.9277699695
 20
-8.1949291269
 10
3.9430716507
 20
-8.1552606606
 10
3.9610275151
 20
-8.118581633
 10
3.9814913582
 20
-8.0848838812
 10
4.0036762135
 20
-8.0544773523
 10
4.0271286155
 20
-8.0276319073
 10
4.0523020296
 20
-8.004077685
 10
4.0797698855
 20
-7.9833150494
 10
4.109846778
 20
-7.9651164155
 10
4.1422181122
 20
-7.9497093682
 10
4.176513534
 20
-7.9372770263
 10
4.2134343016
 20
-7.927907288
 10
4.2522791566
 20
-7.9215122551
 10
4.2905739699
 20
-7.9180113519
 10
4.3280019768
 20
-7.9174529406
 10
4.3648799419
 20
-7.9197886589
 10
4.3996840303
 20
-7.9247928438
 10
4.4319074585
 20
-7.9324337188
 10
4.4620570101
 20
-7.9427430603
 10
4.4901292003
 20
-7.9555905352
 10
4.5160145804
 20
-7.9709100476
 10
4.5398225992
 20
-7.9887676932
 10
4.5618781185
 20
-8.0092314268
 10
4.5822085925
 20
-8.0323315286
 10
4.6007865669
 20
-8.0580377183
 10
4.6178545413
 20
-8.0863271101
 10
4.6334933488
 20
-8.1171920753
 10
4.6476221563
 20
-8.1506402426
 10
4.6602409639
 20
-8.1866716121
  0
LINE
  5
5AE
100
AcDbEntity
  8
0
100
AcDbLine
 62
7
  6
CONTINUOUS
 10
2.3530590386
 20
-7.2
 11
2.4892507269
 21
-6.8084337349
  0
LINE
  5
5AF
100
AcDbEntity
  8
0
100
AcDbLine
 62
7
  6
CONTINUOUS
 10
5.1144578313
 20
-9.0843373494
 11
5.2506495196
 21
-8.6927710843
  0
LWPOLYLINE
  5
5B0
100
AcDbEntity
  8
0
100
AcDbPolyline
 62
7
  6
CONTINUOUS
 90
5
 70
0
 10
2.6731658296
 20
-6.3052892767
 10
2.6971438122
 20
-6.237339428
 10
2.7187967388
 20
-6.1705889894
 10
2.7385395853
 20
-6.1051304652
 10
2.7563723514
 20
-6.0409638554
  0
LWPOLYLINE
  5
5B1
100
AcDbEntity
  8
0
100
AcDbPolyline
 62
7
  6
CONTINUOUS
 90
5
 70
0
 10
5.4345646223
 20
-8.1896266261
 10
5.4585426049
 20
-8.1216767774
 10
5.4801955315
 20
-8.0549263388
 10
5.4999383779
 20
-7.9894678146
 10
5.5177711441
 20
-7.9253012048
  0
LINE
  5
5B2
100
AcDbEntity
  8
0
100
AcDbLine
 62
7
  6
CONTINUOUS
 10
2.5383189062
 20
-6.6674698795
 11
2.6207245505
 21
-6.4453422302
  0
LINE
  5
5B3
100
AcDbEntity
  8
0
100
AcDbLine
 62
7
  6
CONTINUOUS
 10
5.2997176989
 20
-8.5518072289
 11
5.3821233432
 21
-8.3296795796
  0
LINE
  5
5B4
100
AcDbEntity
  8
0
100
AcDbLine
 62
7
  6
CONTINUOUS
 10
2.6207245505
 20
-6.4453422302
 11
2.6731658296
 21
-6.3052892767
  0
LINE
  5
5B5
100
AcDbEntity
  8
0
100
AcDbLine
 62
7
  6
CONTINUOUS
 10
5.3821233432
 20
-8.3296795796
 11
5.4345646223
 21
-8.1896266261
  0
LINE
  5
5B6
100
AcDbEntity
  8
0
100
AcDbLine
 62
7
  6
CONTINUOUS
 10
2.6623964478
 20
-5.9078313253
 11
2.1712255476
 21
-7.2
  0
LINE
  5
5B7
100
AcDbEntity
  8
0
100
AcDbLine
 62
7
  6
CONTINUOUS
 10
5.4237952405
 20
-7.7921686747
 11
4.9326243403
 21
-9.0843373494
  0
LWPOLYLINE
  5
5B8
100
AcDbEntity
  8
0
100
AcDbPolyline
 62
7
  6
CONTINUOUS
 90
13
 70
0
 10
4.4448794583
 20
-5.9
 10
4.4283545722
 20
-5.9298292683
 10
4.4089413001
 20
-5.9592900772
 10
4.3866396421
 20
-5.9883824267
 10
4.3612847151
 20
-6.0171713179
 10
4.3330414022
 20
-6.0455917498
 10
4.3024043527
 20
-6.0734487183
 10
4.269582287
 20
-6.1008019573
 10
4.2343664847
 20
-6.127591733
 10
4.196625434
 20
-6.1534438398
 10
4.1563152976
 20
-6.1782335423
 10
4.1134799128
 20
-6.2020855758
 10
4.0681192796
 20
-6.2249999403
  0
LINE
  5
5B9
100
AcDbEntity
  8
0
100
AcDbLine
 62
7
  6
CONTINUOUS
 10
5.5012518097
 20
-5.9078313253
 11
4.8982397615
 21
-6.7457831325
  0
LINE
  5
5BA
100
AcDbEntity
  8
0
100
AcDbLine
 62
7
  6
CONTINUOUS
 10
5.0551110002
 20
-6.7457831325
 11
5.4699265085
 21
-6.1692017325
  0
LINE
  5
5BB
100
AcDbEntity
  8
0
100
AcDbLine
 62
7
  6
CONTINUOUS
 10
1.7677898686
 20
-6.2114175172
 11
1.1078783157
 21
-7.0449641367
  0
LINE
  5
5BC
100
AcDbEntity
  8
0
100
AcDbLine
 62
7
  6
CONTINUOUS
 10
1.3030497361
 20
-7.0512048193
 11
2.102456629
 21
-6.056626506
  0
LWPOLYLINE
  5
5BD
100
AcDbEntity
  8
0
100
AcDbPolyline
 62
7
  6
CONTINUOUS
 90
10
 70
0
 10
1.9022684283
 20
-6.056626506
 10
1.887147917
 20
-6.0726737768
 10
1.8720743684
 20
-6.089016219
 10
1.8570477824
 20
-6.1056538326
 10
1.8420712927
 20
-6.1225962695
 10
1.8271417657
 20
-6.1398338777
 10
1.8122497998
 20
-6.1573377022
 10
1.7973922615
 20
-6.175098091
 10
1.7825722844
 20
-6.193124696
 10
1.7677898686
 20
-6.2114175172
  0
LWPOLYLINE
  5
5BE
100
AcDbEntity
  8
0
100
AcDbPolyline
 62
7
  6
CONTINUOUS
 90
33
 70
0
 10
-5.3927333964
 20
-8.3842902395
 10
-5.3620068678
 20
-8.3678672798
 10
-5.3343234143
 20
-8.3500704956
 10
-5.3096830359
 20
-8.330899887
 10
-5.2882026404
 20
-8.3103947904
 10
-5.2697653199
 20
-8.2885158694
 10
-5.2540203517
 20
-8.2651451147
 10
-5.2408253363
 20
-8.2402230404
 10
-5.230322673
 20
-8.2138091324
 10
-5.2225888375
 20
-8.1859638401
 10
-5.2175135393
 20
-8.1562549116
 10
-5.2152070687
 20
-8.1251145986
 10
-5.2160767731
 20
-8.0939001058
 10
-5.2202811314
 20
-8.0627080294
 10
-5.2276616647
 20
-8.0314417731
 10
-5.2381502829
 20
-8.0011687528
 10
-5.2517803013
 20
-7.9720107455
 10
-5.2685184047
 20
-7.9438459742
 10
-5.288196557
 20
-7.9173765232
 10
-5.3108839312
 20
-7.8925782791
 10
-5.3365113542
 20
-7.8694753553
 10
-5.3647032703
 20
-7.8488421771
 10
-5.3954253473
 20
-7.8307170065
 10
-5.4287119175
 20
-7.8150615815
 10
-5.4642904213
 20
-7.8025355409
 10
-5.5029155236
 20
-7.7932179792
 10
-5.5438325596
 20
-7.787029802
 10
-5.5845049747
 20
-7.7843933647
 10
-5.6247678212
 20
-7.7855952318
 10
-5.6647860467
 20
-7.7903488388
 10
-5.7025179404
 20
-7.7982168479
 10
-5.7372989824
 20
-7.8092185354
 10
-5.7697936925
 20
-7.823334625
  0
LWPOLYLINE
  5
5BF
100
AcDbEntity
  8
0
100
AcDbPolyline
 62
7
  6
CONTINUOUS
 90
10
 70
0
 10
4.0681192796
 20
-6.3786896545
 10
4.1103792105
 20
-6.3610233659
 10
4.1511536885
 20
-6.3423515589
 10
4.1904427135
 20
-6.3226742335
 10
4.228460313
 20
-6.3018590717
 10
4.2649924594
 20
-6.2800383915
 10
4.2993970713
 20
-6.2576091465
 10
4.3314601212
 20
-6.2347036548
 10
4.3613956364
 20
-6.2111895982
 10
4.3892036169
 20
-6.187066977
  0
LINE
  5
5C0
100
AcDbEntity
  8
0
100
AcDbLine
 62
7
  6
CONTINUOUS
 10
-1.2326543518
 20
5.2802216218
 11
-0.7840563518
 21
5.2802216218
  0
LINE
  5
5C1
100
AcDbEntity
  8
0
100
AcDbLine
 62
7
  6
CONTINUOUS
 10
-0.8962063518
 20
5.3923716218
 11
-1.1205043518
 21
5.3923716218
  0
LINE
  5
5C2
100
AcDbEntity
  8
0
100
AcDbLine
 62
7
  6
CONTINUOUS
 10
-1.1205043518
 20
5.8409696218
 11
-0.8962063518
 21
5.8409696218
  0
LINE
  5
5C3
100
AcDbEntity
  8
0
100
AcDbLine
 62
7
  6
CONTINUOUS
 10
-0.7840563518
 20
5.8783536218
 11
0.460098102
 21
5.8783535905
  0
LINE
  5
5C4
100
AcDbEntity
  8
0
100
AcDbLine
 62
7
  6
CONTINUOUS
 10
0.4600978939
 20
5.9531196649
 11
-1.1641433518
 21
5.9531196218
  0
LINE
  5
5C5
100
AcDbEntity
  8
0
100
AcDbLine
 62
7
  6
CONTINUOUS
 10
-0.0082603518
 20
8.3350106218
 11
1.2176416482
 21
7.1091076218
  0
LINE
  5
5C6
100
AcDbEntity
  8
0
100
AcDbLine
 62
7
  6
CONTINUOUS
 10
1.2866556482
 20
7.0400946218
 11
3.3562256482
 21
4.9705236218
  0
LINE
  5
5C7
100
AcDbEntity
  8
0
100
AcDbLine
 62
7
  6
CONTINUOUS
 10
-3.4784823518
 20
11.8052316218
 11
-1.5855813518
 21
9.9123316218
  0
LINE
  5
5C8
100
AcDbEntity
  8
0
100
AcDbLine
 62
7
  6
CONTINUOUS
 10
-1.5033343518
 20
9.8300836218
 11
-0.1139953518
 21
8.4407456218
  0
LINE
  5
5C9
100
AcDbEntity
  8
0
100
AcDbLine
 62
7
  6
CONTINUOUS
 10
1.2346536482
 20
7.3035666218
 11
0.0974746482
 21
8.4407456218
  0
LINE
  5
5CA
100
AcDbEntity
  8
0
100
AcDbLine
 62
7
  6
CONTINUOUS
 10
-0.0082603518
 20
8.5464806218
 11
-1.5236093518
 21
10.0618296218
  0
LINE
  5
5CB
100
AcDbEntity
  8
0
100
AcDbLine
 62
7
  6
CONTINUOUS
 10
3.4619616482
 20
5.0762596218
 11
1.3036686482
 21
7.2345516218
  0
LINE
  5
5CC
100
AcDbEntity
  8
0
100
AcDbLine
 62
7
  6
CONTINUOUS
 10
-1.6058563518
 20
10.1440776218
 11
-3.3727463518
 21
11.9109676218
  0
LWPOLYLINE
  5
5CD
100
AcDbEntity
  8
0
100
AcDbPolyline
 62
7
  6
CONTINUOUS
 90
10
 70
0
 10
7.2406627104
 20
-8.9394577716
 10
7.2341623398
 20
-8.9164688554
 10
7.2273986829
 20
-8.8933657601
 10
7.2203717396
 20
-8.8701484858
 10
7.2130744072
 20
-8.8468150185
 10
7.2055137884
 20
-8.8233673722
 10
7.1977111916
 20
-8.7998115884
 10
7.1896737196
 20
-8.776149681
 10
7.1813942697
 20
-8.7523796361
 10
6.8373493976
 20
-7.7921686747
  0
LINE
  5
5CE
100
AcDbEntity
  8
DRAFT
100
AcDbLine
 62
7
  6
CONTINUOUS
 10
10.0
 20
18.0176397269
 11
10.0
 21
15.95
  0
LINE
  5
5CF
100
AcDbEntity
  8
DRAFT
100
AcDbLine
 62
7
  6
CONTINUOUS
 10
11.75
 20
15.95
 11
11.75
 21
18.0176397269
  0
LWPOLYLINE
  5
5D0
100
AcDbEntity
  8
0
100
AcDbPolyline
 62
7
  6
CONTINUOUS
 90
9
 70
0
 10
7.30265468
 20
-8.7522951608
 10
7.2939499017
 20
-8.7760030031
 10
7.2855197686
 20
-8.7996249806
 10
7.2773659031
 20
-8.8231646456
 10
7.2694866827
 20
-8.8466184457
 10
7.26187724
 20
-8.8699757241
 10
7.2545359524
 20
-8.8932329284
 10
7.2474644426
 20
-8.9163936109
 10
7.2406627104
 20
-8.9394577716
  0
LINE
  5
5D1
100
AcDbEntity
  8
0
100
AcDbLine
 62
7
  6
CONTINUOUS
 10
7.6674698795
 20
-7.7921686747
 11
7.30265468
 21
-8.7522951608
  0
LINE
  5
5D2
100
AcDbEntity
  8
0
100
AcDbLine
 62
7
  6
CONTINUOUS
 10
7.3363517425
 20
-9.0843373494
 11
7.8517508165
 21
-7.7921686747
  0
LINE
  5
5D3
100
AcDbEntity
  8
DRAFT
100
AcDbLine
 62
7
  6
CONTINUOUS
 10
-3.3110927272
 20
-29.388662933
 11
-3.65
 21
-29.9756675485
  0
LINE
  5
5D4
100
AcDbEntity
  8
DRAFT
100
AcDbLine
 62
7
  6
CONTINUOUS
 10
-3.25
 20
-29.40503268
 11
-3.65
 21
-30.097853003
  0
LINE
  5
5D5
100
AcDbEntity
  8
0
100
AcDbLine
 62
7
  6
CONTINUOUS
 10
-0.4942423518
 20
9.4297546218
 11
0.8141696482
 21
9.4297546218
  0
LINE
  5
5D6
100
AcDbEntity
  8
0
100
AcDbLine
 62
7
  6
CONTINUOUS
 10
0.7394026482
 20
9.5045216218
 11
-0.4194753518
 21
9.5045216218
  0
LINE
  5
5D7
100
AcDbEntity
  8
0
100
AcDbLine
 62
7
  6
CONTINUOUS
 10
-0.4194753518
 20
9.7288216218
 11
0.7394026482
 21
9.7288216218
  0
LINE
  5
5D8
100
AcDbEntity
  8
0
100
AcDbLine
 62
7
  6
CONTINUOUS
 10
0.8141696482
 20
9.8035866218
 11
-0.4942423518
 21
9.8035866218
  0
LINE
  5
5D9
100
AcDbEntity
  8
0
100
AcDbLine
 62
7
  6
CONTINUOUS
 10
1.5284296482
 20
9.8035866218
 11
2.1973476482
 21
9.8035866218
  0
LINE
  5
5DA
100
AcDbEntity
  8
0
100
AcDbLine
 62
7
  6
CONTINUOUS
 10
2.1225806482
 20
9.8783536218
 11
1.5350826482
 21
9.8783536218
  0
LINE
  5
5DB
100
AcDbEntity
  8
0
100
AcDbLine
 62
7
  6
CONTINUOUS
 10
1.3749176482
 20
10.5512496218
 11
1.5187896482
 21
10.5512496218
  0
LINE
  5
5DC
100
AcDbEntity
  8
0
100
AcDbLine
 62
7
  6
CONTINUOUS
 10
1.5938426482
 20
10.5512496218
 11
1.9965086482
 21
10.5512496218
  0
LINE
  5
5DD
100
AcDbEntity
  8
0
100
AcDbLine
 62
7
  6
CONTINUOUS
 10
2.0712756482
 20
10.6260166218
 11
1.6003826482
 21
10.6260166218
  0
LINE
  5
5DE
100
AcDbEntity
  8
0
100
AcDbLine
 62
7
  6
CONTINUOUS
 10
1.5253306482
 20
10.6260166218
 11
1.3001506482
 21
10.6260166218
  0
LINE
  5
5DF
100
AcDbEntity
  8
0
100
AcDbLine
 62
7
  6
CONTINUOUS
 10
-2.2886333518
 20
10.9250816218
 11
-1.6741863518
 21
10.9250816218
  0
LINE
  5
5E0
100
AcDbEntity
  8
0
100
AcDbLine
 62
7
  6
CONTINUOUS
 10
-1.5991333518
 20
10.9250816218
 11
1.5514966482
 21
10.9250816218
  0
LINE
  5
5E1
100
AcDbEntity
  8
0
100
AcDbLine
 62
7
  6
CONTINUOUS
 10
1.6265476482
 20
10.9250816218
 11
1.8608976482
 21
10.9250816218
  0
LINE
  5
5E2
100
AcDbEntity
  8
0
100
AcDbLine
 62
7
  6
CONTINUOUS
 10
1.3459466387
 20
11.2241476196
 11
-1.1297553518
 21
11.2241476218
  0
LINE
  5
5E3
100
AcDbEntity
  8
0
100
AcDbLine
 62
7
  6
CONTINUOUS
 10
-1.5035873518
 20
11.2241476218
 11
-1.6252983518
 21
11.2241476218
  0
LINE
  5
5E4
100
AcDbEntity
  8
0
100
AcDbLine
 62
7
  6
CONTINUOUS
 10
-1.7003503518
 20
11.2241476218
 11
-2.2886333518
 21
11.2241476218
  0
LINE
  5
5E5
100
AcDbEntity
  8
0
100
AcDbLine
 62
7
  6
CONTINUOUS
 10
-1.2045223518
 20
11.2989146218
 11
-1.4288203518
 21
11.2989146218
  0
LINE
  5
5E6
100
AcDbEntity
  8
0
100
AcDbLine
 62
7
  6
CONTINUOUS
 10
-0.3447083518
 20
11.5232136218
 11
0.6646366482
 21
11.5232136218
  0
LINE
  5
5E7
100
AcDbEntity
  8
0
100
AcDbLine
 62
7
  6
CONTINUOUS
 10
0.5898696482
 20
11.5979796218
 11
-0.2699423518
 21
11.5979796218
  0
LINE
  5
5E8
100
AcDbEntity
  8
0
100
AcDbLine
 62
7
  6
CONTINUOUS
 10
-1.4288203518
 20
11.7848946218
 11
-1.2045223518
 21
11.7848946218
  0
LINE
  5
5E9
100
AcDbEntity
  8
0
100
AcDbLine
 62
7
  6
CONTINUOUS
 10
-1.1297553518
 20
11.8596616218
 11
-1.5035873518
 21
11.8596616218
  0
LINE
  5
5EA
100
AcDbEntity
  8
0
100
AcDbLine
 62
7
  6
CONTINUOUS
 10
-0.2699423518
 20
11.8970446218
 11
0.5898696482
 21
11.8970446218
  0
LINE
  5
5EB
100
AcDbEntity
  8
0
100
AcDbLine
 62
7
  6
CONTINUOUS
 10
0.6646366482
 20
11.9718116218
 11
-0.3447083518
 21
11.9718116218
  0
LINE
  5
5EC
100
AcDbEntity
  8
0
100
AcDbLine
 62
7
  6
CONTINUOUS
 10
3.4619616482
 20
11.8052316218
 11
3.3562256482
 21
11.9109676218
  0
LINE
  5
5ED
100
AcDbEntity
  8
DRAFT
100
AcDbLine
 62
7
  6
CONTINUOUS
 10
12.7150898701
 20
-44.75
 11
12.7150898701
 21
-46.6
  0
LINE
  5
5EE
100
AcDbEntity
  8
DRAFT
100
AcDbLine
 62
7
  6
CONTINUOUS
 10
12.75
 20
-44.75
 11
12.75
 21
-46.6
  0
LINE
  5
5EF
100
AcDbEntity
  8
DRAFT
100
AcDbLine
 62
7
  6
CONTINUOUS
 10
13.25
 20
18.0176397269
 11
13.25
 21
15.95
  0
LINE
  5
5F0
100
AcDbEntity
  8
0
100
AcDbLine
 62
7
  6
CONTINUOUS
 10
14.245
 20
-53.5
 11
14.245
 21
-47.2
  0
LINE
  5
5F1
100
AcDbEntity
  8
DRAFT
100
AcDbLine
 62
7
  6
CONTINUOUS
 10
15.0
 20
15.95
 11
15.0
 21
18.0176397269
  0
LWPOLYLINE
  5
5F2
100
AcDbEntity
  8
IMPORT_IGES
100
AcDbPolyline
 62
7
  6
CONTINUOUS
 90
6
 70
0
 10
3.15
 20
-21.4753865761
 10
3.159952638
 20
-21.4566650621
 10
3.1740162906
 20
-21.4245750922
 10
3.1854000037
 20
-21.3918277443
 10
3.1941158416
 20
-21.3584634424
 10
3.2001381952
 20
-21.3246662088
  0
LWPOLYLINE
  5
5F3
100
AcDbEntity
  8
IMPORT_IGES
100
AcDbPolyline
 62
7
  6
CONTINUOUS
 90
8
 70
0
 10
3.2360359481
 20
-21.6476864739
 10
3.2335427215
 20
-21.6516287246
 10
3.2207338539
 20
-21.6768111927
 10
3.2100562658
 20
-21.703088852
 10
3.201060681
 20
-21.729779636
 10
3.1935973409
 20
-21.7566561894
 10
3.1878160041
 20
-21.7839458677
 10
3.1837166706
 20
-21.8116486707
  0
LINE
  5
5F4
100
AcDbEntity
  8
IMPORT_IGES
100
AcDbLine
 62
7
  6
CONTINUOUS
 10
-3.2360359481
 20
-23.2828779427
 11
-3.15
 21
-23.1968419946
  0
LINE
  5
5F5
100
AcDbEntity
  8
IMPORT_IGES
100
AcDbLine
 62
7
  6
CONTINUOUS
 10
-3.15
 20
-23.9039487758
 11
-3.2360359481
 21
-23.9899847238
  0
LINE
  5
5F6
100
AcDbEntity
  8
IMPORT_IGES
100
AcDbLine
 62
7
  6
CONTINUOUS
 10
-3.2360359481
 20
-24.3435381144
 11
-3.15
 21
-24.2575021664
  0
LINE
  5
5F7
100
AcDbEntity
  8
IMPORT_IGES
100
AcDbLine
 62
7
  6
CONTINUOUS
 10
-3.15
 20
-24.9646089476
 11
-3.1641545367
 21
-24.9787634843
  0
LINE
  5
5F8
100
AcDbEntity
  8
DRAFT
100
AcDbLine
 62
7
  6
CONTINUOUS
 10
16.5174550649
 20
35.2
 11
16.5296736104
 21
34.5
  0
LINE
  5
5F9
100
AcDbEntity
  8
DRAFT
100
AcDbLine
 62
7
  6
CONTINUOUS
 10
16.4115988572
 20
-32.5
 11
16.4115988572
 21
-27.5
  0
LINE
  5
5FA
100
AcDbEntity
  8
DRAFT
100
AcDbLine
 62
7
  6
CONTINUOUS
 10
16.4115988572
 20
27.5
 11
16.4115988572
 21
32.5
  0
LINE
  5
5FB
100
AcDbEntity
  8
DRAFT
100
AcDbLine
 62
7
  6
CONTINUOUS
 10
16.445
 20
-46.4746666345
 11
16.445
 21
-53.5
  0
LINE
  5
5FC
100
AcDbEntity
  8
DRAFT
100
AcDbLine
 62
7
  6
CONTINUOUS
 10
16.45
 20
32.5
 11
16.45
 21
27.5
  0
LINE
  5
5FD
100
AcDbEntity
  8
DRAFT
100
AcDbLine
 62
7
  6
CONTINUOUS
 10
16.45
 20
-27.5
 11
16.45
 21
-32.5
  0
LINE
  5
5FE
100
AcDbEntity
  8
DRAFT
100
AcDbLine
 62
7
  6
CONTINUOUS
 10
16.4884011428
 20
27.5
 11
16.4884011428
 21
23.8952696104
  0
LINE
  5
5FF
100
AcDbEntity
  8
DRAFT
100
AcDbLine
 62
7
  6
CONTINUOUS
 10
16.4884011428
 20
-36.1047303896
 11
16.4884011428
 21
-32.5
  0
LINE
  5
600
100
AcDbEntity
  8
DRAFT
100
AcDbLine
 62
7
  6
CONTINUOUS
 10
16.4884011428
 20
-23.8952696104
 11
16.4884011428
 21
-27.5
  0
LINE
  5
601
100
AcDbEntity
  8
DRAFT
100
AcDbLine
 62
7
  6
CONTINUOUS
 10
16.4884011428
 20
32.5
 11
16.4884011428
 21
36.1047303896
  0
LINE
  5
602
100
AcDbEntity
  8
DRAFT
100
AcDbLine
 62
7
  6
CONTINUOUS
 10
16.5174550649
 20
36.0261825974
 11
16.5174550649
 21
35.2
  0
LINE
  5
603
100
AcDbEntity
  8
DRAFT
100
AcDbLine
 62
7
  6
CONTINUOUS
 10
16.5174550649
 20
-35.2
 11
16.5174550649
 21
-36.0261825974
  0
LINE
  5
604
100
AcDbEntity
  8
DRAFT
100
AcDbLine
 62
7
  6
CONTINUOUS
 10
16.5296736104
 20
-34.5
 11
16.5296736104
 21
-32.5
  0
LINE
  5
605
100
AcDbEntity
  8
DRAFT
100
AcDbLine
 62
7
  6
CONTINUOUS
 10
16.5296736104
 20
32.5
 11
16.5296736104
 21
34.5
  0
LINE
  5
606
100
AcDbEntity
  8
DRAFT
100
AcDbLine
 62
7
  6
CONTINUOUS
 10
16.6450293644
 20
-32.5414393193
 11
16.6450293644
 21
-32.5
  0
LINE
  5
607
100
AcDbEntity
  8
DRAFT
100
AcDbLine
 62
7
  6
CONTINUOUS
 10
16.6450293644
 20
-27.5
 11
16.6450293644
 21
-27.4585606807
  0
LINE
  5
608
100
AcDbEntity
  8
DRAFT
100
AcDbLine
 62
7
  6
CONTINUOUS
 10
16.6450293644
 20
27.4585606807
 11
16.6450293644
 21
27.5
  0
LINE
  5
609
100
AcDbEntity
  8
DRAFT
100
AcDbLine
 62
7
  6
CONTINUOUS
 10
16.6450293644
 20
32.5
 11
16.6450293644
 21
32.5414393193
  0
LINE
  5
60A
100
AcDbEntity
  8
DRAFT
100
AcDbLine
 62
7
  6
CONTINUOUS
 10
16.6483680519
 20
36.0261825974
 11
16.6483680519
 21
35.9
  0
LINE
  5
60B
100
AcDbEntity
  8
DRAFT
100
AcDbLine
 62
7
  6
CONTINUOUS
 10
16.6483680519
 20
24.1
 11
16.6483680519
 21
23.9790539221
  0
LINE
  5
60C
100
AcDbEntity
  8
DRAFT
100
AcDbLine
 62
7
  6
CONTINUOUS
 10
16.6483680519
 20
-23.9790539221
 11
16.6483680519
 21
-24.1
  0
LINE
  5
60D
100
AcDbEntity
  8
DRAFT
100
AcDbLine
 62
7
  6
CONTINUOUS
 10
16.6483680519
 20
-35.9
 11
16.6483680519
 21
-36.0261825974
  0
LINE
  5
60E
100
AcDbEntity
  8
DRAFT
100
AcDbLine
 62
7
  6
CONTINUOUS
 10
16.699005808
 20
32.5508839731
 11
16.699005808
 21
27.4491160269
  0
LINE
  5
60F
100
AcDbEntity
  8
DRAFT
100
AcDbLine
 62
7
  6
CONTINUOUS
 10
16.699005808
 20
-27.4491160269
 11
16.699005808
 21
-32.5508839731
  0
LINE
  5
610
100
AcDbEntity
  8
0
100
AcDbLine
 62
7
  6
CONTINUOUS
 10
16.7196821264
 20
32.7
 11
16.7196821264
 21
27.3
  0
LINE
  5
611
100
AcDbEntity
  8
0
100
AcDbLine
 62
7
  6
CONTINUOUS
 10
16.7196821264
 20
-32.7
 11
16.7196821264
 21
-27.3
  0
LINE
  5
612
100
AcDbEntity
  8
RACCORDO
100
AcDbLine
 62
7
  6
CONTINUOUS
 10
16.7321523635
 20
-34.9
 11
16.7321523635
 21
-32.7
  0
LINE
  5
613
100
AcDbEntity
  8
RACCORDO
100
AcDbLine
 62
7
  6
CONTINUOUS
 10
16.7321523635
 20
-27.3
 11
16.7321523635
 21
-25.1
  0
LINE
  5
614
100
AcDbEntity
  8
RACCORDO
100
AcDbLine
 62
7
  6
CONTINUOUS
 10
16.7321523635
 20
25.1
 11
16.7321523635
 21
27.3
  0
LINE
  5
615
100
AcDbEntity
  8
RACCORDO
100
AcDbLine
 62
7
  6
CONTINUOUS
 10
16.7321523635
 20
32.7
 11
16.7321523635
 21
34.9
  0
LINE
  5
616
100
AcDbEntity
  8
0
100
AcDbLine
 62
7
  6
CONTINUOUS
 10
17.1321523635
 20
32.7
 11
17.1321523635
 21
27.3
  0
LINE
  5
617
100
AcDbEntity
  8
0
100
AcDbLine
 62
7
  6
CONTINUOUS
 10
17.1321523635
 20
-32.7
 11
17.1321523635
 21
-27.3
  0
LINE
  5
618
100
AcDbEntity
  8
DRAFT
100
AcDbLine
 62
7
  6
CONTINUOUS
 10
17.2214522078
 20
36.0261825974
 11
17.2214522078
 21
35.9
  0
LINE
  5
619
100
AcDbEntity
  8
DRAFT
100
AcDbLine
 62
7
  6
CONTINUOUS
 10
17.2214522078
 20
24.1
 11
17.2214522078
 21
23.9790539221
  0
LINE
  5
61A
100
AcDbEntity
  8
DRAFT
100
AcDbLine
 62
7
  6
CONTINUOUS
 10
17.2214522078
 20
-23.9790539221
 11
17.2214522078
 21
-24.1
  0
LINE
  5
61B
100
AcDbEntity
  8
DRAFT
100
AcDbLine
 62
7
  6
CONTINUOUS
 10
17.2214522078
 20
-35.9
 11
17.2214522078
 21
-36.0261825974
  0
LINE
  5
61C
100
AcDbEntity
  8
DRAFT
100
AcDbLine
 62
7
  6
CONTINUOUS
 10
17.2389072728
 20
-24.0
 11
17.2389072728
 21
-24.1
  0
LINE
  5
61D
100
AcDbEntity
  8
DRAFT
100
AcDbLine
 62
7
  6
CONTINUOUS
 10
17.2389072728
 20
-35.9
 11
17.2389072728
 21
-36.0
  0
LINE
  5
61E
100
AcDbEntity
  8
DRAFT
100
AcDbLine
 62
7
  6
CONTINUOUS
 10
17.2389072728
 20
24.0
 11
17.2389072728
 21
24.1
  0
LINE
  5
61F
100
AcDbEntity
  8
DRAFT
100
AcDbLine
 62
7
  6
CONTINUOUS
 10
17.2389072728
 20
35.9
 11
17.2389072728
 21
36.0
  0
LINE
  5
620
100
AcDbEntity
  8
RACCORDO
100
AcDbLine
 62
7
  6
CONTINUOUS
 10
17.7952696104
 20
-53.7954219153
 11
17.7952696104
 21
-36.1047303896
  0
LINE
  5
621
100
AcDbEntity
  8
DRAFT
100
AcDbLine
 62
7
  6
CONTINUOUS
 10
17.7952696104
 20
-23.8952696104
 11
17.7952696104
 21
-20.5644466757
  0
LINE
  5
622
100
AcDbEntity
  8
DRAFT
100
AcDbLine
 62
7
  6
CONTINUOUS
 10
17.7952696104
 20
18.0644466757
 11
17.7952696104
 21
23.8952696104
  0
LINE
  5
623
100
AcDbEntity
  8
RACCORDO
100
AcDbLine
 62
7
  6
CONTINUOUS
 10
17.7952696104
 20
36.1047303896
 11
17.7952696104
 21
53.7954219153
  0
LINE
  5
624
100
AcDbEntity
  8
RACCORDO
100
AcDbLine
 62
7
  6
CONTINUOUS
 10
17.7987606234
 20
-34.9
 11
17.7987606234
 21
-25.1
  0
LINE
  5
625
100
AcDbEntity
  8
RACCORDO
100
AcDbLine
 62
7
  6
CONTINUOUS
 10
17.7987606234
 20
25.1
 11
17.7987606234
 21
34.9
  0
LINE
  5
626
100
AcDbEntity
  8
DRAFT
100
AcDbLine
 62
7
  6
CONTINUOUS
 10
17.8301797403
 20
-32.65
 11
17.8301797403
 21
-27.35
  0
LINE
  5
627
100
AcDbEntity
  8
DRAFT
100
AcDbLine
 62
7
  6
CONTINUOUS
 10
17.8301797403
 20
27.35
 11
17.8301797403
 21
32.65
  0
LINE
  5
628
100
AcDbEntity
  8
SMUSSO
100
AcDbLine
 62
7
  6
CONTINUOUS
 10
17.8563623377
 20
-18.5810194482
 11
17.8563623377
 21
-20.3810194482
  0
LINE
  5
629
100
AcDbEntity
  8
DRAFT
100
AcDbLine
 62
7
  6
CONTINUOUS
 10
17.8877814546
 20
32.65
 11
17.8877814546
 21
27.35
  0
LINE
  5
62A
100
AcDbEntity
  8
DRAFT
100
AcDbLine
 62
7
  6
CONTINUOUS
 10
17.8877814546
 20
-27.35
 11
17.8877814546
 21
-32.65
  0
LINE
  5
62B
100
AcDbEntity
  8
RACCORDO
100
AcDbLine
 62
7
  6
CONTINUOUS
 10
17.9
 20
-53.9001523048
 11
17.9
 21
-35.9
  0
LINE
  5
62C
100
AcDbEntity
  8
DRAFT
100
AcDbLine
 62
7
  6
CONTINUOUS
 10
17.9
 20
-35.9
 11
17.9
 21
35.9
  0
LINE
  5
62D
100
AcDbEntity
  8
RACCORDO
100
AcDbLine
 62
7
  6
CONTINUOUS
 10
17.9
 20
35.9
 11
17.9
 21
53.9001523048
  0
LINE
  5
62E
100
AcDbEntity
  8
DRAFT
100
AcDbLine
 62
7
  6
CONTINUOUS
 10
16.5296736104
 20
-34.5
 11
16.5174550649
 21
-35.2
  0
LINE
  5
62F
100
AcDbEntity
  8
SMUSSO
100
AcDbLine
 62
7
  6
CONTINUOUS
 10
17.8692566451
 20
-17.842305068
 11
17.8563623377
 21
-18.5810194482
  0
LINE
  5
630
100
AcDbEntity
  8
0
100
AcDbLine
 62
7
  6
CONTINUOUS
 10
10.0
 20
15.95
 11
11.75
 21
15.95
  0
LINE
  5
631
100
AcDbEntity
  8
0
100
AcDbLine
 62
7
  6
CONTINUOUS
 10
-10.0
 20
15.95
 11
-11.75
 21
15.95
  0
LINE
  5
632
100
AcDbEntity
  8
0
100
AcDbLine
 62
7
  6
CONTINUOUS
 10
13.25
 20
15.95
 11
15.0
 21
15.95
  0
LINE
  5
633
100
AcDbEntity
  8
0
100
AcDbLine
 62
7
  6
CONTINUOUS
 10
-13.25
 20
15.95
 11
-15.0
 21
15.95
  0
LINE
  5
634
100
AcDbEntity
  8
DRAFT
100
AcDbLine
 62
7
  6
CONTINUOUS
 10
17.9
 20
17.75
 11
15.0
 21
17.75
  0
LINE
  5
635
100
AcDbEntity
  8
DRAFT
100
AcDbLine
 62
7
  6
CONTINUOUS
 10
13.25
 20
17.75
 11
11.75
 21
17.75
  0
LINE
  5
636
100
AcDbEntity
  8
DRAFT
100
AcDbLine
 62
7
  6
CONTINUOUS
 10
10.0
 20
17.75
 11
-10.0
 21
17.75
  0
LINE
  5
637
100
AcDbEntity
  8
DRAFT
100
AcDbLine
 62
7
  6
CONTINUOUS
 10
-11.75
 20
17.75
 11
-13.25
 21
17.75
  0
LINE
  5
638
100
AcDbEntity
  8
DRAFT
100
AcDbLine
 62
7
  6
CONTINUOUS
 10
-15.0
 20
17.75
 11
-17.9
 21
17.75
  0
LINE
  5
639
100
AcDbEntity
  8
DRAFT
100
AcDbLine
 62
7
  6
CONTINUOUS
 10
10.0
 20
18.0176397269
 11
11.75
 21
18.0176397269
  0
LINE
  5
63A
100
AcDbEntity
  8
DRAFT
100
AcDbLine
 62
7
  6
CONTINUOUS
 10
-10.0
 20
18.0176397269
 11
-11.75
 21
18.0176397269
  0
LINE
  5
63B
100
AcDbEntity
  8
DRAFT
100
AcDbLine
 62
7
  6
CONTINUOUS
 10
13.25
 20
18.0176397269
 11
15.0
 21
18.0176397269
  0
LINE
  5
63C
100
AcDbEntity
  8
DRAFT
100
AcDbLine
 62
7
  6
CONTINUOUS
 10
-13.25
 20
18.0176397269
 11
-15.0
 21
18.0176397269
  0
LINE
  5
63D
100
AcDbEntity
  8
DRAFT
100
AcDbLine
 62
7
  6
CONTINUOUS
 10
17.7952696104
 20
18.0644466757
 11
-17.7952696104
 21
18.0644466757
  0
LINE
  5
63E
100
AcDbEntity
  8
SMUSSO
100
AcDbLine
 62
7
  6
CONTINUOUS
 10
17.8692566451
 20
-17.842305068
 11
17.9
 21
-17.75
  0
LINE
  5
63F
100
AcDbEntity
  8
DRAFT
100
AcDbLine
 62
7
  6
CONTINUOUS
 10
17.7952696104
 20
-20.5644466757
 11
17.8563623377
 21
-20.3810194482
  0
LINE
  5
640
100
AcDbEntity
  8
DRAFT
100
AcDbLine
 62
7
  6
CONTINUOUS
 10
3.25
 20
-33.99496732
 11
3.65
 21
-33.302146997
  0
LINE
  5
641
100
AcDbEntity
  8
DRAFT
100
AcDbLine
 62
7
  6
CONTINUOUS
 10
3.3110927272
 20
-34.011337067
 11
3.65
 21
-33.4243324515
  0
LINE
  5
642
100
AcDbEntity
  8
IMPORT_IGES
100
AcDbLine
 62
250
  6
CONTINUOUS
 10
3.15
 20
-25.7781169222
 11
3.2360359481
 21
-25.6920809742
  0
LINE
  5
643
100
AcDbEntity
  8
IMPORT_IGES
100
AcDbLine
 62
7
  6
CONTINUOUS
 10
3.2360359481
 20
-25.9749236867
 11
3.15
 21
-26.0609596347
  0
LINE
  5
644
100
AcDbEntity
  8
DRAFT
100
AcDbLine
 62
7
  6
CONTINUOUS
 10
17.7952696104
 20
18.0644466757
 11
17.9
 21
17.75
  0
LINE
  5
645
100
AcDbEntity
  8
RACCORDO
100
AcDbLine
 62
250
  6
CONTINUOUS
 10
-17.9
 20
-53.9001523048
 11
-17.7952696104
 21
-53.7954219153
  0
LINE
  5
646
100
AcDbEntity
  8
IMPORT_IGES
100
AcDbLine
 62
7
  6
CONTINUOUS
 10
3.2360359481
 20
-33.4639640519
 11
3.15
 21
-33.55
  0
LINE
  5
647
100
AcDbEntity
  8
RACCORDO
100
AcDbLine
 62
250
  6
CONTINUOUS
 10
-16.9001523048
 20
-54.9
 11
-16.7954219153
 21
-54.7952696104
  0
LINE
  5
648
100
AcDbEntity
  8
DRAFT
100
AcDbLine
 62
7
  6
CONTINUOUS
 10
-16.5523651948
 20
-54.9
 11
-16.5
 21
-54.8476348052
  0
LINE
  5
649
100
AcDbEntity
  8
DRAFT
100
AcDbLine
 62
7
  6
CONTINUOUS
 10
-17.7952696104
 20
23.8952696104
 11
-16.4884011428
 21
23.8952696104
  0
LINE
  5
64A
100
AcDbEntity
  8
DRAFT
100
AcDbLine
 62
7
  6
CONTINUOUS
 10
17.7952696104
 20
23.8952696104
 11
16.4884011428
 21
23.8952696104
  0
LINE
  5
64B
100
AcDbEntity
  8
DRAFT
100
AcDbLine
 62
7
  6
CONTINUOUS
 10
-17.2028713247
 20
23.9790539221
 11
-16.4884011428
 21
23.9790539221
  0
LINE
  5
64C
100
AcDbEntity
  8
DRAFT
100
AcDbLine
 62
7
  6
CONTINUOUS
 10
17.2028713247
 20
23.9790539221
 11
16.4884011428
 21
23.9790539221
  0
LINE
  5
64D
100
AcDbEntity
  8
DRAFT
100
AcDbLine
 62
7
  6
CONTINUOUS
 10
-17.9
 20
24.0
 11
-17.2238174026
 21
24.0
  0
LINE
  5
64E
100
AcDbEntity
  8
DRAFT
100
AcDbLine
 62
7
  6
CONTINUOUS
 10
17.9
 20
24.0
 11
17.2238174026
 21
24.0
  0
LINE
  5
64F
100
AcDbEntity
  8
RACCORDO
100
AcDbLine
 62
7
  6
CONTINUOUS
 10
16.6483680519
 20
24.1
 11
17.9
 21
24.1
  0
LINE
  5
650
100
AcDbEntity
  8
RACCORDO
100
AcDbLine
 62
7
  6
CONTINUOUS
 10
-16.6483680519
 20
24.1
 11
-17.9
 21
24.1
  0
LINE
  5
651
100
AcDbEntity
  8
RACCORDO
100
AcDbLine
 62
250
  6
CONTINUOUS
 10
-17.7987606234
 20
25.1
 11
-16.7321523635
 21
25.1
  0
LINE
  5
652
100
AcDbEntity
  8
RACCORDO
100
AcDbLine
 62
250
  6
CONTINUOUS
 10
16.7321523635
 20
25.1
 11
17.7987606234
 21
25.1
  0
LINE
  5
653
100
AcDbEntity
  8
0
100
AcDbLine
 62
7
  6
CONTINUOUS
 10
16.7196821264
 20
27.3
 11
17.1321523635
 21
27.3
  0
LINE
  5
654
100
AcDbEntity
  8
0
100
AcDbLine
 62
7
  6
CONTINUOUS
 10
-16.7196821264
 20
27.3
 11
-17.1321523635
 21
27.3
  0
LINE
  5
655
100
AcDbEntity
  8
DRAFT
100
AcDbLine
 62
7
  6
CONTINUOUS
 10
17.8877814546
 20
27.35
 11
17.8301797403
 21
27.35
  0
LINE
  5
656
100
AcDbEntity
  8
DRAFT
100
AcDbLine
 62
7
  6
CONTINUOUS
 10
-17.8301797403
 20
27.35
 11
-17.8877814546
 21
27.35
  0
LINE
  5
657
100
AcDbEntity
  8
RACCORDO
100
AcDbLine
 62
250
  6
CONTINUOUS
 10
-17.7952696104
 20
53.7954219153
 11
-17.9
 21
53.9001523048
  0
LINE
  5
658
100
AcDbEntity
  8
RACCORDO
100
AcDbLine
 62
250
  6
CONTINUOUS
 10
-16.7954219153
 20
54.7952696104
 11
-16.9001523048
 21
54.9
  0
LINE
  5
659
100
AcDbEntity
  8
DRAFT
100
AcDbLine
 62
7
  6
CONTINUOUS
 10
16.6450293644
 20
32.5414393193
 11
16.699005808
 21
32.5508839731
  0
LINE
  5
65A
100
AcDbEntity
  8
DRAFT
100
AcDbLine
 62
7
  6
CONTINUOUS
 10
-16.699005808
 20
27.4491160269
 11
-16.6450293644
 21
27.4585606807
  0
LINE
  5
65B
100
AcDbEntity
  8
DRAFT
100
AcDbLine
 62
7
  6
CONTINUOUS
 10
16.4115988572
 20
27.5
 11
16.699005808
 21
27.5
  0
LINE
  5
65C
100
AcDbEntity
  8
DRAFT
100
AcDbLine
 62
7
  6
CONTINUOUS
 10
-16.4115988572
 20
27.5
 11
-16.699005808
 21
27.5
  0
LINE
  5
65D
100
AcDbEntity
  8
DRAFT
100
AcDbLine
 62
7
  6
CONTINUOUS
 10
-16.6450293644
 20
32.5414393193
 11
-16.699005808
 21
32.5508839731
  0
LINE
  5
65E
100
AcDbEntity
  8
DRAFT
100
AcDbLine
 62
7
  6
CONTINUOUS
 10
16.699005808
 20
27.4491160269
 11
16.6450293644
 21
27.4585606807
  0
LINE
  5
65F
100
AcDbEntity
  8
RACCORDO
100
AcDbLine
 62
250
  6
CONTINUOUS
 10
-4.4
 20
-49.6000761524
 11
-4.3249432208
 21
-49.5250193732
  0
LINE
  5
660
100
AcDbEntity
  8
RACCORDO
100
AcDbLine
 62
250
  6
CONTINUOUS
 10
-3.9000761524
 20
-50.1
 11
-3.8250193732
 21
-50.0249432208
  0
LINE
  5
661
100
AcDbEntity
  8
DRAFT
100
AcDbLine
 62
7
  6
CONTINUOUS
 10
16.4115988572
 20
32.5
 11
16.699005808
 21
32.5
  0
LINE
  5
662
100
AcDbEntity
  8
DRAFT
100
AcDbLine
 62
7
  6
CONTINUOUS
 10
-16.4115988572
 20
32.5
 11
-16.699005808
 21
32.5
  0
LINE
  5
663
100
AcDbEntity
  8
DRAFT
100
AcDbLine
 62
7
  6
CONTINUOUS
 10
-17.8877814546
 20
32.65
 11
-17.8301797403
 21
32.65
  0
LINE
  5
664
100
AcDbEntity
  8
DRAFT
100
AcDbLine
 62
7
  6
CONTINUOUS
 10
17.8301797403
 20
32.65
 11
17.8877814546
 21
32.65
  0
LINE
  5
665
100
AcDbEntity
  8
0
100
AcDbLine
 62
7
  6
CONTINUOUS
 10
16.7196821264
 20
32.7
 11
17.1321523635
 21
32.7
  0
LINE
  5
666
100
AcDbEntity
  8
0
100
AcDbLine
 62
7
  6
CONTINUOUS
 10
-16.7196821264
 20
32.7
 11
-17.1321523635
 21
32.7
  0
LINE
  5
667
100
AcDbEntity
  8
DRAFT
100
AcDbLine
 62
7
  6
CONTINUOUS
 10
16.5296736104
 20
34.5
 11
16.4884011428
 21
34.5
  0
LINE
  5
668
100
AcDbEntity
  8
DRAFT
100
AcDbLine
 62
7
  6
CONTINUOUS
 10
-16.4884011428
 20
34.5
 11
-16.5296736104
 21
34.5
  0
LINE
  5
669
100
AcDbEntity
  8
RACCORDO
100
AcDbLine
 62
250
  6
CONTINUOUS
 10
-17.7987606234
 20
34.9
 11
-16.7321523635
 21
34.9
  0
LINE
  5
66A
100
AcDbEntity
  8
RACCORDO
100
AcDbLine
 62
250
  6
CONTINUOUS
 10
16.7321523635
 20
34.9
 11
17.7987606234
 21
34.9
  0
LINE
  5
66B
100
AcDbEntity
  8
DRAFT
100
AcDbLine
 62
7
  6
CONTINUOUS
 10
17.7952696104
 20
-36.1047303896
 11
17.9
 21
-36.0
  0
LINE
  5
66C
100
AcDbEntity
  8
DRAFT
100
AcDbLine
 62
7
  6
CONTINUOUS
 10
-16.5174550649
 20
35.2
 11
-16.4884011428
 21
35.2
  0
LINE
  5
66D
100
AcDbEntity
  8
DRAFT
100
AcDbLine
 62
7
  6
CONTINUOUS
 10
16.5174550649
 20
35.2
 11
16.4884011428
 21
35.2
  0
LINE
  5
66E
100
AcDbEntity
  8
RACCORDO
100
AcDbLine
 62
7
  6
CONTINUOUS
 10
16.6483680519
 20
35.9
 11
17.9
 21
35.9
  0
LINE
  5
66F
100
AcDbEntity
  8
RACCORDO
100
AcDbLine
 62
7
  6
CONTINUOUS
 10
-16.6483680519
 20
35.9
 11
-17.9
 21
35.9
  0
LINE
  5
670
100
AcDbEntity
  8
DRAFT
100
AcDbLine
 62
7
  6
CONTINUOUS
 10
-17.9
 20
36.0
 11
-17.2238174026
 21
36.0
  0
LINE
  5
671
100
AcDbEntity
  8
DRAFT
100
AcDbLine
 62
7
  6
CONTINUOUS
 10
17.9
 20
36.0
 11
17.2238174026
 21
36.0
  0
LINE
  5
672
100
AcDbEntity
  8
DRAFT
100
AcDbLine
 62
7
  6
CONTINUOUS
 10
-17.1976348052
 20
36.0261825974
 11
-16.4884011428
 21
36.0261825974
  0
LINE
  5
673
100
AcDbEntity
  8
DRAFT
100
AcDbLine
 62
7
  6
CONTINUOUS
 10
17.1976348052
 20
36.0261825974
 11
16.4884011428
 21
36.0261825974
  0
LINE
  5
674
100
AcDbEntity
  8
DRAFT
100
AcDbLine
 62
7
  6
CONTINUOUS
 10
-17.7952696104
 20
36.1047303896
 11
-16.4884011428
 21
36.1047303896
  0
LINE
  5
675
100
AcDbEntity
  8
DRAFT
100
AcDbLine
 62
7
  6
CONTINUOUS
 10
17.7952696104
 20
36.1047303896
 11
16.4884011428
 21
36.1047303896
  0
LINE
  5
676
100
AcDbEntity
  8
DRAFT
100
AcDbLine
 62
7
  6
CONTINUOUS
 10
17.7952696104
 20
36.1047303896
 11
17.9
 21
36.0
  0
LINE
  5
677
100
AcDbEntity
  8
DRAFT
100
AcDbLine
 62
250
  6
CONTINUOUS
 10
-12.7150898701
 20
44.75
 11
-12.75
 21
44.75
  0
LINE
  5
678
100
AcDbEntity
  8
DRAFT
100
AcDbLine
 62
7
  6
CONTINUOUS
 10
5.5
 20
46.6
 11
-16.445
 21
46.6
  0
LINE
  5
679
100
AcDbEntity
  8
DRAFT
100
AcDbLine
 62
7
  6
CONTINUOUS
 10
6.4476348052
 20
54.9
 11
6.5
 21
54.8476348052
  0
LINE
  5
67A
100
AcDbEntity
  8
0
100
AcDbLine
 62
7
  6
CONTINUOUS
 10
-16.445
 20
47.2
 11
-14.245
 21
47.2
  0
LINE
  5
67B
100
AcDbEntity
  8
0
100
AcDbLine
 62
7
  6
CONTINUOUS
 10
12.5
 20
48.9
 11
10.5
 21
48.9
  0
LINE
  5
67C
100
AcDbEntity
  8
0
100
AcDbLine
 62
7
  6
CONTINUOUS
 10
10.5
 20
52.9
 11
12.5
 21
52.9
  0
LINE
  5
67D
100
AcDbEntity
  8
ASSI
100
AcDbLine
 62
7
  6
CONTINUOUS
 10
5.5
 20
53.5
 11
-16.445
 21
53.5
  0
LINE
  5
67E
100
AcDbEntity
  8
RACCORDO
100
AcDbLine
 62
7
  6
CONTINUOUS
 10
16.7954219153
 20
54.7952696104
 11
-16.7954219153
 21
54.7952696104
  0
LINE
  5
67F
100
AcDbEntity
  8
DRAFT
100
AcDbLine
 62
7
  6
CONTINUOUS
 10
16.5
 20
54.8476348052
 11
6.5
 21
54.8476348052
  0
LINE
  5
680
100
AcDbEntity
  8
RACCORDO
100
AcDbLine
 62
7
  6
CONTINUOUS
 10
16.9001523048
 20
54.9
 11
16.5523651948
 21
54.9
  0
LINE
  5
681
100
AcDbEntity
  8
RACCORDO
100
AcDbLine
 62
7
  6
CONTINUOUS
 10
6.4476348052
 20
54.9
 11
-16.9001523048
 21
54.9
  0
CIRCLE
  5
682
100
AcDbEntity
  8
DRAFT
100
AcDbCircle
 62
7
  6
CONTINUOUS
 10
-15.0
 20
-44.75
 40
2.2849101299
  0
CIRCLE
  5
683
100
AcDbEntity
  8
DRAFT
100
AcDbCircle
 62
7
  6
CONTINUOUS
 10
-15.0
 20
-44.75
 40
2.25
  0
ARC
  5
684
100
AcDbEntity
  8
0
100
AcDbCircle
 62
7
  6
CONTINUOUS
 10
-12.5
 20
-50.9
 40
2.0
100
AcDbArc
 50
90.0
 51
270.0
  0
ARC
  5
685
100
AcDbEntity
  8
0
100
AcDbCircle
 62
7
  6
CONTINUOUS
 10
-10.5
 20
-50.9
 40
2.0
100
AcDbArc
 50
270.0
 51
90.0
  0
CIRCLE
  5
686
100
AcDbEntity
  8
DRAFT
100
AcDbCircle
 62
7
  6
CONTINUOUS
 10
-15.0
 20
-44.75
 40
1.3198202597
  0
CIRCLE
  5
687
100
AcDbEntity
  8
DRAFT
100
AcDbCircle
 62
7
  6
CONTINUOUS
 10
-15.0
 20
-44.75
 40
1.25
  0
CIRCLE
  5
688
100
AcDbEntity
  8
DRAFT
100
AcDbCircle
 62
7
  6
CONTINUOUS
 10
-15.0
 20
-44.75
 40
1.0
  0
CIRCLE
  5
689
100
AcDbEntity
  8
DRAFT
100
AcDbCircle
 62
7
  6
CONTINUOUS
 10
-15.0
 20
-44.75
 40
0.9520022272
  0
ARC
  5
68A
100
AcDbEntity
  8
0
100
AcDbCircle
 62
7
  6
CONTINUOUS
 10
-0.2138684449
 20
7.8596568615
 40
3.9252386973
100
AcDbArc
 50
66.1507656662
 51
77.0671262523
  0
ARC
  5
68B
100
AcDbEntity
  8
0
100
AcDbCircle
 62
7
  6
CONTINUOUS
 10
-0.2138673518
 20
7.8596616218
 40
3.9252342465
100
AcDbArc
 50
104.6184599962
 51
108.0305274071
  0
ARC
  5
68C
100
AcDbEntity
  8
0
100
AcDbCircle
 62
7
  6
CONTINUOUS
 10
-0.2138673518
 20
7.8596616218
 40
3.9252339881
100
AcDbArc
 50
109.1820962274
 51
112.6110327739
  0
ARC
  5
68D
100
AcDbEntity
  8
0
100
AcDbCircle
 62
7
  6
CONTINUOUS
 10
-0.2138673518
 20
7.8596616218
 40
3.9252334397
100
AcDbArc
 50
78.1844571259
 51
90.8185424079
  0
ARC
  5
68E
100
AcDbEntity
  8
0
100
AcDbCircle
 62
7
  6
CONTINUOUS
 10
-0.2138673518
 20
7.8596616218
 40
3.9252331561
100
AcDbArc
 50
91.9102115712
 51
103.4934032385
  0
ARC
  5
68F
100
AcDbEntity
  8
0
100
AcDbCircle
 62
7
  6
CONTINUOUS
 10
-0.2138673518
 20
7.8596616218
 40
3.8504679521
100
AcDbArc
 50
109.5695884542
 51
111.7987181432
  0
ARC
  5
690
100
AcDbEntity
  8
0
100
AcDbCircle
 62
7
  6
CONTINUOUS
 10
-0.2138675554
 20
7.8596607527
 40
3.8504678375
100
AcDbArc
 50
66.0805562364
 51
76.8115157989
  0
ARC
  5
691
100
AcDbEntity
  8
0
100
AcDbCircle
 62
7
  6
CONTINUOUS
 10
-0.2138673518
 20
7.8596616218
 40
3.8504675379
100
AcDbArc
 50
91.9473168422
 51
103.7605121028
  0
ARC
  5
692
100
AcDbEntity
  8
0
100
AcDbCircle
 62
7
  6
CONTINUOUS
 10
-0.2138673518
 20
7.8596616218
 40
3.8504671521
100
AcDbArc
 50
104.9088315982
 51
108.3930507127
  0
ARC
  5
693
100
AcDbEntity
  8
0
100
AcDbCircle
 62
7
  6
CONTINUOUS
 10
-0.2138673518
 20
7.8596616218
 40
3.8504668031
100
AcDbArc
 50
77.9516186991
 51
90.8344375197
  0
ARC
  5
694
100
AcDbEntity
  8
DRAFT
100
AcDbCircle
 62
7
  6
CONTINUOUS
 10
-15.0
 20
44.75
 40
2.2849101299
100
AcDbArc
 50
129.2281521339
 51
360.0
  0
ARC
  5
695
100
AcDbEntity
  8
DRAFT
100
AcDbCircle
 62
7
  6
CONTINUOUS
 10
-15.0
 20
44.75
 40
2.25
100
AcDbArc
 50
129.957725307
 51
360.0
  0
CIRCLE
  5
696
100
AcDbEntity
  8
DRAFT
100
AcDbCircle
 62
7
  6
CONTINUOUS
 10
-15.0
 20
44.75
 40
1.3198202597
  0
CIRCLE
  5
697
100
AcDbEntity
  8
DRAFT
100
AcDbCircle
 62
7
  6
CONTINUOUS
 10
-15.0
 20
44.75
 40
1.25
  0
CIRCLE
  5
698
100
AcDbEntity
  8
DRAFT
100
AcDbCircle
 62
7
  6
CONTINUOUS
 10
-15.0
 20
44.75
 40
1.0
  0
CIRCLE
  5
699
100
AcDbEntity
  8
DRAFT
100
AcDbCircle
 62
7
  6
CONTINUOUS
 10
-15.0
 20
44.75
 40
0.9520022272
  0
ARC
  5
69A
100
AcDbEntity
  8
DRAFT
100
AcDbCircle
 62
7
  6
CONTINUOUS
 10
15.0
 20
-44.75
 40
2.2849101299
100
AcDbArc
 50
309.2281521339
 51
180.0
  0
ARC
  5
69B
100
AcDbEntity
  8
DRAFT
100
AcDbCircle
 62
7
  6
CONTINUOUS
 10
15.0
 20
-44.75
 40
2.25
100
AcDbArc
 50
309.957725307
 51
180.0
  0
CIRCLE
  5
69C
100
AcDbEntity
  8
DRAFT
100
AcDbCircle
 62
7
  6
CONTINUOUS
 10
15.0
 20
-44.75
 40
1.3198202597
  0
CIRCLE
  5
69D
100
AcDbEntity
  8
DRAFT
100
AcDbCircle
 62
7
  6
CONTINUOUS
 10
15.0
 20
-44.75
 40
1.25
  0
CIRCLE
  5
69E
100
AcDbEntity
  8
DRAFT
100
AcDbCircle
 62
7
  6
CONTINUOUS
 10
15.0
 20
-44.75
 40
1.0
  0
CIRCLE
  5
69F
100
AcDbEntity
  8
DRAFT
100
AcDbCircle
 62
7
  6
CONTINUOUS
 10
15.0
 20
-44.75
 40
0.9520022272
  0
CIRCLE
  5
6A0
100
AcDbEntity
  8
DRAFT
100
AcDbCircle
 62
7
  6
CONTINUOUS
 10
15.0
 20
44.75
 40
2.2849101299
  0
CIRCLE
  5
6A1
100
AcDbEntity
  8
DRAFT
100
AcDbCircle
 62
7
  6
CONTINUOUS
 10
15.0
 20
44.75
 40
2.25
  0
ARC
  5
6A2
100
AcDbEntity
  8
0
100
AcDbCircle
 62
7
  6
CONTINUOUS
 10
12.5
 20
50.9
 40
2.0
100
AcDbArc
 50
270.0
 51
90.0
  0
ARC
  5
6A3
100
AcDbEntity
  8
0
100
AcDbCircle
 62
7
  6
CONTINUOUS
 10
10.5
 20
50.9
 40
2.0
100
AcDbArc
 50
90.0
 51
270.0
  0
CIRCLE
  5
6A4
100
AcDbEntity
  8
DRAFT
100
AcDbCircle
 62
7
  6
CONTINUOUS
 10
15.0
 20
44.75
 40
1.3198202597
  0
CIRCLE
  5
6A5
100
AcDbEntity
  8
DRAFT
100
AcDbCircle
 62
7
  6
CONTINUOUS
 10
15.0
 20
44.75
 40
1.25
  0
CIRCLE
  5
6A6
100
AcDbEntity
  8
DRAFT
100
AcDbCircle
 62
7
  6
CONTINUOUS
 10
15.0
 20
44.75
 40
1.0
  0
CIRCLE
  5
6A7
100
AcDbEntity
  8
DRAFT
100
AcDbCircle
 62
7
  6
CONTINUOUS
 10
15.0
 20
44.75
 40
0.9520022272
  0
ARC
  5
6A8
100
AcDbEntity
  8
0
100
AcDbCircle
 62
7
  6
CONTINUOUS
 10
1.1132346482
 20
5.9157366218
 40
0.6542057106
100
AcDbArc
 50
84.9999868542
 51
176.7241833468
  0
ARC
  5
6A9
100
AcDbEntity
  8
0
100
AcDbCircle
 62
7
  6
CONTINUOUS
 10
1.1132346482
 20
5.9157366218
 40
0.6542055022
100
AcDbArc
 50
183.2758166532
 51
78.4374939936
  0
CIRCLE
  5
6AA
100
AcDbEntity
  8
0
100
AcDbCircle
 62
7
  6
CONTINUOUS
 10
1.1132346482
 20
5.9157366218
 40
0.373832
  0
ARC
  5
6AB
100
AcDbEntity
  8
0
100
AcDbCircle
 62
7
  6
CONTINUOUS
 10
1.6739826172
 20
11.2989146683
 40
0.3364491397
100
AcDbArc
 50
303.748776311
 51
153.3682546595
  0
ARC
  5
6AC
100
AcDbEntity
  8
0
100
AcDbCircle
 62
7
  6
CONTINUOUS
 10
1.6739827166
 20
11.2989146373
 40
0.3364487707
100
AcDbArc
 50
166.153055358
 51
192.8396974407
  0
CIRCLE
  5
6AD
100
AcDbEntity
  8
0
100
AcDbCircle
 62
7
  6
CONTINUOUS
 10
1.1132346482
 20
5.9157366218
 40
0.224299
  0
ELLIPSE
  5
6AE
100
AcDbEntity
  8
RACCORDO
100
AcDbEllipse
 62
7
  6
CONTINUOUS
 10
-4.3842904416
 20
-16.4
 30
0.0
 11
-0.0
 21
0.3
 31
0.0
 40
0.0174550649
 41
-3.1415926536
 42
-1.5707963268
  0
ELLIPSE
  5
6AF
100
AcDbEntity
  8
RACCORDO
100
AcDbEllipse
 62
7
  6
CONTINUOUS
 10
4.3842904416
 20
-16.4
 30
0.0
 11
0.0
 21
0.3
 31
0.0
 40
0.0174550649
 41
1.5707963268
 42
3.1415926536
  0
ELLIPSE
  5
6B0
100
AcDbEntity
  8
RACCORDO
100
AcDbEllipse
 62
7
  6
CONTINUOUS
 10
-3.899923836
 20
-49.599923836
 30
0.0
 11
0.3536610946
 21
0.3536610946
 31
0.0
 40
0.9996954599
 41
-3.9268385237
 42
-2.3563467834
  0
ELLIPSE
  5
6B1
100
AcDbEntity
  8
RACCORDO
100
AcDbEllipse
 62
7
  6
CONTINUOUS
 10
3.899923836
 20
-49.599923836
 30
0.0
 11
-0.3536610946
 21
0.3536610946
 31
0.0
 40
0.9996954599
 41
-3.9268385237
 42
-2.3563467834
  0
ELLIPSE
  5
6B2
100
AcDbEntity
  8
RACCORDO
100
AcDbEllipse
 62
7
  6
CONTINUOUS
 10
-3.8248670568
 20
-49.5248670568
 30
0.0
 11
-0.3536610946
 21
-0.3536610946
 31
0.0
 40
0.9996954599
 41
-0.7852458701
 42
0.7852458701
  0
ELLIPSE
  5
6B3
100
AcDbEntity
  8
RACCORDO
100
AcDbEllipse
 62
7
  6
CONTINUOUS
 10
3.8248670568
 20
-49.5248670568
 30
0.0
 11
0.3536610946
 21
-0.3536610946
 31
0.0
 40
0.9996954599
 41
-0.7852458701
 42
0.7852458701
  0
ELLIPSE
  5
6B4
100
AcDbEntity
  8
RACCORDO
100
AcDbEllipse
 62
7
  6
CONTINUOUS
 10
-16.7146972986
 20
34.9
 30
0.0
 11
-0.0
 21
1.0
 31
0.0
 40
0.0174550649
 41
0.0
 42
1.5707963268
  0
ELLIPSE
  5
6B5
100
AcDbEntity
  8
RACCORDO
100
AcDbEllipse
 62
7
  6
CONTINUOUS
 10
-16.7146972986
 20
25.1
 30
0.0
 11
0.0
 21
1.0
 31
0.0
 40
0.0174550649
 41
-4.7123889804
 42
-3.1415926536
  0
ELLIPSE
  5
6B6
100
AcDbEntity
  8
RACCORDO
100
AcDbEllipse
 62
7
  6
CONTINUOUS
 10
-16.7146972986
 20
-25.1
 30
0.0
 11
0.0
 21
1.0
 31
0.0
 40
0.0174550649
 41
0.0
 42
1.5707963268
  0
ELLIPSE
  5
6B7
100
AcDbEntity
  8
RACCORDO
100
AcDbEllipse
 62
7
  6
CONTINUOUS
 10
-16.7146972986
 20
-34.9
 30
0.0
 11
-0.0
 21
1.0
 31
0.0
 40
0.0174550649
 41
-4.7123889804
 42
-3.1415926536
  0
ELLIPSE
  5
6B8
100
AcDbEntity
  8
RACCORDO
100
AcDbEllipse
 62
7
  6
CONTINUOUS
 10
16.7146972986
 20
-34.9
 30
0.0
 11
-0.0
 21
1.0
 31
0.0
 40
0.0174550649
 41
-3.1415926536
 42
-1.5707963268
  0
ELLIPSE
  5
6B9
100
AcDbEntity
  8
RACCORDO
100
AcDbEllipse
 62
7
  6
CONTINUOUS
 10
16.7146972986
 20
-25.1
 30
0.0
 11
0.0
 21
1.0
 31
0.0
 40
0.0174550649
 41
-1.5707963268
 42
-0.0
  0
ELLIPSE
  5
6BA
100
AcDbEntity
  8
RACCORDO
100
AcDbEllipse
 62
7
  6
CONTINUOUS
 10
16.7146972986
 20
25.1
 30
0.0
 11
-0.0
 21
1.0
 31
0.0
 40
0.0174550649
 41
-3.1415926536
 42
-1.5707963268
  0
ELLIPSE
  5
6BB
100
AcDbEntity
  8
RACCORDO
100
AcDbEllipse
 62
7
  6
CONTINUOUS
 10
16.7146972986
 20
34.9
 30
0.0
 11
0.0
 21
1.0
 31
0.0
 40
0.0174550649
 41
-1.5707963268
 42
-0.0
  0
ELLIPSE
  5
6BC
100
AcDbEntity
  8
RACCORDO
100
AcDbEllipse
 62
7
  6
CONTINUOUS
 10
-17.8162156883
 20
34.9
 30
0.0
 11
0.0
 21
1.0
 31
0.0
 40
0.0174550649
 41
-1.5707963268
 42
-0.0
  0
ELLIPSE
  5
6BD
100
AcDbEntity
  8
RACCORDO
100
AcDbEllipse
 62
7
  6
CONTINUOUS
 10
-17.8162156883
 20
25.1
 30
0.0
 11
0.0
 21
1.0
 31
0.0
 40
0.0174550649
 41
-3.1415926536
 42
-1.5707963268
  0
ELLIPSE
  5
6BE
100
AcDbEntity
  8
RACCORDO
100
AcDbEllipse
 62
7
  6
CONTINUOUS
 10
-17.8162156883
 20
-25.1
 30
0.0
 11
-0.0
 21
1.0
 31
0.0
 40
0.0174550649
 41
-1.5707963268
 42
-0.0
  0
ELLIPSE
  5
6BF
100
AcDbEntity
  8
RACCORDO
100
AcDbEllipse
 62
7
  6
CONTINUOUS
 10
-17.8162156883
 20
-34.9
 30
0.0
 11
-0.0
 21
1.0
 31
0.0
 40
0.0174550649
 41
-3.1415926536
 42
-1.5707963268
  0
ELLIPSE
  5
6C0
100
AcDbEntity
  8
RACCORDO
100
AcDbEllipse
 62
7
  6
CONTINUOUS
 10
17.8162156883
 20
25.1
 30
0.0
 11
0.0
 21
1.0
 31
0.0
 40
0.0174550649
 41
-4.7123889804
 42
-3.1415926536
  0
ELLIPSE
  5
6C1
100
AcDbEntity
  8
RACCORDO
100
AcDbEllipse
 62
7
  6
CONTINUOUS
 10
17.8162156883
 20
34.9
 30
0.0
 11
-0.0
 21
1.0
 31
0.0
 40
0.0174550649
 41
0.0
 42
1.5707963268
  0
ELLIPSE
  5
6C2
100
AcDbEntity
  8
RACCORDO
100
AcDbEllipse
 62
7
  6
CONTINUOUS
 10
17.8162156883
 20
-25.1
 30
0.0
 11
0.0
 21
1.0
 31
0.0
 40
0.0174550649
 41
0.0
 42
1.5707963268
  0
ELLIPSE
  5
6C3
100
AcDbEntity
  8
RACCORDO
100
AcDbEllipse
 62
7
  6
CONTINUOUS
 10
17.8162156883
 20
-34.9
 30
0.0
 11
0.0
 21
1.0
 31
0.0
 40
0.0174550649
 41
-4.7123889804
 42
-3.1415926536
  0
ELLIPSE
  5
6C4
100
AcDbEntity
  8
RACCORDO
100
AcDbEllipse
 62
7
  6
CONTINUOUS
 10
-16.899847672
 20
-53.899847672
 30
0.0
 11
0.7073221892
 21
0.7073221892
 31
0.0
 40
0.9996954599
 41
2.3563467834
 42
3.9268385237
  0
ELLIPSE
  5
6C5
100
AcDbEntity
  8
RACCORDO
100
AcDbEllipse
 62
7
  6
CONTINUOUS
 10
16.899847672
 20
-53.899847672
 30
0.0
 11
0.7073221892
 21
-0.7073221892
 31
0.0
 40
0.9996954599
 41
-0.7852458701
 42
0.7852458701
  0
ELLIPSE
  5
6C6
100
AcDbEntity
  8
RACCORDO
100
AcDbEllipse
 62
7
  6
CONTINUOUS
 10
-16.899847672
 20
53.899847672
 30
0.0
 11
0.7073221892
 21
-0.7073221892
 31
0.0
 40
0.9996954599
 41
2.3563467834
 42
3.9268385237
  0
ELLIPSE
  5
6C7
100
AcDbEntity
  8
RACCORDO
100
AcDbEllipse
 62
7
  6
CONTINUOUS
 10
16.899847672
 20
53.899847672
 30
0.0
 11
0.7073221892
 21
0.7073221892
 31
0.0
 40
0.9996954599
 41
-0.7852458701
 42
0.7852458701
  0
ELLIPSE
  5
6C8
100
AcDbEntity
  8
RACCORDO
100
AcDbEllipse
 62
7
  6
CONTINUOUS
 10
5.9546029997
 20
-0.9542982275
 30
0.0
 11
0.0
 21
0.5
 31
0.0
 40
0.0349207695
 41
-4.7123889804
 42
-3.1764992386
  0
ELLIPSE
  5
6C9
100
AcDbEntity
  8
RACCORDO
100
AcDbEllipse
 62
7
  6
CONTINUOUS
 10
5.9546029997
 20
0.9542982275
 30
0.0
 11
0.0
 21
0.5
 31
0.0
 40
0.0349207695
 41
0.034906585
 42
1.5707963268
  0
ELLIPSE
  5
6CA
100
AcDbEntity
  8
RACCORDO
100
AcDbEllipse
 62
7
  6
CONTINUOUS
 10
-4.8483339502
 20
0.9542982275
 30
0.0
 11
0.0
 21
0.5
 31
0.0
 40
0.2679491924
 41
0.034906585
 42
1.5707963268
  0
ELLIPSE
  5
6CB
100
AcDbEntity
  8
RACCORDO
100
AcDbEllipse
 62
7
  6
CONTINUOUS
 10
-4.8483339502
 20
-0.9542982275
 30
0.0
 11
0.0
 21
0.5
 31
0.0
 40
0.2679491924
 41
-4.7123889804
 42
-3.1764992386
  0
ELLIPSE
  5
6CC
100
AcDbEntity
  8
RACCORDO
100
AcDbEllipse
 62
7
  6
CONTINUOUS
 10
4.8483339502
 20
-0.9542982275
 30
0.0
 11
0.0
 21
0.5
 31
0.0
 40
0.2679491924
 41
-3.1066860685
 42
-1.5707963268
  0
ELLIPSE
  5
6CD
100
AcDbEntity
  8
RACCORDO
100
AcDbEllipse
 62
7
  6
CONTINUOUS
 10
4.8483339502
 20
0.9542982275
 30
0.0
 11
0.0
 21
0.5
 31
0.0
 40
0.2679491924
 41
-1.5707963268
 42
-0.034906585
  0
ELLIPSE
  5
6CE
100
AcDbEntity
  8
RACCORDO
100
AcDbEllipse
 62
7
  6
CONTINUOUS
 10
-16.7951172824
 20
-53.7951172824
 30
0.0
 11
0.7073221892
 21
0.7073221892
 31
0.0
 40
0.9996954599
 41
2.3563467834
 42
3.9268385237
  0
ELLIPSE
  5
6CF
100
AcDbEntity
  8
RACCORDO
100
AcDbEllipse
 62
7
  6
CONTINUOUS
 10
-5.9546029997
 20
0.9542982275
 30
0.0
 11
-0.0
 21
0.5
 31
0.0
 40
0.0349207695
 41
-1.5707963268
 42
-0.034906585
  0
ELLIPSE
  5
6D0
100
AcDbEntity
  8
RACCORDO
100
AcDbEllipse
 62
7
  6
CONTINUOUS
 10
16.7951172824
 20
-53.7951172824
 30
0.0
 11
0.7073221892
 21
-0.7073221892
 31
0.0
 40
0.9996954599
 41
-0.7852458701
 42
0.7852458701
  0
ELLIPSE
  5
6D1
100
AcDbEntity
  8
RACCORDO
100
AcDbEllipse
 62
7
  6
CONTINUOUS
 10
-16.7951172824
 20
53.7951172824
 30
0.0
 11
-0.7073221892
 21
0.7073221892
 31
0.0
 40
0.9996954599
 41
-0.7852458701
 42
0.7852458701
  0
ELLIPSE
  5
6D2
100
AcDbEntity
  8
RACCORDO
100
AcDbEllipse
 62
7
  6
CONTINUOUS
 10
16.7951172824
 20
53.7951172824
 30
0.0
 11
-0.7073221892
 21
-0.7073221892
 31
0.0
 40
0.9996954599
 41
2.3563467834
 42
3.9268385237
  0
ELLIPSE
  5
6D3
100
AcDbEntity
  8
RACCORDO
100
AcDbEllipse
 62
7
  6
CONTINUOUS
 10
-5.9546029997
 20
-0.9542982275
 30
0.0
 11
0.0
 21
0.5
 31
0.0
 40
0.0349207695
 41
-3.1066860685
 42
-1.5707963268
  0
ENDSEC
  0
SECTION
  2
OBJECTS
  0
DICTIONARY
  5
C
100
AcDbDictionary
280
0
281
1
  3
ACAD_GROUP
350
D
  3
ACAD_MLINESTYLE
350
17
  3
ACAD_LAYOUT
350
1A
  3
ACAD_PLOTSETTINGS
350
19
  3
ACAD_PLOTSTYLENAME
350
E
  0
DICTIONARY
  5
D
102
{ACAD_REACTORS
330
C
102
}
100
AcDbDictionary
280
0
281
1
  0
ACDBDICTIONARYWDFLT
  5
E
102
{ACAD_REACTORS
330
C
102
}
100
AcDbDictionary
281
1
  3
Normal
350
F
100
AcDbDictionaryWithDefault
340
F
  0
DICTIONARY
  5
17
102
{ACAD_REACTORS
330
C
102
}
100
AcDbDictionary
280
0
281
1
  3
Standard
350
18
  0
DICTIONARY
  5
19
102
{ACAD_REACTORS
330
C
102
}
100
AcDbDictionary
281
1
  0
DICTIONARY
  5
1A
102
{ACAD_REACTORS
330
C
102
}
100
AcDbDictionary
281
1
  3
Model
350
6D4
  3
Layout1
350
6D5
  0
ACDBPLACEHOLDER
  5
F
102
{ACAD_REACTORS
330
E
102
}
  0
MLINESTYLE
  5
18
102
{ACAD_REACTORS
330
17
102
}
100
AcDbMlineStyle
  2
STANDARD
 70
0
  3

 62
256
 51
90.0
 52
90.0
 71
2
 49
0.5
 62
256
  6
BYLAYER
 49
-0.5
 62
256
  6
BYLAYER
  0
LAYOUT
  5
6D4
102
{ACAD_REACTORS
330
1A
102
}
100
AcDbPlotSettings
  1

  2
none_device
  4
ISO_A4_(297.00_x_210.00_MM)
  6

 40
0.0
 41
0.0
 42
0.0
 43
0.0
 44
297.0
 45
210.0
 46
0.0
 47
0.0
 48
0.0
 49
0.0
140
0.0
141
0.0
142
1.0
143
1.0
 70
1024
 72
1
 73
0
 74
0
  7

 75
0
147
1.0
148
0.0
149
0.0
100
AcDbLayout
  1
Model
 70
0
 71
0
 10
0.0
 20
0.0
 11
297.0
 21
210.0
 12
0.0
 22
0.0
 32
0.0
 14
0.0
 24
0.0
 34
0.0
 15
0.0
 25
0.0
 35
0.0
146
0.0
 13
0.0
 23
0.0
 33
0.0
 16
1.0
 26
0.0
 36
0.0
 17
0.0
 27
1.0
 37
0.0
 76
0
330
2C3
345
0
346
0
  0
LAYOUT
  5
6D5
102
{ACAD_REACTORS
330
1A
102
}
100
AcDbPlotSettings
  1

  2
none_device
  4
ISO_A4_(297.00_x_210.00_MM)
  6

 40
0.0
 41
0.0
 42
0.0
 43
0.0
 44
297.0
 45
210.0
 46
0.0
 47
0.0
 48
0.0
 49
0.0
140
0.0
141
0.0
142
1.0
143
1.0
 70
0
 72
1
 73
0
 74
0
  7

 75
0
147
1.0
148
0.0
149
0.0
100
AcDbLayout
  1
Layout1
 70
0
 71
1
 10
0.0
 20
0.0
 11
297.0
 21
210.0
 12
0.0
 22
0.0
 32
0.0
 14
0.0
 24
0.0
 34
0.0
 15
0.0
 25
0.0
 35
0.0
146
0.0
 13
0.0
 23
0.0
 33
0.0
 16
1.0
 26
0.0
 36
0.0
 17
0.0
 27
1.0
 37
0.0
 76
0
330
2C4
345
0
346
0
  0
ENDSEC
  0
EOF
