  0
SECTION
  2
HEADER
  9
$ACADVER
  1
AC1024
  9
$DWGCODEPAGE
  3
ANSI_1252
  9
$EXTMAX
 10
297.0
 20
210.0
 30
0.0
  9
$EXTMIN
 10
0.0
 20
0.0
 30
0.0
  9
$LIMMIN
 10
0.0
 20
0.0
  9
$LIMMAX
 10
297.0
 20
210.0
  9
$VIEWCTR
 10
148.5
 20
105.0
  9
$VIEWSIZE
 40
210.0
  9
$CLAYER
  8
0
  9
$LTSCALE
 40
16.335
  9
$CELTYPE
  6
BYLAYER
  9
$DIMSCALE
 40
1.0
  9
$DIMASZ
 40
3.0
  9
$DIMEXO
 40
0.5
  9
$DIMDLI
 40
11.286
  9
$DIMEXE
 40
1.5
  9
$DIMCEN
 40
2.673
  9
$DIMLFAC
 40
1.0
  9
$DIMBLK
  1
_FILLED
  9
$DIMALT
 70
0
  9
$DIMALTF
 40
0.0393700787
  9
$DIMTXT
 40
3.0
  9
$DIMTOL
 70
1
  9
$DIMLIM
 70
0
  9
$DIMTFAC
 40
1.0
  9
$DIMTP
 40
0.01
  9
$DIMTM
 40
0.01
  9
$DIMGAP
 40
0.625
  9
$DIMDSEP
 70
44
  9
$AUNITS
 70
0
  9
$PDMODE
 70
3
  9
$PDSIZE
 40
3.0
  9
$HANDSEED
  5
696
  9
$TILEMODE
 70
1
  9
$MEASUREMENT
 70
1
  9
$INSUNITS
 70
4
  0
ENDSEC
  0
SECTION
  2
CLASSES
  0
CLASS
  1
ACDBDICTIONARYWDFLT
  2
AcDbDictionaryWithDefault
  3
AutoCAD 2000
 90
0
 91
1
280
0
281
0
  0
CLASS
  1
ACDBPLACEHOLDER
  2
AcDbPlaceHolder
  3
AutoCAD 2000
 90
0
 91
1
280
0
281
0
  0
CLASS
  1
LAYOUT
  2
AcDbLayout
  3
AutoCAD 2000
 90
0
 91
0
280
0
281
0
  0
ENDSEC
  0
SECTION
  2
TABLES
  0
TABLE
  2
VPORT
  5
8
100
AcDbSymbolTable
 70
2
  0
VPORT
  5
1F4
100
AcDbSymbolTableRecord
100
AcDbViewportTableRecord
  2
*ACTIVE
 70
0
 10
0.0
 20
0.0
 11
1.0
 21
1.0
 12
148.5
 22
105.0
 13
0.0
 23
0.0
 14
1.0
 24
1.0
 15
0.0
 25
0.0
 16
0.0
 26
0.0
 36
1.0
 17
0.0
 27
0.0
 37
0.0
 40
210.0
 41
1.4142857143
 42
50.0
 43
0.0
 44
0.0
 50
0.0
 51
0.0
 71
0
 72
100
 73
1
 74
1
 75
0
 76
0
 77
0
 78
0
  0
ENDTAB
  0
TABLE
  2
LTYPE
  5
5
100
AcDbSymbolTable
 70
6
  0
LTYPE
  5
14
100
AcDbSymbolTableRecord
100
AcDbLinetypeTableRecord
  2
BYBLOCK
 70
0
  3

 72
65
 73
0
 40
0.0
  0
LTYPE
  5
15
100
AcDbSymbolTableRecord
100
AcDbLinetypeTableRecord
  2
BYLAYER
 70
0
  3

 72
65
 73
0
 40
0.0
  0
LTYPE
  5
16
100
AcDbSymbolTableRecord
100
AcDbLinetypeTableRecord
  2
CONTINUOUS
 70
64
  3
Solid line
 72
65
 73
0
 40
0.0
  0
LTYPE
  5
1F5
100
AcDbSymbolTableRecord
100
AcDbLinetypeTableRecord
  2
CENTER
 70
64
  3
____ _ ____ _ ____ _ ____ _ ____ _ ____ _ ____
 72
65
 73
4
 40
0.6
 49
0.375
 74
0
 49
-0.075
 74
0
 49
0.075
 74
0
 49
-0.075
 74
0
  0
LTYPE
  5
1F6
100
AcDbSymbolTableRecord
100
AcDbLinetypeTableRecord
  2
HIDDEN
 70
64
  3
- - - - - - - - - - - - - - - - - - - -
 72
65
 73
2
 40
0.2
 49
0.1
 74
0
 49
-0.1
 74
0
  0
LTYPE
  5
1F7
100
AcDbSymbolTableRecord
100
AcDbLinetypeTableRecord
  2
PHANTOM
 70
64
  3
_____ _ _ _____ _ _ _____ _ _ _____
 72
65
 73
6
 40
0.8
 49
0.45
 74
0
 49
-0.05
 74
0
 49
0.1
 74
0
 49
-0.05
 74
0
 49
0.1
 74
0
 49
-0.05
 74
0
  0
LTYPE
  5
1F8
100
AcDbSymbolTableRecord
100
AcDbLinetypeTableRecord
  2
DOT
 70
64
  3
. . . . . . . . . . . . . . . . . . . .
 72
65
 73
2
 40
0.2
 49
0.1
 74
0
 49
-0.1
 74
0
  0
LTYPE
  5
1F9
100
AcDbSymbolTableRecord
100
AcDbLinetypeTableRecord
  2
DASHED
 70
64
  3
- - - - - - - - - - - - - - - - - - - -
 72
65
 73
2
 40
0.2
 49
0.1
 74
0
 49
-0.1
 74
0
  0
ENDTAB
  0
TABLE
  2
LAYER
  5
2
100
AcDbSymbolTable
 70
36
  0
LAYER
  5
10
100
AcDbSymbolTableRecord
100
AcDbLayerTableRecord
  2
0
 70
0
 62
7
  6
CONTINUOUS
370
-3
390
F
  0
LAYER
  5
1FA
100
AcDbSymbolTableRecord
100
AcDbLayerTableRecord
  2
DEFAULT_1
 70
0
 62
7
  6
CENTER
370
-3
390
F
  0
LAYER
  5
1FB
100
AcDbSymbolTableRecord
100
AcDbLayerTableRecord
  2
DEFAULT_2
 70
0
 62
7
  6
HIDDEN
370
-3
390
F
  0
LAYER
  5
1FC
100
AcDbSymbolTableRecord
100
AcDbLayerTableRecord
  2
DEFAULT_3
 70
0
 62
7
  6
PHANTOM
370
-3
390
F
  0
LAYER
  5
1FD
100
AcDbSymbolTableRecord
100
AcDbLayerTableRecord
  2
0402_C_REF_70000
 70
0
 62
7
  6
CONTINUOUS
370
-3
390
F
  0
LAYER
  5
1FE
100
AcDbSymbolTableRecord
100
AcDbLayerTableRecord
  2
0402_C_REF_70000_1
 70
0
 62
7
  6
CONTINUOUS
370
-3
390
F
  0
LAYER
  5
1FF
100
AcDbSymbolTableRecord
100
AcDbLayerTableRecord
  2
0402_C_REF_70000_10
 70
0
 62
7
  6
CONTINUOUS
370
-3
390
F
  0
LAYER
  5
200
100
AcDbSymbolTableRecord
100
AcDbLayerTableRecord
  2
0402_C_REF_70000_11
 70
0
 62
7
  6
CONTINUOUS
370
-3
390
F
  0
LAYER
  5
201
100
AcDbSymbolTableRecord
100
AcDbLayerTableRecord
  2
0402_C_REF_70000_12
 70
0
 62
7
  6
CONTINUOUS
370
-3
390
F
  0
LAYER
  5
202
100
AcDbSymbolTableRecord
100
AcDbLayerTableRecord
  2
0402_C_REF_70000_13
 70
0
 62
7
  6
CONTINUOUS
370
-3
390
F
  0
LAYER
  5
203
100
AcDbSymbolTableRecord
100
AcDbLayerTableRecord
  2
0402_C_REF_70000_14
 70
0
 62
7
  6
CONTINUOUS
370
-3
390
F
  0
LAYER
  5
204
100
AcDbSymbolTableRecord
100
AcDbLayerTableRecord
  2
0402_C_REF_70000_15
 70
0
 62
7
  6
CONTINUOUS
370
-3
390
F
  0
LAYER
  5
205
100
AcDbSymbolTableRecord
100
AcDbLayerTableRecord
  2
0402_C_REF_70000_16
 70
0
 62
7
  6
CONTINUOUS
370
-3
390
F
  0
LAYER
  5
206
100
AcDbSymbolTableRecord
100
AcDbLayerTableRecord
  2
0402_C_REF_70000_17
 70
0
 62
7
  6
CONTINUOUS
370
-3
390
F
  0
LAYER
  5
207
100
AcDbSymbolTableRecord
100
AcDbLayerTableRecord
  2
0402_C_REF_70000_18
 70
0
 62
7
  6
CONTINUOUS
370
-3
390
F
  0
LAYER
  5
208
100
AcDbSymbolTableRecord
100
AcDbLayerTableRecord
  2
0402_C_REF_70000_19
 70
0
 62
7
  6
CONTINUOUS
370
-3
390
F
  0
LAYER
  5
209
100
AcDbSymbolTableRecord
100
AcDbLayerTableRecord
  2
0402_C_REF_70000_2
 70
0
 62
7
  6
CONTINUOUS
370
-3
390
F
  0
LAYER
  5
20A
100
AcDbSymbolTableRecord
100
AcDbLayerTableRecord
  2
0402_C_REF_70000_20
 70
0
 62
7
  6
CONTINUOUS
370
-3
390
F
  0
LAYER
  5
20B
100
AcDbSymbolTableRecord
100
AcDbLayerTableRecord
  2
0402_C_REF_70000_21
 70
0
 62
7
  6
CONTINUOUS
370
-3
390
F
  0
LAYER
  5
20C
100
AcDbSymbolTableRecord
100
AcDbLayerTableRecord
  2
0402_C_REF_70000_22
 70
0
 62
7
  6
CONTINUOUS
370
-3
390
F
  0
LAYER
  5
20D
100
AcDbSymbolTableRecord
100
AcDbLayerTableRecord
  2
0402_C_REF_70000_23
 70
0
 62
7
  6
CONTINUOUS
370
-3
390
F
  0
LAYER
  5
20E
100
AcDbSymbolTableRecord
100
AcDbLayerTableRecord
  2
0402_C_REF_70000_24
 70
0
 62
7
  6
CONTINUOUS
370
-3
390
F
  0
LAYER
  5
20F
100
AcDbSymbolTableRecord
100
AcDbLayerTableRecord
  2
0402_C_REF_70000_25
 70
0
 62
7
  6
CONTINUOUS
370
-3
390
F
  0
LAYER
  5
210
100
AcDbSymbolTableRecord
100
AcDbLayerTableRecord
  2
0402_C_REF_70000_26
 70
0
 62
7
  6
CONTINUOUS
370
-3
390
F
  0
LAYER
  5
211
100
AcDbSymbolTableRecord
100
AcDbLayerTableRecord
  2
0402_C_REF_70000_27
 70
0
 62
7
  6
CONTINUOUS
370
-3
390
F
  0
LAYER
  5
212
100
AcDbSymbolTableRecord
100
AcDbLayerTableRecord
  2
0402_C_REF_70000_28
 70
0
 62
7
  6
CONTINUOUS
370
-3
390
F
  0
LAYER
  5
213
100
AcDbSymbolTableRecord
100
AcDbLayerTableRecord
  2
0402_C_REF_70000_29
 70
0
 62
7
  6
CONTINUOUS
370
-3
390
F
  0
LAYER
  5
214
100
AcDbSymbolTableRecord
100
AcDbLayerTableRecord
  2
0402_C_REF_70000_3
 70
0
 62
7
  6
CONTINUOUS
370
-3
390
F
  0
LAYER
  5
215
100
AcDbSymbolTableRecord
100
AcDbLayerTableRecord
  2
0402_C_REF_70000_4
 70
0
 62
7
  6
CONTINUOUS
370
-3
390
F
  0
LAYER
  5
216
100
AcDbSymbolTableRecord
100
AcDbLayerTableRecord
  2
0402_C_REF_70000_5
 70
0
 62
7
  6
CONTINUOUS
370
-3
390
F
  0
LAYER
  5
217
100
AcDbSymbolTableRecord
100
AcDbLayerTableRecord
  2
0402_C_REF_70000_6
 70
0
 62
7
  6
CONTINUOUS
370
-3
390
F
  0
LAYER
  5
218
100
AcDbSymbolTableRecord
100
AcDbLayerTableRecord
  2
0402_C_REF_70000_7
 70
0
 62
7
  6
CONTINUOUS
370
-3
390
F
  0
LAYER
  5
219
100
AcDbSymbolTableRecord
100
AcDbLayerTableRecord
  2
0402_C_REF_70000_8
 70
0
 62
7
  6
CONTINUOUS
370
-3
390
F
  0
LAYER
  5
21A
100
AcDbSymbolTableRecord
100
AcDbLayerTableRecord
  2
0402_C_REF_70000_9
 70
0
 62
7
  6
CONTINUOUS
370
-3
390
F
  0
LAYER
  5
21B
100
AcDbSymbolTableRecord
100
AcDbLayerTableRecord
  2
0402_R_REF_30000
 70
0
 62
7
  6
CONTINUOUS
370
-3
390
F
  0
LAYER
  5
21C
100
AcDbSymbolTableRecord
100
AcDbLayerTableRecord
  2
0402_R_REF_30000_1
 70
0
 62
7
  6
CONTINUOUS
370
-3
390
F
  0
LAYER
  5
21D
100
AcDbSymbolTableRecord
100
AcDbLayerTableRecord
  2
0402_R_REF_30000_10
 70
0
 62
7
  6
CONTINUOUS
370
-3
390
F
  0
LAYER
  5
21E
100
AcDbSymbolTableRecord
100
AcDbLayerTableRecord
  2
0402_R_REF_30000_11
 70
0
 62
7
  6
CONTINUOUS
370
-3
390
F
  0
LAYER
  5
21F
100
AcDbSymbolTableRecord
100
AcDbLayerTableRecord
  2
0402_R_REF_30000_12
 70
0
 62
7
  6
CONTINUOUS
370
-3
390
F
  0
LAYER
  5
220
100
AcDbSymbolTableRecord
100
AcDbLayerTableRecord
  2
0402_R_REF_30000_13
 70
0
 62
7
  6
CONTINUOUS
370
-3
390
F
  0
LAYER
  5
221
100
AcDbSymbolTableRecord
100
AcDbLayerTableRecord
  2
0402_R_REF_30000_14
 70
0
 62
7
  6
CONTINUOUS
370
-3
390
F
  0
LAYER
  5
222
100
AcDbSymbolTableRecord
100
AcDbLayerTableRecord
  2
0402_R_REF_30000_15
 70
0
 62
7
  6
CONTINUOUS
370
-3
390
F
  0
LAYER
  5
223
100
AcDbSymbolTableRecord
100
AcDbLayerTableRecord
  2
0402_R_REF_30000_16
 70
0
 62
7
  6
CONTINUOUS
370
-3
390
F
  0
LAYER
  5
224
100
AcDbSymbolTableRecord
100
AcDbLayerTableRecord
  2
0402_R_REF_30000_17
 70
0
 62
7
  6
CONTINUOUS
370
-3
390
F
  0
LAYER
  5
225
100
AcDbSymbolTableRecord
100
AcDbLayerTableRecord
  2
0402_R_REF_30000_18
 70
0
 62
7
  6
CONTINUOUS
370
-3
390
F
  0
LAYER
  5
226
100
AcDbSymbolTableRecord
100
AcDbLayerTableRecord
  2
0402_R_REF_30000_19
 70
0
 62
7
  6
CONTINUOUS
370
-3
390
F
  0
LAYER
  5
227
100
AcDbSymbolTableRecord
100
AcDbLayerTableRecord
  2
0402_R_REF_30000_2
 70
0
 62
7
  6
CONTINUOUS
370
-3
390
F
  0
LAYER
  5
228
100
AcDbSymbolTableRecord
100
AcDbLayerTableRecord
  2
0402_R_REF_30000_20
 70
0
 62
7
  6
CONTINUOUS
370
-3
390
F
  0
LAYER
  5
229
100
AcDbSymbolTableRecord
100
AcDbLayerTableRecord
  2
0402_R_REF_30000_21
 70
0
 62
7
  6
CONTINUOUS
370
-3
390
F
  0
LAYER
  5
22A
100
AcDbSymbolTableRecord
100
AcDbLayerTableRecord
  2
0402_R_REF_30000_3
 70
0
 62
7
  6
CONTINUOUS
370
-3
390
F
  0
LAYER
  5
22B
100
AcDbSymbolTableRecord
100
AcDbLayerTableRecord
  2
0402_R_REF_30000_4
 70
0
 62
7
  6
CONTINUOUS
370
-3
390
F
  0
LAYER
  5
22C
100
AcDbSymbolTableRecord
100
AcDbLayerTableRecord
  2
0402_R_REF_30000_5
 70
0
 62
7
  6
CONTINUOUS
370
-3
390
F
  0
LAYER
  5
22D
100
AcDbSymbolTableRecord
100
AcDbLayerTableRecord
  2
0402_R_REF_30000_6
 70
0
 62
7
  6
CONTINUOUS
370
-3
390
F
  0
LAYER
  5
22E
100
AcDbSymbolTableRecord
100
AcDbLayerTableRecord
  2
0402_R_REF_30000_7
 70
0
 62
7
  6
CONTINUOUS
370
-3
390
F
  0
LAYER
  5
22F
100
AcDbSymbolTableRecord
100
AcDbLayerTableRecord
  2
0402_R_REF_30000_8
 70
0
 62
7
  6
CONTINUOUS
370
-3
390
F
  0
LAYER
  5
230
100
AcDbSymbolTableRecord
100
AcDbLayerTableRecord
  2
0402_R_REF_30000_9
 70
0
 62
7
  6
CONTINUOUS
370
-3
390
F
  0
LAYER
  5
231
100
AcDbSymbolTableRecord
100
AcDbLayerTableRecord
  2
0603_C_REF_90000
 70
0
 62
7
  6
CONTINUOUS
370
-3
390
F
  0
LAYER
  5
232
100
AcDbSymbolTableRecord
100
AcDbLayerTableRecord
  2
0603_C_REF_90000_1
 70
0
 62
7
  6
CONTINUOUS
370
-3
390
F
  0
LAYER
  5
233
100
AcDbSymbolTableRecord
100
AcDbLayerTableRecord
  2
0603_C_REF_90000_2
 70
0
 62
7
  6
CONTINUOUS
370
-3
390
F
  0
LAYER
  5
234
100
AcDbSymbolTableRecord
100
AcDbLayerTableRecord
  2
0603_C_REF_90000_3
 70
0
 62
7
  6
CONTINUOUS
370
-3
390
F
  0
LAYER
  5
235
100
AcDbSymbolTableRecord
100
AcDbLayerTableRecord
  2
0603_C_REF_90000_4
 70
0
 62
7
  6
CONTINUOUS
370
-3
390
F
  0
LAYER
  5
236
100
AcDbSymbolTableRecord
100
AcDbLayerTableRecord
  2
0603_R_REF_55000
 70
0
 62
7
  6
CONTINUOUS
370
-3
390
F
  0
LAYER
  5
237
100
AcDbSymbolTableRecord
100
AcDbLayerTableRecord
  2
06___PRT_ALL_SURFS_1
 70
0
 62
7
  6
CONTINUOUS
370
-3
390
F
  0
LAYER
  5
238
100
AcDbSymbolTableRecord
100
AcDbLayerTableRecord
  2
06___PRT_ALL_SURFS_11
 70
0
 62
7
  6
CONTINUOUS
370
-3
390
F
  0
LAYER
  5
239
100
AcDbSymbolTableRecord
100
AcDbLayerTableRecord
  2
06___PRT_ALL_SURFS_12
 70
0
 62
7
  6
CONTINUOUS
370
-3
390
F
  0
LAYER
  5
23A
100
AcDbSymbolTableRecord
100
AcDbLayerTableRecord
  2
06___PRT_ALL_SURFS_4
 70
0
 62
7
  6
CONTINUOUS
370
-3
390
F
  0
LAYER
  5
23B
100
AcDbSymbolTableRecord
100
AcDbLayerTableRecord
  2
06___PRT_ALL_SURFS_6
 70
0
 62
7
  6
CONTINUOUS
370
-3
390
F
  0
LAYER
  5
23C
100
AcDbSymbolTableRecord
100
AcDbLayerTableRecord
  2
06___PRT_ALL_SURFS_7
 70
0
 62
7
  6
CONTINUOUS
370
-3
390
F
  0
LAYER
  5
23D
100
AcDbSymbolTableRecord
100
AcDbLayerTableRecord
  2
0805_R_REF_60000
 70
0
 62
7
  6
CONTINUOUS
370
-3
390
F
  0
LAYER
  5
23E
100
AcDbSymbolTableRecord
100
AcDbLayerTableRecord
  2
43001079A0
 70
0
 62
7
  6
CONTINUOUS
370
-3
390
F
  0
LAYER
  5
23F
100
AcDbSymbolTableRecord
100
AcDbLayerTableRecord
  2
43001080A0
 70
0
 62
7
  6
CONTINUOUS
370
-3
390
F
  0
LAYER
  5
240
100
AcDbSymbolTableRecord
100
AcDbLayerTableRecord
  2
ASSI
 70
0
 62
7
  6
CONTINUOUS
370
-3
390
F
  0
LAYER
  5
241
100
AcDbSymbolTableRecord
100
AcDbLayerTableRecord
  2
CAP-E-SMD-8_3-8_3-10_5_1050000
 70
0
 62
7
  6
CONTINUOUS
370
-3
390
F
  0
LAYER
  5
242
100
AcDbSymbolTableRecord
100
AcDbLayerTableRecord
  2
CC-20MILS-VIMAR_1000
 70
0
 62
7
  6
CONTINUOUS
370
-3
390
F
  0
LAYER
  5
243
100
AcDbSymbolTableRecord
100
AcDbLayerTableRecord
  2
CN_M_THT_P5_R1_P2_SET_1750000
 70
0
 62
7
  6
CONTINUOUS
370
-3
390
F
  0
LAYER
  5
244
100
AcDbSymbolTableRecord
100
AcDbLayerTableRecord
  2
CN_M_THT_P5_R1_P3_SET_1750000
 70
0
 62
7
  6
CONTINUOUS
370
-3
390
F
  0
LAYER
  5
245
100
AcDbSymbolTableRecord
100
AcDbLayerTableRecord
  2
CN_M_THT_P5_R1_P3_SET_1750000_1
 70
0
 62
7
  6
CONTINUOUS
370
-3
390
F
  0
LAYER
  5
246
100
AcDbSymbolTableRecord
100
AcDbLayerTableRecord
  2
CN_M_THT_P5_R1_P3_SET_1750000_2
 70
0
 62
7
  6
CONTINUOUS
370
-3
390
F
  0
LAYER
  5
247
100
AcDbSymbolTableRecord
100
AcDbLayerTableRecord
  2
CN_M_THT_P5_R1_P3_SET_1750000_3
 70
0
 62
7
  6
CONTINUOUS
370
-3
390
F
  0
LAYER
  5
248
100
AcDbSymbolTableRecord
100
AcDbLayerTableRecord
  2
COLOR1
 70
0
 62
7
  6
CONTINUOUS
370
-3
390
F
  0
LAYER
  5
249
100
AcDbSymbolTableRecord
100
AcDbLayerTableRecord
  2
COLOR14
 70
0
 62
7
  6
CONTINUOUS
370
-3
390
F
  0
LAYER
  5
24A
100
AcDbSymbolTableRecord
100
AcDbLayerTableRecord
  2
COLOR2
 70
0
 62
7
  6
CONTINUOUS
370
-3
390
F
  0
LAYER
  5
24B
100
AcDbSymbolTableRecord
100
AcDbLayerTableRecord
  2
COLOR39
 70
0
 62
7
  6
CONTINUOUS
370
-3
390
F
  0
LAYER
  5
24C
100
AcDbSymbolTableRecord
100
AcDbLayerTableRecord
  2
COLOR5
 70
0
 62
7
  6
CONTINUOUS
370
-3
390
F
  0
LAYER
  5
24D
100
AcDbSymbolTableRecord
100
AcDbLayerTableRecord
  2
COORDINATE
 70
0
 62
7
  6
CONTINUOUS
370
-3
390
F
  0
LAYER
  5
24E
100
AcDbSymbolTableRecord
100
AcDbLayerTableRecord
  2
COORD_ORIGINE
 70
0
 62
7
  6
CONTINUOUS
370
-3
390
F
  0
LAYER
  5
24F
100
AcDbSymbolTableRecord
100
AcDbLayerTableRecord
  2
COPY_PUBLISH
 70
0
 62
7
  6
CONTINUOUS
370
-3
390
F
  0
LAYER
  5
250
100
AcDbSymbolTableRecord
100
AcDbLayerTableRecord
  2
COSMETIC
 70
0
 62
7
  6
CONTINUOUS
370
-3
390
F
  0
LAYER
  5
251
100
AcDbSymbolTableRecord
100
AcDbLayerTableRecord
  2
COSMETICI
 70
0
 62
7
  6
CONTINUOUS
370
-3
390
F
  0
LAYER
  5
252
100
AcDbSymbolTableRecord
100
AcDbLayerTableRecord
  2
CURVE
 70
0
 62
7
  6
CONTINUOUS
370
-3
390
F
  0
LAYER
  5
253
100
AcDbSymbolTableRecord
100
AcDbLayerTableRecord
  2
DL_RGB_1_6-1_6-0_5MM_50000
 70
0
 62
7
  6
CONTINUOUS
370
-3
390
F
  0
LAYER
  5
254
100
AcDbSymbolTableRecord
100
AcDbLayerTableRecord
  2
DRAFT
 70
0
 62
7
  6
CONTINUOUS
370
-3
390
F
  0
LAYER
  5
255
100
AcDbSymbolTableRecord
100
AcDbLayerTableRecord
  2
GEOMETRIA_SOLIDA
 70
0
 62
7
  6
CONTINUOUS
370
-3
390
F
  0
LAYER
  5
256
100
AcDbSymbolTableRecord
100
AcDbLayerTableRecord
  2
GEOMETRIA_SOLIDA_1
 70
0
 62
7
  6
CONTINUOUS
370
-3
390
F
  0
LAYER
  5
257
100
AcDbSymbolTableRecord
100
AcDbLayerTableRecord
  2
GEOMETRIA_SOLIDA_2
 70
0
 62
7
  6
CONTINUOUS
370
-3
390
F
  0
LAYER
  5
258
100
AcDbSymbolTableRecord
100
AcDbLayerTableRecord
  2
GEOMETRIA_SOLIDA_3
 70
0
 62
7
  6
CONTINUOUS
370
-3
390
F
  0
LAYER
  5
259
100
AcDbSymbolTableRecord
100
AcDbLayerTableRecord
  2
GEOMETRIA_SOLIDA_4
 70
0
 62
7
  6
CONTINUOUS
370
-3
390
F
  0
LAYER
  5
25A
100
AcDbSymbolTableRecord
100
AcDbLayerTableRecord
  2
GEOMETRIA_SOLIDA_5
 70
0
 62
7
  6
CONTINUOUS
370
-3
390
F
  0
LAYER
  5
25B
100
AcDbSymbolTableRecord
100
AcDbLayerTableRecord
  2
GRAFICA
 70
0
 62
7
  6
CONTINUOUS
370
-3
390
F
  0
LAYER
  5
25C
100
AcDbSymbolTableRecord
100
AcDbLayerTableRecord
  2
IGES_HOLGER
 70
0
 62
7
  6
CONTINUOUS
370
-3
390
F
  0
LAYER
  5
25D
100
AcDbSymbolTableRecord
100
AcDbLayerTableRecord
  2
IMPORT_IGES
 70
0
 62
7
  6
CONTINUOUS
370
-3
390
F
  0
LAYER
  5
25E
100
AcDbSymbolTableRecord
100
AcDbLayerTableRecord
  2
IMPORT_IGES_1
 70
0
 62
7
  6
CONTINUOUS
370
-3
390
F
  0
LAYER
  5
25F
100
AcDbSymbolTableRecord
100
AcDbLayerTableRecord
  2
IMPORT_IGES_4
 70
0
 62
7
  6
CONTINUOUS
370
-3
390
F
  0
LAYER
  5
260
100
AcDbSymbolTableRecord
100
AcDbLayerTableRecord
  2
INTFCLR_1
 70
0
 62
7
  6
CONTINUOUS
370
-3
390
F
  0
LAYER
  5
261
100
AcDbSymbolTableRecord
100
AcDbLayerTableRecord
  2
INTFCLR_3
 70
0
 62
7
  6
CONTINUOUS
370
-3
390
F
  0
LAYER
  5
262
100
AcDbSymbolTableRecord
100
AcDbLayerTableRecord
  2
INTFCLR_4
 70
0
 62
7
  6
CONTINUOUS
370
-3
390
F
  0
LAYER
  5
263
100
AcDbSymbolTableRecord
100
AcDbLayerTableRecord
  2
INTFCLR_5
 70
0
 62
7
  6
CONTINUOUS
370
-3
390
F
  0
LAYER
  5
264
100
AcDbSymbolTableRecord
100
AcDbLayerTableRecord
  2
INTFCLR_6
 70
0
 62
7
  6
CONTINUOUS
370
-3
390
F
  0
LAYER
  5
265
100
AcDbSymbolTableRecord
100
AcDbLayerTableRecord
  2
INTFCLR_7
 70
0
 62
7
  6
CONTINUOUS
370
-3
390
F
  0
LAYER
  5
266
100
AcDbSymbolTableRecord
100
AcDbLayerTableRecord
  2
INTFCLR_8
 70
0
 62
7
  6
CONTINUOUS
370
-3
390
F
  0
LAYER
  5
267
100
AcDbSymbolTableRecord
100
AcDbLayerTableRecord
  2
INTFCLR_9
 70
0
 62
7
  6
CONTINUOUS
370
-3
390
F
  0
LAYER
  5
268
100
AcDbSymbolTableRecord
100
AcDbLayerTableRecord
  2
INTF_1
 70
0
 62
7
  6
CONTINUOUS
370
-3
390
F
  0
LAYER
  5
269
100
AcDbSymbolTableRecord
100
AcDbLayerTableRecord
  2
INTF_12
 70
0
 62
7
  6
CONTINUOUS
370
-3
390
F
  0
LAYER
  5
26A
100
AcDbSymbolTableRecord
100
AcDbLayerTableRecord
  2
INTF_6
 70
0
 62
7
  6
CONTINUOUS
370
-3
390
F
  0
LAYER
  5
26B
100
AcDbSymbolTableRecord
100
AcDbLayerTableRecord
  2
INTF_8
 70
0
 62
7
  6
CONTINUOUS
370
-3
390
F
  0
LAYER
  5
26C
100
AcDbSymbolTableRecord
100
AcDbLayerTableRecord
  2
INTF_YELLOW
 70
0
 62
7
  6
CONTINUOUS
370
-3
390
F
  0
LAYER
  5
26D
100
AcDbSymbolTableRecord
100
AcDbLayerTableRecord
  2
LED_0805_120000
 70
0
 62
7
  6
CONTINUOUS
370
-3
390
F
  0
LAYER
  5
26E
100
AcDbSymbolTableRecord
100
AcDbLayerTableRecord
  2
LED_0805_120000_1
 70
0
 62
7
  6
CONTINUOUS
370
-3
390
F
  0
LAYER
  5
26F
100
AcDbSymbolTableRecord
100
AcDbLayerTableRecord
  2
LED_0805_120000_2
 70
0
 62
7
  6
CONTINUOUS
370
-3
390
F
  0
LAYER
  5
270
100
AcDbSymbolTableRecord
100
AcDbLayerTableRecord
  2
LED_0805_120000_3
 70
0
 62
7
  6
CONTINUOUS
370
-3
390
F
  0
LAYER
  5
271
100
AcDbSymbolTableRecord
100
AcDbLayerTableRecord
  2
LED_0805_120000_4
 70
0
 62
7
  6
CONTINUOUS
370
-3
390
F
  0
LAYER
  5
272
100
AcDbSymbolTableRecord
100
AcDbLayerTableRecord
  2
MIXEDCOLOR_1
 70
0
 62
7
  6
CONTINUOUS
370
-3
390
F
  0
LAYER
  5
273
100
AcDbSymbolTableRecord
100
AcDbLayerTableRecord
  2
NOTE
 70
0
 62
7
  6
CONTINUOUS
370
-3
390
F
  0
LAYER
  5
274
100
AcDbSymbolTableRecord
100
AcDbLayerTableRecord
  2
PIANI
 70
0
 62
7
  6
CONTINUOUS
370
-3
390
F
  0
LAYER
  5
275
100
AcDbSymbolTableRecord
100
AcDbLayerTableRecord
  2
PIANI_ORIGINE
 70
0
 62
7
  6
CONTINUOUS
370
-3
390
F
  0
LAYER
  5
276
100
AcDbSymbolTableRecord
100
AcDbLayerTableRecord
  2
PUNTI
 70
0
 62
7
  6
CONTINUOUS
370
-3
390
F
  0
LAYER
  5
277
100
AcDbSymbolTableRecord
100
AcDbLayerTableRecord
  2
P_4_5X9_H5_SMD_500000
 70
0
 62
7
  6
CONTINUOUS
370
-3
390
F
  0
LAYER
  5
278
100
AcDbSymbolTableRecord
100
AcDbLayerTableRecord
  2
P_4_5X9_H5_SMD_500000_1
 70
0
 62
7
  6
CONTINUOUS
370
-3
390
F
  0
LAYER
  5
279
100
AcDbSymbolTableRecord
100
AcDbLayerTableRecord
  2
P_4_5X9_H5_SMD_500000_2
 70
0
 62
7
  6
CONTINUOUS
370
-3
390
F
  0
LAYER
  5
27A
100
AcDbSymbolTableRecord
100
AcDbLayerTableRecord
  2
P_4_5X9_H5_SMD_500000_3
 70
0
 62
7
  6
CONTINUOUS
370
-3
390
F
  0
LAYER
  5
27B
100
AcDbSymbolTableRecord
100
AcDbLayerTableRecord
  2
P_4_5X9_H5_SMD_500000_4
 70
0
 62
7
  6
CONTINUOUS
370
-3
390
F
  0
LAYER
  5
27C
100
AcDbSymbolTableRecord
100
AcDbLayerTableRecord
  2
P_4_5X9_H5_SMD_500000_5
 70
0
 62
7
  6
CONTINUOUS
370
-3
390
F
  0
LAYER
  5
27D
100
AcDbSymbolTableRecord
100
AcDbLayerTableRecord
  2
RACCORDO
 70
0
 62
7
  6
CONTINUOUS
370
-3
390
F
  0
LAYER
  5
27E
100
AcDbSymbolTableRecord
100
AcDbLayerTableRecord
  2
RGB____0____0____0__
 70
0
 62
7
  6
CONTINUOUS
370
-3
390
F
  0
LAYER
  5
27F
100
AcDbSymbolTableRecord
100
AcDbLayerTableRecord
  2
SIMBOLI
 70
0
 62
7
  6
CONTINUOUS
370
-3
390
F
  0
LAYER
  5
280
100
AcDbSymbolTableRecord
100
AcDbLayerTableRecord
  2
SMUSSO
 70
0
 62
7
  6
CONTINUOUS
370
-3
390
F
  0
LAYER
  5
281
100
AcDbSymbolTableRecord
100
AcDbLayerTableRecord
  2
SO8C-5_0-6_2-1_75-REF_175000
 70
0
 62
7
  6
CONTINUOUS
370
-3
390
F
  0
LAYER
  5
282
100
AcDbSymbolTableRecord
100
AcDbLayerTableRecord
  2
SOT23-5_REF_H1_5_150000
 70
0
 62
7
  6
CONTINUOUS
370
-3
390
F
  0
LAYER
  5
283
100
AcDbSymbolTableRecord
100
AcDbLayerTableRecord
  2
SOT89_REF_H1_6_160000
 70
0
 62
7
  6
CONTINUOUS
370
-3
390
F
  0
LAYER
  5
284
100
AcDbSymbolTableRecord
100
AcDbLayerTableRecord
  2
SUB_SMA_143000
 70
0
 62
7
  6
CONTINUOUS
370
-3
390
F
  0
LAYER
  5
285
100
AcDbSymbolTableRecord
100
AcDbLayerTableRecord
  2
SUB_SMA_143000_1
 70
0
 62
7
  6
CONTINUOUS
370
-3
390
F
  0
LAYER
  5
286
100
AcDbSymbolTableRecord
100
AcDbLayerTableRecord
  2
SUPERFICI
 70
0
 62
7
  6
CONTINUOUS
370
-3
390
F
  0
LAYER
  5
287
100
AcDbSymbolTableRecord
100
AcDbLayerTableRecord
  2
TP-RND-1_5_1000
 70
0
 62
7
  6
CONTINUOUS
370
-3
390
F
  0
LAYER
  5
288
100
AcDbSymbolTableRecord
100
AcDbLayerTableRecord
  2
TP-RND-1_5_1000_1
 70
0
 62
7
  6
CONTINUOUS
370
-3
390
F
  0
LAYER
  5
289
100
AcDbSymbolTableRecord
100
AcDbLayerTableRecord
  2
TP-RND-1_5_1000_2
 70
0
 62
7
  6
CONTINUOUS
370
-3
390
F
  0
LAYER
  5
28A
100
AcDbSymbolTableRecord
100
AcDbLayerTableRecord
  2
TP-RND-1_5_1000_3
 70
0
 62
7
  6
CONTINUOUS
370
-3
390
F
  0
LAYER
  5
28B
100
AcDbSymbolTableRecord
100
AcDbLayerTableRecord
  2
TP-RND-1_5_1000_4
 70
0
 62
7
  6
CONTINUOUS
370
-3
390
F
  0
LAYER
  5
28C
100
AcDbSymbolTableRecord
100
AcDbLayerTableRecord
  2
TP-RND-1_5_1000_5
 70
0
 62
7
  6
CONTINUOUS
370
-3
390
F
  0
LAYER
  5
28D
100
AcDbSymbolTableRecord
100
AcDbLayerTableRecord
  2
TP-RND-1_5_1000_6
 70
0
 62
7
  6
CONTINUOUS
370
-3
390
F
  0
LAYER
  5
28E
100
AcDbSymbolTableRecord
100
AcDbLayerTableRecord
  2
TP_PROGRAMMAZIONE_SWD_1000
 70
0
 62
7
  6
CONTINUOUS
370
-3
390
F
  0
LAYER
  5
28F
100
AcDbSymbolTableRecord
100
AcDbLayerTableRecord
  2
TRASH
 70
0
 62
7
  6
CONTINUOUS
370
-3
390
F
  0
LAYER
  5
290
100
AcDbSymbolTableRecord
100
AcDbLayerTableRecord
  2
VG_CAP-E-SMD-10_0-10_0-10_0_110
 70
0
 62
7
  6
CONTINUOUS
370
-3
390
F
  0
LAYER
  5
291
100
AcDbSymbolTableRecord
100
AcDbLayerTableRecord
  2
VG_CAP-E-SMD-10_0-10_0-10_0_1_1
 70
0
 62
7
  6
CONTINUOUS
370
-3
390
F
  0
LAYER
  5
292
100
AcDbSymbolTableRecord
100
AcDbLayerTableRecord
  2
VG_CAP-REC-13_0-4_0-9_0-10_0-0_
 70
0
 62
7
  6
CONTINUOUS
370
-3
390
F
  0
LAYER
  5
293
100
AcDbSymbolTableRecord
100
AcDbLayerTableRecord
  2
VG_CN_FLEX_THT_P2_54_R1_P7_TET_
 70
0
 62
7
  6
CONTINUOUS
370
-3
390
F
  0
LAYER
  5
294
100
AcDbSymbolTableRecord
100
AcDbLayerTableRecord
  2
VG_DB-SMD-8_5-6_5-10_3-3_6-5_1-
 70
0
 62
7
  6
CONTINUOUS
370
-3
390
F
  0
LAYER
  5
295
100
AcDbSymbolTableRecord
100
AcDbLayerTableRecord
  2
VG_IND-CHIP-0402-POL-1_0-REF_10
 70
0
 62
7
  6
CONTINUOUS
370
-3
390
F
  0
LAYER
  5
296
100
AcDbSymbolTableRecord
100
AcDbLayerTableRecord
  2
VG_IND-CHIP-0402-POL-1_0-REF__1
 70
0
 62
7
  6
CONTINUOUS
370
-3
390
F
  0
LAYER
  5
297
100
AcDbSymbolTableRecord
100
AcDbLayerTableRecord
  2
VG_IND-PS-6_0-6_0-4_5_450000
 70
0
 62
7
  6
CONTINUOUS
370
-3
390
F
  0
LAYER
  5
298
100
AcDbSymbolTableRecord
100
AcDbLayerTableRecord
  2
VG_IND-SMT-7_8-7_8-5_3-2_4-8_0-
 70
0
 62
7
  6
CONTINUOUS
370
-3
390
F
  0
LAYER
  5
299
100
AcDbSymbolTableRecord
100
AcDbLayerTableRecord
  2
VG_K_THT_HONGFA_HF115F024-1Z3_1
 70
0
 62
7
  6
CONTINUOUS
370
-3
390
F
  0
LAYER
  5
29A
100
AcDbSymbolTableRecord
100
AcDbLayerTableRecord
  2
VG_K_THT_HONGFA_HF115F024-1Z3_2
 70
0
 62
7
  6
CONTINUOUS
370
-3
390
F
  0
LAYER
  5
29B
100
AcDbSymbolTableRecord
100
AcDbLayerTableRecord
  2
VG_K_THT_HONGFA_HF115F024-1Z3_3
 70
0
 62
7
  6
CONTINUOUS
370
-3
390
F
  0
LAYER
  5
29C
100
AcDbSymbolTableRecord
100
AcDbLayerTableRecord
  2
VG_K_THT_HONGFA_HF115F024-1Z3_4
 70
0
 62
7
  6
CONTINUOUS
370
-3
390
F
  0
LAYER
  5
29D
100
AcDbSymbolTableRecord
100
AcDbLayerTableRecord
  2
VG_QCS5F_40000
 70
0
 62
7
  6
CONTINUOUS
370
-3
390
F
  0
LAYER
  5
29E
100
AcDbSymbolTableRecord
100
AcDbLayerTableRecord
  2
VG_QFN73-7_0-7_0-7_0-7_0-0_85-0
 70
0
 62
7
  6
CONTINUOUS
370
-3
390
F
  0
LAYER
  5
29F
100
AcDbSymbolTableRecord
100
AcDbLayerTableRecord
  2
VG_RES-RAD-5_0-15_0-5_0-0_7_200
 70
0
 62
7
  6
CONTINUOUS
370
-3
390
F
  0
LAYER
  5
2A0
100
AcDbSymbolTableRecord
100
AcDbLayerTableRecord
  2
VG_SOD523_70000
 70
0
 62
7
  6
CONTINUOUS
370
-3
390
F
  0
LAYER
  5
2A1
100
AcDbSymbolTableRecord
100
AcDbLayerTableRecord
  2
VG_SOD523_70000_1
 70
0
 62
7
  6
CONTINUOUS
370
-3
390
F
  0
LAYER
  5
2A2
100
AcDbSymbolTableRecord
100
AcDbLayerTableRecord
  2
VG_SOD523_70000_2
 70
0
 62
7
  6
CONTINUOUS
370
-3
390
F
  0
LAYER
  5
2A3
100
AcDbSymbolTableRecord
100
AcDbLayerTableRecord
  2
VG_SOD523_70000_3
 70
0
 62
7
  6
CONTINUOUS
370
-3
390
F
  0
LAYER
  5
2A4
100
AcDbSymbolTableRecord
100
AcDbLayerTableRecord
  2
VG_SOT23_H1_1_REF_110000
 70
0
 62
7
  6
CONTINUOUS
370
-3
390
F
  0
LAYER
  5
2A5
100
AcDbSymbolTableRecord
100
AcDbLayerTableRecord
  2
VG_SOT23_H1_1_REF_110000_1
 70
0
 62
7
  6
CONTINUOUS
370
-3
390
F
  0
LAYER
  5
2A6
100
AcDbSymbolTableRecord
100
AcDbLayerTableRecord
  2
VG_SOT23_H1_1_REF_110000_2
 70
0
 62
7
  6
CONTINUOUS
370
-3
390
F
  0
LAYER
  5
2A7
100
AcDbSymbolTableRecord
100
AcDbLayerTableRecord
  2
VG_SOT23_H1_1_REF_110000_3
 70
0
 62
7
  6
CONTINUOUS
370
-3
390
F
  0
LAYER
  5
2A8
100
AcDbSymbolTableRecord
100
AcDbLayerTableRecord
  2
VG_USON-8L-4_1-4_1-0_6-EXPPAD_6
 70
0
 62
7
  6
CONTINUOUS
370
-3
390
F
  0
LAYER
  5
2A9
100
AcDbSymbolTableRecord
100
AcDbLayerTableRecord
  2
VG_VAR-15_5-18_5-5_6-7_5-1_9-0_
 70
0
 62
7
  6
CONTINUOUS
370
-3
390
F
  0
LAYER
  5
2AA
100
AcDbSymbolTableRecord
100
AcDbLayerTableRecord
  2
VG_X-SMT-2-3_2-1_5-1_0_100000
 70
0
 62
7
  6
CONTINUOUS
370
-3
390
F
  0
LAYER
  5
2AB
100
AcDbSymbolTableRecord
100
AcDbLayerTableRecord
  2
VG_X-SMT-2-5_0-3_2-1_5_150000
 70
0
 62
7
  6
CONTINUOUS
370
-3
390
F
  0
LAYER
  5
2AC
100
AcDbSymbolTableRecord
100
AcDbLayerTableRecord
  2
WHITE
 70
0
 62
7
  6
CONTINUOUS
370
-3
390
F
  0
LAYER
  5
2AD
100
AcDbSymbolTableRecord
100
AcDbLayerTableRecord
  2
XSEC_DATUMS
 70
0
 62
7
  6
CONTINUOUS
370
-3
390
F
  0
LAYER
  5
2AE
100
AcDbSymbolTableRecord
100
AcDbLayerTableRecord
  2
___SHELL
 70
0
 62
7
  6
CONTINUOUS
370
-3
390
F
  0
ENDTAB
  0
TABLE
  2
STYLE
  5
3
100
AcDbSymbolTable
 70
1
  0
STYLE
  5
11
100
AcDbSymbolTableRecord
100
AcDbTextStyleTableRecord
  2
STANDARD
 70
0
 40
0.0
 41
0.8
 50
0.0
 71
0
 42
0.2
  3
txt
  4

  0
STYLE
  5
2AF
100
AcDbSymbolTableRecord
100
AcDbTextStyleTableRecord
  2
TEXTSTYLE_1
 70
0
 40
0.0
 41
0.8
 50
0.0
 71
0
 42
0.2
  3
gdt
  4

  0
ENDTAB
  0
TABLE
  2
VIEW
  5
6
100
AcDbSymbolTable
 70
0
  0
ENDTAB
  0
TABLE
  2
UCS
  5
7
100
AcDbSymbolTable
 70
0
  0
ENDTAB
  0
TABLE
  2
APPID
  5
9
100
AcDbSymbolTable
 70
1
  0
APPID
  5
2B0
100
AcDbSymbolTableRecord
100
AcDbRegAppTableRecord
  2
ACAD
 70
0
  0
ENDTAB
  0
TABLE
  2
BLOCK_RECORD
  5
1
100
AcDbSymbolTable
 70
0
  0
BLOCK_RECORD
  5
2B1
100
AcDbSymbolTableRecord
100
AcDbBlockTableRecord
  2
*Model_Space
  0
BLOCK_RECORD
  5
2B2
100
AcDbSymbolTableRecord
100
AcDbBlockTableRecord
  2
*Paper_Space
  0
BLOCK_RECORD
  5
2B3
100
AcDbSymbolTableRecord
100
AcDbBlockTableRecord
  2
_FILLED
  0
ENDTAB
  0
TABLE
  2
DIMSTYLE
  5
A
100
AcDbSymbolTable
 70
1
100
AcDbDimStyleTable
 71
0
  0
DIMSTYLE
105
2B4
100
AcDbSymbolTableRecord
100
AcDbDimStyleTableRecord
  2
STANDARD
 70
0
  3

  4

 40
1.0
 41
3.0
 42
0.5
 43
0.38
 44
1.5
 45
0.0
 46
0.0
 47
0.01
 48
0.01
140
3.0
141
0.09
142
0.0
143
25.4
144
1.0
145
0.0
146
1.0
147
0.625
 71
1
 72
0
 73
0
 74
0
 75
0
 76
0
 77
1
 78
8
 79
2
170
0
171
1
172
0
173
0
174
0
175
0
176
0
177
0
178
0
270
2
179
2
271
2
272
2
273
2
274
2
275
0
280
0
281
0
282
0
283
1
284
8
285
0
286
0
287
3
288
0
340
11
278
44
341
2B3
342
2B3
343
2B3
344
2B3
  0
ENDTAB
  0
ENDSEC
  0
SECTION
  2
BLOCKS
  0
BLOCK
  5
20
100
AcDbEntity
  8
0
100
AcDbBlockBegin
  2
*Model_Space
 70
0
 10
0.0
 20
0.0
 30
0.0
  3
*Model_Space
  1

  0
ENDBLK
  5
21
100
AcDbEntity
  8
0
100
AcDbBlockEnd
  0
BLOCK
  5
1C
100
AcDbEntity
  8
0
100
AcDbBlockBegin
  2
*Paper_Space
 70
0
 10
0.0
 20
0.0
 30
0.0
  3
*Paper_Space
  1

  0
ENDBLK
  5
1D
100
AcDbEntity
  8
0
100
AcDbBlockEnd
  0
BLOCK
  5
2B5
100
AcDbEntity
  8
0
100
AcDbBlockBegin
  2
_FILLED
 70
64
 10
0.0
 20
0.0
  3
_FILLED
  1

  0
SOLID
  5
2B6
100
AcDbEntity
  8
0
  6
BYBLOCK
 62
0
100
AcDbTrace
 10
0.0
 20
0.0
 11
-1.0
 21
0.3166666667
 12
-1.0
 22
-0.3166666667
 13
-1.0
 23
-0.3166666667
  0
ENDBLK
  5
2B7
100
AcDbEntity
  8
0
  6
BYBLOCK
 62
0
100
AcDbBlockEnd
  0
ENDSEC
  0
SECTION
  2
ENTITIES
  0
LINE
  5
2B8
100
AcDbEntity
  8
RACCORDO
100
AcDbLine
 62
7
  6
CONTINUOUS
 10
34.9001523048
 20
-54.9
 11
-24.4476348052
 21
-54.9
  0
LINE
  5
2B9
100
AcDbEntity
  8
RACCORDO
100
AcDbLine
 62
7
  6
CONTINUOUS
 10
-34.5523651948
 20
-54.9
 11
-34.9001523048
 21
-54.9
  0
LINE
  5
2BA
100
AcDbEntity
  8
DRAFT
100
AcDbLine
 62
7
  6
CONTINUOUS
 10
-24.5
 20
-54.8476348052
 11
-34.5
 21
-54.8476348052
  0
LINE
  5
2BB
100
AcDbEntity
  8
RACCORDO
100
AcDbLine
 62
7
  6
CONTINUOUS
 10
34.7954219153
 20
-54.7952696104
 11
-34.7954219153
 21
-54.7952696104
  0
LINE
  5
2BC
100
AcDbEntity
  8
0
100
AcDbLine
 62
7
  6
CONTINUOUS
 10
4.5
 20
-54.0
 11
-4.5
 21
-54.0
  0
LINE
  5
2BD
100
AcDbEntity
  8
0
100
AcDbLine
 62
7
  6
CONTINUOUS
 10
34.45
 20
-53.5
 11
5.5
 21
-53.5
  0
LINE
  5
2BE
100
AcDbEntity
  8
ASSI
100
AcDbLine
 62
7
  6
CONTINUOUS
 10
-5.5
 20
-53.5
 11
-23.5
 21
-53.5
  0
LINE
  5
2BF
100
AcDbEntity
  8
0
100
AcDbLine
 62
7
  6
CONTINUOUS
 10
-28.5
 20
-52.9
 11
-30.5
 21
-52.9
  0
LINE
  5
2C0
100
AcDbEntity
  8
DRAFT
100
AcDbLine
 62
7
  6
CONTINUOUS
 10
-24.4476348052
 20
-54.9
 11
-24.5
 21
-54.8476348052
  0
LINE
  5
2C1
100
AcDbEntity
  8
RACCORDO
100
AcDbLine
 62
7
  6
CONTINUOUS
 10
3.9000761524
 20
-50.1
 11
-3.9000761524
 21
-50.1
  0
LINE
  5
2C2
100
AcDbEntity
  8
RACCORDO
100
AcDbLine
 62
7
  6
CONTINUOUS
 10
3.8250193732
 20
-50.0249432208
 11
-3.8250193732
 21
-50.0249432208
  0
LINE
  5
2C3
100
AcDbEntity
  8
0
100
AcDbLine
 62
7
  6
CONTINUOUS
 10
-30.5
 20
-48.9
 11
-28.5
 21
-48.9
  0
LINE
  5
2C4
100
AcDbEntity
  8
DRAFT
100
AcDbLine
 62
7
  6
CONTINUOUS
 10
-3.3110927272
 20
-48.6
 11
3.3110927272
 21
-48.6
  0
LINE
  5
2C5
100
AcDbEntity
  8
0
100
AcDbLine
 62
7
  6
CONTINUOUS
 10
-9.2
 20
-47.2
 11
-7.0
 21
-47.2
  0
LINE
  5
2C6
100
AcDbEntity
  8
0
100
AcDbLine
 62
7
  6
CONTINUOUS
 10
7.0
 20
-47.2
 11
9.2
 21
-47.2
  0
LINE
  5
2C7
100
AcDbEntity
  8
0
100
AcDbLine
 62
7
  6
CONTINUOUS
 10
30.0
 20
-47.2
 11
32.2
 21
-47.2
  0
LINE
  5
2C8
100
AcDbEntity
  8
RACCORDO
100
AcDbLine
 62
7
  6
CONTINUOUS
 10
4.5
 20
-46.75
 11
4.4
 21
-46.75
  0
LINE
  5
2C9
100
AcDbEntity
  8
RACCORDO
100
AcDbLine
 62
7
  6
CONTINUOUS
 10
3.2360359481
 20
-46.75
 11
-3.2360359481
 21
-46.75
  0
LINE
  5
2CA
100
AcDbEntity
  8
RACCORDO
100
AcDbLine
 62
7
  6
CONTINUOUS
 10
-4.4
 20
-46.75
 11
-4.5
 21
-46.75
  0
LINE
  5
2CB
100
AcDbEntity
  8
ASSI
100
AcDbLine
 62
7
  6
CONTINUOUS
 10
-5.5
 20
-46.6
 11
-23.5
 21
-46.6
  0
LINE
  5
2CC
100
AcDbEntity
  8
DRAFT
100
AcDbLine
 62
7
  6
CONTINUOUS
 10
5.5
 20
-46.6
 11
34.45
 21
-46.6
  0
LINE
  5
2CD
100
AcDbEntity
  8
DRAFT
100
AcDbLine
 62
7
  6
CONTINUOUS
 10
3.2622185454
 20
-46.4
 11
-3.2622185454
 21
-46.4
  0
LINE
  5
2CE
100
AcDbEntity
  8
DRAFT
100
AcDbLine
 62
7
  6
CONTINUOUS
 10
4.5
 20
-45.25
 11
4.4
 21
-45.25
  0
LINE
  5
2CF
100
AcDbEntity
  8
DRAFT
100
AcDbLine
 62
7
  6
CONTINUOUS
 10
-4.4
 20
-45.25
 11
-4.5
 21
-45.25
  0
LINE
  5
2D0
100
AcDbEntity
  8
DRAFT
100
AcDbLine
 62
7
  6
CONTINUOUS
 10
4.5
 20
-45.19851148
 11
4.4
 21
-45.19851148
  0
LINE
  5
2D1
100
AcDbEntity
  8
DRAFT
100
AcDbLine
 62
7
  6
CONTINUOUS
 10
-4.4
 20
-45.19851148
 11
-4.5
 21
-45.19851148
  0
LINE
  5
2D2
100
AcDbEntity
  8
DRAFT
100
AcDbLine
 62
250
  6
CONTINUOUS
 10
30.7150898701
 20
-44.75
 11
30.75
 21
-44.75
  0
LINE
  5
2D3
100
AcDbEntity
  8
DRAFT
100
AcDbLine
 62
7
  6
CONTINUOUS
 10
-4.5
 20
-44.7
 11
-4.4
 21
-44.7
  0
LINE
  5
2D4
100
AcDbEntity
  8
DRAFT
100
AcDbLine
 62
7
  6
CONTINUOUS
 10
4.4
 20
-44.7
 11
4.5
 21
-44.7
  0
LINE
  5
2D5
100
AcDbEntity
  8
0
100
AcDbLine
 62
7
  6
CONTINUOUS
 10
-4.5
 20
-43.7
 11
-3.65
 21
-43.7
  0
LINE
  5
2D6
100
AcDbEntity
  8
0
100
AcDbLine
 62
7
  6
CONTINUOUS
 10
3.65
 20
-43.7
 11
4.5
 21
-43.7
  0
LINE
  5
2D7
100
AcDbEntity
  8
DRAFT
100
AcDbLine
 62
7
  6
CONTINUOUS
 10
-35.7952696104
 20
18.0644466757
 11
-35.9
 21
17.75
  0
LINE
  5
2D8
100
AcDbEntity
  8
DRAFT
100
AcDbLine
 62
7
  6
CONTINUOUS
 10
-3.2622185454
 20
-41.6
 11
3.2622185454
 21
-41.6
  0
LINE
  5
2D9
100
AcDbEntity
  8
DRAFT
100
AcDbLine
 62
7
  6
CONTINUOUS
 10
-35.7952696104
 20
-20.5644466757
 11
-35.8563623377
 21
-20.3810194482
  0
LINE
  5
2DA
100
AcDbEntity
  8
SMUSSO
100
AcDbLine
 62
7
  6
CONTINUOUS
 10
-35.8692566451
 20
-17.842305068
 11
-35.9
 21
-17.75
  0
LINE
  5
2DB
100
AcDbEntity
  8
SMUSSO
100
AcDbLine
 62
7
  6
CONTINUOUS
 10
-35.8563623377
 20
-18.5810194482
 11
-35.8692566451
 21
-17.842305068
  0
LINE
  5
2DC
100
AcDbEntity
  8
RACCORDO
100
AcDbLine
 62
7
  6
CONTINUOUS
 10
-35.9
 20
-35.9
 11
-35.9
 21
-53.9001523048
  0
LINE
  5
2DD
100
AcDbEntity
  8
RACCORDO
100
AcDbLine
 62
7
  6
CONTINUOUS
 10
-35.9
 20
35.9
 11
-35.9
 21
53.9001523048
  0
LINE
  5
2DE
100
AcDbEntity
  8
DRAFT
100
AcDbLine
 62
7
  6
CONTINUOUS
 10
-35.9
 20
-35.9
 11
-35.9
 21
35.9
  0
LINE
  5
2DF
100
AcDbEntity
  8
DRAFT
100
AcDbLine
 62
7
  6
CONTINUOUS
 10
-35.8877814546
 20
-32.65
 11
-35.8877814546
 21
-27.35
  0
LINE
  5
2E0
100
AcDbEntity
  8
DRAFT
100
AcDbLine
 62
7
  6
CONTINUOUS
 10
-35.8877814546
 20
27.35
 11
-35.8877814546
 21
32.65
  0
LINE
  5
2E1
100
AcDbEntity
  8
SMUSSO
100
AcDbLine
 62
7
  6
CONTINUOUS
 10
-35.8563623377
 20
-20.3810194482
 11
-35.8563623377
 21
-18.5810194482
  0
LINE
  5
2E2
100
AcDbEntity
  8
DRAFT
100
AcDbLine
 62
7
  6
CONTINUOUS
 10
-35.8301797403
 20
32.65
 11
-35.8301797403
 21
27.35
  0
LINE
  5
2E3
100
AcDbEntity
  8
DRAFT
100
AcDbLine
 62
7
  6
CONTINUOUS
 10
-35.8301797403
 20
-27.35
 11
-35.8301797403
 21
-32.65
  0
LINE
  5
2E4
100
AcDbEntity
  8
RACCORDO
100
AcDbLine
 62
7
  6
CONTINUOUS
 10
-35.7987606234
 20
-34.9
 11
-35.7987606234
 21
-25.1
  0
LINE
  5
2E5
100
AcDbEntity
  8
RACCORDO
100
AcDbLine
 62
7
  6
CONTINUOUS
 10
-35.7987606234
 20
25.1
 11
-35.7987606234
 21
34.9
  0
LINE
  5
2E6
100
AcDbEntity
  8
RACCORDO
100
AcDbLine
 62
7
  6
CONTINUOUS
 10
-35.7952696104
 20
-53.7954219153
 11
-35.7952696104
 21
-36.0
  0
LINE
  5
2E7
100
AcDbEntity
  8
DRAFT
100
AcDbLine
 62
7
  6
CONTINUOUS
 10
-35.7952696104
 20
-24.0
 11
-35.7952696104
 21
-20.5644466757
  0
LINE
  5
2E8
100
AcDbEntity
  8
DRAFT
100
AcDbLine
 62
7
  6
CONTINUOUS
 10
-35.7952696104
 20
18.0644466757
 11
-35.7952696104
 21
24.0
  0
LINE
  5
2E9
100
AcDbEntity
  8
RACCORDO
100
AcDbLine
 62
7
  6
CONTINUOUS
 10
-35.7952696104
 20
36.0
 11
-35.7952696104
 21
53.7954219153
  0
LINE
  5
2EA
100
AcDbEntity
  8
DRAFT
100
AcDbLine
 62
7
  6
CONTINUOUS
 10
-35.1389072728
 20
-24.0
 11
-35.1389072728
 21
-24.1
  0
LINE
  5
2EB
100
AcDbEntity
  8
DRAFT
100
AcDbLine
 62
7
  6
CONTINUOUS
 10
-35.1389072728
 20
-35.9
 11
-35.1389072728
 21
-36.0
  0
LINE
  5
2EC
100
AcDbEntity
  8
DRAFT
100
AcDbLine
 62
7
  6
CONTINUOUS
 10
-35.1389072728
 20
24.0
 11
-35.1389072728
 21
24.1
  0
LINE
  5
2ED
100
AcDbEntity
  8
DRAFT
100
AcDbLine
 62
7
  6
CONTINUOUS
 10
-35.1389072728
 20
35.9
 11
-35.1389072728
 21
36.0
  0
LINE
  5
2EE
100
AcDbEntity
  8
DRAFT
100
AcDbLine
 62
7
  6
CONTINUOUS
 10
-35.1214522078
 20
36.0
 11
-35.1214522078
 21
35.9
  0
LINE
  5
2EF
100
AcDbEntity
  8
DRAFT
100
AcDbLine
 62
7
  6
CONTINUOUS
 10
-35.1214522078
 20
24.1
 11
-35.1214522078
 21
24.0
  0
LINE
  5
2F0
100
AcDbEntity
  8
DRAFT
100
AcDbLine
 62
7
  6
CONTINUOUS
 10
-35.1214522078
 20
-24.0
 11
-35.1214522078
 21
-24.1
  0
LINE
  5
2F1
100
AcDbEntity
  8
DRAFT
100
AcDbLine
 62
7
  6
CONTINUOUS
 10
-35.1214522078
 20
-35.9
 11
-35.1214522078
 21
-36.0
  0
LINE
  5
2F2
100
AcDbEntity
  8
0
100
AcDbLine
 62
7
  6
CONTINUOUS
 10
-35.0321523635
 20
32.7
 11
-35.0321523635
 21
27.3
  0
LINE
  5
2F3
100
AcDbEntity
  8
0
100
AcDbLine
 62
7
  6
CONTINUOUS
 10
-35.0321523635
 20
-32.7
 11
-35.0321523635
 21
-27.3
  0
LINE
  5
2F4
100
AcDbEntity
  8
RACCORDO
100
AcDbLine
 62
7
  6
CONTINUOUS
 10
-34.6321523635
 20
-34.9
 11
-34.6321523635
 21
-32.7
  0
LINE
  5
2F5
100
AcDbEntity
  8
RACCORDO
100
AcDbLine
 62
7
  6
CONTINUOUS
 10
-34.6321523635
 20
-27.3
 11
-34.6321523635
 21
-25.1
  0
LINE
  5
2F6
100
AcDbEntity
  8
RACCORDO
100
AcDbLine
 62
7
  6
CONTINUOUS
 10
-34.6321523635
 20
25.1
 11
-34.6321523635
 21
27.3
  0
LINE
  5
2F7
100
AcDbEntity
  8
RACCORDO
100
AcDbLine
 62
7
  6
CONTINUOUS
 10
-34.6321523635
 20
32.7
 11
-34.6321523635
 21
34.9
  0
LINE
  5
2F8
100
AcDbEntity
  8
0
100
AcDbLine
 62
7
  6
CONTINUOUS
 10
-34.6196821264
 20
32.7
 11
-34.6196821264
 21
27.3
  0
LINE
  5
2F9
100
AcDbEntity
  8
0
100
AcDbLine
 62
7
  6
CONTINUOUS
 10
-34.6196821264
 20
-32.7
 11
-34.6196821264
 21
-27.3
  0
LINE
  5
2FA
100
AcDbEntity
  8
DRAFT
100
AcDbLine
 62
7
  6
CONTINUOUS
 10
-34.5988528624
 20
32.5421083448
 11
-34.5988528624
 21
27.4578916552
  0
LINE
  5
2FB
100
AcDbEntity
  8
DRAFT
100
AcDbLine
 62
7
  6
CONTINUOUS
 10
-34.5988528624
 20
-27.4578916552
 11
-34.5988528624
 21
-32.5421083448
  0
LINE
  5
2FC
100
AcDbEntity
  8
DRAFT
100
AcDbLine
 62
7
  6
CONTINUOUS
 10
-34.5483680519
 20
36.0
 11
-34.5483680519
 21
35.9
  0
LINE
  5
2FD
100
AcDbEntity
  8
DRAFT
100
AcDbLine
 62
7
  6
CONTINUOUS
 10
-34.5483680519
 20
24.1
 11
-34.5483680519
 21
24.0
  0
LINE
  5
2FE
100
AcDbEntity
  8
DRAFT
100
AcDbLine
 62
7
  6
CONTINUOUS
 10
-34.5483680519
 20
-24.0
 11
-34.5483680519
 21
-24.1
  0
LINE
  5
2FF
100
AcDbEntity
  8
DRAFT
100
AcDbLine
 62
7
  6
CONTINUOUS
 10
-34.5483680519
 20
-35.9
 11
-34.5483680519
 21
-36.0
  0
LINE
  5
300
100
AcDbEntity
  8
DRAFT
100
AcDbLine
 62
7
  6
CONTINUOUS
 10
-34.5451818435
 20
-32.5327171334
 11
-34.5451818435
 21
-32.3
  0
LINE
  5
301
100
AcDbEntity
  8
DRAFT
100
AcDbLine
 62
7
  6
CONTINUOUS
 10
-34.5451818435
 20
-27.7
 11
-34.5451818435
 21
-27.4672828666
  0
LINE
  5
302
100
AcDbEntity
  8
DRAFT
100
AcDbLine
 62
7
  6
CONTINUOUS
 10
-34.5451818435
 20
27.4672828666
 11
-34.5451818435
 21
27.7
  0
LINE
  5
303
100
AcDbEntity
  8
DRAFT
100
AcDbLine
 62
7
  6
CONTINUOUS
 10
-34.5451818435
 20
32.3
 11
-34.5451818435
 21
32.5327171334
  0
LINE
  5
304
100
AcDbEntity
  8
DRAFT
100
AcDbLine
 62
7
  6
CONTINUOUS
 10
-34.4884011428
 20
36.0
 11
-34.4884011428
 21
32.3
  0
LINE
  5
305
100
AcDbEntity
  8
DRAFT
100
AcDbLine
 62
7
  6
CONTINUOUS
 10
-34.4884011428
 20
-36.0
 11
-34.4884011428
 21
-32.3
  0
LINE
  5
306
100
AcDbEntity
  8
DRAFT
100
AcDbLine
 62
7
  6
CONTINUOUS
 10
-34.4884011428
 20
-27.7
 11
-34.4884011428
 21
-24.0
  0
LINE
  5
307
100
AcDbEntity
  8
DRAFT
100
AcDbLine
 62
7
  6
CONTINUOUS
 10
-34.4884011428
 20
24.0
 11
-34.4884011428
 21
27.7
  0
LINE
  5
308
100
AcDbEntity
  8
DRAFT
100
AcDbLine
 62
7
  6
CONTINUOUS
 10
-34.45
 20
-32.3
 11
-34.45
 21
-27.7
  0
LINE
  5
309
100
AcDbEntity
  8
DRAFT
100
AcDbLine
 62
7
  6
CONTINUOUS
 10
-34.45
 20
27.7
 11
-34.45
 21
32.3
  0
LINE
  5
30A
100
AcDbEntity
  8
DRAFT
100
AcDbLine
 62
7
  6
CONTINUOUS
 10
-34.45
 20
46.4704650534
 11
-34.45
 21
53.5
  0
LINE
  5
30B
100
AcDbEntity
  8
DRAFT
100
AcDbLine
 62
7
  6
CONTINUOUS
 10
-34.4115988572
 20
32.3
 11
-34.4115988572
 21
27.7
  0
LINE
  5
30C
100
AcDbEntity
  8
DRAFT
100
AcDbLine
 62
7
  6
CONTINUOUS
 10
-34.4115988572
 20
-32.3
 11
-34.4115988572
 21
-27.7
  0
LINE
  5
30D
100
AcDbEntity
  8
DRAFT
100
AcDbLine
 62
7
  6
CONTINUOUS
 10
35.9
 20
-36.0
 11
34.4884011428
 21
-36.0
  0
LINE
  5
30E
100
AcDbEntity
  8
DRAFT
100
AcDbLine
 62
7
  6
CONTINUOUS
 10
-34.4884011428
 20
-36.0
 11
-35.9
 21
-36.0
  0
LINE
  5
30F
100
AcDbEntity
  8
RACCORDO
100
AcDbLine
 62
7
  6
CONTINUOUS
 10
34.5483680519
 20
-35.9
 11
35.9
 21
-35.9
  0
LINE
  5
310
100
AcDbEntity
  8
RACCORDO
100
AcDbLine
 62
7
  6
CONTINUOUS
 10
-34.5483680519
 20
-35.9
 11
-35.9
 21
-35.9
  0
LINE
  5
311
100
AcDbEntity
  8
RACCORDO
100
AcDbLine
 62
250
  6
CONTINUOUS
 10
-35.7987606234
 20
-34.9
 11
-34.6321523635
 21
-34.9
  0
LINE
  5
312
100
AcDbEntity
  8
RACCORDO
100
AcDbLine
 62
250
  6
CONTINUOUS
 10
34.6321523635
 20
-34.9
 11
35.7987606234
 21
-34.9
  0
LINE
  5
313
100
AcDbEntity
  8
0
100
AcDbLine
 62
7
  6
CONTINUOUS
 10
-32.6940384018
 20
-13.1832929458
 11
-32.3658834959
 21
-13.7028580562
  0
LWPOLYLINE
  5
314
100
AcDbEntity
  8
0
100
AcDbPolyline
 62
7
  6
CONTINUOUS
 90
10
 70
0
 10
-32.8672269294
 20
-12.909319769
 10
-32.8506733022
 20
-12.9393464609
 10
-32.8334437148
 20
-12.9694824567
 10
-32.8155381673
 20
-12.9997277566
 10
-32.7969518934
 20
-13.0300898417
 10
-32.7776896593
 20
-13.0605612309
 10
-32.7577657633
 20
-13.0911194803
 10
-32.7371849715
 20
-13.1217571086
 10
-32.7159425176
 20
-13.1524815971
 10
-32.6940384018
 20
-13.1832929458
  0
LINE
  5
315
100
AcDbEntity
  8
0
100
AcDbLine
 62
7
  6
CONTINUOUS
 10
-32.9730104178
 20
-12.0
 11
-32.9730104178
 21
-12.7212959817
  0
LINE
  5
316
100
AcDbEntity
  8
0
100
AcDbLine
 62
7
  6
CONTINUOUS
 10
-32.745962677
 20
-12.7212959817
 11
-32.745962677
 21
-12.0
  0
LINE
  5
317
100
AcDbEntity
  8
0
100
AcDbLine
 62
7
  6
CONTINUOUS
 10
-32.2
 20
53.5
 11
-32.2
 21
47.2
  0
LINE
  5
318
100
AcDbEntity
  8
0
100
AcDbLine
 62
7
  6
CONTINUOUS
 10
-32.0119276316
 20
-12.0
 11
-32.0119276316
 21
-12.1960866853
  0
LINE
  5
319
100
AcDbEntity
  8
0
100
AcDbLine
 62
7
  6
CONTINUOUS
 10
-31.1656587794
 20
-12.1960866853
 11
-31.1656587794
 21
-13.7028580562
  0
LINE
  5
31A
100
AcDbEntity
  8
0
100
AcDbLine
 62
7
  6
CONTINUOUS
 10
-30.9386110386
 20
-13.7028580562
 11
-30.9386110386
 21
-12.0
  0
LINE
  5
31B
100
AcDbEntity
  8
DRAFT
100
AcDbLine
 62
7
  6
CONTINUOUS
 10
-30.75
 20
44.75
 11
-30.75
 21
46.6
  0
LINE
  5
31C
100
AcDbEntity
  8
DRAFT
100
AcDbLine
 62
7
  6
CONTINUOUS
 10
-30.7150898701
 20
44.75
 11
-30.7150898701
 21
46.6
  0
LINE
  5
31D
100
AcDbEntity
  8
DRAFT
100
AcDbLine
 62
7
  6
CONTINUOUS
 10
-3.3110927272
 20
-34.011337067
 11
-3.25
 21
-33.99496732
  0
LINE
  5
31E
100
AcDbEntity
  8
DRAFT
100
AcDbLine
 62
7
  6
CONTINUOUS
 10
34.5451818435
 20
-27.4672828666
 11
34.5988528624
 21
-27.4578916552
  0
LINE
  5
31F
100
AcDbEntity
  8
DRAFT
100
AcDbLine
 62
7
  6
CONTINUOUS
 10
34.5992605626
 20
-27.462558817
 11
34.5451818435
 21
-27.4672828666
  0
LINE
  5
320
100
AcDbEntity
  8
0
100
AcDbLine
 62
7
  6
CONTINUOUS
 10
34.6196821264
 20
-32.7
 11
35.0321523635
 21
-32.7
  0
LINE
  5
321
100
AcDbEntity
  8
0
100
AcDbLine
 62
7
  6
CONTINUOUS
 10
-34.6196821264
 20
-32.7
 11
-35.0321523635
 21
-32.7
  0
LINE
  5
322
100
AcDbEntity
  8
DRAFT
100
AcDbLine
 62
7
  6
CONTINUOUS
 10
35.8877814546
 20
-32.65
 11
35.8301797403
 21
-32.65
  0
LINE
  5
323
100
AcDbEntity
  8
DRAFT
100
AcDbLine
 62
7
  6
CONTINUOUS
 10
-35.8301797403
 20
-32.65
 11
-35.8877814546
 21
-32.65
  0
LINE
  5
324
100
AcDbEntity
  8
DRAFT
100
AcDbLine
 62
7
  6
CONTINUOUS
 10
34.5988528624
 20
-32.3
 11
34.4115988572
 21
-32.3
  0
LINE
  5
325
100
AcDbEntity
  8
DRAFT
100
AcDbLine
 62
7
  6
CONTINUOUS
 10
-34.4115988572
 20
-32.3
 11
-34.5988528624
 21
-32.3
  0
LINE
  5
326
100
AcDbEntity
  8
DRAFT
100
AcDbLine
 62
7
  6
CONTINUOUS
 10
-34.5451818435
 20
-27.4672828666
 11
-34.5988528624
 21
-27.4578916552
  0
LINE
  5
327
100
AcDbEntity
  8
DRAFT
100
AcDbLine
 62
7
  6
CONTINUOUS
 10
3.3110927272
 20
-34.011337067
 11
3.25
 21
-33.99496732
  0
LINE
  5
328
100
AcDbEntity
  8
RACCORDO
100
AcDbLine
 62
250
  6
CONTINUOUS
 10
3.9000761524
 20
-50.1
 11
3.8250193732
 21
-50.0249432208
  0
LINE
  5
329
100
AcDbEntity
  8
RACCORDO
100
AcDbLine
 62
250
  6
CONTINUOUS
 10
4.4
 20
-49.6000761524
 11
4.3249432208
 21
-49.5250193732
  0
LINE
  5
32A
100
AcDbEntity
  8
0
100
AcDbLine
 62
7
  6
CONTINUOUS
 10
-32.0957805101
 20
-13.7028580562
 11
-32.745962677
 21
-12.7212959817
  0
LINE
  5
32B
100
AcDbEntity
  8
0
100
AcDbLine
 62
7
  6
CONTINUOUS
 10
-30.7568761541
 20
-12.0
 11
-30.0747653839
 21
-13.7028580562
  0
LINE
  5
32C
100
AcDbEntity
  8
0
100
AcDbLine
 62
7
  6
CONTINUOUS
 10
-30.1808528725
 20
-12.8955095323
 11
-30.2569841997
 21
-12.7017839262
  0
LINE
  5
32D
100
AcDbEntity
  8
0
100
AcDbLine
 62
7
  6
CONTINUOUS
 10
-30.3255177296
 20
-12.5160175928
 11
-30.5154766125
 21
-12.0
  0
LWPOLYLINE
  5
32E
100
AcDbEntity
  8
0
100
AcDbPolyline
 62
7
  6
CONTINUOUS
 90
6
 70
0
 10
-29.9530175151
 20
-13.5274120747
 10
-29.9793454698
 20
-13.4416849979
 10
-30.0078770731
 20
-13.3544352876
 10
-30.038612325
 20
-13.2656629436
 10
-30.0720073832
 20
-13.175340916
 10
-30.1808528725
 20
-12.8955095323
  0
LINE
  5
32F
100
AcDbEntity
  8
0
100
AcDbLine
 62
7
  6
CONTINUOUS
 10
-30.0
 20
53.5
 11
-30.0
 21
47.2
  0
LINE
  5
330
100
AcDbEntity
  8
0
100
AcDbLine
 62
7
  6
CONTINUOUS
 10
-29.1428698156
 20
-13.506771371
 11
-29.1428698156
 21
-13.7028580562
  0
LINE
  5
331
100
AcDbEntity
  8
0
100
AcDbLine
 62
7
  6
CONTINUOUS
 10
-28.5855708154
 20
-12.0
 11
-28.5855708154
 21
-13.506771371
  0
LINE
  5
332
100
AcDbEntity
  8
0
100
AcDbLine
 62
7
  6
CONTINUOUS
 10
-28.3585230746
 20
-13.506771371
 11
-28.3585230746
 21
-12.0
  0
LINE
  5
333
100
AcDbEntity
  8
0
100
AcDbLine
 62
7
  6
CONTINUOUS
 10
-27.8012240744
 20
-13.7028580562
 11
-27.8012240744
 21
-13.506771371
  0
LINE
  5
334
100
AcDbEntity
  8
0
100
AcDbLine
 62
7
  6
CONTINUOUS
 10
-27.5225745743
 20
-12.0
 11
-27.5225745743
 21
-13.7028580562
  0
LINE
  5
335
100
AcDbEntity
  8
DRAFT
100
AcDbLine
 62
7
  6
CONTINUOUS
 10
-27.5
 20
18.0176397269
 11
-27.5
 21
15.95
  0
LINE
  5
336
100
AcDbEntity
  8
0
100
AcDbLine
 62
7
  6
CONTINUOUS
 10
-27.2955268334
 20
-13.7028580562
 11
-27.2955268334
 21
-12.0
  0
LINE
  5
337
100
AcDbEntity
  8
0
100
AcDbLine
 62
7
  6
CONTINUOUS
 10
-26.8883832022
 20
8.66056
 11
-26.8883832022
 21
6.66056
  0
LINE
  5
338
100
AcDbEntity
  8
0
100
AcDbLine
 62
7
  6
CONTINUOUS
 10
-26.2015695367
 20
-12.0
 11
-26.2015695367
 21
-13.7028580562
  0
LINE
  5
339
100
AcDbEntity
  8
0
100
AcDbLine
 62
7
  6
CONTINUOUS
 10
-25.9745217959
 20
-13.7028580562
 11
-25.9745217959
 21
-12.0
  0
LINE
  5
33A
100
AcDbEntity
  8
DRAFT
100
AcDbLine
 62
7
  6
CONTINUOUS
 10
-25.75
 20
15.95
 11
-25.75
 21
18.0176397269
  0
LINE
  5
33B
100
AcDbEntity
  8
DRAFT
100
AcDbLine
 62
7
  6
CONTINUOUS
 10
3.3110927272
 20
-29.388662933
 11
3.25
 21
-29.40503268
  0
LINE
  5
33C
100
AcDbEntity
  8
DRAFT
100
AcDbLine
 62
7
  6
CONTINUOUS
 10
-34.5988528624
 20
-32.5421083448
 11
-34.5451818435
 21
-32.5327171334
  0
LINE
  5
33D
100
AcDbEntity
  8
DRAFT
100
AcDbLine
 62
7
  6
CONTINUOUS
 10
-34.5992605626
 20
-32.537441183
 11
-34.5451818435
 21
-32.5327171334
  0
LINE
  5
33E
100
AcDbEntity
  8
DRAFT
100
AcDbLine
 62
7
  6
CONTINUOUS
 10
34.5988528624
 20
-27.7
 11
34.4115988572
 21
-27.7
  0
LINE
  5
33F
100
AcDbEntity
  8
DRAFT
100
AcDbLine
 62
7
  6
CONTINUOUS
 10
-34.4115988572
 20
-27.7
 11
-34.5988528624
 21
-27.7
  0
LINE
  5
340
100
AcDbEntity
  8
DRAFT
100
AcDbLine
 62
7
  6
CONTINUOUS
 10
-35.8877814546
 20
-27.35
 11
-35.8301797403
 21
-27.35
  0
LINE
  5
341
100
AcDbEntity
  8
DRAFT
100
AcDbLine
 62
7
  6
CONTINUOUS
 10
35.8301797403
 20
-27.35
 11
35.8877814546
 21
-27.35
  0
LINE
  5
342
100
AcDbEntity
  8
0
100
AcDbLine
 62
7
  6
CONTINUOUS
 10
34.6196821264
 20
-27.3
 11
35.0321523635
 21
-27.3
  0
LINE
  5
343
100
AcDbEntity
  8
0
100
AcDbLine
 62
7
  6
CONTINUOUS
 10
-34.6196821264
 20
-27.3
 11
-35.0321523635
 21
-27.3
  0
LINE
  5
344
100
AcDbEntity
  8
DRAFT
100
AcDbLine
 62
7
  6
CONTINUOUS
 10
34.5992605626
 20
-32.537441183
 11
34.5451818435
 21
-32.5327171334
  0
LINE
  5
345
100
AcDbEntity
  8
DRAFT
100
AcDbLine
 62
7
  6
CONTINUOUS
 10
34.5988528624
 20
-32.5421083448
 11
34.5451818435
 21
-32.5327171334
  0
LINE
  5
346
100
AcDbEntity
  8
DRAFT
100
AcDbLine
 62
7
  6
CONTINUOUS
 10
-3.3110927272
 20
-29.388662933
 11
-3.25
 21
-29.40503268
  0
LINE
  5
347
100
AcDbEntity
  8
0
100
AcDbLine
 62
7
  6
CONTINUOUS
 10
-23.5119891513
 20
-12.0
 11
-22.8298783811
 21
-13.7028580562
  0
LINE
  5
348
100
AcDbEntity
  8
0
100
AcDbLine
 62
7
  6
CONTINUOUS
 10
-22.9359658697
 20
-12.8955095323
 11
-23.0120971969
 21
-12.7017839262
  0
LINE
  5
349
100
AcDbEntity
  8
0
100
AcDbLine
 62
7
  6
CONTINUOUS
 10
-24.2057103371
 20
-13.7028580562
 11
-24.8604075693
 21
-12.0
  0
LINE
  5
34A
100
AcDbEntity
  8
0
100
AcDbLine
 62
7
  6
CONTINUOUS
 10
-23.0806307268
 20
-12.5160175928
 11
-23.2705896097
 21
-12.0
  0
LWPOLYLINE
  5
34B
100
AcDbEntity
  8
0
100
AcDbPolyline
 62
7
  6
CONTINUOUS
 90
6
 70
0
 10
-22.7081305122
 20
-13.5274120747
 10
-22.734458467
 20
-13.4416849979
 10
-22.7629900703
 20
-13.3544352876
 10
-22.7937253222
 20
-13.2656629436
 10
-22.8271203804
 20
-13.175340916
 10
-22.9359658697
 20
-12.8955095323
  0
LWPOLYLINE
  5
34C
100
AcDbEntity
  8
0
100
AcDbPolyline
 62
7
  6
CONTINUOUS
 90
10
 70
0
 10
-24.9786079205
 20
-12.1909265881
 10
-24.9700700769
 20
-12.2211272493
 10
-24.9611786009
 20
-12.2515021602
 10
-24.9519334924
 20
-12.2820513209
 10
-24.9423260157
 20
-12.3127774897
 10
-24.9323649066
 20
-12.3436779082
 10
-24.9220763726
 20
-12.3747443016
 10
-24.9114691496
 20
-12.4059739116
 10
-24.9005345017
 20
-12.4373694965
 10
-24.4471097212
 20
-13.7028580562
  0
LINE
  5
34D
100
AcDbEntity
  8
DRAFT
100
AcDbLine
 62
7
  6
CONTINUOUS
 10
-24.25
 20
18.0176397269
 11
-24.25
 21
15.95
  0
LINE
  5
34E
100
AcDbEntity
  8
ASSI
100
AcDbLine
 62
7
  6
CONTINUOUS
 10
-23.5
 20
-46.6
 11
-23.5
 21
-53.5
  0
LINE
  5
34F
100
AcDbEntity
  8
0
100
AcDbLine
 62
7
  6
CONTINUOUS
 10
-23.150868
 20
-0.946916
 11
-23.150868
 21
-1.999816
  0
LINE
  5
350
100
AcDbEntity
  8
0
100
AcDbLine
 62
7
  6
CONTINUOUS
 10
-23.044058
 20
-1.893008
 11
-23.044058
 21
-1.053726
  0
LINE
  5
351
100
AcDbEntity
  8
0
100
AcDbLine
 62
7
  6
CONTINUOUS
 10
-22.670226
 20
-2.549052
 11
-22.670226
 21
-2.683454
  0
LINE
  5
352
100
AcDbEntity
  8
DRAFT
100
AcDbLine
 62
7
  6
CONTINUOUS
 10
-22.5
 20
15.95
 11
-22.5
 21
18.0176397269
  0
LINE
  5
353
100
AcDbEntity
  8
0
100
AcDbLine
 62
7
  6
CONTINUOUS
 10
-21.975968
 20
-1.127018
 11
-21.975968
 21
-2.015006
  0
LINE
  5
354
100
AcDbEntity
  8
0
100
AcDbLine
 62
7
  6
CONTINUOUS
 10
-21.869158
 20
-2.121816
 11
-21.869158
 21
-1.02021
  0
LINE
  5
355
100
AcDbEntity
  8
0
100
AcDbLine
 62
7
  6
CONTINUOUS
 10
-22.298062
 20
-2.121816
 11
-22.33544
 21
-2.549052
  0
LINE
  5
356
100
AcDbEntity
  8
0
100
AcDbLine
 62
7
  6
CONTINUOUS
 10
-21.874184
 20
2.723134
 11
-22.195272
 21
-0.946916
  0
LINE
  5
357
100
AcDbEntity
  8
0
100
AcDbLine
 62
7
  6
CONTINUOUS
 10
-22.233566
 20
-1.384616
 11
-22.288718
 21
-2.015006
  0
LINE
  5
358
100
AcDbEntity
  8
0
100
AcDbLine
 62
7
  6
CONTINUOUS
 10
-21.7894599402
 20
3.6915426831
 11
-21.84988
 21
3.00093
  0
LINE
  5
359
100
AcDbEntity
  8
0
100
AcDbLine
 62
7
  6
CONTINUOUS
 10
-22.087104
 20
-0.936054
 11
-21.775592
 21
2.624542
  0
LINE
  5
35A
100
AcDbEntity
  8
0
100
AcDbLine
 62
7
  6
CONTINUOUS
 10
-21.751288
 20
2.90234
 11
-21.68359
 21
3.676132
  0
LINE
  5
35B
100
AcDbEntity
  8
0
100
AcDbLine
 62
7
  6
CONTINUOUS
 10
-22.1815
 20
-2.015006
 11
-22.116068
 21
-1.26712
  0
LINE
  5
35C
100
AcDbEntity
  8
0
100
AcDbLine
 62
7
  6
CONTINUOUS
 10
-22.228224
 20
-2.549052
 11
-22.190844
 21
-2.121816
  0
LINE
  5
35D
100
AcDbEntity
  8
0
100
AcDbLine
 62
7
  6
CONTINUOUS
 10
-29.4215193158
 20
-12.0
 11
-29.6009967463
 21
-12.5160175928
  0
LINE
  5
35E
100
AcDbEntity
  8
0
100
AcDbLine
 62
7
  6
CONTINUOUS
 10
-29.6656602427
 20
-12.7017839262
 11
-29.8496527385
 21
-13.1989346528
  0
LINE
  5
35F
100
AcDbEntity
  8
0
100
AcDbLine
 62
7
  6
CONTINUOUS
 10
-29.8291732928
 20
-13.7028580562
 11
-29.1818937691
 21
-12.0
  0
LWPOLYLINE
  5
360
100
AcDbEntity
  8
0
100
AcDbPolyline
 62
7
  6
CONTINUOUS
 90
10
 70
0
 10
-29.8496527385
 20
-13.1989346528
 10
-29.8638504913
 20
-13.2339753804
 10
-29.8773834102
 20
-13.2694138826
 10
-29.8902514955
 20
-13.3052501593
 10
-29.9024725612
 20
-13.3415289888
 10
-29.9140287931
 20
-13.3782055927
 10
-29.9248667487
 20
-13.4151456368
 10
-29.9349686138
 20
-13.4523043427
 10
-29.9443522026
 20
-13.4897264887
 10
-29.9530175151
 20
-13.5274120747
  0
LINE
  5
361
100
AcDbEntity
  8
0
100
AcDbLine
 62
7
  6
CONTINUOUS
 10
-24.806408
 20
5.95746
 11
-24.95746
 21
5.806408
  0
LINE
  5
362
100
AcDbEntity
  8
RACCORDO
100
AcDbLine
 62
250
  6
CONTINUOUS
 10
-35.7987606234
 20
-25.1
 11
-34.6321523635
 21
-25.1
  0
LINE
  5
363
100
AcDbEntity
  8
RACCORDO
100
AcDbLine
 62
250
  6
CONTINUOUS
 10
34.6321523635
 20
-25.1
 11
35.7987606234
 21
-25.1
  0
LINE
  5
364
100
AcDbEntity
  8
RACCORDO
100
AcDbLine
 62
7
  6
CONTINUOUS
 10
34.5483680519
 20
-24.1
 11
35.9
 21
-24.1
  0
LINE
  5
365
100
AcDbEntity
  8
RACCORDO
100
AcDbLine
 62
7
  6
CONTINUOUS
 10
-34.5483680519
 20
-24.1
 11
-35.9
 21
-24.1
  0
LINE
  5
366
100
AcDbEntity
  8
DRAFT
100
AcDbLine
 62
7
  6
CONTINUOUS
 10
35.9
 20
-24.0
 11
34.4884011428
 21
-24.0
  0
LINE
  5
367
100
AcDbEntity
  8
DRAFT
100
AcDbLine
 62
7
  6
CONTINUOUS
 10
-34.4884011428
 20
-24.0
 11
-35.9
 21
-24.0
  0
LWPOLYLINE
  5
368
100
AcDbEntity
  8
0
100
AcDbPolyline
 62
7
  6
CONTINUOUS
 90
28
 70
0
 10
-17.0087161605
 20
-13.1274984796
 10
-16.9940622569
 20
-13.1424571205
 10
-16.9812659091
 20
-13.1584737568
 10
-16.9703271169
 20
-13.1755483884
 10
-16.9611908715
 20
-13.1937029666
 10
-16.9539121818
 20
-13.2129155402
 10
-16.9486560749
 20
-13.2331202555
 10
-16.9454408906
 20
-13.2546619207
 10
-16.9442482891
 20
-13.2771957276
 10
-16.9451882781
 20
-13.2996213981
 10
-16.948311919
 20
-13.3218150696
 10
-16.9535681503
 20
-13.3439006046
 10
-16.9609137952
 20
-13.3651493121
 10
-16.970271116
 20
-13.3853300305
 10
-16.9817178504
 20
-13.4046739214
 10
-16.9954440347
 20
-13.4231457795
 10
-17.011509107
 20
-13.4409217523
 10
-17.0298536292
 20
-13.4578256924
 10
-17.0504893237
 20
-13.4732939517
 10
-17.0735475091
 20
-13.487252388
 10
-17.0988968668
 20
-13.4997751437
 10
-17.1261551636
 20
-13.5105209983
 10
-17.1553404942
 20
-13.5193490388
 10
-17.186434764
 20
-13.5264001782
 10
-17.2190014562
 20
-13.5317559349
 10
-17.2528950652
 20
-13.5354434816
 10
-17.2882610966
 20
-13.5374356454
 10
-17.3250995504
 20
-13.5377324265
  0
LWPOLYLINE
  5
369
100
AcDbEntity
  8
0
100
AcDbPolyline
 62
7
  6
CONTINUOUS
 90
18
 70
0
 10
-20.3996373908
 20
-12.485122991
 10
-20.4226804731
 20
-12.4234481022
 10
-20.4483396297
 20
-12.366011269
 10
-20.4765135907
 20
-12.312861932
 10
-20.507303626
 20
-12.2639506508
 10
-20.540174677
 20
-12.2192667702
 10
-20.5748158705
 20
-12.1790298835
 10
-20.6115380796
 20
-12.1430203975
 10
-20.6507388656
 20
-12.1105688775
 10
-20.6922303775
 20
-12.0815760934
 10
-20.7362004662
 20
-12.0561412754
 10
-20.7836102465
 20
-12.0338926795
 10
-20.8348355561
 20
-12.0146148847
 10
-20.8895005572
 20
-11.9985233119
 10
-20.9474388514
 20
-11.9858924796
 10
-21.0085949725
 20
-11.9768138941
 10
-21.0730243866
 20
-11.971196049
 10
-21.1407270938
 20
-11.9690389444
  0
LWPOLYLINE
  5
36A
100
AcDbEntity
  8
0
100
AcDbPolyline
 62
7
  6
CONTINUOUS
 90
44
 70
0
 10
-21.8050996461
 20
-13.235217221
 10
-21.7858816678
 20
-13.2922260244
 10
-21.7636291583
 20
-13.3460160454
 10
-21.7383421179
 20
-13.396587284
 10
-21.7097242706
 20
-13.444155943
 10
-21.6780718923
 20
-13.4885058195
 10
-21.6442738101
 20
-13.5289883054
 10
-21.6087213599
 20
-13.5652517857
 10
-21.5710232058
 20
-13.5976478754
 10
-21.5308941675
 20
-13.6265828105
 10
-21.488482387
 20
-13.6521668428
 10
-21.4436397223
 20
-13.6742897205
 10
-21.3956365671
 20
-13.6930269244
 10
-21.3439760994
 20
-13.7085920725
 10
-21.2891551412
 20
-13.7207715469
 10
-21.2319345523
 20
-13.7289999743
 10
-21.1716665733
 20
-13.733218509
 10
-21.1089989636
 20
-13.7334859968
 10
-21.046635861
 20
-13.7294136018
 10
-20.984762554
 20
-13.7207351412
 10
-20.9231937542
 20
-13.7077167978
 10
-20.8640777338
 20
-13.6907682837
 10
-20.8078544576
 20
-13.6697774123
 10
-20.7540839609
 20
-13.6448563703
 10
-20.7035946222
 20
-13.6167514294
 10
-20.6567133458
 20
-13.5857341574
 10
-20.6131132274
 20
-13.5515329864
 10
-20.5726419324
 20
-13.5140794854
 10
-20.5353568847
 20
-13.4736137958
 10
-20.5012006603
 20
-13.4298957761
 10
-20.4698486524
 20
-13.38213657
 10
-20.4409174012
 20
-13.330144751
 10
-20.4147903665
 20
-13.2741117456
 10
-20.392293321
 20
-13.2138229776
 10
-20.373417782
 20
-13.1488217892
 10
-20.3581722322
 20
-13.0795648383
 10
-20.3474078927
 20
-13.0072075213
 10
-20.3413559287
 20
-12.9306300985
 10
-20.3397851751
 20
-12.8509523098
 10
-20.3428533579
 20
-12.7726887708
 10
-20.3510077171
 20
-12.696448974
 10
-20.3638010128
 20
-12.6216234269
 10
-20.3800492513
 20
-12.550898269
 10
-20.3996373908
 20
-12.485122991
  0
LWPOLYLINE
  5
36B
100
AcDbEntity
  8
0
100
AcDbPolyline
 62
7
  6
CONTINUOUS
 90
41
 70
0
 10
-17.9556084039
 20
-13.2281218708
 10
-17.951411862
 20
-13.2753180843
 10
-17.9438162413
 20
-13.3206511861
 10
-17.9328215417
 20
-13.3641211762
 10
-17.9182249275
 20
-13.4060086496
 10
-17.9002292345
 20
-13.4460330114
 10
-17.8794429698
 20
-13.4833524765
 10
-17.856143004
 20
-13.5175776863
 10
-17.8300524667
 20
-13.5490979993
 10
-17.8009492535
 20
-13.5782397066
 10
-17.7688857993
 20
-13.6050996529
 10
-17.7338096694
 20
-13.6295809935
 10
-17.6953414556
 20
-13.6517194846
 10
-17.653267272
 20
-13.6716885676
 10
-17.6078010045
 20
-13.689314801
 10
-17.5592049038
 20
-13.7041136176
 10
-17.5069617994
 20
-13.7160631289
 10
-17.4515888617
 20
-13.7251852232
 10
-17.3948998528
 20
-13.7310609988
 10
-17.3362117244
 20
-13.7335265774
 10
-17.2762075248
 20
-13.7327458372
 10
-17.2187501609
 20
-13.7287915108
 10
-17.1649716532
 20
-13.7214945413
 10
-17.1137399812
 20
-13.7110239857
 10
-17.0655219898
 20
-13.6979597478
 10
-17.0203905067
 20
-13.6823688828
 10
-16.9782727042
 20
-13.6641843356
 10
-16.9394169437
 20
-13.6437848446
 10
-16.9040051275
 20
-13.6213116358
 10
-16.8718553534
 20
-13.5966234832
 10
-16.8426702764
 20
-13.569675448
 10
-16.8163454303
 20
-13.5403590201
 10
-16.7929852814
 20
-13.5087827094
 10
-16.7726058836
 20
-13.4752271067
 10
-16.7550474684
 20
-13.4392888253
 10
-16.7404698042
 20
-13.4013712518
 10
-16.7293682504
 20
-13.3629651367
 10
-16.7219292825
 20
-13.324088979
 10
-16.7179664249
 20
-13.2847242797
 10
-16.7174156099
 20
-13.246306293
 10
-16.7203705188
 20
-13.2091410781
  0
LINE
  5
36C
100
AcDbEntity
  8
0
100
AcDbLine
 62
7
  6
CONTINUOUS
 10
-17.689946
 20
-2.976288
 11
-17.663618004
 21
-3.2772179547
  0
LINE
  5
36D
100
AcDbEntity
  8
0
100
AcDbLine
 62
7
  6
CONTINUOUS
 10
-18.18353
 20
2.665418
 11
-17.86418
 21
-0.984768
  0
LINE
  5
36E
100
AcDbEntity
  8
0
100
AcDbLine
 62
7
  6
CONTINUOUS
 10
-17.835216
 20
-1.315834
 11
-17.727324
 21
-2.549052
  0
LINE
  5
36F
100
AcDbEntity
  8
0
100
AcDbLine
 62
7
  6
CONTINUOUS
 10
-18.348738
 20
4.553752
 11
-18.207834
 21
2.943216
  0
LINE
  5
370
100
AcDbEntity
  8
0
100
AcDbLine
 62
7
  6
CONTINUOUS
 10
-18.109244
 20
3.041808
 11
-18.250866
 21
4.66056
  0
LINE
  5
371
100
AcDbEntity
  8
0
100
AcDbLine
 62
7
  6
CONTINUOUS
 10
-17.5503521284
 20
-3.3463445329
 11
-17.582728
 21
-2.976288
  0
LINE
  5
372
100
AcDbEntity
  8
0
100
AcDbLine
 62
7
  6
CONTINUOUS
 10
-17.620106
 20
-2.549052
 11
-17.71772
 21
-1.433332
  0
LINE
  5
373
100
AcDbEntity
  8
0
100
AcDbLine
 62
7
  6
CONTINUOUS
 10
-17.746684
 20
-1.102266
 11
-18.08494
 21
2.76401
  0
LWPOLYLINE
  5
374
100
AcDbEntity
  8
0
100
AcDbPolyline
 62
7
  6
CONTINUOUS
 90
22
 70
0
 10
-16.65524407
 20
-12.5572990002
 10
-16.6587932926
 20
-12.5055919673
 10
-16.6657374131
 20
-12.4560302248
 10
-16.6760764315
 20
-12.4086137725
 10
-16.6899721825
 20
-12.3633158192
 10
-16.7072628314
 20
-12.3201631562
 10
-16.7274628741
 20
-12.2792361575
 10
-16.7505545021
 20
-12.2404167447
 10
-16.7765555239
 20
-12.2038229961
 10
-16.8050338609
 20
-12.1698895208
 10
-16.8356622006
 20
-12.1388384188
 10
-16.8687678554
 20
-12.1104475901
 10
-16.9049006841
 20
-12.0844853442
 10
-16.944105355
 20
-12.0607864489
 10
-16.9863371998
 20
-12.0395161364
 10
-17.0320120717
 20
-12.0209384126
 10
-17.0814685114
 20
-12.0050488908
 10
-17.1343679782
 20
-11.9918519578
 10
-17.1901107039
 20
-11.98162478
 10
-17.2484967658
 20
-11.9744597463
 10
-17.3097260867
 20
-11.9702644677
 10
-17.3737986664
 20
-11.9690389444
  0
LWPOLYLINE
  5
375
100
AcDbEntity
  8
0
100
AcDbPolyline
 62
7
  6
CONTINUOUS
 90
43
 70
0
 10
-16.427878277
 20
-12.87766807
 10
-16.4228065504
 20
-12.9588521146
 10
-16.4133496642
 20
-13.0358177093
 10
-16.3995076186
 20
-13.1085648542
 10
-16.3808851474
 20
-13.17716472
 10
-16.3578775167
 20
-13.241546136
 10
-16.3316705243
 20
-13.3014955895
 10
-16.3025786421
 20
-13.3567181845
 10
-16.2702873982
 20
-13.4075088171
 10
-16.2350391756
 20
-13.4545386628
 10
-16.197015174
 20
-13.4978428695
 10
-16.1560341936
 20
-13.5373862892
 10
-16.1117950178
 20
-13.5737346539
 10
-16.0638610429
 20
-13.607353469
 10
-16.0126688726
 20
-13.6377772291
 10
-15.9592271017
 20
-13.6641751494
 10
-15.9040512374
 20
-13.6863794672
 10
-15.8466257725
 20
-13.7045579452
 10
-15.7864127813
 20
-13.7183830872
 10
-15.7221845713
 20
-13.7278359828
 10
-15.6551688348
 20
-13.7329355424
 10
-15.5885107232
 20
-13.7334110007
 10
-15.5222240301
 20
-13.7289735957
 10
-15.4562949618
 20
-13.7199120895
 10
-15.3938272888
 20
-13.7068220031
 10
-15.3362197777
 20
-13.6898712692
 10
-15.2820736618
 20
-13.668891955
 10
-15.2302964115
 20
-13.643975783
 10
-15.180447159
 20
-13.6150768904
 10
-15.132966772
 20
-13.5822411399
 10
-15.0880853236
 20
-13.5456978424
 10
-15.0455648913
 20
-13.5052983387
 10
-15.0056433975
 20
-13.461191288
 10
-14.9692646831
 20
-13.4140519787
 10
-14.9367500107
 20
-13.3644291983
 10
-14.9077781177
 20
-13.3117741592
 10
-14.8823290563
 20
-13.2551157879
 10
-14.8602359245
 20
-13.1941474812
 10
-14.8416656242
 20
-13.1291758422
 10
-14.8270989146
 20
-13.060149606
 10
-14.8166960484
 20
-12.9870516844
 10
-14.8102967729
 20
-12.9098991656
 10
-14.8079010878
 20
-12.8286920497
  0
LINE
  5
376
100
AcDbEntity
  8
0
100
AcDbLine
 62
7
  6
CONTINUOUS
 10
-21.1749
 20
-0.41287
 11
-21.1749
 21
-0.946916
  0
LINE
  5
377
100
AcDbEntity
  8
0
100
AcDbLine
 62
7
  6
CONTINUOUS
 10
-21.06809
 20
-0.840108
 11
-21.06809
 21
-0.51968
  0
LINE
  5
378
100
AcDbEntity
  8
0
100
AcDbLine
 62
7
  6
CONTINUOUS
 10
-20.961282
 20
-3.403526
 11
-20.961282
 21
-3.5254658518
  0
LINE
  5
379
100
AcDbEntity
  8
0
100
AcDbLine
 62
7
  6
CONTINUOUS
 10
-20.961282
 20
-3.6351113714
 11
-20.961282
 21
-4.04438
  0
LINE
  5
37A
100
AcDbEntity
  8
0
100
AcDbLine
 62
7
  6
CONTINUOUS
 10
-20.854472
 20
-3.93757
 11
-20.854472
 21
-3.658544
  0
LINE
  5
37B
100
AcDbEntity
  8
0
100
AcDbLine
 62
7
  6
CONTINUOUS
 10
-20.854472
 20
-3.549376
 11
-20.854472
 21
-3.510334
  0
LINE
  5
37C
100
AcDbEntity
  8
0
100
AcDbLine
 62
7
  6
CONTINUOUS
 10
-20.0093584232
 20
-12.0
 11
-20.0093584232
 21
-13.7028580562
  0
LINE
  5
37D
100
AcDbEntity
  8
0
100
AcDbLine
 62
7
  6
CONTINUOUS
 10
-19.7823106824
 20
-13.7028580562
 11
-19.7823106824
 21
-12.0
  0
LINE
  5
37E
100
AcDbEntity
  8
0
100
AcDbLine
 62
7
  6
CONTINUOUS
 10
-19.626168
 20
-3.510334
 11
-19.626168
 21
-3.6699630887
  0
LINE
  5
37F
100
AcDbEntity
  8
0
100
AcDbLine
 62
7
  6
CONTINUOUS
 10
-19.626168
 20
-3.776783715
 11
-19.626168
 21
-3.93757
  0
LINE
  5
380
100
AcDbEntity
  8
0
100
AcDbLine
 62
7
  6
CONTINUOUS
 10
-19.524301886
 20
-13.506771371
 11
-19.524301886
 21
-13.7028580562
  0
LINE
  5
381
100
AcDbEntity
  8
0
100
AcDbLine
 62
7
  6
CONTINUOUS
 10
-19.51936
 20
-4.04438
 11
-19.51936
 21
-3.77424
  0
LINE
  5
382
100
AcDbEntity
  8
0
100
AcDbLine
 62
7
  6
CONTINUOUS
 10
-19.51936
 20
-3.667372
 11
-19.51936
 21
-3.403526
  0
LINE
  5
383
100
AcDbEntity
  8
0
100
AcDbLine
 62
7
  6
CONTINUOUS
 10
-19.41255
 20
-0.51968
 11
-19.41255
 21
-0.840108
  0
LINE
  5
384
100
AcDbEntity
  8
0
100
AcDbLine
 62
7
  6
CONTINUOUS
 10
-19.30574
 20
-0.946916
 11
-19.30574
 21
-0.41287
  0
LINE
  5
385
100
AcDbEntity
  8
0
100
AcDbLine
 62
7
  6
CONTINUOUS
 10
-18.9670028858
 20
-12.0
 11
-18.9670028858
 21
-13.506771371
  0
LINE
  5
386
100
AcDbEntity
  8
0
100
AcDbLine
 62
7
  6
CONTINUOUS
 10
-18.89172
 20
5.515034
 11
-18.89172
 21
4.66056
  0
LINE
  5
387
100
AcDbEntity
  8
0
100
AcDbLine
 62
7
  6
CONTINUOUS
 10
-18.7399551449
 20
-13.506771371
 11
-18.7399551449
 21
-12.0
  0
LINE
  5
388
100
AcDbEntity
  8
0
100
AcDbLine
 62
7
  6
CONTINUOUS
 10
-18.731506
 20
4.713966
 11
-18.731506
 21
5.35482
  0
LINE
  5
389
100
AcDbEntity
  8
0
100
AcDbLine
 62
7
  6
CONTINUOUS
 10
-18.41108
 20
5.35482
 11
-18.41108
 21
4.713966
  0
LINE
  5
38A
100
AcDbEntity
  8
0
100
AcDbLine
 62
7
  6
CONTINUOUS
 10
-18.397864
 20
-2.976288
 11
-18.397864
 21
-3.5126708292
  0
LINE
  5
38B
100
AcDbEntity
  8
0
100
AcDbLine
 62
7
  6
CONTINUOUS
 10
-18.397864
 20
-3.62257169
 11
-18.397864
 21
-3.884166
  0
LINE
  5
38C
100
AcDbEntity
  8
0
100
AcDbLine
 62
7
  6
CONTINUOUS
 10
-18.291054
 20
-3.777356
 11
-18.291054
 21
-3.595832
  0
LINE
  5
38D
100
AcDbEntity
  8
0
100
AcDbLine
 62
7
  6
CONTINUOUS
 10
-18.291054
 20
-3.485376
 11
-18.291054
 21
-3.083098
  0
LINE
  5
38E
100
AcDbEntity
  8
0
100
AcDbLine
 62
7
  6
CONTINUOUS
 10
-18.250866
 20
4.66056
 11
-18.250866
 21
5.515034
  0
LINE
  5
38F
100
AcDbEntity
  8
0
100
AcDbLine
 62
7
  6
CONTINUOUS
 10
-18.1826561447
 20
-13.7028580562
 11
-18.1826561447
 21
-13.506771371
  0
LINE
  5
390
100
AcDbEntity
  8
0
100
AcDbLine
 62
7
  6
CONTINUOUS
 10
-17.970628
 20
-3.083098
 11
-17.970628
 21
-3.3895425405
  0
LINE
  5
391
100
AcDbEntity
  8
0
100
AcDbLine
 62
7
  6
CONTINUOUS
 10
-17.970628
 20
-3.5019841279
 11
-17.970628
 21
-3.777356
  0
LINE
  5
392
100
AcDbEntity
  8
0
100
AcDbLine
 62
7
  6
CONTINUOUS
 10
-17.863818
 20
-3.884166
 11
-17.863818
 21
-3.466024
  0
LINE
  5
393
100
AcDbEntity
  8
0
100
AcDbLine
 62
7
  6
CONTINUOUS
 10
-17.863818
 20
-3.352804
 11
-17.863818
 21
-2.976288
  0
LWPOLYLINE
  5
394
100
AcDbEntity
  8
0
100
AcDbPolyline
 62
7
  6
CONTINUOUS
 90
42
 70
0
 10
-21.6193333127
 20
-12.5976130174
 10
-21.6051472052
 20
-12.5440665092
 10
-21.5884346991
 20
-12.4941504116
 10
-21.5691957943
 20
-12.4478647245
 10
-21.5471991634
 20
-12.4051389385
 10
-21.5226761339
 20
-12.366043563
 10
-21.4963206882
 20
-12.330790127
 10
-21.4684457852
 20
-12.2996873011
 10
-21.438738466
 20
-12.2724264147
 10
-21.4069538361
 20
-12.2482929847
 10
-21.3731613478
 20
-12.2270778024
 10
-21.3372915488
 20
-12.2089900764
 10
-21.2988911877
 20
-12.1939429501
 10
-21.257524562
 20
-12.1816761633
 10
-21.213627374
 20
-12.1724499762
 10
-21.1680534801
 20
-12.1669583129
 10
-21.1201825521
 20
-12.1653942665
 10
-21.0706349182
 20
-12.1675647439
 10
-21.0221254182
 20
-12.1735843905
 10
-20.974971435
 20
-12.183769085
 10
-20.9288555859
 20
-12.1978029487
 10
-20.8855405626
 20
-12.2148529904
 10
-20.8455780697
 20
-12.2347641696
 10
-20.8084164028
 20
-12.2576915269
 10
-20.7741631405
 20
-12.2832671927
 10
-20.7429643445
 20
-12.3112329608
 10
-20.7146739532
 20
-12.3418470372
 10
-20.6889613607
 20
-12.3755161705
 10
-20.6657922615
 20
-12.412381547
 10
-20.6452009611
 20
-12.4523019802
 10
-20.6269597708
 20
-12.495260659
 10
-20.61095572
 20
-12.5413546463
 10
-20.5973017793
 20
-12.5904868793
 10
-20.5861091713
 20
-12.6423493578
 10
-20.5772708848
 20
-12.6972935885
 10
-20.570893931
 20
-12.7549680648
 10
-20.5674105667
 20
-12.8140102668
 10
-20.5669335719
 20
-12.8752272893
 10
-20.5693501665
 20
-12.9378120375
 10
-20.5747542674
 20
-12.9979807073
 10
-20.5833249594
 20
-13.0547312864
 10
-20.5948831577
 20
-13.109065787
  0
LINE
  5
395
100
AcDbEntity
  8
0
100
AcDbLine
 62
7
  6
CONTINUOUS
 10
-22.1766323129
 20
-12.0
 11
-22.3561097434
 21
-12.5160175928
  0
LWPOLYLINE
  5
396
100
AcDbEntity
  8
0
100
AcDbPolyline
 62
7
  6
CONTINUOUS
 90
9
 70
0
 10
-25.0603027696
 20
-12.4375750062
 10
-25.0488313556
 20
-12.4063321112
 10
-25.0377218771
 20
-12.3752023714
 10
-25.0269764723
 20
-12.3441811054
 10
-25.0165930029
 20
-12.3132729946
 10
-25.0065650544
 20
-12.2824920831
 10
-24.9968904888
 20
-12.2518430522
 10
-24.9875714442
 20
-12.2213212205
 10
-24.9786079205
 20
-12.1909265881
  0
LINE
  5
397
100
AcDbEntity
  8
0
100
AcDbLine
 62
7
  6
CONTINUOUS
 10
-25.5410670179
 20
-13.7028580562
 11
-25.0603027696
 21
-12.4375750062
  0
LINE
  5
398
100
AcDbEntity
  8
0
100
AcDbLine
 62
7
  6
CONTINUOUS
 10
-25.1047097542
 20
-12.0
 11
-25.7839178812
 21
-13.7028580562
  0
LWPOLYLINE
  5
399
100
AcDbEntity
  8
0
100
AcDbPolyline
 62
7
  6
CONTINUOUS
 90
4
 70
0
 10
-33.380180621
 20
-13.7028580562
 10
-32.9809911945
 20
-13.08525392
 10
-32.9240922382
 20
-12.997255004
 10
-32.8672269294
 20
-12.909319769
  0
LINE
  5
39A
100
AcDbEntity
  8
0
100
AcDbLine
 62
7
  6
CONTINUOUS
 10
-32.9730104178
 20
-12.7212959817
 11
-33.6541536403
 21
-13.7028580562
  0
LWPOLYLINE
  5
39B
100
AcDbEntity
  8
0
100
AcDbPolyline
 62
7
  6
CONTINUOUS
 90
40
 70
0
 10
26.1538977865
 20
-12.7740263892
 10
26.1017940389
 20
-12.7828204015
 10
26.0525565998
 20
-12.7939656861
 10
26.0061854693
 20
-12.8074622428
 10
25.96247788
 20
-12.8234664436
 10
25.9216365993
 20
-12.8418219166
 10
25.8842699294
 20
-12.8620595459
 10
25.850744095
 20
-12.8840125197
 10
25.8206928714
 20
-12.9078476499
 10
25.7936258868
 20
-12.9335962562
 10
25.7694709761
 20
-12.9612460283
 10
25.7483003044
 20
-12.9908092765
 10
25.7298399954
 20
-13.0223542512
 10
25.7138637325
 20
-13.055873267
 10
25.7005978322
 20
-13.0913740092
 10
25.6904473682
 20
-13.1289477841
 10
25.683434523
 20
-13.1692554026
 10
25.6795371139
 20
-13.2116360538
 10
25.6790936662
 20
-13.2541986114
 10
25.6822870119
 20
-13.2969386094
 10
25.6889343189
 20
-13.3398605138
 10
25.6988256162
 20
-13.3810865966
 10
25.7122262861
 20
-13.4203059536
 10
25.7288709463
 20
-13.457829489
 10
25.7477534793
 20
-13.4927121872
 10
25.7686819536
 20
-13.5247660574
 10
25.7918483007
 20
-13.5541790904
 10
25.8168221978
 20
-13.5805702423
 10
25.843254324
 20
-13.6036505981
 10
25.8714940002
 20
-13.6237090728
 10
25.9021588661
 20
-13.6412313682
 10
25.9355073711
 20
-13.6562574456
 10
25.9712810659
 20
-13.6687473437
 10
26.009322241
 20
-13.679066881
 10
26.0497886095
 20
-13.6870891122
 10
26.0925224583
 20
-13.6929409827
 10
26.1368929397
 20
-13.6973691469
 10
26.1826897708
 20
-13.7006224896
 10
26.2301232344
 20
-13.702452126
 10
26.2791933304
 20
-13.7028580562
  0
LINE
  5
39C
100
AcDbEntity
  8
0
100
AcDbLine
 62
7
  6
CONTINUOUS
 10
-4.5
 20
-21.25
 11
-3.65
 21
-21.25
  0
LINE
  5
39D
100
AcDbEntity
  8
0
100
AcDbLine
 62
7
  6
CONTINUOUS
 10
-3.2360359481
 20
-21.25
 11
-3.15
 21
-21.25
  0
LINE
  5
39E
100
AcDbEntity
  8
0
100
AcDbLine
 62
7
  6
CONTINUOUS
 10
3.15
 20
-21.25
 11
3.2360359481
 21
-21.25
  0
LINE
  5
39F
100
AcDbEntity
  8
0
100
AcDbLine
 62
7
  6
CONTINUOUS
 10
3.65
 20
-21.25
 11
4.5
 21
-21.25
  0
LINE
  5
3A0
100
AcDbEntity
  8
DRAFT
100
AcDbLine
 62
7
  6
CONTINUOUS
 10
35.7952696104
 20
-20.5644466757
 11
4.5
 21
-20.5644466757
  0
LINE
  5
3A1
100
AcDbEntity
  8
DRAFT
100
AcDbLine
 62
7
  6
CONTINUOUS
 10
-4.5
 20
-20.5644466757
 11
-35.7952696104
 21
-20.5644466757
  0
LINE
  5
3A2
100
AcDbEntity
  8
DRAFT
100
AcDbLine
 62
7
  6
CONTINUOUS
 10
35.8563623377
 20
-20.3810194482
 11
4.5
 21
-20.3810194482
  0
LINE
  5
3A3
100
AcDbEntity
  8
DRAFT
100
AcDbLine
 62
7
  6
CONTINUOUS
 10
-4.5
 20
-20.3810194482
 11
-35.8563623377
 21
-20.3810194482
  0
LINE
  5
3A4
100
AcDbEntity
  8
DRAFT
100
AcDbLine
 62
7
  6
CONTINUOUS
 10
3.3110927272
 20
-19.3
 11
-3.3110927272
 21
-19.3
  0
LINE
  5
3A5
100
AcDbEntity
  8
SMUSSO
100
AcDbLine
 62
7
  6
CONTINUOUS
 10
35.8563623377
 20
-18.5810194482
 11
4.5
 21
-18.5810194482
  0
LINE
  5
3A6
100
AcDbEntity
  8
SMUSSO
100
AcDbLine
 62
7
  6
CONTINUOUS
 10
-4.5
 20
-18.5810194482
 11
-35.8563623377
 21
-18.5810194482
  0
LINE
  5
3A7
100
AcDbEntity
  8
SMUSSO
100
AcDbLine
 62
7
  6
CONTINUOUS
 10
35.8692566451
 20
-17.842305068
 11
4.5
 21
-17.842305068
  0
LINE
  5
3A8
100
AcDbEntity
  8
SMUSSO
100
AcDbLine
 62
7
  6
CONTINUOUS
 10
-4.5
 20
-17.842305068
 11
-35.8692566451
 21
-17.842305068
  0
LINE
  5
3A9
100
AcDbEntity
  8
DRAFT
100
AcDbLine
 62
7
  6
CONTINUOUS
 10
35.9
 20
-17.75
 11
4.5
 21
-17.75
  0
LINE
  5
3AA
100
AcDbEntity
  8
DRAFT
100
AcDbLine
 62
7
  6
CONTINUOUS
 10
-4.5
 20
-17.75
 11
-35.9
 21
-17.75
  0
LINE
  5
3AB
100
AcDbEntity
  8
DRAFT
100
AcDbLine
 62
7
  6
CONTINUOUS
 10
-4.3249432208
 20
-17.6
 11
4.3249432208
 21
-17.6
  0
LINE
  5
3AC
100
AcDbEntity
  8
0
100
AcDbLine
 62
7
  6
CONTINUOUS
 10
-21.8463810535
 20
-12.5406897455
 11
-21.6193333127
 21
-12.5976130174
  0
LWPOLYLINE
  5
3AD
100
AcDbEntity
  8
0
100
AcDbPolyline
 62
7
  6
CONTINUOUS
 90
5
 70
0
 10
-17.4591429036
 20
-12.739636467
 10
-17.4914083041
 20
-12.730569893
 10
-17.5227273873
 20
-12.7207945584
 10
-17.5531865629
 20
-12.7105005041
 10
-17.5827858309
 20
-12.6996877302
  0
LWPOLYLINE
  5
3AE
100
AcDbEntity
  8
0
100
AcDbPolyline
 62
7
  6
CONTINUOUS
 90
10
 70
0
 10
-17.7080812173
 20
-12.8957744155
 10
-17.6726587096
 20
-12.9100093811
 10
-17.6357962366
 20
-12.9236368337
 10
-17.5974937983
 20
-12.9366567733
 10
-17.5576858611
 20
-12.9489608413
 10
-17.5164379586
 20
-12.9606573964
 10
-17.4739466918
 20
-12.9720715143
 10
-17.4302775944
 20
-12.9833115537
 10
-17.3853651327
 20
-12.9942691559
 10
-17.3392093068
 20
-13.004944321
  0
LWPOLYLINE
  5
3AF
100
AcDbEntity
  8
0
100
AcDbPolyline
 62
7
  6
CONTINUOUS
 90
39
 70
0
 10
-17.5827858309
 20
-12.6996877302
 10
-17.6084618224
 20
-12.6889612713
 10
-17.6322816628
 20
-12.6773467704
 10
-17.654245352
 20
-12.6648442275
 10
-17.6743587984
 20
-12.6515993129
 10
-17.6926160938
 20
-12.6374663563
 10
-17.708999513
 20
-12.6220083465
 10
-17.7235235002
 20
-12.605167594
 10
-17.7361736114
 20
-12.5870017883
 10
-17.7468887889
 20
-12.5672469872
 10
-17.7557950401
 20
-12.5456003644
 10
-17.7627663577
 20
-12.5223647461
 10
-17.767363663
 20
-12.4981846688
 10
-17.7694887732
 20
-12.4728529873
 10
-17.769239871
 20
-12.4465768467
 10
-17.7664724256
 20
-12.4206222193
 10
-17.7610757679
 20
-12.3951138953
 10
-17.7531605669
 20
-12.3699270843
 10
-17.7429142987
 20
-12.3459533872
 10
-17.7304210851
 20
-12.323455989
 10
-17.7155968042
 20
-12.3021717046
 10
-17.6983765665
 20
-12.2822025793
 10
-17.6787405331
 20
-12.2635433811
 10
-17.656708543
 20
-12.2461993419
 10
-17.6322752235
 20
-12.2302882035
 10
-17.6052787281
 20
-12.2156890012
 10
-17.5758809033
 20
-12.2025226996
 10
-17.5445619161
 20
-12.1912699345
 10
-17.5114511346
 20
-12.1820393846
 10
-17.4764191906
 20
-12.1747223712
 10
-17.4395581463
 20
-12.1694734936
 10
-17.4005390182
 20
-12.1661586454
 10
-17.3596907898
 20
-12.1649119329
 10
-17.318092474
 20
-12.1662902753
 10
-17.2751729185
 20
-12.1705189846
 10
-17.2315032756
 20
-12.1773727487
 10
-17.1898760151
 20
-12.1867325496
 10
-17.1509825497
 20
-12.1988142199
 10
-17.1141314666
 20
-12.2134019271
  0
LWPOLYLINE
  5
3B0
100
AcDbEntity
  8
0
100
AcDbPolyline
 62
7
  6
CONTINUOUS
 90
10
 70
0
 10
-16.9635647195
 20
-12.8904529029
 10
-16.9942580914
 20
-12.8761893768
 10
-17.0263357525
 20
-12.8625921017
 10
-17.0597977027
 20
-12.8496610776
 10
-17.0947132262
 20
-12.8374928341
 10
-17.1310130388
 20
-12.8259908416
 10
-17.1684892883
 20
-12.8148655109
 10
-17.2070726905
 20
-12.8040203124
 10
-17.2468325296
 20
-12.7935517758
 10
-17.2877688055
 20
-12.783459901
  0
LWPOLYLINE
  5
3B1
100
AcDbEntity
  8
0
100
AcDbPolyline
 62
7
  6
CONTINUOUS
 90
14
 70
0
 10
-17.1141314666
 20
-12.2134019271
 10
-17.0800409976
 20
-12.2297291557
 10
-17.0489521826
 20
-12.2475975764
 10
-17.0206239818
 20
-12.2672055185
 10
-16.9950515074
 20
-12.2883814544
 10
-16.9724162696
 20
-12.3108345446
 10
-16.9525367582
 20
-12.3348556287
 10
-16.9348635547
 20
-12.3611456979
 10
-16.9192907975
 20
-12.3899501728
 10
-16.9059243482
 20
-12.421023633
 10
-16.8945323731
 20
-12.454330808
 10
-16.8850375943
 20
-12.4898599411
 10
-16.8775172896
 20
-12.5276227891
 10
-16.871971459
 20
-12.5676193521
  0
LWPOLYLINE
  5
3B2
100
AcDbEntity
  8
0
100
AcDbPolyline
 62
7
  6
CONTINUOUS
 90
10
 70
0
 10
-14.1836811373
 20
-12.6866259931
 10
-14.1719162188
 20
-12.6973463826
 10
-14.1594661487
 20
-12.707800786
 10
-14.146330927
 20
-12.7179892033
 10
-14.132471234
 20
-12.727893398
 10
-14.1179263894
 20
-12.7375316065
 10
-14.1028143523
 20
-12.7469585389
 10
-14.0871744421
 20
-12.7561924318
 10
-14.0709673393
 20
-12.7652150486
 10
-14.0541930439
 20
-12.7740263892
  0
LINE
  5
3B3
100
AcDbEntity
  8
0
100
AcDbLine
 62
7
  6
CONTINUOUS
 10
-24.95746
 20
-3.806408
 11
-24.806408
 21
-3.95746
  0
LWPOLYLINE
  5
3B4
100
AcDbEntity
  8
0
100
AcDbPolyline
 62
7
  6
CONTINUOUS
 90
5
 70
0
 10
-14.3932811594
 20
-12.4191417059
 10
-14.3432031678
 20
-12.4939528861
 10
-14.2911701626
 20
-12.5630470153
 10
-14.2379961524
 20
-12.6272713843
 10
-14.1836811373
 20
-12.6866259931
  0
LINE
  5
3B5
100
AcDbEntity
  8
0
100
AcDbLine
 62
7
  6
CONTINUOUS
 10
-14.1429415152
 20
-12.3863420495
 11
-14.3867017573
 21
-12.0
  0
LINE
  5
3B6
100
AcDbEntity
  8
0
100
AcDbLine
 62
7
  6
CONTINUOUS
 10
-14.6534183259
 20
-12.0
 11
-14.4924561534
 21
-12.2574519375
  0
LINE
  5
3B7
100
AcDbEntity
  8
0
100
AcDbLine
 62
7
  6
CONTINUOUS
 10
-14.4924561534
 20
-12.2574519375
 11
-14.3932811594
 21
-12.4191417059
  0
LINE
  5
3B8
100
AcDbEntity
  8
DRAFT
100
AcDbLine
 62
7
  6
CONTINUOUS
 10
-3.3110927272
 20
-34.011337067
 11
-3.65
 21
-33.4243324515
  0
LINE
  5
3B9
100
AcDbEntity
  8
DRAFT
100
AcDbLine
 62
7
  6
CONTINUOUS
 10
-3.65
 20
-33.302146997
 11
-3.25
 21
-33.99496732
  0
LWPOLYLINE
  5
3BA
100
AcDbEntity
  8
0
100
AcDbPolyline
 62
7
  6
CONTINUOUS
 90
12
 70
0
 10
-16.7203705188
 20
-13.2091410781
 10
-16.7267374703
 20
-13.1729225758
 10
-16.7361713525
 20
-13.1381678625
 10
-16.7485152269
 20
-13.1050721934
 10
-16.7639260319
 20
-13.0734403132
 10
-16.7825294714
 20
-13.0432035322
 10
-16.8042890068
 20
-13.0143570888
 10
-16.8292411767
 20
-12.9869057446
 10
-16.857621301
 20
-12.9607950944
 10
-16.8895078195
 20
-12.9360070032
 10
-16.9248222924
 20
-12.912559606
 10
-16.9635647195
 20
-12.8904529029
  0
LWPOLYLINE
  5
3BB
100
AcDbEntity
  8
0
100
AcDbPolyline
 62
7
  6
CONTINUOUS
 90
43
 70
0
 10
-14.8079010878
 20
-12.8286920497
 10
-14.8111156181
 20
-12.7539706518
 10
-14.8190677239
 20
-12.6816908345
 10
-14.8317574052
 20
-12.6118525978
 10
-14.8496483066
 20
-12.5439118565
 10
-14.8722767834
 20
-12.4784126959
 10
-14.8982519019
 20
-12.4169873715
 10
-14.9272570207
 20
-12.3602237136
 10
-14.9596087811
 20
-12.307533892
 10
-14.9948661733
 20
-12.2587866721
 10
-15.032822842
 20
-12.2141365026
 10
-15.0736851425
 20
-12.1734289349
 10
-15.1176311306
 20
-12.1360693884
 10
-15.164943399
 20
-12.1016577898
 10
-15.215339355
 20
-12.0705942125
 10
-15.2681492773
 20
-12.0434842952
 10
-15.3231788002
 20
-12.0203751784
 10
-15.3806222894
 20
-12.0012197216
 10
-15.4403931195
 20
-11.9864821434
 10
-15.5031906331
 20
-11.9761887023
 10
-15.5683154876
 20
-11.9703131398
 10
-15.6335830305
 20
-11.9692408984
 10
-15.6990156338
 20
-11.9732474138
 10
-15.7645909255
 20
-11.9820572504
 10
-15.8280571371
 20
-11.9952295439
 10
-15.8891735333
 20
-12.0129794302
 10
-15.9481808495
 20
-12.0350917735
 10
-16.0035495232
 20
-12.0604803025
 10
-16.0546574099
 20
-12.0888429378
 10
-16.1021266543
 20
-12.1204817588
 10
-16.1462941273
 20
-12.1552167324
 10
-16.1869830061
 20
-12.1925266846
 10
-16.2243701137
 20
-12.2329327893
 10
-16.2593227898
 20
-12.2778185358
 10
-16.2924855166
 20
-12.3277426455
 10
-16.323213812
 20
-12.3821463969
 10
-16.3504415694
 20
-12.4407371147
 10
-16.3741943952
 20
-12.5034896218
 10
-16.3944466829
 20
-12.5704290954
 10
-16.4100555075
 20
-12.6413383914
 10
-16.4206398939
 20
-12.7161451285
 10
-16.426580817
 20
-12.794921688
 10
-16.427878277
 20
-12.87766807
  0
LINE
  5
3BC
100
AcDbEntity
  8
0
100
AcDbLine
 62
7
  6
CONTINUOUS
 10
-16.742324
 20
-2.976288
 11
-16.742324
 21
-2.549052
  0
LINE
  5
3BD
100
AcDbEntity
  8
0
100
AcDbLine
 62
7
  6
CONTINUOUS
 10
-14.1883832022
 20
6.66056
 11
-14.1883832022
 21
8.66056
  0
LINE
  5
3BE
100
AcDbEntity
  8
0
100
AcDbLine
 62
7
  6
CONTINUOUS
 10
-13.4043332354
 20
-12.0
 11
-13.4043332354
 21
-12.7533856855
  0
LINE
  5
3BF
100
AcDbEntity
  8
0
100
AcDbLine
 62
7
  6
CONTINUOUS
 10
-13.4043332354
 20
-12.9494723707
 11
-13.4043332354
 21
-13.506771371
  0
LINE
  5
3C0
100
AcDbEntity
  8
0
100
AcDbLine
 62
7
  6
CONTINUOUS
 10
-13.1772854946
 20
-13.7028580562
 11
-13.1772854946
 21
-12.0
  0
LWPOLYLINE
  5
3C1
100
AcDbEntity
  8
0
100
AcDbPolyline
 62
7
  6
CONTINUOUS
 90
16
 70
0
 10
-15.0349488287
 20
-12.8259506644
 10
-15.0354407062
 20
-12.8753986847
 10
-15.0375471239
 20
-12.92328888
 10
-15.0412680818
 20
-12.9696212501
 10
-15.0465818116
 20
-13.0145568477
 10
-15.0535100816
 20
-13.0579346202
 10
-15.0621181961
 20
-13.0992714097
 10
-15.0724820562
 20
-13.1384505618
 10
-15.0845257608
 20
-13.1755887311
 10
-15.0980869113
 20
-13.210552723
 10
-15.1132291755
 20
-13.2433261982
 10
-15.1298888855
 20
-13.2739254962
 10
-15.1477126394
 20
-13.3022664403
 10
-15.1665826363
 20
-13.3283209719
 10
-15.1866166771
 20
-13.3521171496
 10
-15.2078147616
 20
-13.3736549736
  0
LWPOLYLINE
  5
3C2
100
AcDbEntity
  8
0
100
AcDbPolyline
 62
7
  6
CONTINUOUS
 90
17
 70
0
 10
-20.5948831577
 20
-13.109065787
 10
-20.6089855235
 20
-13.1602064422
 10
-20.6255330553
 20
-13.2079934283
 10
-20.6446247546
 20
-13.2525865689
 10
-20.6661142878
 20
-13.2936875676
 10
-20.6899339561
 20
-13.3310584595
 10
-20.7161514583
 20
-13.3649372095
 10
-20.7448235562
 20
-13.3957394168
 10
-20.7757601844
 20
-13.4235099273
 10
-20.8091514083
 20
-13.448203895
 10
-20.8456241865
 20
-13.4701023805
 10
-20.885495776
 20
-13.4895071394
 10
-20.9284489198
 20
-13.5061164161
 10
-20.9741588052
 20
-13.5193060038
 10
-21.0225171614
 20
-13.5288678337
 10
-21.0736322592
 20
-13.5350099746
 10
-21.1275040987
 20
-13.5377324265
  0
LINE
  5
3C3
100
AcDbEntity
  8
0
100
AcDbLine
 62
7
  6
CONTINUOUS
 10
-22.4207732399
 20
-12.7017839262
 11
-22.6047657357
 21
-13.1989346528
  0
LINE
  5
3C4
100
AcDbEntity
  8
0
100
AcDbLine
 62
7
  6
CONTINUOUS
 10
-22.58428629
 20
-13.7028580562
 11
-21.9370067663
 21
-12.0
  0
LWPOLYLINE
  5
3C5
100
AcDbEntity
  8
0
100
AcDbPolyline
 62
7
  6
CONTINUOUS
 90
10
 70
0
 10
-22.6047657357
 20
-13.1989346528
 10
-22.6189634884
 20
-13.2339753804
 10
-22.6324964074
 20
-13.2694138826
 10
-22.6453644927
 20
-13.3052501593
 10
-22.6575855583
 20
-13.3415289888
 10
-22.6691417903
 20
-13.3782055927
 10
-22.6799797459
 20
-13.4151456368
 10
-22.690081611
 20
-13.4523043427
 10
-22.6994651998
 20
-13.4897264887
 10
-22.7081305122
 20
-13.5274120747
  0
LINE
  5
3C6
100
AcDbEntity
  8
0
100
AcDbLine
 62
7
  6
CONTINUOUS
 10
-15.193592
 20
5.95746
 11
-18.109244
 21
3.041808
  0
LINE
  5
3C7
100
AcDbEntity
  8
0
100
AcDbLine
 62
7
  6
CONTINUOUS
 10
-23.150868
 20
-1.999816
 11
-24.95746
 21
-3.806408
  0
LINE
  5
3C8
100
AcDbEntity
  8
0
100
AcDbLine
 62
7
  6
CONTINUOUS
 10
-18.207834
 20
2.943216
 11
-20.0
 21
1.15105
  0
LINE
  5
3C9
100
AcDbEntity
  8
0
100
AcDbLine
 62
7
  6
CONTINUOUS
 10
-20.15105
 20
1.0
 11
-22.087104
 21
-0.936054
  0
LINE
  5
3CA
100
AcDbEntity
  8
0
100
AcDbLine
 62
7
  6
CONTINUOUS
 10
-22.204776
 20
-1.053726
 11
-23.044058
 21
-1.893008
  0
LINE
  5
3CB
100
AcDbEntity
  8
0
100
AcDbLine
 62
7
  6
CONTINUOUS
 10
-22.116068
 20
-1.26712
 11
-21.975968
 21
-1.127018
  0
LINE
  5
3CC
100
AcDbEntity
  8
0
100
AcDbLine
 62
7
  6
CONTINUOUS
 10
-24.806408
 20
-3.95746
 11
-22.970766
 21
-2.121816
  0
LINE
  5
3CD
100
AcDbEntity
  8
0
100
AcDbLine
 62
7
  6
CONTINUOUS
 10
-21.869158
 20
-1.02021
 11
-20.0
 21
0.84895
  0
LINE
  5
3CE
100
AcDbEntity
  8
0
100
AcDbLine
 62
7
  6
CONTINUOUS
 10
-22.863956
 20
-2.015006
 11
-22.233566
 21
-1.384616
  0
LINE
  5
3CF
100
AcDbEntity
  8
0
100
AcDbLine
 62
7
  6
CONTINUOUS
 10
-18.08494
 20
2.76401
 11
-15.04254
 21
5.806408
  0
LINE
  5
3D0
100
AcDbEntity
  8
0
100
AcDbLine
 62
7
  6
CONTINUOUS
 10
-19.84895
 20
1.0
 11
-18.18353
 21
2.665418
  0
LINE
  5
3D1
100
AcDbEntity
  8
DRAFT
100
AcDbLine
 62
7
  6
CONTINUOUS
 10
34.5523651948
 20
54.9
 11
34.5
 21
54.8476348052
  0
LINE
  5
3D2
100
AcDbEntity
  8
RACCORDO
100
AcDbLine
 62
250
  6
CONTINUOUS
 10
34.9001523048
 20
54.9
 11
34.7954219153
 21
54.7952696104
  0
LINE
  5
3D3
100
AcDbEntity
  8
RACCORDO
100
AcDbLine
 62
250
  6
CONTINUOUS
 10
35.9
 20
53.9001523048
 11
35.7952696104
 21
53.7954219153
  0
LINE
  5
3D4
100
AcDbEntity
  8
0
100
AcDbLine
 62
7
  6
CONTINUOUS
 10
8.4851330508
 20
-13.1829704299
 11
8.25808531
 21
-13.235217221
  0
LINE
  5
3D5
100
AcDbEntity
  8
0
100
AcDbLine
 62
7
  6
CONTINUOUS
 10
-4.4565881764
 20
-13.2694032783
 11
-4.6629952135
 21
-13.290043982
  0
LINE
  5
3D6
100
AcDbEntity
  8
0
100
AcDbLine
 62
7
  6
CONTINUOUS
 10
24.5229598349
 20
-12.5676193521
 11
24.7396872238
 21
-12.5572990002
  0
LINE
  5
3D7
100
AcDbEntity
  8
0
100
AcDbLine
 62
7
  6
CONTINUOUS
 10
23.6663706308
 20
-13.217801519
 11
23.43932289
 21
-13.2281218708
  0
LWPOLYLINE
  5
3D8
100
AcDbEntity
  8
0
100
AcDbPolyline
 62
7
  6
CONTINUOUS
 90
34
 70
0
 10
24.0211326274
 20
-11.9690389444
 10
23.9586071864
 20
-11.9717673133
 10
23.8993522266
 20
-11.9779012877
 10
23.8433677481
 20
-11.9874408674
 10
23.7905350421
 20
-12.0007093621
 10
23.7409728173
 20
-12.0173834623
 10
23.6950372005
 20
-12.0364932391
 10
23.6529624725
 20
-12.0578462541
 10
23.6145143524
 20
-12.0816349458
 10
23.5793461234
 20
-12.1074667008
 10
23.5474764823
 20
-12.135185456
 10
23.5188867324
 20
-12.1649472746
 10
23.4931740663
 20
-12.1968277324
 10
23.4700861499
 20
-12.2311032532
 10
23.4498753175
 20
-12.2674974133
 10
23.4328957647
 20
-12.3052565173
 10
23.419170606
 20
-12.344637398
 10
23.4086767269
 20
-12.3853832226
 10
23.4016989808
 20
-12.4259697975
 10
23.3984239566
 20
-12.4662275587
 10
23.3986650654
 20
-12.5063260702
 10
23.4021473929
 20
-12.54524983
 10
23.4088774858
 20
-12.5828131633
 10
23.4188487976
 20
-12.6192017448
 10
23.4317667743
 20
-12.6539570972
 10
23.4474580057
 20
-12.6868876878
 10
23.4660959022
 20
-12.7181850493
 10
23.4879061405
 20
-12.7479653025
 10
23.5129264662
 20
-12.7762392051
 10
23.5411191338
 20
-12.8029959994
 10
23.5725965845
 20
-12.8283195328
 10
23.6073962987
 20
-12.8522377545
 10
23.6454807961
 20
-12.8747227154
 10
23.6868500766
 20
-12.8957744155
  0
LWPOLYLINE
  5
3D9
100
AcDbEntity
  8
0
100
AcDbPolyline
 62
7
  6
CONTINUOUS
 90
21
 70
0
 10
26.5449425088
 20
-12.7533856855
 10
26.5086039129
 20
-12.7545235987
 10
26.4739966081
 20
-12.7530186776
 10
26.4411205945
 20
-12.7488709222
 10
26.4098663805
 20
-12.7418875755
 10
26.3803434577
 20
-12.7322613946
 10
26.352880301
 20
-12.7205706503
 10
26.3279084038
 20
-12.7069292913
 10
26.3049962728
 20
-12.6912233689
 10
26.2831779023
 20
-12.6736893086
 10
26.2624449272
 20
-12.6542776313
 10
26.2428057128
 20
-12.6330378161
 10
26.2233193489
 20
-12.6103547258
 10
26.2037484869
 20
-12.5862252099
 10
26.1843304756
 20
-12.560652419
 10
26.164836451
 20
-12.5340306669
 10
26.1452364838
 20
-12.5064582338
 10
26.1255605035
 20
-12.4778368396
 10
26.1056694347
 20
-12.4482659582
 10
26.0855169192
 20
-12.4177787474
 10
26.0651493153
 20
-12.3863420495
  0
LWPOLYLINE
  5
3DA
100
AcDbEntity
  8
0
100
AcDbPolyline
 62
7
  6
CONTINUOUS
 90
16
 70
0
 10
22.4272833763
 20
-12.7017839262
 10
22.3847875277
 20
-12.7021659525
 10
22.3433359829
 20
-12.7039025636
 10
22.3029287421
 20
-12.7069937592
 10
22.2634126837
 20
-12.7114025545
 10
22.2249409292
 20
-12.7171659344
 10
22.1879728426
 20
-12.7243948543
 10
22.1524524668
 20
-12.7331602644
 10
22.118435759
 20
-12.7433912145
 10
22.0865499545
 20
-12.7549858091
 10
22.0569466252
 20
-12.7679916404
 10
22.0294741992
 20
-12.7823611162
 10
22.0043051959
 20
-12.7978495648
 10
21.9814971218
 20
-12.8143754288
 10
21.9609924705
 20
-12.8320202655
 10
21.9427912419
 20
-12.850784075
  0
LWPOLYLINE
  5
3DB
100
AcDbEntity
  8
0
100
AcDbPolyline
 62
7
  6
CONTINUOUS
 90
10
 70
0
 10
22.4293795723
 20
-13.506771371
 10
22.4039003324
 20
-13.5068970354
 10
22.3791186447
 20
-13.5066345731
 10
22.3550345092
 20
-13.5059839842
 10
22.3316221152
 20
-13.5050310595
 10
22.3089072735
 20
-13.5036900081
 10
22.2869674157
 20
-13.5017034575
 10
22.2658283526
 20
-13.4989856168
 10
22.2454642735
 20
-13.4956222769
 10
22.2258751784
 20
-13.4916134378
  0
LINE
  5
3DC
100
AcDbEntity
  8
DRAFT
100
AcDbLine
 62
7
  6
CONTINUOUS
 10
-4.3598533507
 20
-15.6
 11
4.3598533507
 21
-15.6
  0
LINE
  5
3DD
100
AcDbEntity
  8
0
100
AcDbLine
 62
7
  6
CONTINUOUS
 10
0.2598126217
 20
-13.7131784081
 11
0.3928483901
 21
-13.7131784081
  0
LINE
  5
3DE
100
AcDbEntity
  8
0
100
AcDbLine
 62
7
  6
CONTINUOUS
 10
-33.6541536403
 20
-13.7028580562
 11
-33.380180621
 21
-13.7028580562
  0
LINE
  5
3DF
100
AcDbEntity
  8
0
100
AcDbLine
 62
7
  6
CONTINUOUS
 10
-32.3658834959
 20
-13.7028580562
 11
-32.0957805101
 21
-13.7028580562
  0
LINE
  5
3E0
100
AcDbEntity
  8
0
100
AcDbLine
 62
7
  6
CONTINUOUS
 10
-31.1656587794
 20
-13.7028580562
 11
-30.9386110386
 21
-13.7028580562
  0
LINE
  5
3E1
100
AcDbEntity
  8
0
100
AcDbLine
 62
7
  6
CONTINUOUS
 10
-30.0747653839
 20
-13.7028580562
 11
-29.8291732928
 21
-13.7028580562
  0
LINE
  5
3E2
100
AcDbEntity
  8
0
100
AcDbLine
 62
7
  6
CONTINUOUS
 10
-29.1428698156
 20
-13.7028580562
 11
-27.8012240744
 21
-13.7028580562
  0
LINE
  5
3E3
100
AcDbEntity
  8
0
100
AcDbLine
 62
7
  6
CONTINUOUS
 10
-27.5225745743
 20
-13.7028580562
 11
-27.2955268334
 21
-13.7028580562
  0
LINE
  5
3E4
100
AcDbEntity
  8
0
100
AcDbLine
 62
7
  6
CONTINUOUS
 10
-26.2015695367
 20
-13.7028580562
 11
-25.9745217959
 21
-13.7028580562
  0
LINE
  5
3E5
100
AcDbEntity
  8
0
100
AcDbLine
 62
7
  6
CONTINUOUS
 10
-25.7839178812
 20
-13.7028580562
 11
-25.5410670179
 21
-13.7028580562
  0
LINE
  5
3E6
100
AcDbEntity
  8
0
100
AcDbLine
 62
7
  6
CONTINUOUS
 10
-24.4471097212
 20
-13.7028580562
 11
-24.2057103371
 21
-13.7028580562
  0
LINE
  5
3E7
100
AcDbEntity
  8
0
100
AcDbLine
 62
7
  6
CONTINUOUS
 10
-22.8298783811
 20
-13.7028580562
 11
-22.58428629
 21
-13.7028580562
  0
LINE
  5
3E8
100
AcDbEntity
  8
0
100
AcDbLine
 62
7
  6
CONTINUOUS
 10
-20.0093584232
 20
-13.7028580562
 11
-19.7823106824
 21
-13.7028580562
  0
LINE
  5
3E9
100
AcDbEntity
  8
0
100
AcDbLine
 62
7
  6
CONTINUOUS
 10
-19.524301886
 20
-13.7028580562
 11
-18.1826561447
 21
-13.7028580562
  0
LINE
  5
3EA
100
AcDbEntity
  8
0
100
AcDbLine
 62
7
  6
CONTINUOUS
 10
-13.9288975
 20
-13.7028580562
 11
-13.1772854946
 21
-13.7028580562
  0
LINE
  5
3EB
100
AcDbEntity
  8
0
100
AcDbLine
 62
7
  6
CONTINUOUS
 10
-12.2927991362
 20
-13.7028580562
 11
-12.0472070451
 21
-13.7028580562
  0
LINE
  5
3EC
100
AcDbEntity
  8
0
100
AcDbLine
 62
7
  6
CONTINUOUS
 10
-11.2267389939
 20
-13.7028580562
 11
-10.931318981
 21
-13.7028580562
  0
LINE
  5
3ED
100
AcDbEntity
  8
0
100
AcDbLine
 62
7
  6
CONTINUOUS
 10
-9.9318574306
 20
-13.7028580562
 11
-9.5858030488
 21
-13.7028580562
  0
LINE
  5
3EE
100
AcDbEntity
  8
0
100
AcDbLine
 62
7
  6
CONTINUOUS
 10
-1.1643959344
 20
-13.7028580562
 11
-0.9992703047
 21
-13.7028580562
  0
LINE
  5
3EF
100
AcDbEntity
  8
0
100
AcDbLine
 62
7
  6
CONTINUOUS
 10
2.4962650732
 20
-13.7028580562
 11
2.7418571643
 21
-13.7028580562
  0
LINE
  5
3F0
100
AcDbEntity
  8
0
100
AcDbLine
 62
7
  6
CONTINUOUS
 10
3.4797624007
 20
-13.7028580562
 11
4.6872435679
 21
-13.7028580562
  0
LINE
  5
3F1
100
AcDbEntity
  8
0
100
AcDbLine
 62
7
  6
CONTINUOUS
 10
5.0278151791
 20
-13.7028580562
 11
5.25486292
 21
-13.7028580562
  0
LINE
  5
3F2
100
AcDbEntity
  8
0
100
AcDbLine
 62
7
  6
CONTINUOUS
 10
6.107420675
 20
-13.7028580562
 11
6.3488202167
 21
-13.7028580562
  0
LINE
  5
3F3
100
AcDbEntity
  8
0
100
AcDbLine
 62
7
  6
CONTINUOUS
 10
6.7100325316
 20
-13.7028580562
 11
7.9278340506
 21
-13.7028580562
  0
LINE
  5
3F4
100
AcDbEntity
  8
0
100
AcDbLine
 62
7
  6
CONTINUOUS
 10
10.0538265329
 20
-13.7028580562
 11
10.2808742738
 21
-13.7028580562
  0
LINE
  5
3F5
100
AcDbEntity
  8
0
100
AcDbLine
 62
7
  6
CONTINUOUS
 10
10.4714781884
 20
-13.7028580562
 11
10.7143290517
 21
-13.7028580562
  0
LINE
  5
3F6
100
AcDbEntity
  8
0
100
AcDbLine
 62
7
  6
CONTINUOUS
 10
11.8082863484
 20
-13.7028580562
 11
12.0496857326
 21
-13.7028580562
  0
LINE
  5
3F7
100
AcDbEntity
  8
0
100
AcDbLine
 62
7
  6
CONTINUOUS
 10
12.9022436452
 20
-13.7028580562
 11
14.1200451641
 21
-13.7028580562
  0
LINE
  5
3F8
100
AcDbEntity
  8
0
100
AcDbLine
 62
7
  6
CONTINUOUS
 10
15.2346431646
 20
-13.7028580562
 11
15.4616909054
 21
-13.7028580562
  0
LINE
  5
3F9
100
AcDbEntity
  8
0
100
AcDbLine
 62
7
  6
CONTINUOUS
 10
16.3255365601
 20
-13.7028580562
 11
16.5711286512
 21
-13.7028580562
  0
LINE
  5
3FA
100
AcDbEntity
  8
0
100
AcDbLine
 62
7
  6
CONTINUOUS
 10
17.4328781099
 20
-13.7028580562
 11
17.6599258507
 21
-13.7028580562
  0
LINE
  5
3FB
100
AcDbEntity
  8
0
100
AcDbLine
 62
7
  6
CONTINUOUS
 10
17.8505297654
 20
-13.7028580562
 11
18.0933806287
 21
-13.7028580562
  0
LINE
  5
3FC
100
AcDbEntity
  8
0
100
AcDbLine
 62
7
  6
CONTINUOUS
 10
19.1873379254
 20
-13.7028580562
 11
19.4287373095
 21
-13.7028580562
  0
LINE
  5
3FD
100
AcDbEntity
  8
0
100
AcDbLine
 62
7
  6
CONTINUOUS
 10
20.8045692655
 20
-13.7028580562
 11
21.0501613566
 21
-13.7028580562
  0
LINE
  5
3FE
100
AcDbEntity
  8
0
100
AcDbLine
 62
7
  6
CONTINUOUS
 10
22.4204515707
 20
-13.7028680747
 11
23.078110575
 21
-13.7028580562
  0
LINE
  5
3FF
100
AcDbEntity
  8
0
100
AcDbLine
 62
7
  6
CONTINUOUS
 10
26.2791933304
 20
-13.7028580562
 11
27.0308053358
 21
-13.7028580562
  0
LINE
  5
400
100
AcDbEntity
  8
0
100
AcDbLine
 62
7
  6
CONTINUOUS
 10
27.9152916942
 20
-13.7028580562
 11
28.1608837853
 21
-13.7028580562
  0
LINE
  5
401
100
AcDbEntity
  8
0
100
AcDbLine
 62
7
  6
CONTINUOUS
 10
28.9813518366
 20
-13.7028580562
 11
29.2767718494
 21
-13.7028580562
  0
LINE
  5
402
100
AcDbEntity
  8
0
100
AcDbLine
 62
7
  6
CONTINUOUS
 10
30.2762333998
 20
-13.7028580562
 11
30.6222877817
 21
-13.7028580562
  0
LINE
  5
403
100
AcDbEntity
  8
0
100
AcDbLine
 62
7
  6
CONTINUOUS
 10
31.0041408003
 20
-13.7028580562
 11
31.2311885412
 21
-13.7028580562
  0
LINE
  5
404
100
AcDbEntity
  8
0
100
AcDbLine
 62
7
  6
CONTINUOUS
 10
31.4217924558
 20
-13.7028580562
 11
31.6646433191
 21
-13.7028580562
  0
LINE
  5
405
100
AcDbEntity
  8
0
100
AcDbLine
 62
7
  6
CONTINUOUS
 10
32.7586006158
 20
-13.7028580562
 11
33.0
 21
-13.7028580562
  0
LINE
  5
406
100
AcDbEntity
  8
0
100
AcDbLine
 62
7
  6
CONTINUOUS
 10
26.803757595
 20
-13.506771371
 11
26.2700017843
 21
-13.506771371
  0
LINE
  5
407
100
AcDbEntity
  8
0
100
AcDbLine
 62
7
  6
CONTINUOUS
 10
22.8510628342
 20
-13.506771371
 11
22.4293795723
 21
-13.506771371
  0
LINE
  5
408
100
AcDbEntity
  8
0
100
AcDbLine
 62
7
  6
CONTINUOUS
 10
13.8929974233
 20
-13.506771371
 11
12.9022436452
 21
-13.506771371
  0
LINE
  5
409
100
AcDbEntity
  8
0
100
AcDbLine
 62
7
  6
CONTINUOUS
 10
7.7007863098
 20
-13.506771371
 11
6.7100325316
 21
-13.506771371
  0
LINE
  5
40A
100
AcDbEntity
  8
0
100
AcDbLine
 62
7
  6
CONTINUOUS
 10
4.6872435679
 20
-13.506771371
 11
3.7435763262
 21
-13.506771371
  0
LINE
  5
40B
100
AcDbEntity
  8
0
100
AcDbLine
 62
7
  6
CONTINUOUS
 10
-13.4043332354
 20
-13.506771371
 11
-13.9380890462
 21
-13.506771371
  0
LINE
  5
40C
100
AcDbEntity
  8
0
100
AcDbLine
 62
7
  6
CONTINUOUS
 10
-18.1826561447
 20
-13.506771371
 11
-18.7399551449
 21
-13.506771371
  0
LINE
  5
40D
100
AcDbEntity
  8
0
100
AcDbLine
 62
7
  6
CONTINUOUS
 10
-18.9670028858
 20
-13.506771371
 11
-19.524301886
 21
-13.506771371
  0
LINE
  5
40E
100
AcDbEntity
  8
0
100
AcDbLine
 62
7
  6
CONTINUOUS
 10
-27.8012240744
 20
-13.506771371
 11
-28.3585230746
 21
-13.506771371
  0
LINE
  5
40F
100
AcDbEntity
  8
0
100
AcDbLine
 62
7
  6
CONTINUOUS
 10
-28.5855708154
 20
-13.506771371
 11
-29.1428698156
 21
-13.506771371
  0
LINE
  5
410
100
AcDbEntity
  8
0
100
AcDbLine
 62
7
  6
CONTINUOUS
 10
6.7719546428
 20
-12.9804334263
 11
7.7007863098
 21
-12.9804334263
  0
LINE
  5
411
100
AcDbEntity
  8
0
100
AcDbLine
 62
7
  6
CONTINUOUS
 10
12.9641657563
 20
-12.9804334263
 11
13.8929974233
 21
-12.9804334263
  0
LINE
  5
412
100
AcDbEntity
  8
0
100
AcDbLine
 62
7
  6
CONTINUOUS
 10
22.4248645069
 20
-12.8978706115
 11
22.8510628342
 21
-12.8978706115
  0
LINE
  5
413
100
AcDbEntity
  8
0
100
AcDbLine
 62
7
  6
CONTINUOUS
 10
13.8929974233
 20
-12.784346741
 11
12.9641657563
 21
-12.784346741
  0
LINE
  5
414
100
AcDbEntity
  8
0
100
AcDbLine
 62
7
  6
CONTINUOUS
 10
7.7007863098
 20
-12.784346741
 11
6.7719546428
 21
-12.784346741
  0
LINE
  5
415
100
AcDbEntity
  8
0
100
AcDbLine
 62
7
  6
CONTINUOUS
 10
26.803757595
 20
-12.7533856855
 11
26.5449425088
 21
-12.7533856855
  0
LINE
  5
416
100
AcDbEntity
  8
0
100
AcDbLine
 62
7
  6
CONTINUOUS
 10
-13.4043332354
 20
-12.7533856855
 11
-13.6631483216
 21
-12.7533856855
  0
LINE
  5
417
100
AcDbEntity
  8
0
100
AcDbLine
 62
7
  6
CONTINUOUS
 10
-30.2569841997
 20
-12.7017839262
 11
-29.6656602427
 21
-12.7017839262
  0
LINE
  5
418
100
AcDbEntity
  8
0
100
AcDbLine
 62
7
  6
CONTINUOUS
 10
-23.0120971969
 20
-12.7017839262
 11
-22.4207732399
 21
-12.7017839262
  0
LINE
  5
419
100
AcDbEntity
  8
0
100
AcDbLine
 62
7
  6
CONTINUOUS
 10
22.8510628342
 20
-12.7017839262
 11
22.4272833763
 21
-12.7017839262
  0
LINE
  5
41A
100
AcDbEntity
  8
0
100
AcDbLine
 62
7
  6
CONTINUOUS
 10
-12.475017952
 20
-12.7017839262
 11
-11.883693995
 21
-12.7017839262
  0
LINE
  5
41B
100
AcDbEntity
  8
0
100
AcDbLine
 62
7
  6
CONTINUOUS
 10
2.3140462574
 20
-12.7017839262
 11
2.9053702144
 21
-12.7017839262
  0
LINE
  5
41C
100
AcDbEntity
  8
0
100
AcDbLine
 62
7
  6
CONTINUOUS
 10
16.1433177443
 20
-12.7017839262
 11
16.7346417013
 21
-12.7017839262
  0
LINE
  5
41D
100
AcDbEntity
  8
0
100
AcDbLine
 62
7
  6
CONTINUOUS
 10
20.6223504497
 20
-12.7017839262
 11
21.2136744067
 21
-12.7017839262
  0
LINE
  5
41E
100
AcDbEntity
  8
0
100
AcDbLine
 62
7
  6
CONTINUOUS
 10
27.7330728784
 20
-12.7017839262
 11
28.3243968354
 21
-12.7017839262
  0
LINE
  5
41F
100
AcDbEntity
  8
0
100
AcDbLine
 62
7
  6
CONTINUOUS
 10
-1.3914436752
 20
-12.5985804076
 11
-1.1643959344
 21
-12.5985804076
  0
LINE
  5
420
100
AcDbEntity
  8
0
100
AcDbLine
 62
7
  6
CONTINUOUS
 10
-0.9579888973
 20
-12.5985804076
 11
-0.4113327648
 21
-12.5985804076
  0
LWPOLYLINE
  5
421
100
AcDbEntity
  8
0
100
AcDbPolyline
 62
7
  6
CONTINUOUS
 90
10
 70
0
 10
-8.0151746287
 20
-12.9883350663
 10
-8.0114963275
 20
-12.9883846254
 10
-8.0077910626
 20
-12.9884945702
 10
-8.0040588341
 20
-12.9886649007
 10
-8.0002977736
 20
-12.9889030688
 10
-7.9965097493
 20
-12.9892016227
 10
-7.9927003665
 20
-12.9895382062
 10
-7.9888714936
 20
-12.9899053672
 10
-7.985021262
 20
-12.9903105579
 10
-7.9811496719
 20
-12.9907537782
  0
LWPOLYLINE
  5
422
100
AcDbEntity
  8
0
100
AcDbPolyline
 62
7
  6
CONTINUOUS
 90
10
 70
0
 10
-2.7311544785
 20
-12.9883350663
 10
-2.7274761773
 20
-12.9883846254
 10
-2.7237709124
 20
-12.9884945702
 10
-2.7200386839
 20
-12.9886649007
 10
-2.7162776234
 20
-12.9889030688
 10
-2.7124895991
 20
-12.9892016227
 10
-2.7086802163
 20
-12.9895382062
 10
-2.7048513434
 20
-12.9899053672
 10
-2.7010011118
 20
-12.9903105579
 10
-2.6971295217
 20
-12.9907537782
  0
LWPOLYLINE
  5
423
100
AcDbEntity
  8
0
100
AcDbPolyline
 62
7
  6
CONTINUOUS
 90
40
 70
0
 10
-13.9380890462
 20
-13.506771371
 10
-13.9729899503
 20
-13.5061975642
 10
-14.0064991171
 20
-13.5040100569
 10
-14.0386165466
 20
-13.5002088491
 10
-14.0695710615
 20
-13.49477134
 10
-14.099133839
 20
-13.4877201304
 10
-14.1266184111
 20
-13.4791230224
 10
-14.1517373689
 20
-13.4690038087
 10
-14.1747781212
 20
-13.4573386966
 10
-14.1959164266
 20
-13.4441241104
 10
-14.2151665818
 20
-13.4293490585
 10
-14.2325142901
 20
-13.4130245326
 10
-14.2480924191
 20
-13.3951799321
 10
-14.2620719887
 20
-13.3757080279
 10
-14.274281979
 20
-13.3547160492
 10
-14.2843421986
 20
-13.3325550825
 10
-14.2922060127
 20
-13.3091864504
 10
-14.2979200561
 20
-13.2846488304
 10
-14.3012440406
 20
-13.2594093416
 10
-14.3020963675
 20
-13.2332026258
 10
-14.3005586355
 20
-13.2062940411
 10
-14.2966353532
 20
-13.1799467819
 10
-14.2901675228
 20
-13.1542338195
 10
-14.281314142
 20
-13.1290821825
 10
-14.2705567122
 20
-13.1055361511
 10
-14.2580617067
 20
-13.0839375706
 10
-14.2436626521
 20
-13.0639445958
 10
-14.2273416295
 20
-13.0455759708
 10
-14.2091770998
 20
-13.0288474572
 10
-14.189090602
 20
-13.0137432935
 10
-14.1668288347
 20
-13.0002349385
 10
-14.1421494959
 20
-12.9882888165
 10
-14.1152948877
 20
-12.9779385033
 10
-14.0867386146
 20
-12.9692561857
 10
-14.0565165473
 20
-12.9623719332
 10
-14.0245928152
 20
-12.9571556763
 10
-13.9913334111
 20
-12.9532893938
 10
-13.9568603326
 20
-12.9506670785
 10
-13.9210515821
 20
-12.9493947374
 10
-13.4043332354
 20
-12.9494723707
  0
LWPOLYLINE
  5
424
100
AcDbEntity
  8
0
100
AcDbPolyline
 62
7
  6
CONTINUOUS
 90
40
 70
0
 10
26.2700017843
 20
-13.506771371
 10
26.2351008801
 20
-13.5061975642
 10
26.2015917133
 20
-13.5040100569
 10
26.1694742838
 20
-13.5002088491
 10
26.138519769
 20
-13.49477134
 10
26.1089569915
 20
-13.4877201304
 10
26.0814724194
 20
-13.4791230224
 10
26.0563534616
 20
-13.4690038087
 10
26.0333127092
 20
-13.4573386966
 10
26.0121744039
 20
-13.4441241104
 10
25.9929242486
 20
-13.4293490585
 10
25.9755765404
 20
-13.4130245326
 10
25.9599984114
 20
-13.3951799321
 10
25.9460188418
 20
-13.3757080279
 10
25.9338088514
 20
-13.3547160492
 10
25.9237486319
 20
-13.3325550825
 10
25.9158848177
 20
-13.3091864504
 10
25.9101707744
 20
-13.2846488304
 10
25.9068467898
 20
-13.2594093416
 10
25.905994463
 20
-13.2332026258
 10
25.9075321949
 20
-13.2062940411
 10
25.9114554773
 20
-13.1799467819
 10
25.9179233077
 20
-13.1542338195
 10
25.9267766884
 20
-13.1290821825
 10
25.9375341183
 20
-13.1055361511
 10
25.9500291238
 20
-13.0839375706
 10
25.9644281783
 20
-13.0639445958
 10
25.9807492009
 20
-13.0455759708
 10
25.9989137307
 20
-13.0288474572
 10
26.0190002285
 20
-13.0137432935
 10
26.0412619957
 20
-13.0002349385
 10
26.0659413345
 20
-12.9882888165
 10
26.0927959428
 20
-12.9779385033
 10
26.1213522158
 20
-12.9692561857
 10
26.1515742831
 20
-12.9623719332
 10
26.1834980152
 20
-12.9571556763
 10
26.2167574193
 20
-12.9532893938
 10
26.2512304978
 20
-12.9506670785
 10
26.2870392483
 20
-12.9493947374
 10
26.803757595
 20
-12.9494723707
  0
LWPOLYLINE
  5
425
100
AcDbEntity
  8
0
100
AcDbPolyline
 62
7
  6
CONTINUOUS
 90
19
 70
0
 10
-17.3250995504
 20
-13.5377324265
 10
-17.3639037571
 20
-13.5369872836
 10
-17.4010133417
 20
-13.5343224264
 10
-17.4364283043
 20
-13.5297378548
 10
-17.4703974935
 20
-13.5232027167
 10
-17.5026720606
 20
-13.5147478642
 10
-17.5325054597
 20
-13.5044658542
 10
-17.5595238623
 20
-13.4924423691
 10
-17.5841010969
 20
-13.4785917266
 10
-17.6066121026
 20
-13.462749436
 10
-17.626979942
 20
-13.4450389012
 10
-17.6452815526
 20
-13.4253367184
 10
-17.6621226862
 20
-13.4031081859
 10
-17.6778960124
 20
-13.3780940593
 10
-17.6922088615
 20
-13.350553583
 10
-17.7044889768
 20
-13.3207297877
 10
-17.714545606
 20
-13.2887036838
 10
-17.7225695014
 20
-13.2543942609
 10
-17.7285606631
 20
-13.217801519
  0
LWPOLYLINE
  5
426
100
AcDbEntity
  8
0
100
AcDbPolyline
 62
7
  6
CONTINUOUS
 90
19
 70
0
 10
24.0698317435
 20
-13.5377324265
 10
24.0310275368
 20
-13.5369872836
 10
23.9939179522
 20
-13.5343224264
 10
23.9585029896
 20
-13.5297378548
 10
23.9245338004
 20
-13.5232027167
 10
23.8922592333
 20
-13.5147478642
 10
23.8624258342
 20
-13.5044658542
 10
23.8354074316
 20
-13.4924423691
 10
23.810830197
 20
-13.4785917266
 10
23.7883191913
 20
-13.462749436
 10
23.7679513518
 20
-13.4450389012
 10
23.7496497412
 20
-13.4253367184
 10
23.7328086076
 20
-13.4031081859
 10
23.7170352815
 20
-13.3780940593
 10
23.7027224324
 20
-13.350553583
 10
23.6904423171
 20
-13.3207297877
 10
23.6803856879
 20
-13.2887036838
 10
23.6723617925
 20
-13.2543942609
 10
23.6663706308
 20
-13.217801519
  0
LWPOLYLINE
  5
427
100
AcDbEntity
  8
0
100
AcDbPolyline
 62
7
  6
CONTINUOUS
 90
36
 70
0
 10
-8.1087028272
 20
-12.8282082758
 10
-8.144731288
 20
-12.8266738578
 10
-8.1789662782
 20
-12.8224434554
 10
-8.2114077978
 20
-12.8155170688
 10
-8.242054042
 20
-12.8057862339
 10
-8.2709068156
 20
-12.7933594148
 10
-8.2979715331
 20
-12.7785620031
 10
-8.323412846
 20
-12.7612609218
 10
-8.3470661028
 20
-12.741589248
 10
-8.3684427634
 20
-12.720271604
 10
-8.3874638082
 20
-12.697499552
 10
-8.4042082568
 20
-12.67308153
 10
-8.4184246278
 20
-12.6471674739
 10
-8.430078287
 20
-12.6198436686
 10
-8.4392038687
 20
-12.5910238293
 10
-8.4456537933
 20
-12.5605990375
 10
-8.4494232777
 20
-12.5277927837
 10
-8.4505171051
 20
-12.4933815775
 10
-8.4488020462
 20
-12.4595860295
 10
-8.444193303
 20
-12.426853012
 10
-8.4367756736
 20
-12.3947356527
 10
-8.4266703231
 20
-12.3641139457
 10
-8.4138291209
 20
-12.3352549854
 10
-8.3983001976
 20
-12.3078916775
 10
-8.3803491103
 20
-12.2821027335
 10
-8.3597886966
 20
-12.2576221925
 10
-8.3368061189
 20
-12.2347160153
 10
-8.3122284211
 20
-12.2142607958
 10
-8.2863243363
 20
-12.1964867709
 10
-8.2588251315
 20
-12.1811637036
 10
-8.2297516511
 20
-12.1684774773
 10
-8.1987438578
 20
-12.1584723033
 10
-8.1661617888
 20
-12.1511039702
 10
-8.1331064007
 20
-12.1464257277
 10
-8.0992490156
 20
-12.1445088858
 10
-8.0649183113
 20
-12.1452821344
  0
LWPOLYLINE
  5
428
100
AcDbEntity
  8
0
100
AcDbPolyline
 62
7
  6
CONTINUOUS
 90
36
 70
0
 10
-2.824682677
 20
-12.8282082758
 10
-2.8607111378
 20
-12.8266738578
 10
-2.894946128
 20
-12.8224434554
 10
-2.9273876476
 20
-12.8155170688
 10
-2.9580338918
 20
-12.8057862339
 10
-2.9868866654
 20
-12.7933594148
 10
-3.0139513829
 20
-12.7785620031
 10
-3.0393926958
 20
-12.7612609218
 10
-3.0630459526
 20
-12.741589248
 10
-3.0844226132
 20
-12.720271604
 10
-3.103443658
 20
-12.697499552
 10
-3.1201881066
 20
-12.67308153
 10
-3.1344044776
 20
-12.6471674739
 10
-3.1460581368
 20
-12.6198436686
 10
-3.1551837185
 20
-12.5910238293
 10
-3.1616336431
 20
-12.5605990375
 10
-3.1654031275
 20
-12.5277927837
 10
-3.1664969549
 20
-12.4933815775
 10
-3.164781896
 20
-12.4595860295
 10
-3.1601731528
 20
-12.426853012
 10
-3.1527555234
 20
-12.3947356527
 10
-3.1426501729
 20
-12.3641139457
 10
-3.1298089707
 20
-12.3352549854
 10
-3.1142800474
 20
-12.3078916775
 10
-3.0963289601
 20
-12.2821027335
 10
-3.0757685464
 20
-12.2576221925
 10
-3.0527859687
 20
-12.2347160153
 10
-3.0282082709
 20
-12.2142607958
 10
-3.0023041861
 20
-12.1964867709
 10
-2.9748049813
 20
-12.1811637036
 10
-2.9457315009
 20
-12.1684774773
 10
-2.9147237075
 20
-12.1584723033
 10
-2.8821416386
 20
-12.1511039702
 10
-2.8490862505
 20
-12.1464257277
 10
-2.8152288654
 20
-12.1445088858
 10
-2.7808981611
 20
-12.1452821344
  0
LWPOLYLINE
  5
429
100
AcDbEntity
  8
0
100
AcDbPolyline
 62
7
  6
CONTINUOUS
 90
19
 70
0
 10
-21.1275040987
 20
-13.5377324265
 10
-21.1682483184
 20
-13.5359228222
 10
-21.2070142791
 20
-13.5318238315
 10
-21.2438019808
 20
-13.5254354544
 10
-21.2787487416
 20
-13.5165681194
 10
-21.3117172434
 20
-13.505411398
 10
-21.342295532
 20
-13.4925340049
 10
-21.3700839863
 20
-13.4782035291
 10
-21.3954822273
 20
-13.4621523817
 10
-21.4192771646
 20
-13.4441465099
 10
-21.4415204947
 20
-13.42428181
 10
-21.462160521
 20
-13.4024623857
 10
-21.481829064
 20
-13.3781664966
 10
-21.500834912
 20
-13.3510858396
 10
-21.5188692766
 20
-13.3215287177
 10
-21.5356376128
 20
-13.289898299
 10
-21.5510417388
 20
-13.2563289728
 10
-21.5651798363
 20
-13.2206863498
 10
-21.5780519053
 20
-13.1829704299
  0
LWPOLYLINE
  5
42A
100
AcDbEntity
  8
0
100
AcDbPolyline
 62
7
  6
CONTINUOUS
 90
19
 70
0
 10
8.9356808574
 20
-13.5377324265
 10
8.8949366378
 20
-13.5359228222
 10
8.8561706771
 20
-13.5318238315
 10
8.8193829754
 20
-13.5254354544
 10
8.7844362146
 20
-13.5165681194
 10
8.7514677127
 20
-13.505411398
 10
8.7208894241
 20
-13.4925340049
 10
8.6931009699
 20
-13.4782035291
 10
8.6677027289
 20
-13.4621523817
 10
8.6439077915
 20
-13.4441465099
 10
8.6216644615
 20
-13.42428181
 10
8.6010244351
 20
-13.4024623857
 10
8.5813558922
 20
-13.3781664966
 10
8.5623500441
 20
-13.3510858396
 10
8.5443156795
 20
-13.3215287177
 10
8.5275473434
 20
-13.289898299
 10
8.5121432174
 20
-13.2563289728
 10
8.4980051199
 20
-13.2206863498
 10
8.4851330508
 20
-13.1829704299
  0
LWPOLYLINE
  5
42B
100
AcDbEntity
  8
0
100
AcDbPolyline
 62
7
  6
CONTINUOUS
 90
17
 70
0
 10
-8.0649183113
 20
-12.1452821344
 10
-8.0322012776
 20
-12.1485847926
 10
-8.0017079906
 20
-12.1544815721
 10
-7.9728283741
 20
-12.1629077612
 10
-7.9458191893
 20
-12.1735085436
 10
-7.9208448419
 20
-12.1861645931
 10
-7.8977409261
 20
-12.200995236
 10
-7.876270986
 20
-12.2180036344
 10
-7.8564584701
 20
-12.237058504
 10
-7.8382799298
 20
-12.2582911292
 10
-7.8214285638
 20
-12.2820985253
 10
-7.8057575496
 20
-12.3088008433
 10
-7.7914137096
 20
-12.3380779321
 10
-7.7785307099
 20
-12.3693663545
 10
-7.7671531058
 20
-12.4024782979
 10
-7.757236342
 20
-12.4376015749
 10
-7.7487804184
 20
-12.4747361854
  0
LINE
  5
42C
100
AcDbEntity
  8
0
100
AcDbLine
 62
7
  6
CONTINUOUS
 10
-7.563014085
 20
-13.2694032783
 11
-7.7694211221
 21
-13.2384422227
  0
LINE
  5
42D
100
AcDbEntity
  8
0
100
AcDbLine
 62
7
  6
CONTINUOUS
 10
-2.2789939348
 20
-13.2694032783
 11
-2.4854009719
 21
-13.2384422227
  0
LWPOLYLINE
  5
42E
100
AcDbEntity
  8
0
100
AcDbPolyline
 62
7
  6
CONTINUOUS
 90
16
 70
0
 10
-17.3392093068
 20
-13.004944321
 10
-17.3114185882
 20
-13.0116089561
 10
-17.2844240326
 20
-13.018386989
 10
-17.25822564
 20
-13.0252784195
 10
-17.2328650261
 20
-13.0322768552
 10
-17.2083005751
 20
-13.0393886886
 10
-17.1844074399
 20
-13.0466330977
 10
-17.1610987324
 20
-13.0539551817
 10
-17.1384613407
 20
-13.0614098414
 10
-17.1166310809
 20
-13.0691809575
 10
-17.095436735
 20
-13.0771565834
 10
-17.075049521
 20
-13.0854486657
 10
-17.0561189095
 20
-13.0945769245
 10
-17.0388613907
 20
-13.1047145997
 10
-17.0230604743
 20
-13.1156884514
 10
-17.0087161605
 20
-13.1274984796
  0
LWPOLYLINE
  5
42F
100
AcDbEntity
  8
0
100
AcDbPolyline
 62
7
  6
CONTINUOUS
 90
3
 70
0
 10
-17.2877688055
 20
-12.783459901
 10
-17.358051353
 20
-12.7656242828
 10
-17.4591429036
 20
-12.739636467
  0
LINE
  5
430
100
AcDbEntity
  8
RACCORDO
100
AcDbLine
 62
250
  6
CONTINUOUS
 10
34.7954219153
 20
-54.7952696104
 11
34.9001523048
 21
-54.9
  0
LINE
  5
431
100
AcDbEntity
  8
0
100
AcDbLine
 62
7
  6
CONTINUOUS
 10
-17.71772
 20
-1.433332
 11
-15.193592
 21
-3.95746
  0
LINE
  5
432
100
AcDbEntity
  8
0
100
AcDbLine
 62
7
  6
CONTINUOUS
 10
-21.775592
 20
2.624542
 11
-20.15105
 21
1.0
  0
LINE
  5
433
100
AcDbEntity
  8
0
100
AcDbLine
 62
7
  6
CONTINUOUS
 10
-20.0
 20
0.84895
 11
-17.835216
 21
-1.315834
  0
LINE
  5
434
100
AcDbEntity
  8
0
100
AcDbLine
 62
7
  6
CONTINUOUS
 10
-24.95746
 20
5.806408
 11
-21.874184
 21
2.723134
  0
LINE
  5
435
100
AcDbEntity
  8
0
100
AcDbLine
 62
7
  6
CONTINUOUS
 10
-20.0
 20
1.15105
 11
-21.751288
 21
2.90234
  0
LINE
  5
436
100
AcDbEntity
  8
0
100
AcDbLine
 62
7
  6
CONTINUOUS
 10
-21.84988
 20
3.00093
 11
-24.806408
 21
5.95746
  0
LINE
  5
437
100
AcDbEntity
  8
0
100
AcDbLine
 62
7
  6
CONTINUOUS
 10
-15.04254
 20
-3.806408
 11
-17.746684
 21
-1.102266
  0
LINE
  5
438
100
AcDbEntity
  8
0
100
AcDbLine
 62
7
  6
CONTINUOUS
 10
-17.86418
 20
-0.984768
 11
-19.84895
 21
1.0
  0
LINE
  5
439
100
AcDbEntity
  8
RACCORDO
100
AcDbLine
 62
250
  6
CONTINUOUS
 10
35.7952696104
 20
-53.7954219153
 11
35.9
 21
-53.9001523048
  0
LINE
  5
43A
100
AcDbEntity
  8
0
100
AcDbLine
 62
7
  6
CONTINUOUS
 10
-12.9749099065
 20
-12.0
 11
-12.2927991362
 21
-13.7028580562
  0
LINE
  5
43B
100
AcDbEntity
  8
0
100
AcDbLine
 62
7
  6
CONTINUOUS
 10
-12.3988866248
 20
-12.8955095323
 11
-12.475017952
 21
-12.7017839262
  0
LINE
  5
43C
100
AcDbEntity
  8
0
100
AcDbLine
 62
7
  6
CONTINUOUS
 10
-12.543551482
 20
-12.5160175928
 11
-12.7335103648
 21
-12.0
  0
LINE
  5
43D
100
AcDbEntity
  8
0
100
AcDbLine
 62
7
  6
CONTINUOUS
 10
-9.8128507896
 20
-13.4448492598
 11
-10.3038738713
 21
-12.0
  0
LINE
  5
43E
100
AcDbEntity
  8
0
100
AcDbLine
 62
7
  6
CONTINUOUS
 10
-10.3539200562
 20
-12.4431276488
 11
-9.9318574306
 21
-13.7028580562
  0
LINE
  5
43F
100
AcDbEntity
  8
0
100
AcDbLine
 62
7
  6
CONTINUOUS
 10
-10.3814574457
 20
-12.3590015219
 11
-10.3539200562
 21
-12.4431276488
  0
LINE
  5
440
100
AcDbEntity
  8
0
100
AcDbLine
 62
7
  6
CONTINUOUS
 10
-10.3992756612
 20
-12.3034505952
 11
-10.3814574457
 21
-12.3590015219
  0
LINE
  5
441
100
AcDbEntity
  8
0
100
AcDbLine
 62
7
  6
CONTINUOUS
 10
-10.4165914519
 20
-12.2483334764
 11
-10.3992756612
 21
-12.3034505952
  0
LWPOLYLINE
  5
442
100
AcDbEntity
  8
0
100
AcDbPolyline
 62
7
  6
CONTINUOUS
 90
6
 70
0
 10
-12.1710512674
 20
-13.5274120747
 10
-12.1973792221
 20
-13.4416849979
 10
-12.2259108255
 20
-13.3544352876
 10
-12.2566460774
 20
-13.2656629436
 10
-12.2900411355
 20
-13.175340916
 10
-12.3988866248
 20
-12.8955095323
  0
LINE
  5
443
100
AcDbEntity
  8
0
100
AcDbLine
 62
7
  6
CONTINUOUS
 10
-11.2267389939
 20
-12.0
 11
-11.2267389939
 21
-13.7028580562
  0
LINE
  5
444
100
AcDbEntity
  8
0
100
AcDbLine
 62
7
  6
CONTINUOUS
 10
-10.999691253
 20
-13.4242085561
 11
-10.999691253
 21
-12.0
  0
LINE
  5
445
100
AcDbEntity
  8
0
100
AcDbLine
 62
7
  6
CONTINUOUS
 10
-9.8128507896
 20
-12.0
 11
-9.8128507896
 21
-13.4448492598
  0
LINE
  5
446
100
AcDbEntity
  8
0
100
AcDbLine
 62
7
  6
CONTINUOUS
 10
-9.5858030488
 20
-13.7028580562
 11
-9.5858030488
 21
-12.0
  0
LINE
  5
447
100
AcDbEntity
  8
0
100
AcDbLine
 62
7
  6
CONTINUOUS
 10
-9.2
 20
53.5
 11
-9.2
 21
47.2
  0
LINE
  5
448
100
AcDbEntity
  8
0
100
AcDbLine
 62
7
  6
CONTINUOUS
 10
-9.2
 20
-53.5
 11
-9.2
 21
-47.2
  0
LWPOLYLINE
  5
449
100
AcDbEntity
  8
0
100
AcDbPolyline
 62
7
  6
CONTINUOUS
 90
10
 70
0
 10
-2.6732636588
 20
-12.8049874448
 10
-2.6909987318
 20
-12.8094233659
 10
-2.7085195904
 20
-12.8134344126
 10
-2.7258262347
 20
-12.8170205849
 10
-2.7429366247
 20
-12.8202339931
 10
-2.7598328004
 20
-12.8230225269
 10
-2.7764608814
 20
-12.8252298552
 10
-2.7928029079
 20
-12.8268038676
 10
-2.8088768397
 20
-12.8277966745
 10
-2.824682677
 20
-12.8282082758
  0
LWPOLYLINE
  5
44A
100
AcDbEntity
  8
0
100
AcDbPolyline
 62
7
  6
CONTINUOUS
 90
10
 70
0
 10
-7.957283809
 20
-12.8049874448
 10
-7.975018882
 20
-12.8094233659
 10
-7.9925397406
 20
-12.8134344126
 10
-8.0098463849
 20
-12.8170205849
 10
-8.0269567749
 20
-12.8202339931
 10
-8.0438529506
 20
-12.8230225269
 10
-8.0604810316
 20
-12.8252298552
 10
-8.0768230581
 20
-12.8268038676
 10
-8.0928969899
 20
-12.8277966745
 10
-8.1087028272
 20
-12.8282082758
  0
LWPOLYLINE
  5
44B
100
AcDbEntity
  8
0
100
AcDbPolyline
 62
7
  6
CONTINUOUS
 90
40
 70
0
 10
-14.0541930439
 20
-12.7740263892
 10
-14.1062967916
 20
-12.7828204015
 10
-14.1555342306
 20
-12.7939656861
 10
-14.2019053611
 20
-12.8074622428
 10
-14.2456129504
 20
-12.8234664436
 10
-14.2864542311
 20
-12.8418219166
 10
-14.323820901
 20
-12.8620595459
 10
-14.3573467354
 20
-12.8840125197
 10
-14.387397959
 20
-12.9078476499
 10
-14.4144649436
 20
-12.9335962562
 10
-14.4386198544
 20
-12.9612460283
 10
-14.4597905261
 20
-12.9908092765
 10
-14.4782508351
 20
-13.0223542512
 10
-14.494227098
 20
-13.055873267
 10
-14.5074929982
 20
-13.0913740092
 10
-14.5176434623
 20
-13.1289477841
 10
-14.5246563075
 20
-13.1692554026
 10
-14.5285537165
 20
-13.2116360538
 10
-14.5289971643
 20
-13.2541986114
 10
-14.5258038186
 20
-13.2969386094
 10
-14.5191565116
 20
-13.3398605138
 10
-14.5092652142
 20
-13.3810865966
 10
-14.4958645444
 20
-13.4203059536
 10
-14.4792198842
 20
-13.457829489
 10
-14.4603373512
 20
-13.4927121872
 10
-14.4394088769
 20
-13.5247660574
 10
-14.4162425298
 20
-13.5541790904
 10
-14.3912686327
 20
-13.5805702423
 10
-14.3648365064
 20
-13.6036505981
 10
-14.3365968302
 20
-13.6237090728
 10
-14.3059319644
 20
-13.6412313682
 10
-14.2725834593
 20
-13.6562574456
 10
-14.2368097646
 20
-13.6687473437
 10
-14.1987685894
 20
-13.679066881
 10
-14.158302221
 20
-13.6870891122
 10
-14.1155683721
 20
-13.6929409827
 10
-14.0711978908
 20
-13.6973691469
 10
-14.0254010597
 20
-13.7006224896
 10
-13.9779675961
 20
-13.702452126
 10
-13.9288975
 20
-13.7028580562
  0
LINE
  5
44C
100
AcDbEntity
  8
0
100
AcDbLine
 62
7
  6
CONTINUOUS
 10
-2.4647602682
 20
-12.4747361854
 11
-2.2583532311
 21
-12.4437751298
  0
LINE
  5
44D
100
AcDbEntity
  8
0
100
AcDbLine
 62
7
  6
CONTINUOUS
 10
-7.7487804184
 20
-12.4747361854
 11
-7.5423733813
 21
-12.4437751298
  0
LINE
  5
44E
100
AcDbEntity
  8
0
100
AcDbLine
 62
7
  6
CONTINUOUS
 10
-7.0985982515
 20
-13.2694032783
 11
-7.3050052886
 21
-13.290043982
  0
LINE
  5
44F
100
AcDbEntity
  8
0
100
AcDbLine
 62
7
  6
CONTINUOUS
 10
-16.871971459
 20
-12.5676193521
 11
-16.65524407
 21
-12.5572990002
  0
LINE
  5
450
100
AcDbEntity
  8
0
100
AcDbLine
 62
7
  6
CONTINUOUS
 10
-17.7285606631
 20
-13.217801519
 11
-17.9556084039
 21
-13.2281218708
  0
LWPOLYLINE
  5
451
100
AcDbEntity
  8
0
100
AcDbPolyline
 62
7
  6
CONTINUOUS
 90
34
 70
0
 10
-17.3737986664
 20
-11.9690389444
 10
-17.4363241075
 20
-11.9717673133
 10
-17.4955790673
 20
-11.9779012877
 10
-17.5515635458
 20
-11.9874408674
 10
-17.6043962518
 20
-12.0007093621
 10
-17.6539584765
 20
-12.0173834623
 10
-17.6998940934
 20
-12.0364932391
 10
-17.7419688214
 20
-12.0578462541
 10
-17.7804169415
 20
-12.0816349458
 10
-17.8155851705
 20
-12.1074667008
 10
-17.8474548115
 20
-12.135185456
 10
-17.8760445615
 20
-12.1649472746
 10
-17.9017572275
 20
-12.1968277324
 10
-17.9248451439
 20
-12.2311032532
 10
-17.9450559764
 20
-12.2674974133
 10
-17.9620355291
 20
-12.3052565173
 10
-17.9757606879
 20
-12.344637398
 10
-17.986254567
 20
-12.3853832226
 10
-17.9932323131
 20
-12.4259697975
 10
-17.9965073373
 20
-12.4662275587
 10
-17.9962662285
 20
-12.5063260702
 10
-17.992783901
 20
-12.54524983
 10
-17.986053808
 20
-12.5828131633
 10
-17.9760824963
 20
-12.6192017448
 10
-17.9631645196
 20
-12.6539570972
 10
-17.9474732881
 20
-12.6868876878
 10
-17.9288353917
 20
-12.7181850493
 10
-17.9070251533
 20
-12.7479653025
 10
-17.8820048277
 20
-12.7762392051
 10
-17.8538121601
 20
-12.8029959994
 10
-17.8223347094
 20
-12.8283195328
 10
-17.7875349951
 20
-12.8522377545
 10
-17.7494504978
 20
-12.8747227154
 10
-17.7080812173
 20
-12.8957744155
  0
LWPOLYLINE
  5
452
100
AcDbEntity
  8
0
100
AcDbPolyline
 62
7
  6
CONTINUOUS
 90
19
 70
0
 10
8.9224578623
 20
-11.9690389444
 10
8.860627937
 20
-11.9714324772
 10
8.8018565021
 20
-11.9774170297
 10
8.7461435576
 20
-11.9869926019
 10
8.6936892797
 20
-12.0002834853
 10
8.6442934923
 20
-12.0171653884
 10
8.5973556671
 20
-12.0372654368
 10
8.5527631352
 20
-12.0604286813
 10
8.5106285655
 20
-12.086810071
 10
8.4706894363
 20
-12.1165015785
 10
8.432797852
 20
-12.1494744327
 10
8.3971017082
 20
-12.1857574047
 10
8.3637821694
 20
-12.2255287798
 10
8.3328008118
 20
-12.2687398504
 10
8.3041960591
 20
-12.3154393241
 10
8.2782643482
 20
-12.3659516096
 10
8.2551044913
 20
-12.4203848431
 10
8.2346176761
 20
-12.4786308884
 10
8.2168039026
 20
-12.5406897455
  0
LWPOLYLINE
  5
453
100
AcDbEntity
  8
0
100
AcDbPolyline
 62
7
  6
CONTINUOUS
 90
19
 70
0
 10
-21.1407270938
 20
-11.9690389444
 10
-21.2025570192
 20
-11.9714324772
 10
-21.2613284541
 20
-11.9774170297
 10
-21.3170413985
 20
-11.9869926019
 10
-21.3694956764
 20
-12.0002834853
 10
-21.4188914638
 20
-12.0171653884
 10
-21.4658292891
 20
-12.0372654368
 10
-21.5104218209
 20
-12.0604286813
 10
-21.5525563906
 20
-12.086810071
 10
-21.5924955198
 20
-12.1165015785
 10
-21.6303871041
 20
-12.1494744327
 10
-21.6660832479
 20
-12.1857574047
 10
-21.6994027867
 20
-12.2255287798
 10
-21.7303841444
 20
-12.2687398504
 10
-21.758988897
 20
-12.3154393241
 10
-21.7849206079
 20
-12.3659516096
 10
-21.8080804648
 20
-12.4203848431
 10
-21.8285672801
 20
-12.4786308884
 10
-21.8463810535
 20
-12.5406897455
  0
LWPOLYLINE
  5
454
100
AcDbEntity
  8
0
100
AcDbPolyline
 62
7
  6
CONTINUOUS
 90
21
 70
0
 10
-13.6631483216
 20
-12.7533856855
 10
-13.6994869176
 20
-12.7545235987
 10
-13.7340942224
 20
-12.7530186776
 10
-13.7669702359
 20
-12.7488709222
 10
-13.7982244499
 20
-12.7418875755
 10
-13.8277473728
 20
-12.7322613946
 10
-13.8552105295
 20
-12.7205706503
 10
-13.8801824266
 20
-12.7069292913
 10
-13.9030945577
 20
-12.6912233689
 10
-13.9249129281
 20
-12.6736893086
 10
-13.9456459032
 20
-12.6542776313
 10
-13.9652851177
 20
-12.6330378161
 10
-13.9847714816
 20
-12.6103547258
 10
-14.0043423435
 20
-12.5862252099
 10
-14.0237603549
 20
-12.560652419
 10
-14.0432543794
 20
-12.5340306669
 10
-14.0628543466
 20
-12.5064582338
 10
-14.082530327
 20
-12.4778368396
 10
-14.1024213957
 20
-12.4482659582
 10
-14.1225739113
 20
-12.4177787474
 10
-14.1429415152
 20
-12.3863420495
  0
LINE
  5
455
100
AcDbEntity
  8
0
100
AcDbLine
 62
7
  6
CONTINUOUS
 10
28.3890603318
 20
-12.5160175928
 11
27.6645393485
 21
-12.5160175928
  0
LINE
  5
456
100
AcDbEntity
  8
0
100
AcDbLine
 62
7
  6
CONTINUOUS
 10
21.2783379032
 20
-12.5160175928
 11
20.5538169198
 21
-12.5160175928
  0
LINE
  5
457
100
AcDbEntity
  8
0
100
AcDbLine
 62
7
  6
CONTINUOUS
 10
16.7993051977
 20
-12.5160175928
 11
16.0747842143
 21
-12.5160175928
  0
LINE
  5
458
100
AcDbEntity
  8
0
100
AcDbLine
 62
7
  6
CONTINUOUS
 10
2.9700337109
 20
-12.5160175928
 11
2.2455127275
 21
-12.5160175928
  0
LINE
  5
459
100
AcDbEntity
  8
0
100
AcDbLine
 62
7
  6
CONTINUOUS
 10
-11.8190304986
 20
-12.5160175928
 11
-12.543551482
 21
-12.5160175928
  0
LINE
  5
45A
100
AcDbEntity
  8
0
100
AcDbLine
 62
7
  6
CONTINUOUS
 10
-22.3561097434
 20
-12.5160175928
 11
-23.0806307268
 21
-12.5160175928
  0
LINE
  5
45B
100
AcDbEntity
  8
0
100
AcDbLine
 62
7
  6
CONTINUOUS
 10
-29.6009967463
 20
-12.5160175928
 11
-30.3255177296
 21
-12.5160175928
  0
LINE
  5
45C
100
AcDbEntity
  8
0
100
AcDbLine
 62
7
  6
CONTINUOUS
 10
-0.2046032118
 20
-12.4024937224
 11
-0.9579888973
 21
-12.4024937224
  0
LINE
  5
45D
100
AcDbEntity
  8
0
100
AcDbLine
 62
7
  6
CONTINUOUS
 10
-1.1643959344
 20
-12.4024937224
 11
-1.3914436752
 21
-12.4024937224
  0
LINE
  5
45E
100
AcDbEntity
  8
0
100
AcDbLine
 62
7
  6
CONTINUOUS
 10
-32.0119276316
 20
-12.1960866853
 11
-31.1656587794
 21
-12.1960866853
  0
LINE
  5
45F
100
AcDbEntity
  8
0
100
AcDbLine
 62
7
  6
CONTINUOUS
 10
3.4384809933
 20
-12.1960866853
 11
4.5332444224
 21
-12.1960866853
  0
LINE
  5
460
100
AcDbEntity
  8
0
100
AcDbLine
 62
7
  6
CONTINUOUS
 10
6.6687511242
 20
-12.1960866853
 11
7.7007863098
 21
-12.1960866853
  0
LINE
  5
461
100
AcDbEntity
  8
0
100
AcDbLine
 62
7
  6
CONTINUOUS
 10
12.8609622377
 20
-12.1960866853
 11
13.8929974233
 21
-12.1960866853
  0
LINE
  5
462
100
AcDbEntity
  8
0
100
AcDbLine
 62
7
  6
CONTINUOUS
 10
14.3883743124
 20
-12.1960866853
 11
15.2346431646
 21
-12.1960866853
  0
LINE
  5
463
100
AcDbEntity
  8
0
100
AcDbLine
 62
7
  6
CONTINUOUS
 10
32.3453027677
 20
-12.0
 11
32.1010005828
 21
-12.0
  0
LINE
  5
464
100
AcDbEntity
  8
0
100
AcDbLine
 62
7
  6
CONTINUOUS
 10
31.2311885412
 20
-12.0
 11
31.0041408003
 21
-12.0
  0
LINE
  5
465
100
AcDbEntity
  8
0
100
AcDbLine
 62
7
  6
CONTINUOUS
 10
30.6222877817
 20
-12.0
 11
30.3952400408
 21
-12.0
  0
LINE
  5
466
100
AcDbEntity
  8
0
100
AcDbLine
 62
7
  6
CONTINUOUS
 10
29.9042169592
 20
-12.0
 11
29.7110329171
 21
-12.0
  0
LINE
  5
467
100
AcDbEntity
  8
0
100
AcDbLine
 62
7
  6
CONTINUOUS
 10
29.2083995774
 20
-12.0
 11
28.9813518366
 21
-12.0
  0
LINE
  5
468
100
AcDbEntity
  8
0
100
AcDbLine
 62
7
  6
CONTINUOUS
 10
28.808163309
 20
-12.0
 11
28.5685377624
 21
-12.0
  0
LINE
  5
469
100
AcDbEntity
  8
0
100
AcDbLine
 62
7
  6
CONTINUOUS
 10
27.4745804656
 20
-12.0
 11
27.233180924
 21
-12.0
  0
LINE
  5
46A
100
AcDbEntity
  8
0
100
AcDbLine
 62
7
  6
CONTINUOUS
 10
27.0308053358
 20
-12.0
 11
26.803757595
 21
-12.0
  0
LINE
  5
46B
100
AcDbEntity
  8
0
100
AcDbLine
 62
7
  6
CONTINUOUS
 10
25.8213890732
 20
-12.0
 11
25.5546725045
 21
-12.0
  0
LINE
  5
46C
100
AcDbEntity
  8
0
100
AcDbLine
 62
7
  6
CONTINUOUS
 10
23.078110575
 20
-12.0
 11
22.8510628342
 21
-12.0
  0
LINE
  5
46D
100
AcDbEntity
  8
0
100
AcDbLine
 62
7
  6
CONTINUOUS
 10
21.6974408803
 20
-12.0
 11
21.4578153337
 21
-12.0
  0
LINE
  5
46E
100
AcDbEntity
  8
0
100
AcDbLine
 62
7
  6
CONTINUOUS
 10
20.3638580369
 20
-12.0
 11
20.1224584953
 21
-12.0
  0
LINE
  5
46F
100
AcDbEntity
  8
0
100
AcDbLine
 62
7
  6
CONTINUOUS
 10
18.7740400773
 20
-12.0
 11
18.5297378924
 21
-12.0
  0
LINE
  5
470
100
AcDbEntity
  8
0
100
AcDbLine
 62
7
  6
CONTINUOUS
 10
17.6599258507
 20
-12.0
 11
17.4328781099
 21
-12.0
  0
LINE
  5
471
100
AcDbEntity
  8
0
100
AcDbLine
 62
7
  6
CONTINUOUS
 10
17.2184081748
 20
-12.0
 11
16.9787826282
 21
-12.0
  0
LINE
  5
472
100
AcDbEntity
  8
0
100
AcDbLine
 62
7
  6
CONTINUOUS
 10
15.8848253315
 20
-12.0
 11
15.6434257899
 21
-12.0
  0
LINE
  5
473
100
AcDbEntity
  8
0
100
AcDbLine
 62
7
  6
CONTINUOUS
 10
15.4616909054
 20
-12.0
 11
14.3883743124
 21
-12.0
  0
LINE
  5
474
100
AcDbEntity
  8
0
100
AcDbLine
 62
7
  6
CONTINUOUS
 10
14.1200451641
 20
-12.0
 11
12.8609622377
 21
-12.0
  0
LINE
  5
475
100
AcDbEntity
  8
0
100
AcDbLine
 62
7
  6
CONTINUOUS
 10
11.3949885003
 20
-12.0
 11
11.1506863154
 21
-12.0
  0
LINE
  5
476
100
AcDbEntity
  8
0
100
AcDbLine
 62
7
  6
CONTINUOUS
 10
10.2808742738
 20
-12.0
 11
10.0538265329
 21
-12.0
  0
LINE
  5
477
100
AcDbEntity
  8
0
100
AcDbLine
 62
7
  6
CONTINUOUS
 10
7.9278340506
 20
-12.0
 11
6.6687511242
 21
-12.0
  0
LINE
  5
478
100
AcDbEntity
  8
0
100
AcDbLine
 62
7
  6
CONTINUOUS
 10
6.3488202167
 20
-12.0
 11
6.1217724758
 21
-12.0
  0
LINE
  5
479
100
AcDbEntity
  8
0
100
AcDbLine
 62
7
  6
CONTINUOUS
 10
5.2692145633
 20
-12.0
 11
5.0278151791
 21
-12.0
  0
LINE
  5
47A
100
AcDbEntity
  8
0
100
AcDbLine
 62
7
  6
CONTINUOUS
 10
4.7904470864
 20
-12.0
 11
3.4384809933
 21
-12.0
  0
LINE
  5
47B
100
AcDbEntity
  8
0
100
AcDbLine
 62
7
  6
CONTINUOUS
 10
3.389136688
 20
-12.0
 11
3.1495111414
 21
-12.0
  0
LINE
  5
47C
100
AcDbEntity
  8
0
100
AcDbLine
 62
7
  6
CONTINUOUS
 10
2.0555538446
 20
-12.0
 11
1.814154303
 21
-12.0
  0
LINE
  5
47D
100
AcDbEntity
  8
0
100
AcDbLine
 62
7
  6
CONTINUOUS
 10
0.4662196588
 20
-12.0
 11
0.2598126217
 21
-12.0
  0
LINE
  5
47E
100
AcDbEntity
  8
0
100
AcDbLine
 62
7
  6
CONTINUOUS
 10
-0.9579888973
 20
-12.0
 11
-1.1643959344
 21
-12.0
  0
LINE
  5
47F
100
AcDbEntity
  8
0
100
AcDbLine
 62
7
  6
CONTINUOUS
 10
-9.5858030488
 20
-12.0
 11
-9.8128507896
 21
-12.0
  0
LINE
  5
480
100
AcDbEntity
  8
0
100
AcDbLine
 62
7
  6
CONTINUOUS
 10
-10.3038738713
 20
-12.0
 11
-10.4970579133
 21
-12.0
  0
LINE
  5
481
100
AcDbEntity
  8
0
100
AcDbLine
 62
7
  6
CONTINUOUS
 10
-10.999691253
 20
-12.0
 11
-11.2267389939
 21
-12.0
  0
LINE
  5
482
100
AcDbEntity
  8
0
100
AcDbLine
 62
7
  6
CONTINUOUS
 10
-11.3999275215
 20
-12.0
 11
-11.6395530681
 21
-12.0
  0
LINE
  5
483
100
AcDbEntity
  8
0
100
AcDbLine
 62
7
  6
CONTINUOUS
 10
-12.7335103648
 20
-12.0
 11
-12.9749099065
 21
-12.0
  0
LINE
  5
484
100
AcDbEntity
  8
0
100
AcDbLine
 62
7
  6
CONTINUOUS
 10
-13.1772854946
 20
-12.0
 11
-13.4043332354
 21
-12.0
  0
LINE
  5
485
100
AcDbEntity
  8
0
100
AcDbLine
 62
7
  6
CONTINUOUS
 10
-14.3867017573
 20
-12.0
 11
-14.6534183259
 21
-12.0
  0
LINE
  5
486
100
AcDbEntity
  8
0
100
AcDbLine
 62
7
  6
CONTINUOUS
 10
-18.7399551449
 20
-12.0
 11
-18.9670028858
 21
-12.0
  0
LINE
  5
487
100
AcDbEntity
  8
0
100
AcDbLine
 62
7
  6
CONTINUOUS
 10
-19.7823106824
 20
-12.0
 11
-20.0093584232
 21
-12.0
  0
LINE
  5
488
100
AcDbEntity
  8
0
100
AcDbLine
 62
7
  6
CONTINUOUS
 10
-21.9370067663
 20
-12.0
 11
-22.1766323129
 21
-12.0
  0
LINE
  5
489
100
AcDbEntity
  8
0
100
AcDbLine
 62
7
  6
CONTINUOUS
 10
-23.2705896097
 20
-12.0
 11
-23.5119891513
 21
-12.0
  0
LINE
  5
48A
100
AcDbEntity
  8
0
100
AcDbLine
 62
7
  6
CONTINUOUS
 10
-24.8604075693
 20
-12.0
 11
-25.1047097542
 21
-12.0
  0
LINE
  5
48B
100
AcDbEntity
  8
0
100
AcDbLine
 62
7
  6
CONTINUOUS
 10
-25.9745217959
 20
-12.0
 11
-26.2015695367
 21
-12.0
  0
LINE
  5
48C
100
AcDbEntity
  8
0
100
AcDbLine
 62
7
  6
CONTINUOUS
 10
-27.2955268334
 20
-12.0
 11
-27.5225745743
 21
-12.0
  0
LINE
  5
48D
100
AcDbEntity
  8
0
100
AcDbLine
 62
7
  6
CONTINUOUS
 10
-28.3585230746
 20
-12.0
 11
-28.5855708154
 21
-12.0
  0
LINE
  5
48E
100
AcDbEntity
  8
0
100
AcDbLine
 62
7
  6
CONTINUOUS
 10
-29.1818937691
 20
-12.0
 11
-29.4215193158
 21
-12.0
  0
LINE
  5
48F
100
AcDbEntity
  8
0
100
AcDbLine
 62
7
  6
CONTINUOUS
 10
-30.5154766125
 20
-12.0
 11
-30.7568761541
 21
-12.0
  0
LINE
  5
490
100
AcDbEntity
  8
0
100
AcDbLine
 62
7
  6
CONTINUOUS
 10
-30.9386110386
 20
-12.0
 11
-32.0119276316
 21
-12.0
  0
LINE
  5
491
100
AcDbEntity
  8
0
100
AcDbLine
 62
7
  6
CONTINUOUS
 10
-32.745962677
 20
-12.0
 11
-32.9730104178
 21
-12.0
  0
LWPOLYLINE
  5
492
100
AcDbEntity
  8
0
100
AcDbPolyline
 62
7
  6
CONTINUOUS
 90
17
 70
0
 10
-2.7808981611
 20
-12.1452821344
 10
-2.7481811274
 20
-12.1485847926
 10
-2.7176878404
 20
-12.1544815721
 10
-2.6888082239
 20
-12.1629077612
 10
-2.6617990391
 20
-12.1735085436
 10
-2.6368246917
 20
-12.1861645931
 10
-2.6137207759
 20
-12.200995236
 10
-2.5922508358
 20
-12.2180036344
 10
-2.5724383199
 20
-12.237058504
 10
-2.5542597796
 20
-12.2582911292
 10
-2.5374084136
 20
-12.2820985253
 10
-2.5217373994
 20
-12.3088008433
 10
-2.5073935594
 20
-12.3380779321
 10
-2.4945105597
 20
-12.3693663545
 10
-2.4831329556
 20
-12.4024782979
 10
-2.4732161918
 20
-12.4376015749
 10
-2.4647602682
 20
-12.4747361854
  0
LWPOLYLINE
  5
493
100
AcDbEntity
  8
0
100
AcDbPolyline
 62
7
  6
CONTINUOUS
 90
9
 70
0
 10
22.1978167661
 20
-13.6867325753
 10
22.223516054
 20
-13.6906885505
 10
22.2498373346
 20
-13.6940581473
 10
22.2767806078
 20
-13.6968413658
 10
22.3043708931
 20
-13.6989777866
 10
22.3325831711
 20
-13.7005278291
 10
22.3613423831
 20
-13.7016727514
 10
22.3906235099
 20
-13.7024729731
 10
22.4204515707
 20
-13.7028680747
  0
LINE
  5
494
100
AcDbEntity
  8
0
100
AcDbLine
 62
7
  6
CONTINUOUS
 10
8.2168039026
 20
-12.5406897455
 11
8.4438516434
 21
-12.5976130174
  0
LWPOLYLINE
  5
495
100
AcDbEntity
  8
0
100
AcDbPolyline
 62
7
  6
CONTINUOUS
 90
19
 70
0
 10
-5.2079582162
 20
-12.2806652246
 10
-5.1944700141
 20
-12.3006321724
 10
-5.1821786335
 20
-12.3222822006
 10
-5.1710840743
 20
-12.3456153093
 10
-5.1612682019
 20
-12.3707686356
 10
-5.152649151
 20
-12.3976050423
 10
-5.1449813255
 20
-12.4257131178
 10
-5.1382934958
 20
-12.4550881775
 10
-5.1325568914
 20
-12.4857349061
 10
-5.1274396058
 20
-12.5172559459
 10
-5.1228428575
 20
-12.5495040094
 10
-5.1188654279
 20
-12.5826263843
 10
-5.1154717544
 20
-12.6166675755
 10
-5.112669506
 20
-12.6516124227
 10
-5.1104510138
 20
-12.6874760862
 10
-5.1087577084
 20
-12.7243485526
 10
-5.1075700666
 20
-12.7622598172
 10
-5.1069076116
 20
-12.8011798847
 10
-5.1067703433
 20
-12.841108755
  0
LWPOLYLINE
  5
496
100
AcDbEntity
  8
0
100
AcDbPolyline
 62
7
  6
CONTINUOUS
 90
34
 70
0
 10
-5.7086565391
 20
-13.3995364822
 10
-5.7225846103
 20
-13.3774000927
 10
-5.7352577793
 20
-13.353526985
 10
-5.746676046
 20
-13.327917159
 10
-5.7567401067
 20
-13.3004817592
 10
-5.7655492652
 20
-13.2713096412
 10
-5.7734014323
 20
-13.2406673714
 10
-5.7803269011
 20
-13.2086828246
 10
-5.7862953784
 20
-13.175228126
 10
-5.7915138957
 20
-13.1401862175
 10
-5.7960273964
 20
-13.1035992947
 10
-5.7997909371
 20
-13.065425162
 10
-5.8028767184
 20
-13.0254201743
 10
-5.805296998
 20
-12.9829104901
 10
-5.8070395182
 20
-12.938569951
 10
-5.8081397061
 20
-12.8941764363
 10
-5.8085892602
 20
-12.8498712844
 10
-5.8083964821
 20
-12.8055131568
 10
-5.8076217038
 20
-12.7624559178
 10
-5.8063042633
 20
-12.7211683798
 10
-5.8044048225
 20
-12.6811817302
 10
-5.8018656996
 20
-12.6424433953
 10
-5.798702353
 20
-12.6049303002
 10
-5.7948993243
 20
-12.5686655197
 10
-5.7903525558
 20
-12.5336657052
 10
-5.7850989809
 20
-12.4999081688
 10
-5.7791016663
 20
-12.4674155984
 10
-5.7721457541
 20
-12.4362727082
 10
-5.7642516082
 20
-12.4063854569
 10
-5.7553988647
 20
-12.3778478858
 10
-5.7453115746
 20
-12.3510268334
 10
-5.7338977548
 20
-12.3260445794
 10
-5.7212493884
 20
-12.302778844
 10
-5.7073664755
 20
-12.2812296274
  0
LINE
  5
497
100
AcDbEntity
  8
DRAFT
100
AcDbLine
 62
7
  6
CONTINUOUS
 10
3.65
 20
-30.097853003
 11
3.25
 21
-29.40503268
  0
LINE
  5
498
100
AcDbEntity
  8
DRAFT
100
AcDbLine
 62
7
  6
CONTINUOUS
 10
3.65
 20
-29.9756675485
 11
3.3110927272
 21
-29.388662933
  0
LWPOLYLINE
  5
499
100
AcDbEntity
  8
0
100
AcDbPolyline
 62
7
  6
CONTINUOUS
 90
14
 70
0
 10
-8.6507380494
 20
-12.5855120822
 10
-8.6428755297
 20
-12.6260098893
 10
-8.6320281271
 20
-12.6631206435
 10
-8.6181509723
 20
-12.697627688
 10
-8.6015269886
 20
-12.7299099131
 10
-8.5823253353
 20
-12.7599989896
 10
-8.560376853
 20
-12.7878632467
 10
-8.535456987
 20
-12.8137865624
 10
-8.5072369723
 20
-12.838107699
 10
-8.4760455739
 20
-12.8604878942
 10
-8.4426445316
 20
-12.8801947392
 10
-8.4072877588
 20
-12.8969840977
 10
-8.3697213421
 20
-12.911100106
 10
-8.3299452815
 20
-12.9225427641
  0
LWPOLYLINE
  5
49A
100
AcDbEntity
  8
0
100
AcDbPolyline
 62
7
  6
CONTINUOUS
 90
29
 70
0
 10
-7.3278307265
 20
-12.6606625738
 10
-7.3184770194
 20
-12.7094355341
 10
-7.3059393552
 20
-12.7545041649
 10
-7.290047989
 20
-12.7967679402
 10
-7.2708119976
 20
-12.8369394775
 10
-7.247999919
 20
-12.8754261456
 10
-7.221843215
 20
-12.9118205756
 10
-7.1930453483
 20
-12.9456132782
 10
-7.1613700653
 20
-12.9769936405
 10
-7.1270536195
 20
-13.0057722753
 10
-7.0915082336
 20
-13.0308715316
 10
-7.0552548756
 20
-13.0518630781
 10
-7.0177725775
 20
-13.069175246
 10
-6.9789106583
 20
-13.0830153783
 10
-6.9383640795
 20
-13.0934962172
 10
-6.8964378795
 20
-13.1005050205
 10
-6.8538964931
 20
-13.1039109052
 10
-6.8102829898
 20
-13.103585335
 10
-6.7660543001
 20
-13.0996568463
 10
-6.7233456495
 20
-13.0923801645
 10
-6.6828379834
 20
-13.0818202889
 10
-6.6438503565
 20
-13.0679122203
 10
-6.606475159
 20
-13.050715687
 10
-6.5706992892
 20
-13.0302594676
 10
-6.5365358489
 20
-13.0065147836
 10
-6.5041165332
 20
-12.979455027
 10
-6.4734852405
 20
-12.9490713284
 10
-6.4445980724
 20
-12.9153725572
 10
-6.417455029
 20
-12.8783587135
  0
LWPOLYLINE
  5
49B
100
AcDbEntity
  8
0
100
AcDbPolyline
 62
7
  6
CONTINUOUS
 90
40
 70
0
 10
-6.2312065678
 20
-12.5183006691
 10
-6.2420939214
 20
-12.4605060215
 10
-6.2554387194
 20
-12.40551642
 10
-6.2712523956
 20
-12.353497468
 10
-6.2897682533
 20
-12.3048816413
 10
-6.3110817369
 20
-12.2599079714
 10
-6.3350974018
 20
-12.2183374268
 10
-6.3617622178
 20
-12.1798853879
 10
-6.3912264255
 20
-12.144463277
 10
-6.4233397841
 20
-12.1121596718
 10
-6.4575985412
 20
-12.0829556864
 10
-6.4938737205
 20
-12.0567235936
 10
-6.5322942982
 20
-12.0335911206
 10
-6.5727434507
 20
-12.0139225634
 10
-6.6153753301
 20
-11.997776483
 10
-6.6600357843
 20
-11.9850943183
 10
-6.7061455329
 20
-11.9760646816
 10
-6.7544922501
 20
-11.970744915
 10
-6.8042882618
 20
-11.9690776764
 10
-6.8525912648
 20
-11.9710795524
 10
-6.8986557875
 20
-11.9768888663
 10
-6.9432273017
 20
-11.9863672947
 10
-6.9855999188
 20
-11.9991164545
 10
-7.0255268448
 20
-12.015107487
 10
-7.0632548739
 20
-12.0343692509
 10
-7.0988184995
 20
-12.0565899389
 10
-7.1322236928
 20
-12.0815789614
 10
-7.1634644826
 20
-12.1095269081
 10
-7.1925574497
 20
-12.1406937411
 10
-7.2196359661
 20
-12.1751380582
 10
-7.2445666596
 20
-12.2128012617
 10
-7.2669659949
 20
-12.2537675199
 10
-7.2871312265
 20
-12.298524506
 10
-7.3047650998
 20
-12.3465845468
 10
-7.3185923161
 20
-12.396568791
 10
-7.328209561
 20
-12.4489320392
 10
-7.3340201489
 20
-12.5032194908
 10
-7.3359587242
 20
-12.5566878914
 10
-7.3338307316
 20
-12.6090847581
 10
-7.3278307265
 20
-12.6606625738
  0
LWPOLYLINE
  5
49C
100
AcDbEntity
  8
0
100
AcDbPolyline
 62
7
  6
CONTINUOUS
 90
45
 70
0
 10
-7.3050052886
 20
-13.290043982
 10
-7.2970092084
 20
-13.3376503321
 10
-7.2861412687
 20
-13.3823552923
 10
-7.2724014694
 20
-13.4241588625
 10
-7.2556356314
 20
-13.4630226338
 10
-7.2359979337
 20
-13.4989850152
 10
-7.2139509145
 20
-13.5321612339
 10
-7.1895798244
 20
-13.5625551187
 10
-7.1627994126
 20
-13.5901628408
 10
-7.1338164643
 20
-13.6150881407
 10
-7.1027098208
 20
-13.6374311448
 10
-7.0694006408
 20
-13.6570917267
 10
-7.0338591854
 20
-13.6738732474
 10
-6.9961564205
 20
-13.6877950686
 10
-6.9562213801
 20
-13.6988378286
 10
-6.9138114271
 20
-13.7067468035
 10
-6.8679344317
 20
-13.7115665531
 10
-6.8195825237
 20
-13.7132525176
 10
-6.7714894549
 20
-13.7114162927
 10
-6.723830254
 20
-13.7058617992
 10
-6.6764298923
 20
-13.6967851165
 10
-6.6314970353
 20
-13.684386078
 10
-6.5899736122
 20
-13.6687558725
 10
-6.5509176938
 20
-13.6498033114
 10
-6.5137121577
 20
-13.6274546625
 10
-6.4781559369
 20
-13.6018685279
 10
-6.4444500984
 20
-13.5728863056
 10
-6.4125807207
 20
-13.5399584579
 10
-6.3823373261
 20
-13.5029257682
 10
-6.3539303923
 20
-13.4619474532
 10
-6.3279774308
 20
-13.4169516259
 10
-6.3046052915
 20
-13.3677099095
 10
-6.2836871246
 20
-13.3144506809
 10
-6.265459892
 20
-13.2577871836
 10
-6.2500568803
 20
-13.1977387103
 10
-6.2373448029
 20
-13.1342859684
 10
-6.2271607619
 20
-13.0679843226
 10
-6.2195311987
 20
-12.9978556336
 10
-6.2144296719
 20
-12.9248780408
 10
-6.2116139602
 20
-12.8525413275
 10
-6.2110086358
 20
-12.7812107198
 10
-6.2126891265
 20
-12.7105209916
 10
-6.2166394942
 20
-12.6428662472
 10
-6.2227880925
 20
-12.5790659663
 10
-6.2312065678
 20
-12.5183006691
  0
LWPOLYLINE
  5
49D
100
AcDbEntity
  8
0
100
AcDbPolyline
 62
7
  6
CONTINUOUS
 90
39
 70
0
 10
-7.5423733813
 20
-12.4437751298
 10
-7.5494908214
 20
-12.3944009428
 10
-7.5598801491
 20
-12.3477001866
 10
-7.5735413644
 20
-12.3036728613
 10
-7.590524241
 20
-12.2624806553
 10
-7.6107790053
 20
-12.2239618802
 10
-7.6341563361
 20
-12.1876314703
 10
-7.6608631835
 20
-12.1530974704
 10
-7.6906925975
 20
-12.1207518357
 10
-7.722874407
 20
-12.0912853666
 10
-7.7572128918
 20
-12.0648026551
 10
-7.7939037722
 20
-12.0411991093
 10
-7.8327640386
 20
-12.0208517535
 10
-7.873529258
 20
-12.00381856
 10
-7.9164638633
 20
-11.9900415566
 10
-7.9621781432
 20
-11.9797238506
 10
-8.0118459565
 20
-11.9728060752
 10
-8.0642934444
 20
-11.9693475974
 10
-8.1166093184
 20
-11.9697296253
 10
-8.1686941913
 20
-11.9741863747
 10
-8.2206474503
 20
-11.9824836298
 10
-8.2698559686
 20
-11.9942999515
 10
-8.315220255
 20
-12.0095451347
 10
-8.3578398007
 20
-12.0283093844
 10
-8.3983999526
 20
-12.0505418768
 10
-8.4374536905
 20
-12.0766158455
 10
-8.4744480346
 20
-12.1061580568
 10
-8.5084093919
 20
-12.1379979865
 10
-8.5392549388
 20
-12.172089855
 10
-8.5670674989
 20
-12.2084794418
 10
-8.59112195
 20
-12.2461335611
 10
-8.6111070226
 20
-12.2846289512
 10
-8.6273339862
 20
-12.3243888737
 10
-8.6400115272
 20
-12.3656499277
 10
-8.6491751614
 20
-12.4092022136
 10
-8.6547893729
 20
-12.4542556311
 10
-8.6569563016
 20
-12.4986764776
 10
-8.6555708169
 20
-12.5424105654
 10
-8.6507380494
 20
-12.5855120822
  0
LINE
  5
49E
100
AcDbEntity
  8
DRAFT
100
AcDbLine
 62
7
  6
CONTINUOUS
 10
-4.3249432208
 20
-17.6
 11
-4.3598533507
 21
-15.6
  0
LWPOLYLINE
  5
49F
100
AcDbEntity
  8
0
100
AcDbPolyline
 62
7
  6
CONTINUOUS
 90
49
 70
0
 10
-4.9003633062
 20
-12.8404637232
 10
-4.9012008258
 20
-12.7737307466
 10
-4.9038002821
 20
-12.7093161034
 10
-4.9081616752
 20
-12.6472197936
 10
-4.9142696182
 20
-12.5874038771
 10
-4.9221394979
 20
-12.529906294
 10
-4.9318174751
 20
-12.4748408643
 10
-4.9432693678
 20
-12.4221319936
 10
-4.956529358
 20
-12.3718552763
 10
-4.9717461528
 20
-12.3243513157
 10
-4.9889260288
 20
-12.2796263676
 10
-5.0080627093
 20
-12.2376741763
 10
-5.0292860716
 20
-12.1988165785
 10
-5.0526900152
 20
-12.1631754149
 10
-5.0781806407
 20
-12.1306288448
 10
-5.1056061266
 20
-12.1011331823
 10
-5.1349153376
 20
-12.0747309648
 10
-5.1661594089
 20
-12.0513796548
 10
-5.1993399252
 20
-12.030907954
 10
-5.234233222
 20
-12.0132238331
 10
-5.2710629637
 20
-11.9984193214
 10
-5.3105017273
 20
-11.986599208
 10
-5.3535227725
 20
-11.9776917575
 10
-5.3991528395
 20
-11.9717687052
 10
-5.4451447266
 20
-11.9691500467
 10
-5.4917079986
 20
-11.9699894329
 10
-5.5386330905
 20
-11.9741332128
 10
-5.5830441053
 20
-11.9814404294
 10
-5.6239012973
 20
-11.9919786613
 10
-5.6622444121
 20
-12.0056803299
 10
-5.69831679
 20
-12.0222017418
 10
-5.7319931223
 20
-12.0413072503
 10
-5.7633987176
 20
-12.0632325021
 10
-5.7931528424
 20
-12.0883407441
 10
-5.8214858389
 20
-12.1166584242
 10
-5.8481673648
 20
-12.1481590945
 10
-5.8731256598
 20
-12.1831266579
 10
-5.8964956609
 20
-12.221782423
 10
-5.9181424311
 20
-12.2639050813
 10
-5.9375893991
 20
-12.3091146098
 10
-5.9546768157
 20
-12.3574140322
 10
-5.9695644301
 20
-12.408800325
 10
-5.9822549191
 20
-12.4628843948
 10
-5.9926492535
 20
-12.5196327135
 10
-6.0008464624
 20
-12.5790788092
 10
-6.0071463098
 20
-12.6409341741
 10
-6.011648717
 20
-12.7051026389
 10
-6.0142537627
 20
-12.7716803727
 10
-6.0149614468
 20
-12.8406673757
  0
LWPOLYLINE
  5
4A0
100
AcDbEntity
  8
0
100
AcDbPolyline
 62
7
  6
CONTINUOUS
 90
49
 70
0
 10
-6.0149614468
 20
-12.8406673757
 10
-6.0145928909
 20
-12.9079084338
 10
-6.0123376942
 20
-12.9728255375
 10
-6.008195857
 20
-13.0354186869
 10
-6.0022806438
 20
-13.0958071979
 10
-5.9944787899
 20
-13.1538717545
 10
-5.9844505011
 20
-13.2092544088
 10
-5.9719082175
 20
-13.2618437188
 10
-5.957139499
 20
-13.3117511265
 10
-5.9406672301
 20
-13.3589530101
 10
-5.9226506873
 20
-13.4036118171
 10
-5.9029305943
 20
-13.4455651001
 10
-5.881552006
 20
-13.4843018954
 10
-5.8585912907
 20
-13.5196007895
 10
-5.8339720803
 20
-13.5516831958
 10
-5.807510325
 20
-13.5807023916
 10
-5.7793118781
 20
-13.6065547789
 10
-5.7492708864
 20
-13.6293439557
 10
-5.7168857406
 20
-13.6495339925
 10
-5.6820466855
 20
-13.6674268799
 10
-5.6448634764
 20
-13.6827206273
 10
-5.6051637699
 20
-13.6949733344
 10
-5.5621716291
 20
-13.7041433879
 10
-5.5166629909
 20
-13.710272401
 10
-5.470793324
 20
-13.7130433136
 10
-5.424337089
 20
-13.712288712
 10
-5.3775198253
 20
-13.7081760098
 10
-5.3331736191
 20
-13.7008903877
 10
-5.2923118557
 20
-13.6903803455
 10
-5.2539211498
 20
-13.6766973835
 10
-5.217793432
 20
-13.660181183
 10
-5.1840626194
 20
-13.6410639117
 10
-5.1525947948
 20
-13.619113402
 10
-5.1227801377
 20
-13.5939728323
 10
-5.0943933694
 20
-13.5656155134
 10
-5.0676597686
 20
-13.5340681346
 10
-5.0426453505
 20
-13.4990539416
 10
-5.0192080725
 20
-13.4603580903
 10
-4.9974899773
 20
-13.4181954249
 10
-4.9779832083
 20
-13.3729337237
 10
-4.9608558625
 20
-13.3245635296
 10
-4.9459398429
 20
-13.2730942997
 10
-4.9332230022
 20
-13.2189221835
 10
-4.9228019254
 20
-13.1620850623
 10
-4.9145800277
 20
-13.1025450548
 10
-4.908255407
 20
-13.0405846666
 10
-4.9037274296
 20
-12.9762980662
 10
-4.9010967293
 20
-12.909591085
 10
-4.9003633062
 20
-12.8404637232
  0
LINE
  5
4A1
100
AcDbEntity
  8
0
100
AcDbLine
 62
7
  6
CONTINUOUS
 10
-7.0
 20
53.5
 11
-7.0
 21
47.2
  0
LINE
  5
4A2
100
AcDbEntity
  8
0
100
AcDbLine
 62
7
  6
CONTINUOUS
 10
-7.0
 20
-53.5
 11
-7.0
 21
-47.2
  0
LINE
  5
4A3
100
AcDbEntity
  8
DRAFT
100
AcDbLine
 62
7
  6
CONTINUOUS
 10
-6.0
 20
1.5
 11
-6.0
 21
-1.5
  0
LINE
  5
4A4
100
AcDbEntity
  8
RACCORDO
100
AcDbLine
 62
7
  6
CONTINUOUS
 10
-5.9371426149
 20
-0.9542982275
 11
-5.9371426149
 21
0.9542982275
  0
LINE
  5
4A5
100
AcDbEntity
  8
0
100
AcDbLine
 62
7
  6
CONTINUOUS
 10
-5.5
 20
-46.6
 11
-5.5
 21
-53.5
  0
LINE
  5
4A6
100
AcDbEntity
  8
RACCORDO
100
AcDbLine
 62
7
  6
CONTINUOUS
 10
-4.9823085464
 20
-0.9542982275
 11
-4.9823085464
 21
0.9542982275
  0
LINE
  5
4A7
100
AcDbEntity
  8
0
100
AcDbLine
 62
7
  6
CONTINUOUS
 10
-4.5
 20
-54.0
 11
-4.5
 21
-43.7
  0
LINE
  5
4A8
100
AcDbEntity
  8
DRAFT
100
AcDbLine
 62
7
  6
CONTINUOUS
 10
-4.5
 20
-21.25
 11
-4.5
 21
-20.3810194482
  0
LINE
  5
4A9
100
AcDbEntity
  8
SMUSSO
100
AcDbLine
 62
7
  6
CONTINUOUS
 10
-4.5
 20
-20.3810194482
 11
-4.5
 21
-17.75
  0
LINE
  5
4AA
100
AcDbEntity
  8
DRAFT
100
AcDbLine
 62
7
  6
CONTINUOUS
 10
-4.5
 20
-1.5
 11
-4.5
 21
1.5
  0
LINE
  5
4AB
100
AcDbEntity
  8
RACCORDO
100
AcDbLine
 62
7
  6
CONTINUOUS
 10
-4.4
 20
-49.6000761524
 11
-4.4
 21
-43.7
  0
LINE
  5
4AC
100
AcDbEntity
  8
RACCORDO
100
AcDbLine
 62
7
  6
CONTINUOUS
 10
-4.4
 20
-21.25
 11
-4.4
 21
-16.7
  0
LINE
  5
4AD
100
AcDbEntity
  8
RACCORDO
100
AcDbLine
 62
7
  6
CONTINUOUS
 10
-4.3790539221
 20
-15.9
 11
-4.3790539221
 21
-16.4
  0
LINE
  5
4AE
100
AcDbEntity
  8
RACCORDO
100
AcDbLine
 62
7
  6
CONTINUOUS
 10
-4.3249432208
 20
-49.5250193732
 11
-4.3249432208
 21
-43.7
  0
LINE
  5
4AF
100
AcDbEntity
  8
RACCORDO
100
AcDbLine
 62
7
  6
CONTINUOUS
 10
-4.3249432208
 20
-21.25
 11
-4.3249432208
 21
-17.6
  0
LINE
  5
4B0
100
AcDbEntity
  8
DRAFT
100
AcDbLine
 62
7
  6
CONTINUOUS
 10
-4.3776508009
 20
-15.6
 11
-4.3790539221
 21
-15.9
  0
LWPOLYLINE
  5
4B1
100
AcDbEntity
  8
0
100
AcDbPolyline
 62
7
  6
CONTINUOUS
 90
37
 70
0
 10
-5.1067703433
 20
-12.841108755
 10
-5.1070415485
 20
-12.888853488
 10
-5.1081417972
 20
-12.9352242942
 10
-5.1100710894
 20
-12.9802211735
 10
-5.1128158785
 20
-13.023798834
 10
-5.1163897111
 20
-13.0660025677
 10
-5.1208332271
 20
-13.1069682498
 10
-5.1260837861
 20
-13.1468167987
 10
-5.1322040283
 20
-13.1854272961
 10
-5.1394225148
 20
-13.2225728627
 10
-5.1476775058
 20
-13.2584152679
 10
-5.1570307411
 20
-13.2927927423
 10
-5.1678960009
 20
-13.3249930993
 10
-5.1803347328
 20
-13.3547554409
 10
-5.1942854893
 20
-13.3823406651
 10
-5.2099777081
 20
-13.4078192798
 10
-5.2276791331
 20
-13.4313008351
 10
-5.2471220205
 20
-13.4526757808
 10
-5.2677325766
 20
-13.4716859748
 10
-5.2893423796
 20
-13.488255903
 10
-5.3121198513
 20
-13.5024610795
 10
-5.3359964638
 20
-13.5142699039
 10
-5.3610711885
 20
-13.5236710144
 10
-5.3872450539
 20
-13.5306757728
 10
-5.4141526175
 20
-13.5352866644
 10
-5.4421888392
 20
-13.5375055802
 10
-5.4709587592
 20
-13.5373306292
 10
-5.4989120555
 20
-13.5347586237
 10
-5.5255586712
 20
-13.5298122165
 10
-5.5513886634
 20
-13.5224687548
 10
-5.5763218807
 20
-13.5126570928
 10
-5.6002676089
 20
-13.5004378167
 10
-5.6233165623
 20
-13.4857503401
 10
-5.6456607329
 20
-13.4683417589
 10
-5.6673641178
 20
-13.4481277714
 10
-5.6883627199
 20
-13.4251926792
 10
-5.7086565391
 20
-13.3995364822
  0
LWPOLYLINE
  5
4B2
100
AcDbEntity
  8
0
100
AcDbPolyline
 62
7
  6
CONTINUOUS
 90
16
 70
0
 10
-6.417455029
 20
-12.8783587135
 10
-6.418329539
 20
-12.9350935431
 10
-6.4210434458
 20
-12.9897981966
 10
-6.4255967492
 20
-13.0424726739
 10
-6.4318780199
 20
-13.0932688808
 10
-6.4399986873
 20
-13.1420349115
 10
-6.45029304
 20
-13.1883150489
 10
-6.4629635679
 20
-13.2320636223
 10
-6.4778077812
 20
-13.2733263024
 10
-6.4945524982
 20
-13.3117843838
 10
-6.5133411116
 20
-13.3473709191
 10
-6.5340302288
 20
-13.3801528557
 10
-6.5559164895
 20
-13.4100123302
 10
-6.5787654404
 20
-13.4369100549
 10
-6.6028115349
 20
-13.4608853174
 10
-6.6280547731
 20
-13.4819381178
  0
LWPOLYLINE
  5
4B3
100
AcDbEntity
  8
0
100
AcDbPolyline
 62
7
  6
CONTINUOUS
 90
37
 70
0
 10
-6.4484160846
 20
-12.5518163871
 10
-6.4496455982
 20
-12.5877834767
 10
-6.4533616966
 20
-12.6220605353
 10
-6.4595643799
 20
-12.654647563
 10
-6.4682287317
 20
-12.6854165699
 10
-6.4793796684
 20
-12.7144955459
 10
-6.4930919389
 20
-12.7422684604
 10
-6.5096009406
 20
-12.7691228768
 10
-6.5286712761
 20
-12.7946712316
 10
-6.5496715024
 20
-12.8181348037
 10
-6.5726207762
 20
-12.8394259081
 10
-6.5974999408
 20
-12.8586322298
 10
-6.6236200823
 20
-12.8752381028
 10
-6.6507482405
 20
-12.8891037084
 10
-6.6791173755
 20
-12.9003688654
 10
-6.7087374537
 20
-12.908937364
 10
-6.7401890391
 20
-12.9147418862
 10
-6.7728915675
 20
-12.91784975
 10
-6.8051133127
 20
-12.9183666997
 10
-6.8366281681
 20
-12.9162692806
 10
-6.8676622403
 20
-12.9115809474
 10
-6.8971621218
 20
-12.9044778082
 10
-6.924722888
 20
-12.8950042627
 10
-6.9507494636
 20
-12.8831159111
 10
-6.9754032149
 20
-12.868855662
 10
-6.9988710012
 20
-12.8521932296
 10
-7.0209659631
 20
-12.8331588998
 10
-7.041288889
 20
-12.8118864384
 10
-7.0598373473
 20
-12.7884679168
 10
-7.0766137696
 20
-12.7628112636
 10
-7.0912262387
 20
-12.7347740307
 10
-7.1036705171
 20
-12.7041998439
 10
-7.1139508423
 20
-12.6712450773
 10
-7.1216880099
 20
-12.636236405
 10
-7.1267556183
 20
-12.5992827183
 10
-7.1292800691
 20
-12.560275126
 10
-7.1292613622
 20
-12.519213628
  0
LWPOLYLINE
  5
4B4
100
AcDbEntity
  8
0
100
AcDbPolyline
 62
7
  6
CONTINUOUS
 90
19
 70
0
 10
-8.3576811779
 20
-13.2723059215
 10
-8.3566805703
 20
-13.2443891387
 10
-8.3536711595
 20
-13.2180943252
 10
-8.3486529456
 20
-13.1934214812
 10
-8.34168817
 20
-13.170517175
 10
-8.3327145912
 20
-13.1492348382
 10
-8.3215454851
 20
-13.1291347659
 10
-8.3081755034
 20
-13.1101324132
 10
-8.2926099944
 20
-13.092312325
 10
-8.2746782794
 20
-13.0754884308
 10
-8.2542347992
 20
-13.0594045428
 10
-8.2314251129
 20
-13.0443168489
 10
-8.206515219
 20
-13.0308078415
 10
-8.1795311489
 20
-13.0189137638
 10
-8.1504468712
 20
-13.0085983726
 10
-8.1194502899
 20
-13.000335431
 10
-8.0866040397
 20
-12.9942828599
 10
-8.051845486
 20
-12.9902827383
 10
-8.0151746287
 20
-12.9883350663
  0
LWPOLYLINE
  5
4B5
100
AcDbEntity
  8
0
100
AcDbPolyline
 62
7
  6
CONTINUOUS
 90
37
 70
0
 10
-7.1292613622
 20
-12.519213628
 10
-7.1267794579
 20
-12.4799546417
 10
-7.1219604977
 20
-12.4427128372
 10
-7.1148044816
 20
-12.4074882146
 10
-7.1052381473
 20
-12.3742452998
 10
-7.0933347571
 20
-12.3430195669
 10
-7.0793140979
 20
-12.3139174378
 10
-7.0630330177
 20
-12.2869273776
 10
-7.0446346686
 20
-12.2620609213
 10
-7.0247682936
 20
-12.2394590955
 10
-7.0034623867
 20
-12.2190802759
 10
-6.9806884541
 20
-12.2009660869
 10
-6.9570102565
 20
-12.1853824289
 10
-6.9326426069
 20
-12.1724551099
 10
-6.9073706924
 20
-12.1620583218
 10
-6.8811138358
 20
-12.1540805405
 10
-6.8537020786
 20
-12.1484242079
 10
-6.8253053793
 20
-12.145186882
 10
-6.7963529362
 20
-12.1445497137
 10
-6.7664907125
 20
-12.1466160934
 10
-6.736072745
 20
-12.1512826307
 10
-6.7065903421
 20
-12.1584203047
 10
-6.6783518703
 20
-12.1680510765
 10
-6.6510489632
 20
-12.180152985
 10
-6.6252478287
 20
-12.1945311267
 10
-6.6011654182
 20
-12.2110122369
 10
-6.5785847803
 20
-12.2297695804
 10
-6.5574212704
 20
-12.2511280477
 10
-6.537528456
 20
-12.2752393836
 10
-6.5190527695
 20
-12.3019518435
 10
-6.5023488633
 20
-12.3311350843
 10
-6.487224808
 20
-12.3629695048
 10
-6.473872533
 20
-12.3972747062
 10
-6.4632224791
 20
-12.4333791491
 10
-6.4555847932
 20
-12.4710589869
 10
-6.4506493284
 20
-12.5105380663
 10
-6.4484160846
 20
-12.5518163871
  0
LINE
  5
4B6
100
AcDbEntity
  8
0
100
AcDbLine
 62
7
  6
CONTINUOUS
 10
-7.9811496719
 20
-12.9907537782
 11
-7.957283809
 21
-12.8049874448
  0
LWPOLYLINE
  5
4B7
100
AcDbEntity
  8
0
100
AcDbPolyline
 62
7
  6
CONTINUOUS
 90
34
 70
0
 10
-7.7694211221
 20
-13.2384422227
 10
-7.7760326264
 20
-13.2730533473
 10
-7.7843232057
 20
-13.305631467
 10
-7.79429286
 20
-13.336176582
 10
-7.8060216798
 20
-13.3647807326
 10
-7.8194295747
 20
-13.3913518784
 10
-7.8342762734
 20
-13.4156138981
 10
-7.8504323754
 20
-13.4373880237
 10
-7.8680272812
 20
-13.4568530232
 10
-7.8872089214
 20
-13.4742690786
 10
-7.908026817
 20
-13.4897558444
 10
-7.9304314469
 20
-13.5031936663
 10
-7.9544221791
 20
-13.5144837631
 10
-7.9802667312
 20
-13.5236691153
 10
-8.0076973856
 20
-13.5307067426
 10
-8.0359103574
 20
-13.535368923
 10
-8.065303268
 20
-13.5375384646
 10
-8.095478496
 20
-13.5373325593
 10
-8.1244393924
 20
-13.5348750621
 10
-8.151599908
 20
-13.5301679379
 10
-8.177546092
 20
-13.5232092218
 10
-8.2020394433
 20
-13.5141168736
 10
-8.2250625158
 20
-13.5028025895
 10
-8.2466327555
 20
-13.4893546734
 10
-8.2665639996
 20
-13.4741559972
 10
-8.2849510287
 20
-13.457175258
 10
-8.3016990621
 20
-13.4384437586
 10
-8.3163375946
 20
-13.4184382796
 10
-8.3287559791
 20
-13.3973288393
 10
-8.3390648626
 20
-13.3749454193
 10
-8.3471256807
 20
-13.351254745
 10
-8.3528922452
 20
-13.3262457249
 10
-8.3564107443
 20
-13.2999294504
 10
-8.3576811779
 20
-13.2723059215
  0
LWPOLYLINE
  5
4B8
100
AcDbEntity
  8
0
100
AcDbPolyline
 62
7
  6
CONTINUOUS
 90
3
 70
0
 10
-10.4464782272
 20
-12.3381457836
 10
-10.4363493077
 20
-12.3081018841
 10
-10.4165914519
 20
-12.2483334764
  0
LINE
  5
4B9
100
AcDbEntity
  8
0
100
AcDbLine
 62
7
  6
CONTINUOUS
 10
-10.4672828627
 20
-12.3985493329
 11
-10.4464782272
 21
-12.3381457836
  0
LINE
  5
4BA
100
AcDbEntity
  8
0
100
AcDbLine
 62
7
  6
CONTINUOUS
 10
-11.6395530681
 20
-12.0
 11
-11.8190304986
 21
-12.5160175928
  0
LINE
  5
4BB
100
AcDbEntity
  8
0
100
AcDbLine
 62
7
  6
CONTINUOUS
 10
-10.4970579133
 20
-12.0
 11
-10.999691253
 21
-13.4242085561
  0
LINE
  5
4BC
100
AcDbEntity
  8
0
100
AcDbLine
 62
7
  6
CONTINUOUS
 10
-10.5101196505
 20
-12.5206940736
 11
-10.4672828627
 21
-12.3985493329
  0
LINE
  5
4BD
100
AcDbEntity
  8
0
100
AcDbLine
 62
7
  6
CONTINUOUS
 10
-10.931318981
 20
-13.7028580562
 11
-10.5101196505
 21
-12.5206940736
  0
LINE
  5
4BE
100
AcDbEntity
  8
0
100
AcDbLine
 62
7
  6
CONTINUOUS
 10
-11.883693995
 20
-12.7017839262
 11
-12.0676864909
 21
-13.1989346528
  0
LINE
  5
4BF
100
AcDbEntity
  8
0
100
AcDbLine
 62
7
  6
CONTINUOUS
 10
-12.0472070451
 20
-13.7028580562
 11
-11.3999275215
 21
-12.0
  0
LWPOLYLINE
  5
4C0
100
AcDbEntity
  8
0
100
AcDbPolyline
 62
7
  6
CONTINUOUS
 90
10
 70
0
 10
-12.0676864909
 20
-13.1989346528
 10
-12.0818842436
 20
-13.2339753804
 10
-12.0954171626
 20
-13.2694138826
 10
-12.1082852478
 20
-13.3052501593
 10
-12.1205063135
 20
-13.3415289888
 10
-12.1320625455
 20
-13.3782055927
 10
-12.1429005011
 20
-13.4151456368
 10
-12.1530023662
 20
-13.4523043427
 10
-12.162385955
 20
-13.4897264887
 10
-12.1710512674
 20
-13.5274120747
  0
LINE
  5
4C1
100
AcDbEntity
  8
0
100
AcDbLine
 62
7
  6
CONTINUOUS
 10
-15.193592
 20
-3.95746
 11
-15.04254
 21
-3.806408
  0
LINE
  5
4C2
100
AcDbEntity
  8
0
100
AcDbLine
 62
7
  6
CONTINUOUS
 10
-21.5780519053
 20
-13.1829704299
 11
-21.8050996461
 21
-13.235217221
  0
LINE
  5
4C3
100
AcDbEntity
  8
0
100
AcDbLine
 62
7
  6
CONTINUOUS
 10
-20.961282
 20
-4.04438
 11
-19.51936
 21
-4.04438
  0
LINE
  5
4C4
100
AcDbEntity
  8
0
100
AcDbLine
 62
7
  6
CONTINUOUS
 10
-19.626168
 20
-3.93757
 11
-20.854472
 21
-3.93757
  0
LINE
  5
4C5
100
AcDbEntity
  8
0
100
AcDbLine
 62
7
  6
CONTINUOUS
 10
-18.397864
 20
-3.884166
 11
-17.863818
 21
-3.884166
  0
LWPOLYLINE
  5
4C6
100
AcDbEntity
  8
0
100
AcDbPolyline
 62
7
  6
CONTINUOUS
 90
16
 70
0
 10
24.0557219871
 20
-13.004944321
 10
24.0835127056
 20
-13.0116089561
 10
24.1105072612
 20
-13.018386989
 10
24.1367056539
 20
-13.0252784195
 10
24.1620662678
 20
-13.0322768552
 10
24.1866307187
 20
-13.0393886886
 10
24.210523854
 20
-13.0466330977
 10
24.2338325614
 20
-13.0539551817
 10
24.2564699532
 20
-13.0614098414
 10
24.278300213
 20
-13.0691809575
 10
24.2994945589
 20
-13.0771565834
 10
24.3198817729
 20
-13.0854486657
 10
24.3388123844
 20
-13.0945769245
 10
24.3560699032
 20
-13.1047145997
 10
24.3718708195
 20
-13.1156884514
 10
24.3862151334
 20
-13.1274984796
  0
LWPOLYLINE
  5
4C7
100
AcDbEntity
  8
0
100
AcDbPolyline
 62
7
  6
CONTINUOUS
 90
3
 70
0
 10
24.1071624884
 20
-12.783459901
 10
24.0368799409
 20
-12.7656242828
 10
23.9357883902
 20
-12.739636467
  0
LWPOLYLINE
  5
4C8
100
AcDbEntity
  8
0
100
AcDbPolyline
 62
7
  6
CONTINUOUS
 90
5
 70
0
 10
23.9357883902
 20
-12.739636467
 10
23.9035229898
 20
-12.730569893
 10
23.8722039065
 20
-12.7207945584
 10
23.841744731
 20
-12.7105005041
 10
23.812145463
 20
-12.6996877302
  0
LWPOLYLINE
  5
4C9
100
AcDbEntity
  8
0
100
AcDbPolyline
 62
7
  6
CONTINUOUS
 90
34
 70
0
 10
22.2258751784
 20
-13.4916134378
 10
22.2032915545
 20
-13.4839429885
 10
22.1814588156
 20
-13.4738239521
 10
22.1603769616
 20
-13.4612563285
 10
22.139651933
 20
-13.4460219836
 10
22.1196777894
 20
-13.4283390516
 10
22.1016367094
 20
-13.4088619349
 10
22.0858438741
 20
-13.3878487092
 10
22.0719841024
 20
-13.3650412989
 10
22.06029403
 20
-13.3403198787
 10
22.0507679216
 20
-13.3133946445
 10
22.0434115124
 20
-13.2845554005
 10
22.0384786436
 20
-13.2545517342
 10
22.0360692788
 20
-13.2228633213
 10
22.0360834544
 20
-13.1900104862
 10
22.0384751201
 20
-13.158303789
 10
22.0433513992
 20
-13.1281854393
 10
22.0506051685
 20
-13.0992132276
 10
22.0598690083
 20
-13.0723710864
 10
22.0711228994
 20
-13.0480251218
 10
22.0843868611
 20
-13.0258092277
 10
22.0993535308
 20
-13.0056090185
 10
22.1157276536
 20
-12.9875321888
 10
22.1338044845
 20
-12.9714710439
 10
22.1541624265
 20
-12.9569881147
 10
22.1771576878
 20
-12.9439037983
 10
22.2024340603
 20
-12.9323976976
 10
22.2295013217
 20
-12.9225711512
 10
22.2583319389
 20
-12.9145029234
 10
22.2889534451
 20
-12.90811425
 10
22.3209582173
 20
-12.9032701775
 10
22.3542103811
 20
-12.8999257213
 10
22.388845811
 20
-12.8981258659
 10
22.4248645069
 20
-12.8978706115
  0
LINE
  5
4CA
100
AcDbEntity
  8
0
100
AcDbLine
 62
7
  6
CONTINUOUS
 10
-15.04254
 20
5.806408
 11
-15.193592
 21
5.95746
  0
LWPOLYLINE
  5
4CB
100
AcDbEntity
  8
0
100
AcDbPolyline
 62
7
  6
CONTINUOUS
 90
14
 70
0
 10
-3.3667178992
 20
-12.5855120822
 10
-3.3588553795
 20
-12.6260098893
 10
-3.3480079769
 20
-12.6631206435
 10
-3.3341308221
 20
-12.697627688
 10
-3.3175068384
 20
-12.7299099131
 10
-3.2983051851
 20
-12.7599989896
 10
-3.2763567028
 20
-12.7878632467
 10
-3.2514368368
 20
-12.8137865624
 10
-3.2232168221
 20
-12.838107699
 10
-3.1920254237
 20
-12.8604878942
 10
-3.1586243814
 20
-12.8801947392
 10
-3.1232676085
 20
-12.8969840977
 10
-3.0857011919
 20
-12.911100106
 10
-3.0459251313
 20
-12.9225427641
  0
LWPOLYLINE
  5
4CC
100
AcDbEntity
  8
0
100
AcDbPolyline
 62
7
  6
CONTINUOUS
 90
29
 70
0
 10
-4.6858206514
 20
-12.6606625738
 10
-4.6764669443
 20
-12.7094355341
 10
-4.6639292801
 20
-12.7545041649
 10
-4.6480379139
 20
-12.7967679402
 10
-4.6288019225
 20
-12.8369394775
 10
-4.6059898439
 20
-12.8754261456
 10
-4.5798331399
 20
-12.9118205756
 10
-4.5510352732
 20
-12.9456132782
 10
-4.5193599902
 20
-12.9769936405
 10
-4.4850435444
 20
-13.0057722753
 10
-4.4494981585
 20
-13.0308715316
 10
-4.4132448005
 20
-13.0518630781
 10
-4.3757625024
 20
-13.069175246
 10
-4.3369005832
 20
-13.0830153783
 10
-4.2963540044
 20
-13.0934962172
 10
-4.2544278044
 20
-13.1005050205
 10
-4.211886418
 20
-13.1039109052
 10
-4.1682729147
 20
-13.103585335
 10
-4.124044225
 20
-13.0996568463
 10
-4.0813355744
 20
-13.0923801645
 10
-4.0408279083
 20
-13.0818202889
 10
-4.0018402814
 20
-13.0679122203
 10
-3.9644650839
 20
-13.050715687
 10
-3.9286892141
 20
-13.0302594676
 10
-3.8945257738
 20
-13.0065147836
 10
-3.8621064581
 20
-12.979455027
 10
-3.8314751654
 20
-12.9490713284
 10
-3.8025879973
 20
-12.9153725572
 10
-3.7754449539
 20
-12.8783587135
  0
LWPOLYLINE
  5
4CD
100
AcDbEntity
  8
0
100
AcDbPolyline
 62
7
  6
CONTINUOUS
 90
40
 70
0
 10
-3.5891964927
 20
-12.5183006691
 10
-3.6000838463
 20
-12.4605060215
 10
-3.6134286443
 20
-12.40551642
 10
-3.6292423205
 20
-12.353497468
 10
-3.6477581782
 20
-12.3048816413
 10
-3.6690716617
 20
-12.2599079714
 10
-3.6930873267
 20
-12.2183374268
 10
-3.7197521427
 20
-12.1798853879
 10
-3.7492163504
 20
-12.144463277
 10
-3.781329709
 20
-12.1121596718
 10
-3.8155884661
 20
-12.0829556864
 10
-3.8518636454
 20
-12.0567235936
 10
-3.8902842231
 20
-12.0335911206
 10
-3.9307333756
 20
-12.0139225634
 10
-3.973365255
 20
-11.997776483
 10
-4.0180257092
 20
-11.9850943183
 10
-4.0641354578
 20
-11.9760646816
 10
-4.112482175
 20
-11.970744915
 10
-4.1622781867
 20
-11.9690776764
 10
-4.2105811897
 20
-11.9710795524
 10
-4.2566457124
 20
-11.9768888663
 10
-4.3012172266
 20
-11.9863672947
 10
-4.3435898437
 20
-11.9991164545
 10
-4.3835167697
 20
-12.015107487
 10
-4.4212447988
 20
-12.0343692509
 10
-4.4568084244
 20
-12.0565899389
 10
-4.4902136177
 20
-12.0815789614
 10
-4.5214544075
 20
-12.1095269081
 10
-4.5505473746
 20
-12.1406937411
 10
-4.577625891
 20
-12.1751380582
 10
-4.6025565845
 20
-12.2128012617
 10
-4.6249559198
 20
-12.2537675199
 10
-4.6451211514
 20
-12.298524506
 10
-4.6627550247
 20
-12.3465845468
 10
-4.676582241
 20
-12.396568791
 10
-4.6861994859
 20
-12.4489320392
 10
-4.6920100738
 20
-12.5032194908
 10
-4.6939486491
 20
-12.5566878914
 10
-4.6918206565
 20
-12.6090847581
 10
-4.6858206514
 20
-12.6606625738
  0
LWPOLYLINE
  5
4CE
100
AcDbEntity
  8
0
100
AcDbPolyline
 62
7
  6
CONTINUOUS
 90
45
 70
0
 10
-4.6629952135
 20
-13.290043982
 10
-4.6549991333
 20
-13.3376503321
 10
-4.6441311936
 20
-13.3823552923
 10
-4.6303913943
 20
-13.4241588625
 10
-4.6136255563
 20
-13.4630226338
 10
-4.5939878586
 20
-13.4989850152
 10
-4.5719408394
 20
-13.5321612339
 10
-4.5475697493
 20
-13.5625551187
 10
-4.5207893375
 20
-13.5901628408
 10
-4.4918063892
 20
-13.6150881407
 10
-4.4606997457
 20
-13.6374311448
 10
-4.4273905657
 20
-13.6570917267
 10
-4.3918491103
 20
-13.6738732474
 10
-4.3541463454
 20
-13.6877950686
 10
-4.314211305
 20
-13.6988378286
 10
-4.2718013519
 20
-13.7067468035
 10
-4.2259243566
 20
-13.7115665531
 10
-4.1775724486
 20
-13.7132525176
 10
-4.1294793798
 20
-13.7114162927
 10
-4.0818201789
 20
-13.7058617992
 10
-4.0344198172
 20
-13.6967851165
 10
-3.9894869602
 20
-13.684386078
 10
-3.9479635371
 20
-13.6687558725
 10
-3.9089076187
 20
-13.6498033114
 10
-3.8717020826
 20
-13.6274546625
 10
-3.8361458618
 20
-13.6018685279
 10
-3.8024400233
 20
-13.5728863056
 10
-3.7705706456
 20
-13.5399584579
 10
-3.740327251
 20
-13.5029257682
 10
-3.7119203172
 20
-13.4619474532
 10
-3.6859673557
 20
-13.4169516259
 10
-3.6625952164
 20
-13.3677099095
 10
-3.6416770495
 20
-13.3144506809
 10
-3.6234498169
 20
-13.2577871836
 10
-3.6080468052
 20
-13.1977387103
 10
-3.5953347278
 20
-13.1342859684
 10
-3.5851506868
 20
-13.0679843226
 10
-3.5775211236
 20
-12.9978556336
 10
-3.5724195968
 20
-12.9248780408
 10
-3.5696038851
 20
-12.8525413275
 10
-3.5689985607
 20
-12.7812107198
 10
-3.5706790514
 20
-12.7105209916
 10
-3.5746294191
 20
-12.6428662472
 10
-3.5807780174
 20
-12.5790659663
 10
-3.5891964927
 20
-12.5183006691
  0
LWPOLYLINE
  5
4CF
100
AcDbEntity
  8
0
100
AcDbPolyline
 62
7
  6
CONTINUOUS
 90
39
 70
0
 10
-2.2583532311
 20
-12.4437751298
 10
-2.2654706712
 20
-12.3944009428
 10
-2.2758599989
 20
-12.3477001866
 10
-2.2895212142
 20
-12.3036728613
 10
-2.3065040908
 20
-12.2624806553
 10
-2.3267588551
 20
-12.2239618802
 10
-2.3501361859
 20
-12.1876314703
 10
-2.3768430333
 20
-12.1530974704
 10
-2.4066724473
 20
-12.1207518357
 10
-2.4388542568
 20
-12.0912853666
 10
-2.4731927416
 20
-12.0648026551
 10
-2.509883622
 20
-12.0411991093
 10
-2.5487438884
 20
-12.0208517535
 10
-2.5895091078
 20
-12.00381856
 10
-2.6324437131
 20
-11.9900415566
 10
-2.678157993
 20
-11.9797238506
 10
-2.7278258063
 20
-11.9728060752
 10
-2.7802732942
 20
-11.9693475974
 10
-2.8325891682
 20
-11.9697296253
 10
-2.8846740411
 20
-11.9741863747
 10
-2.9366273001
 20
-11.9824836298
 10
-2.9858358184
 20
-11.9942999515
 10
-3.0312001048
 20
-12.0095451347
 10
-3.0738196505
 20
-12.0283093844
 10
-3.1143798024
 20
-12.0505418768
 10
-3.1534335403
 20
-12.0766158455
 10
-3.1904278844
 20
-12.1061580568
 10
-3.2243892417
 20
-12.1379979865
 10
-3.2552347886
 20
-12.172089855
 10
-3.2830473487
 20
-12.2084794418
 10
-3.3071017998
 20
-12.2461335611
 10
-3.3270868724
 20
-12.2846289512
 10
-3.343313836
 20
-12.3243888737
 10
-3.355991377
 20
-12.3656499277
 10
-3.3651550112
 20
-12.4092022136
 10
-3.3707692227
 20
-12.4542556311
 10
-3.3729361514
 20
-12.4986764776
 10
-3.3715506667
 20
-12.5424105654
 10
-3.3667178992
 20
-12.5855120822
  0
LINE
  5
4D0
100
AcDbEntity
  8
0
100
AcDbLine
 62
7
  6
CONTINUOUS
 10
-3.65
 20
-43.7
 11
-3.65
 21
-21.25
  0
LINE
  5
4D1
100
AcDbEntity
  8
DRAFT
100
AcDbLine
 62
7
  6
CONTINUOUS
 10
-3.3110927272
 20
-19.3
 11
-3.3110927272
 21
-29.388662933
  0
LINE
  5
4D2
100
AcDbEntity
  8
DRAFT
100
AcDbLine
 62
7
  6
CONTINUOUS
 10
-3.3110927272
 20
-34.011337067
 11
-3.3110927272
 21
-48.6
  0
LINE
  5
4D3
100
AcDbEntity
  8
DRAFT
100
AcDbLine
 62
7
  6
CONTINUOUS
 10
-3.2622185454
 20
-46.4
 11
-3.2622185454
 21
-41.6
  0
LINE
  5
4D4
100
AcDbEntity
  8
DRAFT
100
AcDbLine
 62
7
  6
CONTINUOUS
 10
-3.25
 20
-29.40503268
 11
-3.25
 21
-33.99496732
  0
LINE
  5
4D5
100
AcDbEntity
  8
DRAFT
100
AcDbLine
 62
7
  6
CONTINUOUS
 10
-3.2360359481
 20
-19.3
 11
-3.2360359481
 21
-41.6
  0
LINE
  5
4D6
100
AcDbEntity
  8
DRAFT
100
AcDbLine
 62
7
  6
CONTINUOUS
 10
-3.2360359481
 20
-46.4
 11
-3.2360359481
 21
-48.6
  0
LINE
  5
4D7
100
AcDbEntity
  8
0
100
AcDbLine
 62
7
  6
CONTINUOUS
 10
-3.15
 20
-21.25
 11
-3.15
 21
-41.6
  0
LINE
  5
4D8
100
AcDbEntity
  8
DRAFT
100
AcDbLine
 62
7
  6
CONTINUOUS
 10
-2.5
 20
18.0176397269
 11
-2.5
 21
15.95
  0
LINE
  5
4D9
100
AcDbEntity
  8
0
100
AcDbLine
 62
7
  6
CONTINUOUS
 10
-1.3914436752
 20
-12.4024937224
 11
-1.3914436752
 21
-12.5985804076
  0
LINE
  5
4DA
100
AcDbEntity
  8
0
100
AcDbLine
 62
7
  6
CONTINUOUS
 10
-1.1643959344
 20
-12.0
 11
-1.1643959344
 21
-12.4024937224
  0
LINE
  5
4DB
100
AcDbEntity
  8
0
100
AcDbLine
 62
7
  6
CONTINUOUS
 10
-1.1643959344
 20
-12.5985804076
 11
-1.1643959344
 21
-13.7028580562
  0
LINE
  5
4DC
100
AcDbEntity
  8
0
100
AcDbLine
 62
7
  6
CONTINUOUS
 10
-0.9579888973
 20
-13.3584164115
 11
-0.9579888973
 21
-12.5985804076
  0
LINE
  5
4DD
100
AcDbEntity
  8
0
100
AcDbLine
 62
7
  6
CONTINUOUS
 10
-0.9579888973
 20
-12.4024937224
 11
-0.9579888973
 21
-12.0
  0
LINE
  5
4DE
100
AcDbEntity
  8
DRAFT
100
AcDbLine
 62
7
  6
CONTINUOUS
 10
-0.75
 20
15.95
 11
-0.75
 21
18.0176397269
  0
LINE
  5
4DF
100
AcDbEntity
  8
0
100
AcDbLine
 62
7
  6
CONTINUOUS
 10
-0.2046032118
 20
-12.5985804076
 11
-0.2046032118
 21
-12.4024937224
  0
LINE
  5
4E0
100
AcDbEntity
  8
0
100
AcDbLine
 62
7
  6
CONTINUOUS
 10
0.2598126217
 20
-12.0
 11
0.2598126217
 21
-13.7131784081
  0
LINE
  5
4E1
100
AcDbEntity
  8
0
100
AcDbLine
 62
7
  6
CONTINUOUS
 10
0.4662196588
 20
-13.3348730645
 11
0.4662196588
 21
-12.0
  0
LWPOLYLINE
  5
4E2
100
AcDbEntity
  8
0
100
AcDbPolyline
 62
7
  6
CONTINUOUS
 90
16
 70
0
 10
-3.7754449539
 20
-12.8783587135
 10
-3.7763194639
 20
-12.9350935431
 10
-3.7790333707
 20
-12.9897981966
 10
-3.7835866741
 20
-13.0424726739
 10
-3.7898679448
 20
-13.0932688808
 10
-3.7979886122
 20
-13.1420349115
 10
-3.8082829648
 20
-13.1883150489
 10
-3.8209534928
 20
-13.2320636223
 10
-3.8357977061
 20
-13.2733263024
 10
-3.8525424231
 20
-13.3117843838
 10
-3.8713310365
 20
-13.3473709191
 10
-3.8920201537
 20
-13.3801528557
 10
-3.9139064144
 20
-13.4100123302
 10
-3.9367553653
 20
-13.4369100549
 10
-3.9608014598
 20
-13.4608853174
 10
-3.986044698
 20
-13.4819381178
  0
LWPOLYLINE
  5
4E3
100
AcDbEntity
  8
0
100
AcDbPolyline
 62
7
  6
CONTINUOUS
 90
37
 70
0
 10
-3.8064060095
 20
-12.5518163871
 10
-3.8076355231
 20
-12.5877834767
 10
-3.8113516215
 20
-12.6220605353
 10
-3.8175543048
 20
-12.654647563
 10
-3.8262186566
 20
-12.6854165699
 10
-3.8373695933
 20
-12.7144955459
 10
-3.8510818638
 20
-12.7422684604
 10
-3.8675908655
 20
-12.7691228768
 10
-3.886661201
 20
-12.7946712316
 10
-3.9076614273
 20
-12.8181348037
 10
-3.9306107011
 20
-12.8394259081
 10
-3.9554898657
 20
-12.8586322298
 10
-3.9816100072
 20
-12.8752381028
 10
-4.0087381654
 20
-12.8891037084
 10
-4.0371073004
 20
-12.9003688654
 10
-4.0667273786
 20
-12.908937364
 10
-4.098178964
 20
-12.9147418862
 10
-4.1308814924
 20
-12.91784975
 10
-4.1631032376
 20
-12.9183666997
 10
-4.194618093
 20
-12.9162692806
 10
-4.2256521652
 20
-12.9115809474
 10
-4.2551520467
 20
-12.9044778082
 10
-4.2827128129
 20
-12.8950042627
 10
-4.3087393885
 20
-12.8831159111
 10
-4.3333931398
 20
-12.868855662
 10
-4.3568609261
 20
-12.8521932296
 10
-4.378955888
 20
-12.8331588998
 10
-4.3992788139
 20
-12.8118864384
 10
-4.4178272722
 20
-12.7884679168
 10
-4.4346036945
 20
-12.7628112636
 10
-4.4492161636
 20
-12.7347740307
 10
-4.461660442
 20
-12.7041998439
 10
-4.4719407672
 20
-12.6712450773
 10
-4.4796779348
 20
-12.636236405
 10
-4.4847455432
 20
-12.5992827183
 10
-4.487269994
 20
-12.560275126
 10
-4.4872512871
 20
-12.519213628
  0
LWPOLYLINE
  5
4E4
100
AcDbEntity
  8
0
100
AcDbPolyline
 62
7
  6
CONTINUOUS
 90
19
 70
0
 10
-3.0736610277
 20
-13.2723059215
 10
-3.0726604201
 20
-13.2443891387
 10
-3.0696510093
 20
-13.2180943252
 10
-3.0646327954
 20
-13.1934214812
 10
-3.0576680198
 20
-13.170517175
 10
-3.048694441
 20
-13.1492348382
 10
-3.0375253349
 20
-13.1291347659
 10
-3.0241553532
 20
-13.1101324132
 10
-3.0085898442
 20
-13.092312325
 10
-2.9906581292
 20
-13.0754884308
 10
-2.970214649
 20
-13.0594045428
 10
-2.9474049627
 20
-13.0443168489
 10
-2.9224950688
 20
-13.0308078415
 10
-2.8955109987
 20
-13.0189137638
 10
-2.866426721
 20
-13.0085983726
 10
-2.8354301397
 20
-13.000335431
 10
-2.8025838895
 20
-12.9942828599
 10
-2.7678253358
 20
-12.9902827383
 10
-2.7311544785
 20
-12.9883350663
  0
LWPOLYLINE
  5
4E5
100
AcDbEntity
  8
0
100
AcDbPolyline
 62
7
  6
CONTINUOUS
 90
37
 70
0
 10
-4.4872512871
 20
-12.519213628
 10
-4.4847693828
 20
-12.4799546417
 10
-4.4799504226
 20
-12.4427128372
 10
-4.4727944065
 20
-12.4074882146
 10
-4.4632280722
 20
-12.3742452998
 10
-4.451324682
 20
-12.3430195669
 10
-4.4373040228
 20
-12.3139174378
 10
-4.4210229426
 20
-12.2869273776
 10
-4.4026245935
 20
-12.2620609213
 10
-4.3827582185
 20
-12.2394590955
 10
-4.3614523116
 20
-12.2190802759
 10
-4.338678379
 20
-12.2009660869
 10
-4.3150001814
 20
-12.1853824289
 10
-4.2906325318
 20
-12.1724551099
 10
-4.2653606173
 20
-12.1620583218
 10
-4.2391037607
 20
-12.1540805405
 10
-4.2116920035
 20
-12.1484242079
 10
-4.1832953042
 20
-12.145186882
 10
-4.1543428611
 20
-12.1445497137
 10
-4.1244806374
 20
-12.1466160934
 10
-4.0940626699
 20
-12.1512826307
 10
-4.064580267
 20
-12.1584203047
 10
-4.0363417952
 20
-12.1680510765
 10
-4.0090388881
 20
-12.180152985
 10
-3.9832377536
 20
-12.1945311267
 10
-3.9591553431
 20
-12.2110122369
 10
-3.9365747052
 20
-12.2297695804
 10
-3.9154111953
 20
-12.2511280477
 10
-3.8955183809
 20
-12.2752393836
 10
-3.8770426944
 20
-12.3019518435
 10
-3.8603387882
 20
-12.3311350843
 10
-3.8452147329
 20
-12.3629695048
 10
-3.8318624579
 20
-12.3972747062
 10
-3.821212404
 20
-12.4333791491
 10
-3.8135747181
 20
-12.4710589869
 10
-3.8086392533
 20
-12.5105380663
 10
-3.8064060095
 20
-12.5518163871
  0
LINE
  5
4E6
100
AcDbEntity
  8
0
100
AcDbLine
 62
7
  6
CONTINUOUS
 10
-2.6971295217
 20
-12.9907537782
 11
-2.6732636588
 21
-12.8049874448
  0
LWPOLYLINE
  5
4E7
100
AcDbEntity
  8
0
100
AcDbPolyline
 62
7
  6
CONTINUOUS
 90
34
 70
0
 10
-2.4854009719
 20
-13.2384422227
 10
-2.4920124762
 20
-13.2730533473
 10
-2.5003030555
 20
-13.305631467
 10
-2.5102727098
 20
-13.336176582
 10
-2.5220015296
 20
-13.3647807326
 10
-2.5354094245
 20
-13.3913518784
 10
-2.5502561232
 20
-13.4156138981
 10
-2.5664122252
 20
-13.4373880237
 10
-2.584007131
 20
-13.4568530232
 10
-2.6031887712
 20
-13.4742690786
 10
-2.6240066668
 20
-13.4897558444
 10
-2.6464112967
 20
-13.5031936663
 10
-2.6704020289
 20
-13.5144837631
 10
-2.696246581
 20
-13.5236691153
 10
-2.7236772354
 20
-13.5307067426
 10
-2.7518902072
 20
-13.535368923
 10
-2.7812831178
 20
-13.5375384646
 10
-2.8114583457
 20
-13.5373325593
 10
-2.8404192422
 20
-13.5348750621
 10
-2.8675797578
 20
-13.5301679379
 10
-2.8935259418
 20
-13.5232092218
 10
-2.9180192931
 20
-13.5141168736
 10
-2.9410423656
 20
-13.5028025895
 10
-2.9626126053
 20
-13.4893546734
 10
-2.9825438493
 20
-13.4741559972
 10
-3.0009308785
 20
-13.457175258
 10
-3.0176789119
 20
-13.4384437586
 10
-3.0323174444
 20
-13.4184382796
 10
-3.0447358289
 20
-13.3973288393
 10
-3.0550447124
 20
-13.3749454193
 10
-3.0631055305
 20
-13.351254745
 10
-3.068872095
 20
-13.3262457249
 10
-3.0723905941
 20
-13.2999294504
 10
-3.0736610277
 20
-13.2723059215
  0
LINE
  5
4E8
100
AcDbEntity
  8
RACCORDO
100
AcDbLine
 62
7
  6
CONTINUOUS
 10
-6.0
 20
-1.5
 11
-5.953993641
 21
-1.453993641
  0
LWPOLYLINE
  5
4E9
100
AcDbEntity
  8
0
100
AcDbPolyline
 62
7
  6
CONTINUOUS
 90
42
 70
0
 10
-15.2078147616
 20
-13.3736549736
 10
-15.2466692044
 20
-13.4075182621
 10
-15.2868537276
 20
-13.4374378654
 10
-15.3283683311
 20
-13.4634137836
 10
-15.3711161181
 20
-13.4854020142
 10
-15.4151939855
 20
-13.5034465597
 10
-15.4608926239
 20
-13.5176794272
 10
-15.5088225468
 20
-13.5281639581
 10
-15.5583732406
 20
-13.5348368109
 10
-15.6080038551
 20
-13.5376399682
 10
-15.6578735908
 20
-13.5364947069
 10
-15.7078232472
 20
-13.53147975
 10
-15.7558343723
 20
-13.5227732487
 10
-15.8012829929
 20
-13.5102927194
 10
-15.8447930823
 20
-13.4941206458
 10
-15.8862181077
 20
-13.47468263
 10
-15.9256532474
 20
-13.4520280089
 10
-15.9630033231
 20
-13.4261074457
 10
-15.9978362674
 20
-13.3971985309
 10
-16.0300188273
 20
-13.3655240524
 10
-16.0596842557
 20
-13.3308612224
 10
-16.0868002445
 20
-13.2928192685
 10
-16.111485546
 20
-13.2513674305
 10
-16.1336214079
 20
-13.2065364686
 10
-16.1528192654
 20
-13.1580278911
 10
-16.1691480293
 20
-13.10534563
 10
-16.1825387887
 20
-13.0489857534
 10
-16.1923962465
 20
-12.9901379729
 10
-16.1984947699
 20
-12.9279650059
 10
-16.2010599917
 20
-12.863304135
 10
-16.2001735118
 20
-12.7998569203
 10
-16.1958110927
 20
-12.7381554791
 10
-16.1879969721
 20
-12.677667694
 10
-16.176885463
 20
-12.6204987725
 10
-16.1624299074
 20
-12.5673270738
 10
-16.1446769634
 20
-12.5174742386
 10
-16.123920919
 20
-12.4710103972
 10
-16.1000955863
 20
-12.4280688385
 10
-16.0732671531
 20
-12.3885162735
 10
-16.0439284713
 20
-12.3520229656
 10
-16.0120392005
 20
-12.3183933394
 10
-15.9776396811
 20
-12.2878229703
  0
LWPOLYLINE
  5
4EA
100
AcDbEntity
  8
0
100
AcDbPolyline
 62
7
  6
CONTINUOUS
 90
29
 70
0
 10
-15.9776396811
 20
-12.2878229703
 10
-15.9413437853
 20
-12.2605688476
 10
-15.9034453287
 20
-12.2366788614
 10
-15.8636504957
 20
-12.2161051217
 10
-15.8216917125
 20
-12.1989609466
 10
-15.7771991103
 20
-12.185200643
 10
-15.7305425577
 20
-12.1748699042
 10
-15.6825640875
 20
-12.168219128
 10
-15.6325675238
 20
-12.165323545
 10
-15.5812490423
 20
-12.1661079246
 10
-15.5315392031
 20
-12.1705969724
 10
-15.4842974613
 20
-12.178850002
 10
-15.4386643617
 20
-12.1908076997
 10
-15.3949920985
 20
-12.2063168298
 10
-15.3533925251
 20
-12.2254005994
 10
-15.313753788
 20
-12.2480358013
 10
-15.2760925212
 20
-12.2739995784
 10
-15.240125277
 20
-12.3034343298
 10
-15.2061355032
 20
-12.3361976565
 10
-15.1749901773
 20
-12.3716395039
 10
-15.1469037628
 20
-12.4093473789
 10
-15.1216617964
 20
-12.4497337746
 10
-15.0994878653
 20
-12.4933861154
 10
-15.080322105
 20
-12.5404672167
 10
-15.06422438
 20
-12.5908142632
 10
-15.0515978718
 20
-12.6445262334
 10
-15.042576974
 20
-12.70163612
 10
-15.037027293
 20
-12.7621109304
 10
-15.0349488287
 20
-12.8259506644
  0
LINE
  5
4EB
100
AcDbEntity
  8
RACCORDO
100
AcDbLine
 62
7
  6
CONTINUOUS
 10
4.5
 20
-1.5
 11
4.8530095961
 21
-1.453993641
  0
LINE
  5
4EC
100
AcDbEntity
  8
0
100
AcDbLine
 62
7
  6
CONTINUOUS
 10
-17.970628
 20
-3.777356
 11
-18.291054
 21
-3.777356
  0
LINE
  5
4ED
100
AcDbEntity
  8
0
100
AcDbLine
 62
7
  6
CONTINUOUS
 10
-20.854472
 20
-3.510334
 11
-19.626168
 21
-3.510334
  0
LINE
  5
4EE
100
AcDbEntity
  8
0
100
AcDbLine
 62
7
  6
CONTINUOUS
 10
-19.51936
 20
-3.403526
 11
-20.961282
 21
-3.403526
  0
LINE
  5
4EF
100
AcDbEntity
  8
0
100
AcDbLine
 62
7
  6
CONTINUOUS
 10
-18.291054
 20
-3.083098
 11
-17.970628
 21
-3.083098
  0
LINE
  5
4F0
100
AcDbEntity
  8
0
100
AcDbLine
 62
7
  6
CONTINUOUS
 10
-21.9345818306
 20
-2.976288
 11
-18.397864
 21
-2.976288
  0
LINE
  5
4F1
100
AcDbEntity
  8
0
100
AcDbLine
 62
7
  6
CONTINUOUS
 10
-17.863818
 20
-2.976288
 11
-17.689946
 21
-2.976288
  0
LINE
  5
4F2
100
AcDbEntity
  8
0
100
AcDbLine
 62
7
  6
CONTINUOUS
 10
-17.582728
 20
-2.976288
 11
-16.742324
 21
-2.976288
  0
LINE
  5
4F3
100
AcDbEntity
  8
0
100
AcDbLine
 62
7
  6
CONTINUOUS
 10
-16.742324
 20
-2.549052
 11
-17.620106
 21
-2.549052
  0
LINE
  5
4F4
100
AcDbEntity
  8
0
100
AcDbLine
 62
7
  6
CONTINUOUS
 10
-17.727324
 20
-2.549052
 11
-22.228224
 21
-2.549052
  0
LINE
  5
4F5
100
AcDbEntity
  8
0
100
AcDbLine
 62
7
  6
CONTINUOUS
 10
-22.33544
 20
-2.549052
 11
-22.670226
 21
-2.549052
  0
LINE
  5
4F6
100
AcDbEntity
  8
0
100
AcDbLine
 62
7
  6
CONTINUOUS
 10
-22.970766
 20
-2.121816
 11
-22.298062
 21
-2.121816
  0
LINE
  5
4F7
100
AcDbEntity
  8
0
100
AcDbLine
 62
7
  6
CONTINUOUS
 10
-22.190844
 20
-2.121816
 11
-21.869158
 21
-2.121816
  0
LINE
  5
4F8
100
AcDbEntity
  8
0
100
AcDbLine
 62
7
  6
CONTINUOUS
 10
-21.975968
 20
-2.015006
 11
-22.1815
 21
-2.015006
  0
LINE
  5
4F9
100
AcDbEntity
  8
0
100
AcDbLine
 62
7
  6
CONTINUOUS
 10
-22.288718
 20
-2.015006
 11
-22.863956
 21
-2.015006
  0
LINE
  5
4FA
100
AcDbEntity
  8
DRAFT
100
AcDbLine
 62
7
  6
CONTINUOUS
 10
-6.0
 20
-1.5
 11
-4.5
 21
-1.5
  0
LINE
  5
4FB
100
AcDbEntity
  8
DRAFT
100
AcDbLine
 62
7
  6
CONTINUOUS
 10
4.5
 20
-1.5
 11
6.0
 21
-1.5
  0
LINE
  5
4FC
100
AcDbEntity
  8
RACCORDO
100
AcDbLine
 62
250
  6
CONTINUOUS
 10
-5.953993641
 20
-1.453993641
 11
-4.8530095961
 21
-1.453993641
  0
LINE
  5
4FD
100
AcDbEntity
  8
RACCORDO
100
AcDbLine
 62
250
  6
CONTINUOUS
 10
4.8530095961
 20
-1.453993641
 11
5.953993641
 21
-1.453993641
  0
LINE
  5
4FE
100
AcDbEntity
  8
0
100
AcDbLine
 62
7
  6
CONTINUOUS
 10
-23.044058
 20
-1.053726
 11
-22.204776
 21
-1.053726
  0
LINE
  5
4FF
100
AcDbEntity
  8
RACCORDO
100
AcDbLine
 62
250
  6
CONTINUOUS
 10
-5.9371426149
 20
-0.9542982275
 11
-4.9823085464
 21
-0.9542982275
  0
LINE
  5
500
100
AcDbEntity
  8
RACCORDO
100
AcDbLine
 62
250
  6
CONTINUOUS
 10
4.9823085464
 20
-0.9542982275
 11
5.9371426149
 21
-0.9542982275
  0
LINE
  5
501
100
AcDbEntity
  8
0
100
AcDbLine
 62
7
  6
CONTINUOUS
 10
-21.1749
 20
-0.946916
 11
-19.30574
 21
-0.946916
  0
LINE
  5
502
100
AcDbEntity
  8
0
100
AcDbLine
 62
7
  6
CONTINUOUS
 10
-22.195272
 20
-0.946916
 11
-23.150868
 21
-0.946916
  0
LINE
  5
503
100
AcDbEntity
  8
0
100
AcDbLine
 62
7
  6
CONTINUOUS
 10
-19.41255
 20
-0.840108
 11
-21.06809
 21
-0.840108
  0
LINE
  5
504
100
AcDbEntity
  8
0
100
AcDbLine
 62
7
  6
CONTINUOUS
 10
-21.06809
 20
-0.51968
 11
-19.41255
 21
-0.51968
  0
LINE
  5
505
100
AcDbEntity
  8
0
100
AcDbLine
 62
7
  6
CONTINUOUS
 10
-19.30574
 20
-0.41287
 11
-21.1749
 21
-0.41287
  0
LINE
  5
506
100
AcDbEntity
  8
RACCORDO
100
AcDbLine
 62
7
  6
CONTINUOUS
 10
-4.5
 20
-1.5
 11
-4.8530095961
 21
-1.453993641
  0
LWPOLYLINE
  5
507
100
AcDbEntity
  8
0
100
AcDbPolyline
 62
7
  6
CONTINUOUS
 90
10
 70
0
 10
23.6868500766
 20
-12.8957744155
 10
23.7222725843
 20
-12.9100093811
 10
23.7591350573
 20
-12.9236368337
 10
23.7974374955
 20
-12.9366567733
 10
23.8372454328
 20
-12.9489608413
 10
23.8784933353
 20
-12.9606573964
 10
23.9209846021
 20
-12.9720715143
 10
23.9646536995
 20
-12.9833115537
 10
24.0095661611
 20
-12.9942691559
 10
24.0557219871
 20
-13.004944321
  0
LWPOLYLINE
  5
508
100
AcDbEntity
  8
0
100
AcDbPolyline
 62
7
  6
CONTINUOUS
 90
39
 70
0
 10
23.812145463
 20
-12.6996877302
 10
23.7864694715
 20
-12.6889612713
 10
23.7626496311
 20
-12.6773467704
 10
23.7406859419
 20
-12.6648442275
 10
23.7205724954
 20
-12.6515993129
 10
23.7023152001
 20
-12.6374663563
 10
23.6859317809
 20
-12.6220083465
 10
23.6714077937
 20
-12.605167594
 10
23.6587576825
 20
-12.5870017883
 10
23.6480425049
 20
-12.5672469872
 10
23.6391362538
 20
-12.5456003644
 10
23.6321649362
 20
-12.5223647461
 10
23.6275676309
 20
-12.4981846688
 10
23.6254425207
 20
-12.4728529873
 10
23.6256914229
 20
-12.4465768467
 10
23.6284588683
 20
-12.4206222193
 10
23.633855526
 20
-12.3951138953
 10
23.6417707269
 20
-12.3699270843
 10
23.6520169951
 20
-12.3459533872
 10
23.6645102088
 20
-12.323455989
 10
23.6793344897
 20
-12.3021717046
 10
23.6965547274
 20
-12.2822025793
 10
23.7161907607
 20
-12.2635433811
 10
23.7382227508
 20
-12.2461993419
 10
23.7626560703
 20
-12.2302882035
 10
23.7896525657
 20
-12.2156890012
 10
23.8190503905
 20
-12.2025226996
 10
23.8503693778
 20
-12.1912699345
 10
23.8834801593
 20
-12.1820393846
 10
23.9185121033
 20
-12.1747223712
 10
23.9553731476
 20
-12.1694734936
 10
23.9943922757
 20
-12.1661586454
 10
24.0352405041
 20
-12.1649119329
 10
24.0768388199
 20
-12.1662902753
 10
24.1197583754
 20
-12.1705189846
 10
24.1634280182
 20
-12.1773727487
 10
24.2050552787
 20
-12.1867325496
 10
24.2439487442
 20
-12.1988142199
 10
24.2807998273
 20
-12.2134019271
  0
LWPOLYLINE
  5
509
100
AcDbEntity
  8
0
100
AcDbPolyline
 62
7
  6
CONTINUOUS
 90
10
 70
0
 10
24.4313665743
 20
-12.8904529029
 10
24.4006732024
 20
-12.8761893768
 10
24.3685955414
 20
-12.8625921017
 10
24.3351335912
 20
-12.8496610776
 10
24.3002180677
 20
-12.8374928341
 10
24.2639182551
 20
-12.8259908416
 10
24.2264420056
 20
-12.8148655109
 10
24.1878586034
 20
-12.8040203124
 10
24.1480987643
 20
-12.7935517758
 10
24.1071624884
 20
-12.783459901
  0
LWPOLYLINE
  5
50A
100
AcDbEntity
  8
0
100
AcDbPolyline
 62
7
  6
CONTINUOUS
 90
14
 70
0
 10
24.2807998273
 20
-12.2134019271
 10
24.3148902963
 20
-12.2297291557
 10
24.3459791112
 20
-12.2475975764
 10
24.3743073121
 20
-12.2672055185
 10
24.3998797865
 20
-12.2883814544
 10
24.4225150243
 20
-12.3108345446
 10
24.4423945357
 20
-12.3348556287
 10
24.4600677392
 20
-12.3611456979
 10
24.4756404964
 20
-12.3899501728
 10
24.4890069456
 20
-12.421023633
 10
24.5003989207
 20
-12.454330808
 10
24.5098936996
 20
-12.4898599411
 10
24.5174140043
 20
-12.5276227891
 10
24.5229598349
 20
-12.5676193521
  0
LINE
  5
50B
100
AcDbEntity
  8
RACCORDO
100
AcDbLine
 62
7
  6
CONTINUOUS
 10
-6.0
 20
1.5
 11
-5.953993641
 21
1.453993641
  0
LINE
  5
50C
100
AcDbEntity
  8
0
100
AcDbLine
 62
7
  6
CONTINUOUS
 10
5.25486292
 20
-12.3968498513
 11
6.107420675
 21
-13.7028580562
  0
LINE
  5
50D
100
AcDbEntity
  8
0
100
AcDbLine
 62
7
  6
CONTINUOUS
 10
6.1217724758
 20
-13.3060083624
 11
5.2692145633
 21
-12.0
  0
LINE
  5
50E
100
AcDbEntity
  8
0
100
AcDbLine
 62
7
  6
CONTINUOUS
 10
1.814154303
 20
-12.0
 11
2.4962650732
 21
-13.7028580562
  0
LINE
  5
50F
100
AcDbEntity
  8
0
100
AcDbLine
 62
7
  6
CONTINUOUS
 10
2.3901775846
 20
-12.8955095323
 11
2.3140462574
 21
-12.7017839262
  0
LINE
  5
510
100
AcDbEntity
  8
0
100
AcDbLine
 62
7
  6
CONTINUOUS
 10
2.2455127275
 20
-12.5160175928
 11
2.0555538446
 21
-12.0
  0
LWPOLYLINE
  5
511
100
AcDbEntity
  8
0
100
AcDbPolyline
 62
7
  6
CONTINUOUS
 90
6
 70
0
 10
2.618012942
 20
-13.5274120747
 10
2.5916849873
 20
-13.4416849979
 10
2.563153384
 20
-13.3544352876
 10
2.5324181321
 20
-13.2656629436
 10
2.4990230739
 20
-13.175340916
 10
2.3901775846
 20
-12.8955095323
  0
LINE
  5
512
100
AcDbEntity
  8
DRAFT
100
AcDbLine
 62
7
  6
CONTINUOUS
 10
4.3776508009
 20
-15.6
 11
4.3790539221
 21
-15.9
  0
LINE
  5
513
100
AcDbEntity
  8
DRAFT
100
AcDbLine
 62
7
  6
CONTINUOUS
 10
0.75
 20
18.0176397269
 11
0.75
 21
15.95
  0
LINE
  5
514
100
AcDbEntity
  8
0
100
AcDbLine
 62
7
  6
CONTINUOUS
 10
0.8893540849
 20
-13.2848838848
 11
0.8893540849
 21
-13.0823470387
  0
LINE
  5
515
100
AcDbEntity
  8
DRAFT
100
AcDbLine
 62
7
  6
CONTINUOUS
 10
2.5
 20
15.95
 11
2.5
 21
18.0176397269
  0
LINE
  5
516
100
AcDbEntity
  8
0
100
AcDbLine
 62
7
  6
CONTINUOUS
 10
3.15
 20
-41.6
 11
3.15
 21
-21.25
  0
LINE
  5
517
100
AcDbEntity
  8
DRAFT
100
AcDbLine
 62
7
  6
CONTINUOUS
 10
3.2360359481
 20
-48.6
 11
3.2360359481
 21
-46.4
  0
LINE
  5
518
100
AcDbEntity
  8
DRAFT
100
AcDbLine
 62
7
  6
CONTINUOUS
 10
3.2360359481
 20
-41.6
 11
3.2360359481
 21
-19.3
  0
LINE
  5
519
100
AcDbEntity
  8
DRAFT
100
AcDbLine
 62
7
  6
CONTINUOUS
 10
3.25
 20
-33.99496732
 11
3.25
 21
-29.40503268
  0
LINE
  5
51A
100
AcDbEntity
  8
DRAFT
100
AcDbLine
 62
7
  6
CONTINUOUS
 10
3.2622185454
 20
-46.4
 11
3.2622185454
 21
-41.6
  0
LINE
  5
51B
100
AcDbEntity
  8
DRAFT
100
AcDbLine
 62
7
  6
CONTINUOUS
 10
3.3110927272
 20
-48.6
 11
3.3110927272
 21
-34.011337067
  0
LINE
  5
51C
100
AcDbEntity
  8
DRAFT
100
AcDbLine
 62
7
  6
CONTINUOUS
 10
3.3110927272
 20
-29.388662933
 11
3.3110927272
 21
-19.3
  0
LINE
  5
51D
100
AcDbEntity
  8
0
100
AcDbLine
 62
7
  6
CONTINUOUS
 10
3.4384809933
 20
-12.0
 11
3.4384809933
 21
-12.1960866853
  0
LINE
  5
51E
100
AcDbEntity
  8
0
100
AcDbLine
 62
7
  6
CONTINUOUS
 10
3.4797624007
 20
-13.506771371
 11
3.4797624007
 21
-13.7028580562
  0
LINE
  5
51F
100
AcDbEntity
  8
0
100
AcDbLine
 62
7
  6
CONTINUOUS
 10
3.65
 20
-21.25
 11
3.65
 21
-43.7
  0
LINE
  5
520
100
AcDbEntity
  8
RACCORDO
100
AcDbLine
 62
7
  6
CONTINUOUS
 10
4.3249432208
 20
-17.6
 11
4.3249432208
 21
-21.25
  0
LINE
  5
521
100
AcDbEntity
  8
RACCORDO
100
AcDbLine
 62
7
  6
CONTINUOUS
 10
4.3249432208
 20
-43.7
 11
4.3249432208
 21
-49.5250193732
  0
LINE
  5
522
100
AcDbEntity
  8
RACCORDO
100
AcDbLine
 62
7
  6
CONTINUOUS
 10
4.3790539221
 20
-15.9
 11
4.3790539221
 21
-16.4
  0
LINE
  5
523
100
AcDbEntity
  8
RACCORDO
100
AcDbLine
 62
7
  6
CONTINUOUS
 10
4.4
 20
-16.7
 11
4.4
 21
-21.25
  0
LINE
  5
524
100
AcDbEntity
  8
RACCORDO
100
AcDbLine
 62
7
  6
CONTINUOUS
 10
4.4
 20
-43.7
 11
4.4
 21
-49.6000761524
  0
LINE
  5
525
100
AcDbEntity
  8
DRAFT
100
AcDbLine
 62
7
  6
CONTINUOUS
 10
4.5
 20
1.5
 11
4.5
 21
-1.5
  0
LINE
  5
526
100
AcDbEntity
  8
DRAFT
100
AcDbLine
 62
7
  6
CONTINUOUS
 10
4.5
 20
-21.25
 11
4.5
 21
-20.3810194482
  0
LINE
  5
527
100
AcDbEntity
  8
SMUSSO
100
AcDbLine
 62
7
  6
CONTINUOUS
 10
4.5
 20
-20.3810194482
 11
4.5
 21
-17.75
  0
LINE
  5
528
100
AcDbEntity
  8
0
100
AcDbLine
 62
7
  6
CONTINUOUS
 10
4.5
 20
-43.7
 11
4.5
 21
-54.0
  0
LINE
  5
529
100
AcDbEntity
  8
0
100
AcDbLine
 62
7
  6
CONTINUOUS
 10
4.6872435679
 20
-13.7028580562
 11
4.6872435679
 21
-13.506771371
  0
LINE
  5
52A
100
AcDbEntity
  8
0
100
AcDbLine
 62
7
  6
CONTINUOUS
 10
4.7904470864
 20
-12.2043108411
 11
4.7904470864
 21
-12.0
  0
LINE
  5
52B
100
AcDbEntity
  8
DRAFT
100
AcDbLine
 62
7
  6
CONTINUOUS
 10
4.3249432208
 20
-17.6
 11
4.3598533507
 21
-15.6
  0
LWPOLYLINE
  5
52C
100
AcDbEntity
  8
0
100
AcDbPolyline
 62
7
  6
CONTINUOUS
 90
22
 70
0
 10
-5.7073664755
 20
-12.2812296274
 10
-5.6870856616
 20
-12.2559921242
 10
-5.6661474347
 20
-12.2333940692
 10
-5.6445517948
 20
-12.2134354624
 10
-5.6223599913
 20
-12.1961819555
 10
-5.5995107747
 20
-12.1815678967
 10
-5.5758203972
 20
-12.1693963319
 10
-5.5512029331
 20
-12.1596019839
 10
-5.5257443081
 20
-12.1522501298
 10
-5.4995185511
 20
-12.1473396459
 10
-5.4720471934
 20
-12.1448693232
 10
-5.4438087038
 20
-12.1448403707
 10
-5.4163125178
 20
-12.1472552917
 10
-5.3900255528
 20
-12.1521164993
 10
-5.3644808913
 20
-12.1594215803
 10
-5.3397872161
 20
-12.1691657994
 10
-5.3160457557
 20
-12.1812801081
 10
-5.2931552816
 20
-12.1958335547
 10
-5.2709207908
 20
-12.2130285487
 10
-5.2492772825
 20
-12.2329325599
 10
-5.2282897576
 20
-12.2554781186
 10
-5.2079582162
 20
-12.2806652246
  0
LINE
  5
52D
100
AcDbEntity
  8
RACCORDO
100
AcDbLine
 62
7
  6
CONTINUOUS
 10
6.0
 20
1.5
 11
5.953993641
 21
1.453993641
  0
LINE
  5
52E
100
AcDbEntity
  8
RACCORDO
100
AcDbLine
 62
7
  6
CONTINUOUS
 10
-4.5
 20
1.5
 11
-4.8530095961
 21
1.453993641
  0
LINE
  5
52F
100
AcDbEntity
  8
RACCORDO
100
AcDbLine
 62
250
  6
CONTINUOUS
 10
5.9371426149
 20
0.9542982275
 11
4.9823085464
 21
0.9542982275
  0
LINE
  5
530
100
AcDbEntity
  8
RACCORDO
100
AcDbLine
 62
250
  6
CONTINUOUS
 10
-4.9823085464
 20
0.9542982275
 11
-5.9371426149
 21
0.9542982275
  0
LINE
  5
531
100
AcDbEntity
  8
RACCORDO
100
AcDbLine
 62
250
  6
CONTINUOUS
 10
5.953993641
 20
1.453993641
 11
4.8530095961
 21
1.453993641
  0
LINE
  5
532
100
AcDbEntity
  8
RACCORDO
100
AcDbLine
 62
250
  6
CONTINUOUS
 10
-4.8530095961
 20
1.453993641
 11
-5.953993641
 21
1.453993641
  0
LINE
  5
533
100
AcDbEntity
  8
DRAFT
100
AcDbLine
 62
7
  6
CONTINUOUS
 10
6.0
 20
1.5
 11
4.5
 21
1.5
  0
LINE
  5
534
100
AcDbEntity
  8
DRAFT
100
AcDbLine
 62
7
  6
CONTINUOUS
 10
-4.5
 20
1.5
 11
-6.0
 21
1.5
  0
LINE
  5
535
100
AcDbEntity
  8
0
100
AcDbLine
 62
7
  6
CONTINUOUS
 10
-20.6690826942
 20
4.553752
 11
-18.348738
 21
4.553752
  0
LINE
  5
536
100
AcDbEntity
  8
0
100
AcDbLine
 62
7
  6
CONTINUOUS
 10
-18.89172
 20
4.66056
 11
-20.669084
 21
4.66056
  0
LINE
  5
537
100
AcDbEntity
  8
0
100
AcDbLine
 62
7
  6
CONTINUOUS
 10
-18.41108
 20
4.713966
 11
-18.731506
 21
4.713966
  0
LINE
  5
538
100
AcDbEntity
  8
RACCORDO
100
AcDbLine
 62
7
  6
CONTINUOUS
 10
4.5
 20
1.5
 11
4.8530095961
 21
1.453993641
  0
LINE
  5
539
100
AcDbEntity
  8
RACCORDO
100
AcDbLine
 62
7
  6
CONTINUOUS
 10
6.0
 20
-1.5
 11
5.953993641
 21
-1.453993641
  0
LWPOLYLINE
  5
53A
100
AcDbEntity
  8
0
100
AcDbPolyline
 62
7
  6
CONTINUOUS
 90
18
 70
0
 10
9.6635475653
 20
-12.485122991
 10
9.6405044831
 20
-12.4234481022
 10
9.6148453264
 20
-12.366011269
 10
9.5866713654
 20
-12.312861932
 10
9.5558813301
 20
-12.2639506508
 10
9.5230102791
 20
-12.2192667702
 10
9.4883690857
 20
-12.1790298835
 10
9.4516468765
 20
-12.1430203975
 10
9.4124460905
 20
-12.1105688775
 10
9.3709545787
 20
-12.0815760934
 10
9.32698449
 20
-12.0561412754
 10
9.2795747097
 20
-12.0338926795
 10
9.2283494001
 20
-12.0146148847
 10
9.1736843989
 20
-11.9985233119
 10
9.1157461047
 20
-11.9858924796
 10
9.0545899836
 20
-11.9768138941
 10
8.9901605695
 20
-11.971196049
 10
8.9224578623
 20
-11.9690389444
  0
LWPOLYLINE
  5
53B
100
AcDbEntity
  8
0
100
AcDbPolyline
 62
7
  6
CONTINUOUS
 90
44
 70
0
 10
8.25808531
 20
-13.235217221
 10
8.2773032884
 20
-13.2922260244
 10
8.2995557978
 20
-13.3460160454
 10
8.3248428383
 20
-13.396587284
 10
8.3534606855
 20
-13.444155943
 10
8.3851130638
 20
-13.4885058195
 10
8.418911146
 20
-13.5289883054
 10
8.4544635963
 20
-13.5652517857
 10
8.4921617504
 20
-13.5976478754
 10
8.5322907887
 20
-13.6265828105
 10
8.5747025691
 20
-13.6521668428
 10
8.6195452338
 20
-13.6742897205
 10
8.667548389
 20
-13.6930269244
 10
8.7192088567
 20
-13.7085920725
 10
8.7740298149
 20
-13.7207715469
 10
8.8312504039
 20
-13.7289999743
 10
8.8915183829
 20
-13.733218509
 10
8.9541859926
 20
-13.7334859968
 10
9.0165490952
 20
-13.7294136018
 10
9.0784224021
 20
-13.7207351412
 10
9.139991202
 20
-13.7077167978
 10
9.1991072223
 20
-13.6907682837
 10
9.2553304985
 20
-13.6697774123
 10
9.3091009952
 20
-13.6448563703
 10
9.359590334
 20
-13.6167514294
 10
9.4064716103
 20
-13.5857341574
 10
9.4500717287
 20
-13.5515329864
 10
9.4905430237
 20
-13.5140794854
 10
9.5278280714
 20
-13.4736137958
 10
9.5619842958
 20
-13.4298957761
 10
9.5933363037
 20
-13.38213657
 10
9.6222675549
 20
-13.330144751
 10
9.6483945896
 20
-13.2741117456
 10
9.6708916351
 20
-13.2138229776
 10
9.6897671742
 20
-13.1488217892
 10
9.705012724
 20
-13.0795648383
 10
9.7157770634
 20
-13.0072075213
 10
9.7218290274
 20
-12.9306300985
 10
9.7233997811
 20
-12.8509523098
 10
9.7203315982
 20
-12.7726887708
 10
9.712177239
 20
-12.696448974
 10
9.6993839433
 20
-12.6216234269
 10
9.6831357048
 20
-12.550898269
 10
9.6635475653
 20
-12.485122991
  0
LINE
  5
53C
100
AcDbEntity
  8
RACCORDO
100
AcDbLine
 62
7
  6
CONTINUOUS
 10
4.9823085464
 20
-0.9542982275
 11
4.9823085464
 21
0.9542982275
  0
LINE
  5
53D
100
AcDbEntity
  8
0
100
AcDbLine
 62
7
  6
CONTINUOUS
 10
5.0278151791
 20
-12.0
 11
5.0278151791
 21
-13.7028580562
  0
LINE
  5
53E
100
AcDbEntity
  8
0
100
AcDbLine
 62
7
  6
CONTINUOUS
 10
5.25486292
 20
-13.7028580562
 11
5.25486292
 21
-12.3968498513
  0
LINE
  5
53F
100
AcDbEntity
  8
0
100
AcDbLine
 62
7
  6
CONTINUOUS
 10
5.5
 20
-53.5
 11
5.5
 21
-46.6
  0
LINE
  5
540
100
AcDbEntity
  8
RACCORDO
100
AcDbLine
 62
7
  6
CONTINUOUS
 10
5.9371426149
 20
-0.9542982275
 11
5.9371426149
 21
0.9542982275
  0
LINE
  5
541
100
AcDbEntity
  8
DRAFT
100
AcDbLine
 62
7
  6
CONTINUOUS
 10
6.0
 20
-1.5
 11
6.0
 21
1.5
  0
LINE
  5
542
100
AcDbEntity
  8
0
100
AcDbLine
 62
7
  6
CONTINUOUS
 10
6.1217724758
 20
-12.0
 11
6.1217724758
 21
-13.3060083624
  0
LINE
  5
543
100
AcDbEntity
  8
0
100
AcDbLine
 62
7
  6
CONTINUOUS
 10
6.3488202167
 20
-13.7028580562
 11
6.3488202167
 21
-12.0
  0
LINE
  5
544
100
AcDbEntity
  8
0
100
AcDbLine
 62
7
  6
CONTINUOUS
 10
6.6687511242
 20
-12.0
 11
6.6687511242
 21
-12.1960866853
  0
LINE
  5
545
100
AcDbEntity
  8
0
100
AcDbLine
 62
7
  6
CONTINUOUS
 10
6.7100325316
 20
-13.506771371
 11
6.7100325316
 21
-13.7028580562
  0
LINE
  5
546
100
AcDbEntity
  8
0
100
AcDbLine
 62
7
  6
CONTINUOUS
 10
6.7719546428
 20
-12.784346741
 11
6.7719546428
 21
-12.9804334263
  0
LINE
  5
547
100
AcDbEntity
  8
0
100
AcDbLine
 62
7
  6
CONTINUOUS
 10
7.0
 20
53.5
 11
7.0
 21
47.2
  0
LINE
  5
548
100
AcDbEntity
  8
0
100
AcDbLine
 62
7
  6
CONTINUOUS
 10
7.0
 20
-53.5
 11
7.0
 21
-47.2
  0
LINE
  5
549
100
AcDbEntity
  8
0
100
AcDbLine
 62
7
  6
CONTINUOUS
 10
7.7007863098
 20
-12.1960866853
 11
7.7007863098
 21
-12.784346741
  0
LINE
  5
54A
100
AcDbEntity
  8
0
100
AcDbLine
 62
7
  6
CONTINUOUS
 10
7.7007863098
 20
-12.9804334263
 11
7.7007863098
 21
-13.506771371
  0
LINE
  5
54B
100
AcDbEntity
  8
0
100
AcDbLine
 62
7
  6
CONTINUOUS
 10
7.9278340506
 20
-13.7028580562
 11
7.9278340506
 21
-12.0
  0
LINE
  5
54C
100
AcDbEntity
  8
0
100
AcDbLine
 62
7
  6
CONTINUOUS
 10
9.2
 20
53.5
 11
9.2
 21
47.2
  0
LINE
  5
54D
100
AcDbEntity
  8
0
100
AcDbLine
 62
7
  6
CONTINUOUS
 10
9.2
 20
-53.5
 11
9.2
 21
-47.2
  0
LINE
  5
54E
100
AcDbEntity
  8
0
100
AcDbLine
 62
7
  6
CONTINUOUS
 10
3.1495111414
 20
-12.0
 11
2.9700337109
 21
-12.5160175928
  0
LINE
  5
54F
100
AcDbEntity
  8
0
100
AcDbLine
 62
7
  6
CONTINUOUS
 10
2.9053702144
 20
-12.7017839262
 11
2.7213777186
 21
-13.1989346528
  0
LINE
  5
550
100
AcDbEntity
  8
0
100
AcDbLine
 62
7
  6
CONTINUOUS
 10
2.7418571643
 20
-13.7028580562
 11
3.389136688
 21
-12.0
  0
LWPOLYLINE
  5
551
100
AcDbEntity
  8
0
100
AcDbPolyline
 62
7
  6
CONTINUOUS
 90
10
 70
0
 10
2.7213777186
 20
-13.1989346528
 10
2.7071799658
 20
-13.2339753804
 10
2.6936470469
 20
-13.2694138826
 10
2.6807789616
 20
-13.3052501593
 10
2.668557896
 20
-13.3415289888
 10
2.657001664
 20
-13.3782055927
 10
2.6461637084
 20
-13.4151456368
 10
2.6360618433
 20
-13.4523043427
 10
2.6266782545
 20
-13.4897264887
 10
2.618012942
 20
-13.5274120747
  0
LWPOLYLINE
  5
552
100
AcDbEntity
  8
0
100
AcDbPolyline
 62
7
  6
CONTINUOUS
 90
16
 70
0
 10
0.3928483901
 20
-13.7131784081
 10
0.4096384729
 20
-13.6826349089
 10
0.4288201979
 20
-13.6522553208
 10
0.4503935651
 20
-13.6220396439
 10
0.4744304365
 20
-13.5919622527
 10
0.5008589501
 20
-13.5620487727
 10
0.52946352
 20
-13.5323760801
 10
0.5601353109
 20
-13.5029100814
 10
0.5929831579
 20
-13.4736848702
 10
0.6281179811
 20
-13.4448796037
 10
0.6654960562
 20
-13.4164184926
 10
0.7051611075
 20
-13.3883773261
 10
0.7473552267
 20
-13.3611626296
 10
0.7921591114
 20
-13.3349099114
 10
0.8394920641
 20
-13.3094836632
 10
0.8893540849
 20
-13.2848838848
  0
LINE
  5
553
100
AcDbEntity
  8
0
100
AcDbLine
 62
7
  6
CONTINUOUS
 10
-0.4113327648
 20
-12.5985804076
 11
-0.9579888973
 21
-13.3584164115
  0
LINE
  5
554
100
AcDbEntity
  8
0
100
AcDbLine
 62
7
  6
CONTINUOUS
 10
-0.9992703047
 20
-13.7028580562
 11
-0.2046032118
 21
-12.5985804076
  0
LWPOLYLINE
  5
555
100
AcDbEntity
  8
0
100
AcDbPolyline
 62
7
  6
CONTINUOUS
 90
25
 70
0
 10
-6.6280547731
 20
-13.4819381178
 10
-6.652184847
 20
-13.4970624743
 10
-6.6771294967
 20
-13.5098037536
 10
-6.702888722
 20
-13.5201619557
 10
-6.7297233676
 20
-13.5281340492
 10
-6.7573725889
 20
-13.5337230654
 10
-6.7850538522
 20
-13.5369380983
 10
-6.8128946174
 20
-13.5377195848
 10
-6.8407674247
 20
-13.5361270879
 10
-6.8675073607
 20
-13.5323483909
 10
-6.8928567896
 20
-13.5262751203
 10
-6.9170733473
 20
-13.5180156496
 10
-6.9397650285
 20
-13.5080828832
 10
-6.9608192895
 20
-13.4965434033
 10
-6.9803486742
 20
-13.4833306277
 10
-6.9982988083
 20
-13.4687577139
 10
-7.0145530533
 20
-13.4530678228
 10
-7.0292280478
 20
-13.4360177933
 10
-7.0426193332
 20
-13.4171913007
 10
-7.0547514229
 20
-13.3963270026
 10
-7.0655998035
 20
-13.3736862413
 10
-7.0753864766
 20
-13.349636718
 10
-7.0841854425
 20
-13.324301
 10
-7.0919227008
 20
-13.2975565201
 10
-7.0985982515
 20
-13.2694032783
  0
LWPOLYLINE
  5
556
100
AcDbEntity
  8
0
100
AcDbPolyline
 62
7
  6
CONTINUOUS
 90
25
 70
0
 10
-3.986044698
 20
-13.4819381178
 10
-4.0101747719
 20
-13.4970624743
 10
-4.0351194216
 20
-13.5098037536
 10
-4.0608786469
 20
-13.5201619557
 10
-4.0877132925
 20
-13.5281340492
 10
-4.1153625138
 20
-13.5337230654
 10
-4.1430437771
 20
-13.5369380983
 10
-4.1708845423
 20
-13.5377195848
 10
-4.1987573496
 20
-13.5361270879
 10
-4.2254972856
 20
-13.5323483909
 10
-4.2508467145
 20
-13.5262751203
 10
-4.2750632722
 20
-13.5180156496
 10
-4.2977549534
 20
-13.5080828832
 10
-4.3188092144
 20
-13.4965434033
 10
-4.3383385991
 20
-13.4833306277
 10
-4.3562887332
 20
-13.4687577139
 10
-4.3725429782
 20
-13.4530678227
 10
-4.3872179727
 20
-13.4360177933
 10
-4.4006092581
 20
-13.4171913007
 10
-4.4127413478
 20
-13.3963270026
 10
-4.4235897284
 20
-13.3736862413
 10
-4.4333764015
 20
-13.349636718
 10
-4.4421753674
 20
-13.324301
 10
-4.4499126257
 20
-13.2975565201
 10
-4.4565881764
 20
-13.2694032783
  0
LWPOLYLINE
  5
557
100
AcDbEntity
  8
0
100
AcDbPolyline
 62
7
  6
CONTINUOUS
 90
12
 70
0
 10
-7.8244262296
 20
-13.6576185032
 10
-7.7901456827
 20
-13.637930722
 10
-7.7579968289
 20
-13.6153992382
 10
-7.7280294158
 20
-13.5902569172
 10
-7.7001936958
 20
-13.5622708936
 10
-7.6741798529
 20
-13.5307875068
 10
-7.6496150781
 20
-13.4955048684
 10
-7.6268721805
 20
-13.4567248669
 10
-7.6067597712
 20
-13.4146995066
 10
-7.5895473874
 20
-13.3695127892
 10
-7.574965492
 20
-13.3210807131
 10
-7.563014085
 20
-13.2694032783
  0
LWPOLYLINE
  5
558
100
AcDbEntity
  8
0
100
AcDbPolyline
 62
7
  6
CONTINUOUS
 90
38
 70
0
 10
-8.3299452815
 20
-12.9225427641
 10
-8.3657829813
 20
-12.9414436211
 10
-8.3984446697
 20
-12.9616863318
 10
-8.4279303467
 20
-12.9832708964
 10
-8.4540950196
 20
-13.0061581437
 10
-8.4770836812
 20
-13.0303872449
 10
-8.4973313094
 20
-13.056075713
 10
-8.5149484531
 20
-13.0832054008
 10
-8.5298245634
 20
-13.1117944554
 10
-8.5420629715
 20
-13.1420148314
 10
-8.5518522286
 20
-13.1741881681
 10
-8.5590037835
 20
-13.2079928262
 10
-8.563055314
 20
-13.2426358424
 10
-8.5639197927
 20
-13.2781652003
 10
-8.561684247
 20
-13.3145329162
 10
-8.5561474365
 20
-13.3508020755
 10
-8.5471000827
 20
-13.3871386235
 10
-8.5347514642
 20
-13.4233766149
 10
-8.5195281772
 20
-13.4580812994
 10
-8.5014682713
 20
-13.4909796466
 10
-8.4805336969
 20
-13.5223446868
 10
-8.4570369017
 20
-13.5515607613
 10
-8.4311830794
 20
-13.5783952383
 10
-8.4027670363
 20
-13.6030807495
 10
-8.3714856391
 20
-13.625699532
 10
-8.3371229334
 20
-13.6465599158
 10
-8.2998948736
 20
-13.6653535708
 10
-8.260146189
 20
-13.6812377431
 10
-8.2174280401
 20
-13.6941655821
 10
-8.1721892664
 20
-13.7041839386
 10
-8.1261211163
 20
-13.71059061
 10
-8.0788495154
 20
-13.7130538699
 10
-8.030748538
 20
-13.7119054449
 10
-7.984631655
 20
-13.7074383123
 10
-7.9413339659
 20
-13.6996067747
 10
-7.9000203712
 20
-13.6884565296
 10
-7.860999043
 20
-13.6744176464
 10
-7.8244262296
 20
-13.6576185032
  0
LINE
  5
559
100
AcDbEntity
  8
0
100
AcDbLine
 62
7
  6
CONTINUOUS
 10
-18.731506
 20
5.35482
 11
-18.41108
 21
5.35482
  0
LINE
  5
55A
100
AcDbEntity
  8
0
100
AcDbLine
 62
7
  6
CONTINUOUS
 10
-18.250866
 20
5.515034
 11
-18.89172
 21
5.515034
  0
LINE
  5
55B
100
AcDbEntity
  8
0
100
AcDbLine
 62
7
  6
CONTINUOUS
 10
-26.8883832022
 20
6.66056
 11
-14.1883832022
 21
6.66056
  0
LINE
  5
55C
100
AcDbEntity
  8
0
100
AcDbLine
 62
7
  6
CONTINUOUS
 10
-14.1883832022
 20
8.66056
 11
-26.8883832022
 21
8.66056
  0
LWPOLYLINE
  5
55D
100
AcDbEntity
  8
0
100
AcDbPolyline
 62
7
  6
CONTINUOUS
 90
10
 70
0
 10
26.0244096932
 20
-12.6866259931
 10
26.0361746117
 20
-12.6973463826
 10
26.0486246818
 20
-12.707800786
 10
26.0617599035
 20
-12.7179892033
 10
26.0756195964
 20
-12.727893398
 10
26.090164441
 20
-12.7375316065
 10
26.1052764782
 20
-12.7469585389
 10
26.1209163883
 20
-12.7561924318
 10
26.1371234911
 20
-12.7652150486
 10
26.1538977865
 20
-12.7740263892
  0
LWPOLYLINE
  5
55E
100
AcDbEntity
  8
0
100
AcDbPolyline
 62
7
  6
CONTINUOUS
 90
28
 70
0
 10
24.3862151334
 20
-13.1274984796
 10
24.400869037
 20
-13.1424571205
 10
24.4136653848
 20
-13.1584737568
 10
24.4246041769
 20
-13.1755483884
 10
24.4337404224
 20
-13.1937029666
 10
24.4410191121
 20
-13.2129155402
 10
24.446275219
 20
-13.2331202555
 10
24.4494904033
 20
-13.2546619207
 10
24.4506830048
 20
-13.2771957276
 10
24.4497430158
 20
-13.2996213981
 10
24.4466193749
 20
-13.3218150696
 10
24.4413631436
 20
-13.3439006046
 10
24.4340174986
 20
-13.3651493121
 10
24.4246601778
 20
-13.3853300305
 10
24.4132134435
 20
-13.4046739214
 10
24.3994872592
 20
-13.4231457795
 10
24.3834221869
 20
-13.4409217523
 10
24.3650776647
 20
-13.4578256924
 10
24.3444419702
 20
-13.4732939517
 10
24.3213837848
 20
-13.487252388
 10
24.2960344271
 20
-13.4997751437
 10
24.2687761302
 20
-13.5105209983
 10
24.2395907996
 20
-13.5193490388
 10
24.2084965298
 20
-13.5264001782
 10
24.1759298376
 20
-13.5317559349
 10
24.1420362287
 20
-13.5354434816
 10
24.1066701973
 20
-13.5374356454
 10
24.0698317435
 20
-13.5377324265
  0
LINE
  5
55F
100
AcDbEntity
  8
0
100
AcDbLine
 62
7
  6
CONTINUOUS
 10
12.0496857326
 20
-13.7028580562
 11
11.3949885003
 21
-12.0
  0
LWPOLYLINE
  5
560
100
AcDbEntity
  8
0
100
AcDbPolyline
 62
7
  6
CONTINUOUS
 90
10
 70
0
 10
11.2767881491
 20
-12.1909265881
 10
11.2853259928
 20
-12.2211272493
 10
11.2942174688
 20
-12.2515021602
 10
11.3034625772
 20
-12.2820513209
 10
11.3130700539
 20
-12.3127774897
 10
11.3230311631
 20
-12.3436779082
 10
11.333319697
 20
-12.3747443016
 10
11.3439269201
 20
-12.4059739116
 10
11.354861568
 20
-12.4373694965
 10
11.8082863484
 20
-13.7028580562
  0
LINE
  5
561
100
AcDbEntity
  8
0
100
AcDbLine
 62
7
  6
CONTINUOUS
 10
10.0538265329
 20
-12.0
 11
10.0538265329
 21
-13.7028580562
  0
LINE
  5
562
100
AcDbEntity
  8
0
100
AcDbLine
 62
7
  6
CONTINUOUS
 10
10.2808742738
 20
-13.7028580562
 11
10.2808742738
 21
-12.0
  0
LINE
  5
563
100
AcDbEntity
  8
0
100
AcDbLine
 62
7
  6
CONTINUOUS
 10
12.8609622377
 20
-12.0
 11
12.8609622377
 21
-12.1960866853
  0
LINE
  5
564
100
AcDbEntity
  8
0
100
AcDbLine
 62
7
  6
CONTINUOUS
 10
12.9022436452
 20
-13.506771371
 11
12.9022436452
 21
-13.7028580562
  0
LINE
  5
565
100
AcDbEntity
  8
0
100
AcDbLine
 62
7
  6
CONTINUOUS
 10
12.9641657563
 20
-12.784346741
 11
12.9641657563
 21
-12.9804334263
  0
LWPOLYLINE
  5
566
100
AcDbEntity
  8
0
100
AcDbPolyline
 62
7
  6
CONTINUOUS
 90
42
 70
0
 10
8.4438516434
 20
-12.5976130174
 10
8.4580377509
 20
-12.5440665092
 10
8.4747502571
 20
-12.4941504116
 10
8.4939891618
 20
-12.4478647245
 10
8.5159857927
 20
-12.4051389385
 10
8.5405088222
 20
-12.366043563
 10
8.566864268
 20
-12.330790127
 10
8.594739171
 20
-12.2996873011
 10
8.6244464902
 20
-12.2724264147
 10
8.6562311201
 20
-12.2482929847
 10
8.6900236083
 20
-12.2270778024
 10
8.7258934073
 20
-12.2089900764
 10
8.7642937684
 20
-12.1939429501
 10
8.8056603942
 20
-12.1816761633
 10
8.8495575821
 20
-12.1724499762
 10
8.895131476
 20
-12.1669583129
 10
8.943002404
 20
-12.1653942665
 10
8.992550038
 20
-12.1675647439
 10
9.0410595379
 20
-12.1735843905
 10
9.0882135211
 20
-12.183769085
 10
9.1343293703
 20
-12.1978029487
 10
9.1776443935
 20
-12.2148529904
 10
9.2176068864
 20
-12.2347641696
 10
9.2547685534
 20
-12.2576915269
 10
9.2890218156
 20
-12.2832671927
 10
9.3202206116
 20
-12.3112329608
 10
9.348511003
 20
-12.3418470372
 10
9.3742235954
 20
-12.3755161705
 10
9.3973926947
 20
-12.412381547
 10
9.4179839951
 20
-12.4523019802
 10
9.4362251854
 20
-12.495260659
 10
9.4522292362
 20
-12.5413546463
 10
9.4658831769
 20
-12.5904868793
 10
9.4770757848
 20
-12.6423493578
 10
9.4859140713
 20
-12.6972935885
 10
9.4922910251
 20
-12.7549680648
 10
9.4957743894
 20
-12.8140102668
 10
9.4962513842
 20
-12.8752272893
 10
9.4938347896
 20
-12.9378120375
 10
9.4884306888
 20
-12.9979807073
 10
9.4798599967
 20
-13.0547312864
 10
9.4683017985
 20
-13.109065787
  0
LWPOLYLINE
  5
567
100
AcDbEntity
  8
0
100
AcDbPolyline
 62
7
  6
CONTINUOUS
 90
17
 70
0
 10
9.4683017985
 20
-13.109065787
 10
9.4541994327
 20
-13.1602064422
 10
9.4376519009
 20
-13.2079934283
 10
9.4185602015
 20
-13.2525865689
 10
9.3970706683
 20
-13.2936875676
 10
9.373251
 20
-13.3310584595
 10
9.3470334979
 20
-13.3649372095
 10
9.3183614
 20
-13.3957394168
 10
9.2874247718
 20
-13.4235099273
 10
9.2540335478
 20
-13.448203895
 10
9.2175607696
 20
-13.4701023805
 10
9.1776891801
 20
-13.4895071394
 10
9.1347360364
 20
-13.5061164161
 10
9.089026151
 20
-13.5193060038
 10
9.0406677948
 20
-13.5288678337
 10
8.9895526969
 20
-13.5350099746
 10
8.9356808574
 20
-13.5377324265
  0
LINE
  5
568
100
AcDbEntity
  8
DRAFT
100
AcDbLine
 62
7
  6
CONTINUOUS
 10
-3.3110927272
 20
-29.388662933
 11
-3.65
 21
-29.9756675485
  0
LINE
  5
569
100
AcDbEntity
  8
DRAFT
100
AcDbLine
 62
7
  6
CONTINUOUS
 10
-3.25
 20
-29.40503268
 11
-3.65
 21
-30.097853003
  0
LINE
  5
56A
100
AcDbEntity
  8
0
100
AcDbLine
 62
7
  6
CONTINUOUS
 10
3.9207961453
 20
-13.3027832032
 11
4.7904470864
 21
-12.2043108411
  0
LINE
  5
56B
100
AcDbEntity
  8
0
100
AcDbLine
 62
7
  6
CONTINUOUS
 10
4.5332444224
 20
-12.1960866853
 11
3.4797624007
 21
-13.506771371
  0
LWPOLYLINE
  5
56C
100
AcDbEntity
  8
0
100
AcDbPolyline
 62
7
  6
CONTINUOUS
 90
10
 70
0
 10
3.7435763262
 20
-13.506771371
 10
3.7634358444
 20
-13.4856974737
 10
3.7832505483
 20
-13.4642165365
 10
3.8030204379
 20
-13.4423285595
 10
3.8227419031
 20
-13.4200213076
 10
3.842418554
 20
-13.3973070158
 10
3.8620612206
 20
-13.374222389
 10
3.8816735131
 20
-13.3507796621
 10
3.9012518213
 20
-13.3269666002
 10
3.9207961453
 20
-13.3027832032
  0
LINE
  5
56D
100
AcDbEntity
  8
RACCORDO
100
AcDbLine
 62
250
  6
CONTINUOUS
 10
-35.9
 20
-53.9001523048
 11
-35.7952696104
 21
-53.7954219153
  0
LWPOLYLINE
  5
56E
100
AcDbEntity
  8
0
100
AcDbPolyline
 62
7
  6
CONTINUOUS
 90
12
 70
0
 10
-2.5404060794
 20
-13.6576185032
 10
-2.5061255325
 20
-13.637930722
 10
-2.4739766787
 20
-13.6153992382
 10
-2.4440092656
 20
-13.5902569172
 10
-2.4161735456
 20
-13.5622708936
 10
-2.3901597027
 20
-13.5307875068
 10
-2.3655949279
 20
-13.4955048684
 10
-2.3428520303
 20
-13.4567248669
 10
-2.322739621
 20
-13.4146995066
 10
-2.3055272372
 20
-13.3695127892
 10
-2.2909453418
 20
-13.3210807131
 10
-2.2789939348
 20
-13.2694032783
  0
LWPOLYLINE
  5
56F
100
AcDbEntity
  8
0
100
AcDbPolyline
 62
7
  6
CONTINUOUS
 90
38
 70
0
 10
-3.0459251313
 20
-12.9225427641
 10
-3.0817628311
 20
-12.9414436211
 10
-3.1144245195
 20
-12.9616863318
 10
-3.1439101965
 20
-12.9832708964
 10
-3.1700748694
 20
-13.0061581437
 10
-3.193063531
 20
-13.0303872449
 10
-3.2133111592
 20
-13.056075713
 10
-3.2309283029
 20
-13.0832054008
 10
-3.2458044132
 20
-13.1117944554
 10
-3.2580428213
 20
-13.1420148314
 10
-3.2678320784
 20
-13.1741881681
 10
-3.2749836333
 20
-13.2079928262
 10
-3.2790351638
 20
-13.2426358424
 10
-3.2798996425
 20
-13.2781652003
 10
-3.2776640968
 20
-13.3145329162
 10
-3.2721272863
 20
-13.3508020755
 10
-3.2630799325
 20
-13.3871386235
 10
-3.250731314
 20
-13.4233766149
 10
-3.235508027
 20
-13.4580812994
 10
-3.2174481211
 20
-13.4909796466
 10
-3.1965135467
 20
-13.5223446868
 10
-3.1730167515
 20
-13.5515607613
 10
-3.1471629292
 20
-13.5783952383
 10
-3.1187468861
 20
-13.6030807495
 10
-3.0874654889
 20
-13.625699532
 10
-3.0531027832
 20
-13.6465599158
 10
-3.0158747234
 20
-13.6653535708
 10
-2.9761260388
 20
-13.6812377431
 10
-2.9334078899
 20
-13.6941655821
 10
-2.8881691162
 20
-13.7041839386
 10
-2.8421009661
 20
-13.71059061
 10
-2.7948293652
 20
-13.7130538699
 10
-2.7467283878
 20
-13.7119054449
 10
-2.7006115048
 20
-13.7074383123
 10
-2.6573138157
 20
-13.6996067747
 10
-2.616000221
 20
-13.6884565296
 10
-2.5769788928
 20
-13.6744176464
 10
-2.5404060794
 20
-13.6576185032
  0
LWPOLYLINE
  5
570
100
AcDbEntity
  8
0
100
AcDbPolyline
 62
7
  6
CONTINUOUS
 90
10
 70
0
 10
0.8893540849
 20
-13.0823470387
 10
0.8335584395
 20
-13.1056712722
 10
0.7797067532
 20
-13.1303406138
 10
0.7277990262
 20
-13.1563550633
 10
0.6775003009
 20
-13.1839300269
 10
0.6291455348
 20
-13.2128500985
 10
0.5837396003
 20
-13.2424690599
 10
0.5416174548
 20
-13.272571505
 10
0.502444141
 20
-13.3033728398
 10
0.4662196588
 20
-13.3348730645
  0
LINE
  5
571
100
AcDbEntity
  8
RACCORDO
100
AcDbLine
 62
250
  6
CONTINUOUS
 10
-35.7952696104
 20
53.7954219153
 11
-35.9
 21
53.9001523048
  0
LINE
  5
572
100
AcDbEntity
  8
0
100
AcDbLine
 62
7
  6
CONTINUOUS
 10
15.6434257899
 20
-12.0
 11
16.3255365601
 21
-13.7028580562
  0
LINE
  5
573
100
AcDbEntity
  8
0
100
AcDbLine
 62
7
  6
CONTINUOUS
 10
16.2194490715
 20
-12.8955095323
 11
16.1433177443
 21
-12.7017839262
  0
LINE
  5
574
100
AcDbEntity
  8
0
100
AcDbLine
 62
7
  6
CONTINUOUS
 10
19.4287373095
 20
-13.7028580562
 11
18.7740400773
 21
-12.0
  0
LINE
  5
575
100
AcDbEntity
  8
0
100
AcDbLine
 62
7
  6
CONTINUOUS
 10
16.0747842143
 20
-12.5160175928
 11
15.8848253315
 21
-12.0
  0
LWPOLYLINE
  5
576
100
AcDbEntity
  8
0
100
AcDbPolyline
 62
7
  6
CONTINUOUS
 90
6
 70
0
 10
16.4472844289
 20
-13.5274120747
 10
16.4209564742
 20
-13.4416849979
 10
16.3924248709
 20
-13.3544352876
 10
16.361689619
 20
-13.2656629436
 10
16.3282945608
 20
-13.175340916
 10
16.2194490715
 20
-12.8955095323
  0
LINE
  5
577
100
AcDbEntity
  8
0
100
AcDbLine
 62
7
  6
CONTINUOUS
 10
13.8929974233
 20
-12.1960866853
 11
13.8929974233
 21
-12.784346741
  0
LINE
  5
578
100
AcDbEntity
  8
0
100
AcDbLine
 62
7
  6
CONTINUOUS
 10
13.8929974233
 20
-12.9804334263
 11
13.8929974233
 21
-13.506771371
  0
LINE
  5
579
100
AcDbEntity
  8
0
100
AcDbLine
 62
7
  6
CONTINUOUS
 10
14.1200451641
 20
-13.7028580562
 11
14.1200451641
 21
-12.0
  0
LINE
  5
57A
100
AcDbEntity
  8
0
100
AcDbLine
 62
7
  6
CONTINUOUS
 10
14.3883743124
 20
-12.0
 11
14.3883743124
 21
-12.1960866853
  0
LINE
  5
57B
100
AcDbEntity
  8
0
100
AcDbLine
 62
7
  6
CONTINUOUS
 10
15.2346431646
 20
-12.1960866853
 11
15.2346431646
 21
-13.7028580562
  0
LINE
  5
57C
100
AcDbEntity
  8
0
100
AcDbLine
 62
7
  6
CONTINUOUS
 10
15.4616909054
 20
-13.7028580562
 11
15.4616909054
 21
-12.0
  0
LINE
  5
57D
100
AcDbEntity
  8
0
100
AcDbLine
 62
7
  6
CONTINUOUS
 10
17.4328781099
 20
-12.0
 11
17.4328781099
 21
-13.7028580562
  0
LINE
  5
57E
100
AcDbEntity
  8
0
100
AcDbLine
 62
7
  6
CONTINUOUS
 10
17.6599258507
 20
-13.7028580562
 11
17.6599258507
 21
-12.0
  0
LWPOLYLINE
  5
57F
100
AcDbEntity
  8
0
100
AcDbPolyline
 62
7
  6
CONTINUOUS
 90
9
 70
0
 10
11.1950933
 20
-12.4375750062
 10
11.206564714
 20
-12.4063321112
 10
11.2176741925
 20
-12.3752023714
 10
11.2284195974
 20
-12.3441811054
 10
11.2388030668
 20
-12.3132729946
 10
11.2488310152
 20
-12.2824920831
 10
11.2585055808
 20
-12.2518430522
 10
11.2678246255
 20
-12.2213212205
 10
11.2767881491
 20
-12.1909265881
  0
LINE
  5
580
100
AcDbEntity
  8
0
100
AcDbLine
 62
7
  6
CONTINUOUS
 10
10.7143290517
 20
-13.7028580562
 11
11.1950933
 21
-12.4375750062
  0
LINE
  5
581
100
AcDbEntity
  8
0
100
AcDbLine
 62
7
  6
CONTINUOUS
 10
11.1506863154
 20
-12.0
 11
10.4714781884
 21
-13.7028580562
  0
LINE
  5
582
100
AcDbEntity
  8
RACCORDO
100
AcDbLine
 62
250
  6
CONTINUOUS
 10
-34.9001523048
 20
-54.9
 11
-34.7954219153
 21
-54.7952696104
  0
LINE
  5
583
100
AcDbEntity
  8
DRAFT
100
AcDbLine
 62
7
  6
CONTINUOUS
 10
-34.5523651948
 20
-54.9
 11
-34.5
 21
-54.8476348052
  0
LINE
  5
584
100
AcDbEntity
  8
0
100
AcDbLine
 62
7
  6
CONTINUOUS
 10
27.5
 20
15.95
 11
25.75
 21
15.95
  0
LINE
  5
585
100
AcDbEntity
  8
0
100
AcDbLine
 62
7
  6
CONTINUOUS
 10
24.25
 20
15.95
 11
22.5
 21
15.95
  0
LINE
  5
586
100
AcDbEntity
  8
0
100
AcDbLine
 62
7
  6
CONTINUOUS
 10
2.5
 20
15.95
 11
0.75
 21
15.95
  0
LINE
  5
587
100
AcDbEntity
  8
0
100
AcDbLine
 62
7
  6
CONTINUOUS
 10
-0.75
 20
15.95
 11
-2.5
 21
15.95
  0
LINE
  5
588
100
AcDbEntity
  8
0
100
AcDbLine
 62
7
  6
CONTINUOUS
 10
-22.5
 20
15.95
 11
-24.25
 21
15.95
  0
LINE
  5
589
100
AcDbEntity
  8
0
100
AcDbLine
 62
7
  6
CONTINUOUS
 10
-25.75
 20
15.95
 11
-27.5
 21
15.95
  0
LINE
  5
58A
100
AcDbEntity
  8
DRAFT
100
AcDbLine
 62
7
  6
CONTINUOUS
 10
35.9
 20
17.75
 11
27.5
 21
17.75
  0
LINE
  5
58B
100
AcDbEntity
  8
DRAFT
100
AcDbLine
 62
7
  6
CONTINUOUS
 10
25.75
 20
17.75
 11
24.25
 21
17.75
  0
LINE
  5
58C
100
AcDbEntity
  8
DRAFT
100
AcDbLine
 62
7
  6
CONTINUOUS
 10
22.5
 20
17.75
 11
2.5
 21
17.75
  0
LINE
  5
58D
100
AcDbEntity
  8
DRAFT
100
AcDbLine
 62
7
  6
CONTINUOUS
 10
0.75
 20
17.75
 11
-0.75
 21
17.75
  0
LINE
  5
58E
100
AcDbEntity
  8
DRAFT
100
AcDbLine
 62
7
  6
CONTINUOUS
 10
-2.5
 20
17.75
 11
-22.5
 21
17.75
  0
LINE
  5
58F
100
AcDbEntity
  8
DRAFT
100
AcDbLine
 62
7
  6
CONTINUOUS
 10
-24.25
 20
17.75
 11
-25.75
 21
17.75
  0
LINE
  5
590
100
AcDbEntity
  8
DRAFT
100
AcDbLine
 62
7
  6
CONTINUOUS
 10
-27.5
 20
17.75
 11
-35.9
 21
17.75
  0
LINE
  5
591
100
AcDbEntity
  8
DRAFT
100
AcDbLine
 62
7
  6
CONTINUOUS
 10
27.5
 20
18.0176397269
 11
25.75
 21
18.0176397269
  0
LINE
  5
592
100
AcDbEntity
  8
DRAFT
100
AcDbLine
 62
7
  6
CONTINUOUS
 10
24.25
 20
18.0176397269
 11
22.5
 21
18.0176397269
  0
LINE
  5
593
100
AcDbEntity
  8
DRAFT
100
AcDbLine
 62
7
  6
CONTINUOUS
 10
2.5
 20
18.0176397269
 11
0.75
 21
18.0176397269
  0
LINE
  5
594
100
AcDbEntity
  8
DRAFT
100
AcDbLine
 62
7
  6
CONTINUOUS
 10
-0.75
 20
18.0176397269
 11
-2.5
 21
18.0176397269
  0
LINE
  5
595
100
AcDbEntity
  8
DRAFT
100
AcDbLine
 62
7
  6
CONTINUOUS
 10
-22.5
 20
18.0176397269
 11
-24.25
 21
18.0176397269
  0
LINE
  5
596
100
AcDbEntity
  8
DRAFT
100
AcDbLine
 62
7
  6
CONTINUOUS
 10
-25.75
 20
18.0176397269
 11
-27.5
 21
18.0176397269
  0
LINE
  5
597
100
AcDbEntity
  8
DRAFT
100
AcDbLine
 62
7
  6
CONTINUOUS
 10
35.7952696104
 20
18.0644466757
 11
-35.7952696104
 21
18.0644466757
  0
LINE
  5
598
100
AcDbEntity
  8
RACCORDO
100
AcDbLine
 62
250
  6
CONTINUOUS
 10
-34.7954219153
 20
54.7952696104
 11
-34.9001523048
 21
54.9
  0
LWPOLYLINE
  5
599
100
AcDbEntity
  8
0
100
AcDbPolyline
 62
7
  6
CONTINUOUS
 90
5
 70
0
 10
25.8148096711
 20
-12.4191417059
 10
25.8648876627
 20
-12.4939528861
 10
25.9169206678
 20
-12.5630470153
 10
25.970094678
 20
-12.6272713843
 10
26.0244096932
 20
-12.6866259931
  0
LINE
  5
59A
100
AcDbEntity
  8
0
100
AcDbLine
 62
7
  6
CONTINUOUS
 10
26.0651493153
 20
-12.3863420495
 11
25.8213890732
 21
-12.0
  0
LINE
  5
59B
100
AcDbEntity
  8
0
100
AcDbLine
 62
7
  6
CONTINUOUS
 10
25.5546725045
 20
-12.0
 11
25.7156346771
 21
-12.2574519375
  0
LINE
  5
59C
100
AcDbEntity
  8
0
100
AcDbLine
 62
7
  6
CONTINUOUS
 10
25.7156346771
 20
-12.2574519375
 11
25.8148096711
 21
-12.4191417059
  0
LINE
  5
59D
100
AcDbEntity
  8
0
100
AcDbLine
 62
7
  6
CONTINUOUS
 10
20.1224584953
 20
-12.0
 11
20.8045692655
 21
-13.7028580562
  0
LINE
  5
59E
100
AcDbEntity
  8
0
100
AcDbLine
 62
7
  6
CONTINUOUS
 10
20.6984817769
 20
-12.8955095323
 11
20.6223504497
 21
-12.7017839262
  0
LINE
  5
59F
100
AcDbEntity
  8
0
100
AcDbLine
 62
7
  6
CONTINUOUS
 10
20.5538169198
 20
-12.5160175928
 11
20.3638580369
 21
-12.0
  0
LWPOLYLINE
  5
5A0
100
AcDbEntity
  8
0
100
AcDbPolyline
 62
7
  6
CONTINUOUS
 90
6
 70
0
 10
20.9263171343
 20
-13.5274120747
 10
20.8999891796
 20
-13.4416849979
 10
20.8714575763
 20
-13.3544352876
 10
20.8407223244
 20
-13.2656629436
 10
20.8073272662
 20
-13.175340916
 10
20.6984817769
 20
-12.8955095323
  0
LWPOLYLINE
  5
5A1
100
AcDbEntity
  8
0
100
AcDbPolyline
 62
7
  6
CONTINUOUS
 90
10
 70
0
 10
18.6558397261
 20
-12.1909265881
 10
18.6643775697
 20
-12.2211272493
 10
18.6732690457
 20
-12.2515021602
 10
18.6825141542
 20
-12.2820513209
 10
18.6921216309
 20
-12.3127774897
 10
18.70208274
 20
-12.3436779082
 10
18.712371274
 20
-12.3747443016
 10
18.722978497
 20
-12.4059739116
 10
18.7339131449
 20
-12.4373694965
 10
19.1873379254
 20
-13.7028580562
  0
LWPOLYLINE
  5
5A2
100
AcDbEntity
  8
0
100
AcDbPolyline
 62
7
  6
CONTINUOUS
 90
41
 70
0
 10
23.43932289
 20
-13.2281218708
 10
23.4435194318
 20
-13.2753180843
 10
23.4511150525
 20
-13.3206511861
 10
23.4621097521
 20
-13.3641211762
 10
23.4767063663
 20
-13.4060086496
 10
23.4947020594
 20
-13.4460330114
 10
23.5154883241
 20
-13.4833524765
 10
23.5387882899
 20
-13.5175776863
 10
23.5648788272
 20
-13.5490979993
 10
23.5939820403
 20
-13.5782397066
 10
23.6260454946
 20
-13.6050996529
 10
23.6611216245
 20
-13.6295809935
 10
23.6995898382
 20
-13.6517194846
 10
23.7416640219
 20
-13.6716885676
 10
23.7871302894
 20
-13.689314801
 10
23.83572639
 20
-13.7041136176
 10
23.8879694945
 20
-13.7160631289
 10
23.9433424322
 20
-13.7251852232
 10
24.0000314411
 20
-13.7310609988
 10
24.0587195695
 20
-13.7335265774
 10
24.1187237691
 20
-13.7327458372
 10
24.176181133
 20
-13.7287915108
 10
24.2299596406
 20
-13.7214945413
 10
24.2811913126
 20
-13.7110239857
 10
24.3294093041
 20
-13.6979597478
 10
24.3745407872
 20
-13.6823688828
 10
24.4166585897
 20
-13.6641843356
 10
24.4555143501
 20
-13.6437848446
 10
24.4909261664
 20
-13.6213116358
 10
24.5230759405
 20
-13.5966234832
 10
24.5522610175
 20
-13.569675448
 10
24.5785858636
 20
-13.5403590201
 10
24.6019460125
 20
-13.5087827094
 10
24.6223254103
 20
-13.4752271067
 10
24.6398838255
 20
-13.4392888253
 10
24.6544614896
 20
-13.4013712518
 10
24.6655630435
 20
-13.3629651367
 10
24.6730020114
 20
-13.324088979
 10
24.676964869
 20
-13.2847242797
 10
24.677515684
 20
-13.246306293
 10
24.6745607751
 20
-13.2091410781
  0
LINE
  5
5A3
100
AcDbEntity
  8
0
100
AcDbLine
 62
7
  6
CONTINUOUS
 10
16.9787826282
 20
-12.0
 11
16.7993051977
 21
-12.5160175928
  0
LWPOLYLINE
  5
5A4
100
AcDbEntity
  8
0
100
AcDbPolyline
 62
7
  6
CONTINUOUS
 90
9
 70
0
 10
18.574144877
 20
-12.4375750062
 10
18.5856162909
 20
-12.4063321112
 10
18.5967257695
 20
-12.3752023714
 10
18.6074711743
 20
-12.3441811054
 10
18.6178546437
 20
-12.3132729946
 10
18.6278825922
 20
-12.2824920831
 10
18.6375571578
 20
-12.2518430522
 10
18.6468762024
 20
-12.2213212205
 10
18.6558397261
 20
-12.1909265881
  0
LINE
  5
5A5
100
AcDbEntity
  8
0
100
AcDbLine
 62
7
  6
CONTINUOUS
 10
16.7346417013
 20
-12.7017839262
 11
16.5506492054
 21
-13.1989346528
  0
LINE
  5
5A6
100
AcDbEntity
  8
0
100
AcDbLine
 62
7
  6
CONTINUOUS
 10
16.5711286512
 20
-13.7028580562
 11
17.2184081748
 21
-12.0
  0
LINE
  5
5A7
100
AcDbEntity
  8
0
100
AcDbLine
 62
7
  6
CONTINUOUS
 10
18.0933806287
 20
-13.7028580562
 11
18.574144877
 21
-12.4375750062
  0
LINE
  5
5A8
100
AcDbEntity
  8
0
100
AcDbLine
 62
7
  6
CONTINUOUS
 10
18.5297378924
 20
-12.0
 11
17.8505297654
 21
-13.7028580562
  0
LWPOLYLINE
  5
5A9
100
AcDbEntity
  8
0
100
AcDbPolyline
 62
7
  6
CONTINUOUS
 90
10
 70
0
 10
16.5506492054
 20
-13.1989346528
 10
16.5364514527
 20
-13.2339753804
 10
16.5229185337
 20
-13.2694138826
 10
16.5100504485
 20
-13.3052501593
 10
16.4978293828
 20
-13.3415289888
 10
16.4862731509
 20
-13.3782055927
 10
16.4754351952
 20
-13.4151456368
 10
16.4653333301
 20
-13.4523043427
 10
16.4559497414
 20
-13.4897264887
 10
16.4472844289
 20
-13.5274120747
  0
LINE
  5
5AA
100
AcDbEntity
  8
DRAFT
100
AcDbLine
 62
7
  6
CONTINUOUS
 10
3.25
 20
-33.99496732
 11
3.65
 21
-33.302146997
  0
LINE
  5
5AB
100
AcDbEntity
  8
DRAFT
100
AcDbLine
 62
7
  6
CONTINUOUS
 10
3.3110927272
 20
-34.011337067
 11
3.65
 21
-33.4243324515
  0
LINE
  5
5AC
100
AcDbEntity
  8
0
100
AcDbLine
 62
7
  6
CONTINUOUS
 10
27.233180924
 20
-12.0
 11
27.9152916942
 21
-13.7028580562
  0
LINE
  5
5AD
100
AcDbEntity
  8
0
100
AcDbLine
 62
7
  6
CONTINUOUS
 10
27.8092042056
 20
-12.8955095323
 11
27.7330728784
 21
-12.7017839262
  0
LINE
  5
5AE
100
AcDbEntity
  8
0
100
AcDbLine
 62
7
  6
CONTINUOUS
 10
27.6645393485
 20
-12.5160175928
 11
27.4745804656
 21
-12.0
  0
LWPOLYLINE
  5
5AF
100
AcDbEntity
  8
0
100
AcDbPolyline
 62
7
  6
CONTINUOUS
 90
12
 70
0
 10
24.6745607751
 20
-13.2091410781
 10
24.6681938235
 20
-13.1729225758
 10
24.6587599413
 20
-13.1381678625
 10
24.646416067
 20
-13.1050721934
 10
24.631005262
 20
-13.0734403132
 10
24.6124018225
 20
-13.0432035322
 10
24.5906422871
 20
-13.0143570888
 10
24.5656901171
 20
-12.9869057446
 10
24.5373099929
 20
-12.9607950944
 10
24.5054234744
 20
-12.9360070032
 10
24.4701090015
 20
-12.912559606
 10
24.4313665743
 20
-12.8904529029
  0
LWPOLYLINE
  5
5B0
100
AcDbEntity
  8
0
100
AcDbPolyline
 62
7
  6
CONTINUOUS
 90
22
 70
0
 10
24.7396872238
 20
-12.5572990002
 10
24.7361380013
 20
-12.5055919673
 10
24.7291938808
 20
-12.4560302248
 10
24.7188548624
 20
-12.4086137725
 10
24.7049591114
 20
-12.3633158192
 10
24.6876684625
 20
-12.3201631562
 10
24.6674684198
 20
-12.2792361575
 10
24.6443767917
 20
-12.2404167447
 10
24.6183757699
 20
-12.2038229961
 10
24.589897433
 20
-12.1698895208
 10
24.5592690933
 20
-12.1388384188
 10
24.5261634385
 20
-12.1104475901
 10
24.4900306098
 20
-12.0844853442
 10
24.4508259389
 20
-12.0607864489
 10
24.4085940941
 20
-12.0395161364
 10
24.3629192221
 20
-12.0209384126
 10
24.3134627825
 20
-12.0050488908
 10
24.2605633157
 20
-11.9918519578
 10
24.20482059
 20
-11.98162478
 10
24.146434528
 20
-11.9744597463
 10
24.0852052072
 20
-11.9702644677
 10
24.0211326274
 20
-11.9690389444
  0
LINE
  5
5B1
100
AcDbEntity
  8
DRAFT
100
AcDbLine
 62
7
  6
CONTINUOUS
 10
22.5
 20
18.0176397269
 11
22.5
 21
15.95
  0
LINE
  5
5B2
100
AcDbEntity
  8
0
100
AcDbLine
 62
7
  6
CONTINUOUS
 10
22.8510628342
 20
-12.0
 11
22.8510628342
 21
-12.7017839262
  0
LINE
  5
5B3
100
AcDbEntity
  8
0
100
AcDbLine
 62
7
  6
CONTINUOUS
 10
22.8510628342
 20
-12.8978706115
 11
22.8510628342
 21
-13.506771371
  0
LINE
  5
5B4
100
AcDbEntity
  8
0
100
AcDbLine
 62
7
  6
CONTINUOUS
 10
23.078110575
 20
-13.7028580562
 11
23.078110575
 21
-12.0
  0
LINE
  5
5B5
100
AcDbEntity
  8
ASSI
100
AcDbLine
 62
7
  6
CONTINUOUS
 10
23.5
 20
46.6
 11
23.5
 21
53.5
  0
LINE
  5
5B6
100
AcDbEntity
  8
DRAFT
100
AcDbLine
 62
7
  6
CONTINUOUS
 10
24.25
 20
15.95
 11
24.25
 21
18.0176397269
  0
LINE
  5
5B7
100
AcDbEntity
  8
DRAFT
100
AcDbLine
 62
7
  6
CONTINUOUS
 10
25.75
 20
18.0176397269
 11
25.75
 21
15.95
  0
LINE
  5
5B8
100
AcDbEntity
  8
0
100
AcDbLine
 62
7
  6
CONTINUOUS
 10
26.803757595
 20
-12.0
 11
26.803757595
 21
-12.7533856855
  0
LINE
  5
5B9
100
AcDbEntity
  8
0
100
AcDbLine
 62
7
  6
CONTINUOUS
 10
26.803757595
 20
-12.9494723707
 11
26.803757595
 21
-13.506771371
  0
LINE
  5
5BA
100
AcDbEntity
  8
0
100
AcDbLine
 62
7
  6
CONTINUOUS
 10
21.4578153337
 20
-12.0
 11
21.2783379032
 21
-12.5160175928
  0
LINE
  5
5BB
100
AcDbEntity
  8
0
100
AcDbLine
 62
7
  6
CONTINUOUS
 10
21.2136744067
 20
-12.7017839262
 11
21.0296819109
 21
-13.1989346528
  0
LINE
  5
5BC
100
AcDbEntity
  8
0
100
AcDbLine
 62
7
  6
CONTINUOUS
 10
21.0501613566
 20
-13.7028580562
 11
21.6974408803
 21
-12.0
  0
LWPOLYLINE
  5
5BD
100
AcDbEntity
  8
0
100
AcDbPolyline
 62
7
  6
CONTINUOUS
 90
10
 70
0
 10
21.0296819109
 20
-13.1989346528
 10
21.0154841582
 20
-13.2339753804
 10
21.0019512392
 20
-13.2694138826
 10
20.9890831539
 20
-13.3052501593
 10
20.9768620883
 20
-13.3415289888
 10
20.9653058563
 20
-13.3782055927
 10
20.9544679007
 20
-13.4151456368
 10
20.9443660356
 20
-13.4523043427
 10
20.9349824468
 20
-13.4897264887
 10
20.9263171343
 20
-13.5274120747
  0
LWPOLYLINE
  5
5BE
100
AcDbEntity
  8
0
100
AcDbPolyline
 62
7
  6
CONTINUOUS
 90
28
 70
0
 10
21.9427912419
 20
-12.850784075
 10
21.9156245437
 20
-12.883598836
 10
21.8915162654
 20
-12.9179154775
 10
21.8704664071
 20
-12.9537339994
 10
21.8524598482
 20
-12.9909786085
 10
21.8375117092
 20
-13.0297250982
 10
21.8256673515
 20
-13.0702008479
 10
21.8169007309
 20
-13.1130823841
 10
21.8112378915
 20
-13.1576931805
 10
21.8088023273
 20
-13.202231037
 10
21.809701558
 20
-13.246712162
 10
21.813828064
 20
-13.2911203472
 10
21.8209827798
 20
-13.333604768
 10
21.8313752095
 20
-13.3736935265
 10
21.844795849
 20
-13.4118585205
 10
21.860417121
 20
-13.4476646188
 10
21.8781590466
 20
-13.4810949812
 10
21.8981016046
 20
-13.5121664479
 10
21.9196571546
 20
-13.5404944079
 10
21.9425095618
 20
-13.5657839585
 10
21.966974961
 20
-13.5883300024
 10
21.9934141162
 20
-13.608632637
 10
22.0218140483
 20
-13.6267698377
 10
22.0521877364
 20
-13.642663629
 10
22.084934882
 20
-13.6565801813
 10
22.1201887191
 20
-13.6686082182
 10
22.1578160138
 20
-13.6786590163
 10
22.1978167661
 20
-13.6867325753
  0
LINE
  5
5BF
100
AcDbEntity
  8
DRAFT
100
AcDbLine
 62
7
  6
CONTINUOUS
 10
34.5451818435
 20
32.5327171334
 11
34.5988528624
 21
32.5421083448
  0
LINE
  5
5C0
100
AcDbEntity
  8
DRAFT
100
AcDbLine
 62
7
  6
CONTINUOUS
 10
35.9
 20
24.0
 11
34.4884011428
 21
24.0
  0
LINE
  5
5C1
100
AcDbEntity
  8
DRAFT
100
AcDbLine
 62
7
  6
CONTINUOUS
 10
-34.4884011428
 20
24.0
 11
-35.9
 21
24.0
  0
LINE
  5
5C2
100
AcDbEntity
  8
RACCORDO
100
AcDbLine
 62
7
  6
CONTINUOUS
 10
34.5483680519
 20
24.1
 11
35.9
 21
24.1
  0
LINE
  5
5C3
100
AcDbEntity
  8
RACCORDO
100
AcDbLine
 62
7
  6
CONTINUOUS
 10
-34.5483680519
 20
24.1
 11
-35.9
 21
24.1
  0
LINE
  5
5C4
100
AcDbEntity
  8
RACCORDO
100
AcDbLine
 62
250
  6
CONTINUOUS
 10
-35.7987606234
 20
25.1
 11
-34.6321523635
 21
25.1
  0
LINE
  5
5C5
100
AcDbEntity
  8
RACCORDO
100
AcDbLine
 62
250
  6
CONTINUOUS
 10
34.6321523635
 20
25.1
 11
35.7987606234
 21
25.1
  0
LINE
  5
5C6
100
AcDbEntity
  8
DRAFT
100
AcDbLine
 62
7
  6
CONTINUOUS
 10
-34.5451818435
 20
32.5327171334
 11
-34.5988528624
 21
32.5421083448
  0
LINE
  5
5C7
100
AcDbEntity
  8
0
100
AcDbLine
 62
7
  6
CONTINUOUS
 10
33.0
 20
-13.7028580562
 11
32.3453027677
 21
-12.0
  0
LINE
  5
5C8
100
AcDbEntity
  8
0
100
AcDbLine
 62
7
  6
CONTINUOUS
 10
30.3952400408
 20
-13.4448492598
 11
29.9042169592
 21
-12.0
  0
LINE
  5
5C9
100
AcDbEntity
  8
0
100
AcDbLine
 62
7
  6
CONTINUOUS
 10
29.8541707743
 20
-12.4431276488
 11
30.2762333998
 21
-13.7028580562
  0
LINE
  5
5CA
100
AcDbEntity
  8
0
100
AcDbLine
 62
7
  6
CONTINUOUS
 10
29.8266333848
 20
-12.3590015219
 11
29.8541707743
 21
-12.4431276488
  0
LINE
  5
5CB
100
AcDbEntity
  8
0
100
AcDbLine
 62
7
  6
CONTINUOUS
 10
29.8088151693
 20
-12.3034505952
 11
29.8266333848
 21
-12.3590015219
  0
LINE
  5
5CC
100
AcDbEntity
  8
0
100
AcDbLine
 62
7
  6
CONTINUOUS
 10
29.7914993785
 20
-12.2483334764
 11
29.8088151693
 21
-12.3034505952
  0
LWPOLYLINE
  5
5CD
100
AcDbEntity
  8
0
100
AcDbPolyline
 62
7
  6
CONTINUOUS
 90
6
 70
0
 10
28.037039563
 20
-13.5274120747
 10
28.0107116083
 20
-13.4416849979
 10
27.982180005
 20
-13.3544352876
 10
27.9514447531
 20
-13.2656629436
 10
27.9180496949
 20
-13.175340916
 10
27.8092042056
 20
-12.8955095323
  0
LINE
  5
5CE
100
AcDbEntity
  8
0
100
AcDbLine
 62
7
  6
CONTINUOUS
 10
27.0308053358
 20
-13.7028580562
 11
27.0308053358
 21
-12.0
  0
LINE
  5
5CF
100
AcDbEntity
  8
DRAFT
100
AcDbLine
 62
7
  6
CONTINUOUS
 10
27.5
 20
15.95
 11
27.5
 21
18.0176397269
  0
LINE
  5
5D0
100
AcDbEntity
  8
0
100
AcDbLine
 62
7
  6
CONTINUOUS
 10
28.9813518366
 20
-12.0
 11
28.9813518366
 21
-13.7028580562
  0
LINE
  5
5D1
100
AcDbEntity
  8
0
100
AcDbLine
 62
7
  6
CONTINUOUS
 10
29.2083995774
 20
-13.4242085561
 11
29.2083995774
 21
-12.0
  0
LINE
  5
5D2
100
AcDbEntity
  8
0
100
AcDbLine
 62
7
  6
CONTINUOUS
 10
30.0
 20
-53.5
 11
30.0
 21
-47.2
  0
LINE
  5
5D3
100
AcDbEntity
  8
0
100
AcDbLine
 62
7
  6
CONTINUOUS
 10
30.3952400408
 20
-12.0
 11
30.3952400408
 21
-13.4448492598
  0
LINE
  5
5D4
100
AcDbEntity
  8
0
100
AcDbLine
 62
7
  6
CONTINUOUS
 10
30.6222877817
 20
-13.7028580562
 11
30.6222877817
 21
-12.0
  0
LINE
  5
5D5
100
AcDbEntity
  8
DRAFT
100
AcDbLine
 62
7
  6
CONTINUOUS
 10
30.7150898701
 20
-44.75
 11
30.7150898701
 21
-46.6
  0
LINE
  5
5D6
100
AcDbEntity
  8
DRAFT
100
AcDbLine
 62
7
  6
CONTINUOUS
 10
30.75
 20
-44.75
 11
30.75
 21
-46.6
  0
LINE
  5
5D7
100
AcDbEntity
  8
0
100
AcDbLine
 62
7
  6
CONTINUOUS
 10
31.0041408003
 20
-12.0
 11
31.0041408003
 21
-13.7028580562
  0
LINE
  5
5D8
100
AcDbEntity
  8
0
100
AcDbLine
 62
7
  6
CONTINUOUS
 10
28.5685377624
 20
-12.0
 11
28.3890603318
 21
-12.5160175928
  0
LINE
  5
5D9
100
AcDbEntity
  8
0
100
AcDbLine
 62
7
  6
CONTINUOUS
 10
28.3243968354
 20
-12.7017839262
 11
28.1404043396
 21
-13.1989346528
  0
LINE
  5
5DA
100
AcDbEntity
  8
0
100
AcDbLine
 62
7
  6
CONTINUOUS
 10
28.1608837853
 20
-13.7028580562
 11
28.808163309
 21
-12.0
  0
LWPOLYLINE
  5
5DB
100
AcDbEntity
  8
0
100
AcDbPolyline
 62
7
  6
CONTINUOUS
 90
10
 70
0
 10
28.1404043396
 20
-13.1989346528
 10
28.1262065868
 20
-13.2339753804
 10
28.1126736679
 20
-13.2694138826
 10
28.0998055826
 20
-13.3052501593
 10
28.0875845169
 20
-13.3415289888
 10
28.076028285
 20
-13.3782055927
 10
28.0651903294
 20
-13.4151456368
 10
28.0550884643
 20
-13.4523043427
 10
28.0457048755
 20
-13.4897264887
 10
28.037039563
 20
-13.5274120747
  0
LINE
  5
5DC
100
AcDbEntity
  8
DRAFT
100
AcDbLine
 62
7
  6
CONTINUOUS
 10
34.5992605626
 20
32.537441183
 11
34.5451818435
 21
32.5327171334
  0
LINE
  5
5DD
100
AcDbEntity
  8
DRAFT
100
AcDbLine
 62
7
  6
CONTINUOUS
 10
-34.5992605626
 20
27.462558817
 11
-34.5451818435
 21
27.4672828666
  0
LINE
  5
5DE
100
AcDbEntity
  8
0
100
AcDbLine
 62
7
  6
CONTINUOUS
 10
34.6196821264
 20
27.3
 11
35.0321523635
 21
27.3
  0
LINE
  5
5DF
100
AcDbEntity
  8
0
100
AcDbLine
 62
7
  6
CONTINUOUS
 10
-34.6196821264
 20
27.3
 11
-35.0321523635
 21
27.3
  0
LINE
  5
5E0
100
AcDbEntity
  8
DRAFT
100
AcDbLine
 62
7
  6
CONTINUOUS
 10
35.8877814546
 20
27.35
 11
35.8301797403
 21
27.35
  0
LINE
  5
5E1
100
AcDbEntity
  8
DRAFT
100
AcDbLine
 62
7
  6
CONTINUOUS
 10
-35.8301797403
 20
27.35
 11
-35.8877814546
 21
27.35
  0
LINE
  5
5E2
100
AcDbEntity
  8
DRAFT
100
AcDbLine
 62
7
  6
CONTINUOUS
 10
34.5988528624
 20
27.7
 11
34.4115988572
 21
27.7
  0
LINE
  5
5E3
100
AcDbEntity
  8
DRAFT
100
AcDbLine
 62
7
  6
CONTINUOUS
 10
-34.4115988572
 20
27.7
 11
-34.5988528624
 21
27.7
  0
LINE
  5
5E4
100
AcDbEntity
  8
DRAFT
100
AcDbLine
 62
7
  6
CONTINUOUS
 10
34.5992605626
 20
27.462558817
 11
34.5451818435
 21
27.4672828666
  0
LWPOLYLINE
  5
5E5
100
AcDbEntity
  8
0
100
AcDbPolyline
 62
7
  6
CONTINUOUS
 90
10
 70
0
 10
32.2271024165
 20
-12.1909265881
 10
32.2356402602
 20
-12.2211272493
 10
32.2445317362
 20
-12.2515021602
 10
32.2537768447
 20
-12.2820513209
 10
32.2633843214
 20
-12.3127774897
 10
32.2733454305
 20
-12.3436779082
 10
32.2836339644
 20
-12.3747443016
 10
32.2942411875
 20
-12.4059739116
 10
32.3051758354
 20
-12.4373694965
 10
32.7586006158
 20
-13.7028580562
  0
LINE
  5
5E6
100
AcDbEntity
  8
0
100
AcDbLine
 62
7
  6
CONTINUOUS
 10
31.2311885412
 20
-13.7028580562
 11
31.2311885412
 21
-12.0
  0
LINE
  5
5E7
100
AcDbEntity
  8
0
100
AcDbLine
 62
7
  6
CONTINUOUS
 10
32.2
 20
-53.5
 11
32.2
 21
-47.2
  0
LINE
  5
5E8
100
AcDbEntity
  8
DRAFT
100
AcDbLine
 62
7
  6
CONTINUOUS
 10
34.4115988572
 20
-27.7
 11
34.4115988572
 21
-32.3
  0
LINE
  5
5E9
100
AcDbEntity
  8
DRAFT
100
AcDbLine
 62
7
  6
CONTINUOUS
 10
34.4115988572
 20
27.7
 11
34.4115988572
 21
32.3
  0
LINE
  5
5EA
100
AcDbEntity
  8
DRAFT
100
AcDbLine
 62
7
  6
CONTINUOUS
 10
34.45
 20
-32.3
 11
34.45
 21
-27.7
  0
LINE
  5
5EB
100
AcDbEntity
  8
DRAFT
100
AcDbLine
 62
7
  6
CONTINUOUS
 10
34.45
 20
-46.4704650534
 11
34.45
 21
-53.5
  0
LINE
  5
5EC
100
AcDbEntity
  8
DRAFT
100
AcDbLine
 62
7
  6
CONTINUOUS
 10
34.45
 20
27.7
 11
34.45
 21
32.3
  0
LINE
  5
5ED
100
AcDbEntity
  8
DRAFT
100
AcDbLine
 62
7
  6
CONTINUOUS
 10
34.4884011428
 20
36.0
 11
34.4884011428
 21
32.3
  0
LINE
  5
5EE
100
AcDbEntity
  8
DRAFT
100
AcDbLine
 62
7
  6
CONTINUOUS
 10
34.4884011428
 20
-36.0
 11
34.4884011428
 21
-32.3
  0
LINE
  5
5EF
100
AcDbEntity
  8
DRAFT
100
AcDbLine
 62
7
  6
CONTINUOUS
 10
34.4884011428
 20
-27.7
 11
34.4884011428
 21
-24.0
  0
LINE
  5
5F0
100
AcDbEntity
  8
DRAFT
100
AcDbLine
 62
7
  6
CONTINUOUS
 10
34.4884011428
 20
24.0
 11
34.4884011428
 21
27.7
  0
LINE
  5
5F1
100
AcDbEntity
  8
DRAFT
100
AcDbLine
 62
7
  6
CONTINUOUS
 10
34.5451818435
 20
-32.5327171334
 11
34.5451818435
 21
-32.3
  0
LINE
  5
5F2
100
AcDbEntity
  8
DRAFT
100
AcDbLine
 62
7
  6
CONTINUOUS
 10
34.5451818435
 20
-27.7
 11
34.5451818435
 21
-27.4672828666
  0
LINE
  5
5F3
100
AcDbEntity
  8
DRAFT
100
AcDbLine
 62
7
  6
CONTINUOUS
 10
34.5451818435
 20
27.4672828666
 11
34.5451818435
 21
27.7
  0
LINE
  5
5F4
100
AcDbEntity
  8
DRAFT
100
AcDbLine
 62
7
  6
CONTINUOUS
 10
34.5451818435
 20
32.3
 11
34.5451818435
 21
32.5327171334
  0
LINE
  5
5F5
100
AcDbEntity
  8
DRAFT
100
AcDbLine
 62
7
  6
CONTINUOUS
 10
34.5483680519
 20
36.0
 11
34.5483680519
 21
35.9
  0
LINE
  5
5F6
100
AcDbEntity
  8
DRAFT
100
AcDbLine
 62
7
  6
CONTINUOUS
 10
34.5483680519
 20
24.1
 11
34.5483680519
 21
24.0
  0
LINE
  5
5F7
100
AcDbEntity
  8
DRAFT
100
AcDbLine
 62
7
  6
CONTINUOUS
 10
34.5483680519
 20
-24.0
 11
34.5483680519
 21
-24.1
  0
LINE
  5
5F8
100
AcDbEntity
  8
DRAFT
100
AcDbLine
 62
7
  6
CONTINUOUS
 10
34.5483680519
 20
-35.9
 11
34.5483680519
 21
-36.0
  0
LINE
  5
5F9
100
AcDbEntity
  8
DRAFT
100
AcDbLine
 62
7
  6
CONTINUOUS
 10
34.5988528624
 20
32.5421083448
 11
34.5988528624
 21
27.4578916552
  0
LINE
  5
5FA
100
AcDbEntity
  8
DRAFT
100
AcDbLine
 62
7
  6
CONTINUOUS
 10
34.5988528624
 20
-27.4578916552
 11
34.5988528624
 21
-32.5421083448
  0
LINE
  5
5FB
100
AcDbEntity
  8
0
100
AcDbLine
 62
7
  6
CONTINUOUS
 10
34.6196821264
 20
32.7
 11
34.6196821264
 21
27.3
  0
LINE
  5
5FC
100
AcDbEntity
  8
0
100
AcDbLine
 62
7
  6
CONTINUOUS
 10
34.6196821264
 20
-32.7
 11
34.6196821264
 21
-27.3
  0
LINE
  5
5FD
100
AcDbEntity
  8
RACCORDO
100
AcDbLine
 62
7
  6
CONTINUOUS
 10
34.6321523635
 20
-34.9
 11
34.6321523635
 21
-32.7
  0
LINE
  5
5FE
100
AcDbEntity
  8
RACCORDO
100
AcDbLine
 62
7
  6
CONTINUOUS
 10
34.6321523635
 20
-27.3
 11
34.6321523635
 21
-25.1
  0
LINE
  5
5FF
100
AcDbEntity
  8
RACCORDO
100
AcDbLine
 62
7
  6
CONTINUOUS
 10
34.6321523635
 20
25.1
 11
34.6321523635
 21
27.3
  0
LINE
  5
600
100
AcDbEntity
  8
RACCORDO
100
AcDbLine
 62
7
  6
CONTINUOUS
 10
34.6321523635
 20
32.7
 11
34.6321523635
 21
34.9
  0
LINE
  5
601
100
AcDbEntity
  8
0
100
AcDbLine
 62
7
  6
CONTINUOUS
 10
35.0321523635
 20
32.7
 11
35.0321523635
 21
27.3
  0
LINE
  5
602
100
AcDbEntity
  8
0
100
AcDbLine
 62
7
  6
CONTINUOUS
 10
35.0321523635
 20
-32.7
 11
35.0321523635
 21
-27.3
  0
LINE
  5
603
100
AcDbEntity
  8
DRAFT
100
AcDbLine
 62
7
  6
CONTINUOUS
 10
35.1214522078
 20
36.0
 11
35.1214522078
 21
35.9
  0
LINE
  5
604
100
AcDbEntity
  8
DRAFT
100
AcDbLine
 62
7
  6
CONTINUOUS
 10
35.1214522078
 20
24.1
 11
35.1214522078
 21
24.0
  0
LINE
  5
605
100
AcDbEntity
  8
DRAFT
100
AcDbLine
 62
7
  6
CONTINUOUS
 10
35.1214522078
 20
-24.0
 11
35.1214522078
 21
-24.1
  0
LINE
  5
606
100
AcDbEntity
  8
DRAFT
100
AcDbLine
 62
7
  6
CONTINUOUS
 10
35.1214522078
 20
-35.9
 11
35.1214522078
 21
-36.0
  0
LINE
  5
607
100
AcDbEntity
  8
DRAFT
100
AcDbLine
 62
7
  6
CONTINUOUS
 10
35.1389072728
 20
-24.0
 11
35.1389072728
 21
-24.1
  0
LINE
  5
608
100
AcDbEntity
  8
DRAFT
100
AcDbLine
 62
7
  6
CONTINUOUS
 10
35.1389072728
 20
-35.9
 11
35.1389072728
 21
-36.0
  0
LINE
  5
609
100
AcDbEntity
  8
DRAFT
100
AcDbLine
 62
7
  6
CONTINUOUS
 10
35.1389072728
 20
24.0
 11
35.1389072728
 21
24.1
  0
LINE
  5
60A
100
AcDbEntity
  8
DRAFT
100
AcDbLine
 62
7
  6
CONTINUOUS
 10
35.1389072728
 20
35.9
 11
35.1389072728
 21
36.0
  0
LWPOLYLINE
  5
60B
100
AcDbEntity
  8
0
100
AcDbPolyline
 62
7
  6
CONTINUOUS
 90
3
 70
0
 10
29.7616126033
 20
-12.3381457836
 10
29.7717415228
 20
-12.3081018841
 10
29.7914993785
 20
-12.2483334764
  0
LINE
  5
60C
100
AcDbEntity
  8
0
100
AcDbLine
 62
7
  6
CONTINUOUS
 10
29.7408079677
 20
-12.3985493329
 11
29.7616126033
 21
-12.3381457836
  0
LINE
  5
60D
100
AcDbEntity
  8
0
100
AcDbLine
 62
7
  6
CONTINUOUS
 10
29.7110329171
 20
-12.0
 11
29.2083995774
 21
-13.4242085561
  0
LINE
  5
60E
100
AcDbEntity
  8
0
100
AcDbLine
 62
7
  6
CONTINUOUS
 10
29.69797118
 20
-12.5206940736
 11
29.7408079677
 21
-12.3985493329
  0
LINE
  5
60F
100
AcDbEntity
  8
0
100
AcDbLine
 62
7
  6
CONTINUOUS
 10
29.2767718494
 20
-13.7028580562
 11
29.69797118
 21
-12.5206940736
  0
LWPOLYLINE
  5
610
100
AcDbEntity
  8
0
100
AcDbPolyline
 62
7
  6
CONTINUOUS
 90
9
 70
0
 10
32.1454075674
 20
-12.4375750062
 10
32.1568789814
 20
-12.4063321112
 10
32.1679884599
 20
-12.3752023714
 10
32.1787338648
 20
-12.3441811054
 10
32.1891173342
 20
-12.3132729946
 10
32.1991452826
 20
-12.2824920831
 10
32.2088198482
 20
-12.2518430522
 10
32.2181388929
 20
-12.2213212205
 10
32.2271024165
 20
-12.1909265881
  0
LINE
  5
611
100
AcDbEntity
  8
0
100
AcDbLine
 62
7
  6
CONTINUOUS
 10
31.6646433191
 20
-13.7028580562
 11
32.1454075674
 21
-12.4375750062
  0
LINE
  5
612
100
AcDbEntity
  8
0
100
AcDbLine
 62
7
  6
CONTINUOUS
 10
32.1010005828
 20
-12.0
 11
31.4217924558
 21
-13.7028580562
  0
LINE
  5
613
100
AcDbEntity
  8
RACCORDO
100
AcDbLine
 62
250
  6
CONTINUOUS
 10
-4.4
 20
-49.6000761524
 11
-4.3249432208
 21
-49.5250193732
  0
LINE
  5
614
100
AcDbEntity
  8
RACCORDO
100
AcDbLine
 62
250
  6
CONTINUOUS
 10
-3.9000761524
 20
-50.1
 11
-3.8250193732
 21
-50.0249432208
  0
LINE
  5
615
100
AcDbEntity
  8
DRAFT
100
AcDbLine
 62
7
  6
CONTINUOUS
 10
-34.5988528624
 20
27.4578916552
 11
-34.5451818435
 21
27.4672828666
  0
LINE
  5
616
100
AcDbEntity
  8
DRAFT
100
AcDbLine
 62
7
  6
CONTINUOUS
 10
34.5988528624
 20
32.3
 11
34.4115988572
 21
32.3
  0
LINE
  5
617
100
AcDbEntity
  8
DRAFT
100
AcDbLine
 62
7
  6
CONTINUOUS
 10
-34.4115988572
 20
32.3
 11
-34.5988528624
 21
32.3
  0
LINE
  5
618
100
AcDbEntity
  8
DRAFT
100
AcDbLine
 62
7
  6
CONTINUOUS
 10
-35.8877814546
 20
32.65
 11
-35.8301797403
 21
32.65
  0
LINE
  5
619
100
AcDbEntity
  8
DRAFT
100
AcDbLine
 62
7
  6
CONTINUOUS
 10
35.8301797403
 20
32.65
 11
35.8877814546
 21
32.65
  0
LINE
  5
61A
100
AcDbEntity
  8
0
100
AcDbLine
 62
7
  6
CONTINUOUS
 10
34.6196821264
 20
32.7
 11
35.0321523635
 21
32.7
  0
LINE
  5
61B
100
AcDbEntity
  8
0
100
AcDbLine
 62
7
  6
CONTINUOUS
 10
-34.6196821264
 20
32.7
 11
-35.0321523635
 21
32.7
  0
LINE
  5
61C
100
AcDbEntity
  8
RACCORDO
100
AcDbLine
 62
250
  6
CONTINUOUS
 10
-35.7987606234
 20
34.9
 11
-34.6321523635
 21
34.9
  0
LINE
  5
61D
100
AcDbEntity
  8
RACCORDO
100
AcDbLine
 62
250
  6
CONTINUOUS
 10
34.6321523635
 20
34.9
 11
35.7987606234
 21
34.9
  0
LINE
  5
61E
100
AcDbEntity
  8
DRAFT
100
AcDbLine
 62
7
  6
CONTINUOUS
 10
34.5988528624
 20
27.4578916552
 11
34.5451818435
 21
27.4672828666
  0
LINE
  5
61F
100
AcDbEntity
  8
RACCORDO
100
AcDbLine
 62
7
  6
CONTINUOUS
 10
35.7952696104
 20
-53.7954219153
 11
35.7952696104
 21
-36.0
  0
LINE
  5
620
100
AcDbEntity
  8
DRAFT
100
AcDbLine
 62
7
  6
CONTINUOUS
 10
35.7952696104
 20
-24.0
 11
35.7952696104
 21
-20.5644466757
  0
LINE
  5
621
100
AcDbEntity
  8
DRAFT
100
AcDbLine
 62
7
  6
CONTINUOUS
 10
35.7952696104
 20
18.0644466757
 11
35.7952696104
 21
24.0
  0
LINE
  5
622
100
AcDbEntity
  8
RACCORDO
100
AcDbLine
 62
7
  6
CONTINUOUS
 10
35.7952696104
 20
36.0
 11
35.7952696104
 21
53.7954219153
  0
LINE
  5
623
100
AcDbEntity
  8
RACCORDO
100
AcDbLine
 62
7
  6
CONTINUOUS
 10
35.7987606234
 20
-34.9
 11
35.7987606234
 21
-25.1
  0
LINE
  5
624
100
AcDbEntity
  8
RACCORDO
100
AcDbLine
 62
7
  6
CONTINUOUS
 10
35.7987606234
 20
25.1
 11
35.7987606234
 21
34.9
  0
LINE
  5
625
100
AcDbEntity
  8
DRAFT
100
AcDbLine
 62
7
  6
CONTINUOUS
 10
35.8301797403
 20
-32.65
 11
35.8301797403
 21
-27.35
  0
LINE
  5
626
100
AcDbEntity
  8
DRAFT
100
AcDbLine
 62
7
  6
CONTINUOUS
 10
35.8301797403
 20
27.35
 11
35.8301797403
 21
32.65
  0
LINE
  5
627
100
AcDbEntity
  8
SMUSSO
100
AcDbLine
 62
7
  6
CONTINUOUS
 10
35.8563623377
 20
-18.5810194482
 11
35.8563623377
 21
-20.3810194482
  0
LINE
  5
628
100
AcDbEntity
  8
DRAFT
100
AcDbLine
 62
7
  6
CONTINUOUS
 10
35.8877814546
 20
32.65
 11
35.8877814546
 21
27.35
  0
LINE
  5
629
100
AcDbEntity
  8
DRAFT
100
AcDbLine
 62
7
  6
CONTINUOUS
 10
35.8877814546
 20
-27.35
 11
35.8877814546
 21
-32.65
  0
LINE
  5
62A
100
AcDbEntity
  8
RACCORDO
100
AcDbLine
 62
7
  6
CONTINUOUS
 10
35.9
 20
-53.9001523048
 11
35.9
 21
-35.9
  0
LINE
  5
62B
100
AcDbEntity
  8
DRAFT
100
AcDbLine
 62
7
  6
CONTINUOUS
 10
35.9
 20
-35.9
 11
35.9
 21
35.9
  0
LINE
  5
62C
100
AcDbEntity
  8
RACCORDO
100
AcDbLine
 62
7
  6
CONTINUOUS
 10
35.9
 20
35.9
 11
35.9
 21
53.9001523048
  0
LINE
  5
62D
100
AcDbEntity
  8
SMUSSO
100
AcDbLine
 62
7
  6
CONTINUOUS
 10
35.8692566451
 20
-17.842305068
 11
35.8563623377
 21
-18.5810194482
  0
LINE
  5
62E
100
AcDbEntity
  8
SMUSSO
100
AcDbLine
 62
7
  6
CONTINUOUS
 10
35.8692566451
 20
-17.842305068
 11
35.9
 21
-17.75
  0
LINE
  5
62F
100
AcDbEntity
  8
RACCORDO
100
AcDbLine
 62
7
  6
CONTINUOUS
 10
34.5483680519
 20
35.9
 11
35.9
 21
35.9
  0
LINE
  5
630
100
AcDbEntity
  8
RACCORDO
100
AcDbLine
 62
7
  6
CONTINUOUS
 10
-34.5483680519
 20
35.9
 11
-35.9
 21
35.9
  0
LINE
  5
631
100
AcDbEntity
  8
DRAFT
100
AcDbLine
 62
7
  6
CONTINUOUS
 10
35.9
 20
36.0
 11
34.4884011428
 21
36.0
  0
LINE
  5
632
100
AcDbEntity
  8
DRAFT
100
AcDbLine
 62
7
  6
CONTINUOUS
 10
-34.4884011428
 20
36.0
 11
-35.9
 21
36.0
  0
LINE
  5
633
100
AcDbEntity
  8
DRAFT
100
AcDbLine
 62
7
  6
CONTINUOUS
 10
35.7952696104
 20
18.0644466757
 11
35.9
 21
17.75
  0
LINE
  5
634
100
AcDbEntity
  8
DRAFT
100
AcDbLine
 62
7
  6
CONTINUOUS
 10
35.7952696104
 20
-20.5644466757
 11
35.8563623377
 21
-20.3810194482
  0
LINE
  5
635
100
AcDbEntity
  8
DRAFT
100
AcDbLine
 62
250
  6
CONTINUOUS
 10
-30.7150898701
 20
44.75
 11
-30.75
 21
44.75
  0
LINE
  5
636
100
AcDbEntity
  8
DRAFT
100
AcDbLine
 62
7
  6
CONTINUOUS
 10
23.5
 20
46.6
 11
-34.45
 21
46.6
  0
LINE
  5
637
100
AcDbEntity
  8
0
100
AcDbLine
 62
7
  6
CONTINUOUS
 10
9.2
 20
47.2
 11
7.0
 21
47.2
  0
LINE
  5
638
100
AcDbEntity
  8
0
100
AcDbLine
 62
7
  6
CONTINUOUS
 10
-7.0
 20
47.2
 11
-9.2
 21
47.2
  0
LINE
  5
639
100
AcDbEntity
  8
0
100
AcDbLine
 62
7
  6
CONTINUOUS
 10
-30.0
 20
47.2
 11
-32.2
 21
47.2
  0
LINE
  5
63A
100
AcDbEntity
  8
0
100
AcDbLine
 62
7
  6
CONTINUOUS
 10
30.5
 20
48.9
 11
28.5
 21
48.9
  0
LINE
  5
63B
100
AcDbEntity
  8
0
100
AcDbLine
 62
7
  6
CONTINUOUS
 10
28.5
 20
52.9
 11
30.5
 21
52.9
  0
LINE
  5
63C
100
AcDbEntity
  8
ASSI
100
AcDbLine
 62
7
  6
CONTINUOUS
 10
23.5
 20
53.5
 11
-34.45
 21
53.5
  0
LINE
  5
63D
100
AcDbEntity
  8
RACCORDO
100
AcDbLine
 62
7
  6
CONTINUOUS
 10
34.7954219153
 20
54.7952696104
 11
-34.7954219153
 21
54.7952696104
  0
LINE
  5
63E
100
AcDbEntity
  8
DRAFT
100
AcDbLine
 62
7
  6
CONTINUOUS
 10
34.5
 20
54.8476348052
 11
24.5
 21
54.8476348052
  0
LINE
  5
63F
100
AcDbEntity
  8
RACCORDO
100
AcDbLine
 62
7
  6
CONTINUOUS
 10
34.9001523048
 20
54.9
 11
34.5523651948
 21
54.9
  0
LINE
  5
640
100
AcDbEntity
  8
RACCORDO
100
AcDbLine
 62
7
  6
CONTINUOUS
 10
24.4476348052
 20
54.9
 11
-34.9001523048
 21
54.9
  0
LINE
  5
641
100
AcDbEntity
  8
DRAFT
100
AcDbLine
 62
7
  6
CONTINUOUS
 10
24.4476348052
 20
54.9
 11
24.5
 21
54.8476348052
  0
CIRCLE
  5
642
100
AcDbEntity
  8
DRAFT
100
AcDbCircle
 62
7
  6
CONTINUOUS
 10
-33.0
 20
-44.75
 40
2.2849101299
  0
CIRCLE
  5
643
100
AcDbEntity
  8
DRAFT
100
AcDbCircle
 62
7
  6
CONTINUOUS
 10
-33.0
 20
-44.75
 40
2.25
  0
ARC
  5
644
100
AcDbEntity
  8
0
100
AcDbCircle
 62
7
  6
CONTINUOUS
 10
-28.5
 20
-50.9
 40
2.0
100
AcDbArc
 50
270.0
 51
90.0
  0
ARC
  5
645
100
AcDbEntity
  8
0
100
AcDbCircle
 62
7
  6
CONTINUOUS
 10
-30.5
 20
-50.9
 40
2.0
100
AcDbArc
 50
90.0
 51
270.0
  0
CIRCLE
  5
646
100
AcDbEntity
  8
DRAFT
100
AcDbCircle
 62
7
  6
CONTINUOUS
 10
-33.0
 20
-44.75
 40
1.3198202597
  0
CIRCLE
  5
647
100
AcDbEntity
  8
DRAFT
100
AcDbCircle
 62
7
  6
CONTINUOUS
 10
-33.0
 20
-44.75
 40
1.25
  0
CIRCLE
  5
648
100
AcDbEntity
  8
DRAFT
100
AcDbCircle
 62
7
  6
CONTINUOUS
 10
-33.0
 20
-44.75
 40
1.0
  0
CIRCLE
  5
649
100
AcDbEntity
  8
DRAFT
100
AcDbCircle
 62
7
  6
CONTINUOUS
 10
-33.0
 20
-44.75
 40
0.9520022272
  0
ARC
  5
64A
100
AcDbEntity
  8
0
100
AcDbCircle
 62
7
  6
CONTINUOUS
 10
-22.403204
 20
-3.083098
 40
0.4806413166
100
AcDbArc
 50
123.7488518717
 51
333.3682031715
  0
ARC
  5
64B
100
AcDbEntity
  8
0
100
AcDbCircle
 62
7
  6
CONTINUOUS
 10
-22.403204
 20
-3.083098
 40
0.4806403194
100
AcDbArc
 50
346.1529569329
 51
12.8397156584
  0
ARC
  5
64C
100
AcDbEntity
  8
0
100
AcDbCircle
 62
7
  6
CONTINUOUS
 10
-19.706276
 20
1.83012
 40
5.6074779015
100
AcDbArc
 50
284.6184641724
 51
288.030536234
  0
ARC
  5
64D
100
AcDbEntity
  8
0
100
AcDbCircle
 62
7
  6
CONTINUOUS
 10
-19.706276
 20
1.83012
 40
5.6074766208
100
AcDbArc
 50
246.1507510578
 51
257.0671232762
  0
ARC
  5
64E
100
AcDbEntity
  8
0
100
AcDbCircle
 62
7
  6
CONTINUOUS
 10
-19.706276
 20
1.83012
 40
5.6074765047
100
AcDbArc
 50
289.1821054584
 51
292.6110335093
  0
ARC
  5
64F
100
AcDbEntity
  8
0
100
AcDbCircle
 62
7
  6
CONTINUOUS
 10
-19.706276
 20
1.83012
 40
5.6074761346
100
AcDbArc
 50
271.9102144889
 51
283.4934082927
  0
ARC
  5
650
100
AcDbEntity
  8
0
100
AcDbCircle
 62
7
  6
CONTINUOUS
 10
-19.706276
 20
1.83012
 40
5.6074759526
100
AcDbArc
 50
258.1844536706
 51
270.8185512484
  0
ARC
  5
651
100
AcDbEntity
  8
0
100
AcDbCircle
 62
7
  6
CONTINUOUS
 10
-19.706276
 20
1.83012
 40
5.5006686758
100
AcDbArc
 50
271.9473196142
 51
283.7605162941
  0
ARC
  5
652
100
AcDbEntity
  8
0
100
AcDbCircle
 62
7
  6
CONTINUOUS
 10
-19.706276
 20
1.83012
 40
5.5006683841
100
AcDbArc
 50
289.5695983715
 51
291.7987287801
  0
ARC
  5
653
100
AcDbEntity
  8
0
100
AcDbCircle
 62
7
  6
CONTINUOUS
 10
-19.706276
 20
1.83012
 40
5.5006682353
100
AcDbArc
 50
284.9088365842
 51
288.3930555303
  0
ARC
  5
654
100
AcDbEntity
  8
0
100
AcDbCircle
 62
7
  6
CONTINUOUS
 10
-19.706276
 20
1.83012
 40
5.5006672221
100
AcDbArc
 50
246.0805511142
 51
256.8115132283
  0
ARC
  5
655
100
AcDbEntity
  8
0
100
AcDbCircle
 62
7
  6
CONTINUOUS
 10
-19.706276
 20
1.83012
 40
5.5006664386
100
AcDbArc
 50
257.9516164098
 51
270.8344466285
  0
ARC
  5
656
100
AcDbEntity
  8
DRAFT
100
AcDbCircle
 62
7
  6
CONTINUOUS
 10
-33.0
 20
44.75
 40
2.2849101299
100
AcDbArc
 50
129.3901947656
 51
360.0
  0
ARC
  5
657
100
AcDbEntity
  8
DRAFT
100
AcDbCircle
 62
7
  6
CONTINUOUS
 10
-33.0
 20
44.75
 40
2.25
100
AcDbArc
 50
130.1240345935
 51
360.0
  0
CIRCLE
  5
658
100
AcDbEntity
  8
DRAFT
100
AcDbCircle
 62
7
  6
CONTINUOUS
 10
-33.0
 20
44.75
 40
1.3198202597
  0
CIRCLE
  5
659
100
AcDbEntity
  8
DRAFT
100
AcDbCircle
 62
7
  6
CONTINUOUS
 10
-33.0
 20
44.75
 40
1.25
  0
CIRCLE
  5
65A
100
AcDbEntity
  8
DRAFT
100
AcDbCircle
 62
7
  6
CONTINUOUS
 10
-33.0
 20
44.75
 40
1.0
  0
CIRCLE
  5
65B
100
AcDbEntity
  8
DRAFT
100
AcDbCircle
 62
7
  6
CONTINUOUS
 10
-33.0
 20
44.75
 40
0.9520022272
  0
ARC
  5
65C
100
AcDbEntity
  8
0
100
AcDbCircle
 62
7
  6
CONTINUOUS
 10
-21.602136
 20
4.607156
 40
0.9345803565
100
AcDbArc
 50
265.000002777
 51
356.7242074107
  0
ARC
  5
65D
100
AcDbEntity
  8
0
100
AcDbCircle
 62
7
  6
CONTINUOUS
 10
-21.602136
 20
4.607156
 40
0.9345790614
100
AcDbArc
 50
3.2757971638
 51
258.4375028389
  0
CIRCLE
  5
65E
100
AcDbEntity
  8
0
100
AcDbCircle
 62
7
  6
CONTINUOUS
 10
-21.602136
 20
4.607156
 40
0.534046
  0
CIRCLE
  5
65F
100
AcDbEntity
  8
0
100
AcDbCircle
 62
7
  6
CONTINUOUS
 10
-21.602136
 20
4.607156
 40
0.320428
  0
ARC
  5
660
100
AcDbEntity
  8
DRAFT
100
AcDbCircle
 62
7
  6
CONTINUOUS
 10
33.0
 20
-44.75
 40
2.2849101299
100
AcDbArc
 50
309.3901947656
 51
180.0
  0
ARC
  5
661
100
AcDbEntity
  8
DRAFT
100
AcDbCircle
 62
7
  6
CONTINUOUS
 10
33.0
 20
-44.75
 40
2.25
100
AcDbArc
 50
310.1240345935
 51
180.0
  0
CIRCLE
  5
662
100
AcDbEntity
  8
DRAFT
100
AcDbCircle
 62
7
  6
CONTINUOUS
 10
33.0
 20
-44.75
 40
1.3198202597
  0
CIRCLE
  5
663
100
AcDbEntity
  8
DRAFT
100
AcDbCircle
 62
7
  6
CONTINUOUS
 10
33.0
 20
-44.75
 40
1.25
  0
CIRCLE
  5
664
100
AcDbEntity
  8
DRAFT
100
AcDbCircle
 62
7
  6
CONTINUOUS
 10
33.0
 20
-44.75
 40
1.0
  0
CIRCLE
  5
665
100
AcDbEntity
  8
DRAFT
100
AcDbCircle
 62
7
  6
CONTINUOUS
 10
33.0
 20
-44.75
 40
0.9520022272
  0
CIRCLE
  5
666
100
AcDbEntity
  8
DRAFT
100
AcDbCircle
 62
7
  6
CONTINUOUS
 10
33.0
 20
44.75
 40
2.2849101299
  0
CIRCLE
  5
667
100
AcDbEntity
  8
DRAFT
100
AcDbCircle
 62
7
  6
CONTINUOUS
 10
33.0
 20
44.75
 40
2.25
  0
ARC
  5
668
100
AcDbEntity
  8
0
100
AcDbCircle
 62
7
  6
CONTINUOUS
 10
30.5
 20
50.9
 40
2.0
100
AcDbArc
 50
270.0
 51
90.0
  0
ARC
  5
669
100
AcDbEntity
  8
0
100
AcDbCircle
 62
7
  6
CONTINUOUS
 10
28.5
 20
50.9
 40
2.0
100
AcDbArc
 50
90.0
 51
270.0
  0
CIRCLE
  5
66A
100
AcDbEntity
  8
DRAFT
100
AcDbCircle
 62
7
  6
CONTINUOUS
 10
33.0
 20
44.75
 40
1.3198202597
  0
CIRCLE
  5
66B
100
AcDbEntity
  8
DRAFT
100
AcDbCircle
 62
7
  6
CONTINUOUS
 10
33.0
 20
44.75
 40
1.25
  0
CIRCLE
  5
66C
100
AcDbEntity
  8
DRAFT
100
AcDbCircle
 62
7
  6
CONTINUOUS
 10
33.0
 20
44.75
 40
1.0
  0
CIRCLE
  5
66D
100
AcDbEntity
  8
DRAFT
100
AcDbCircle
 62
7
  6
CONTINUOUS
 10
33.0
 20
44.75
 40
0.9520022272
  0
ELLIPSE
  5
66E
100
AcDbEntity
  8
RACCORDO
100
AcDbEllipse
 62
7
  6
CONTINUOUS
 10
-4.3842904416
 20
-16.4
 30
0.0
 11
-0.0
 21
0.3
 31
0.0
 40
0.0174550649
 41
-3.1415926536
 42
-1.5707963268
  0
ELLIPSE
  5
66F
100
AcDbEntity
  8
RACCORDO
100
AcDbEllipse
 62
7
  6
CONTINUOUS
 10
4.3842904416
 20
-16.4
 30
0.0
 11
0.0
 21
0.3
 31
0.0
 40
0.0174550649
 41
1.5707963268
 42
3.1415926536
  0
ELLIPSE
  5
670
100
AcDbEntity
  8
RACCORDO
100
AcDbEllipse
 62
7
  6
CONTINUOUS
 10
-3.899923836
 20
-49.599923836
 30
0.0
 11
0.3536610946
 21
0.3536610946
 31
0.0
 40
0.9996954599
 41
-3.9268385237
 42
-2.3563467834
  0
ELLIPSE
  5
671
100
AcDbEntity
  8
RACCORDO
100
AcDbEllipse
 62
7
  6
CONTINUOUS
 10
3.899923836
 20
-49.599923836
 30
0.0
 11
0.3536610946
 21
-0.3536610946
 31
0.0
 40
0.9996954599
 41
-0.7852458701
 42
0.7852458701
  0
ELLIPSE
  5
672
100
AcDbEntity
  8
RACCORDO
100
AcDbEllipse
 62
7
  6
CONTINUOUS
 10
-3.8248670568
 20
-49.5248670568
 30
0.0
 11
-0.3536610946
 21
-0.3536610946
 31
0.0
 40
0.9996954599
 41
-0.7852458701
 42
0.7852458701
  0
ELLIPSE
  5
673
100
AcDbEntity
  8
RACCORDO
100
AcDbEllipse
 62
7
  6
CONTINUOUS
 10
3.8248670568
 20
-49.5248670568
 30
0.0
 11
0.3536610946
 21
-0.3536610946
 31
0.0
 40
0.9996954599
 41
-0.7852458701
 42
0.7852458701
  0
ELLIPSE
  5
674
100
AcDbEntity
  8
RACCORDO
100
AcDbEllipse
 62
7
  6
CONTINUOUS
 10
-34.6146972986
 20
34.9
 30
0.0
 11
0.0
 21
1.0
 31
0.0
 40
0.0174550649
 41
-0.0
 42
1.5707963268
  0
ELLIPSE
  5
675
100
AcDbEntity
  8
RACCORDO
100
AcDbEllipse
 62
7
  6
CONTINUOUS
 10
-34.6146972986
 20
25.1
 30
0.0
 11
0.0
 21
1.0
 31
0.0
 40
0.0174550649
 41
-4.7123889804
 42
-3.1415926536
  0
ELLIPSE
  5
676
100
AcDbEntity
  8
RACCORDO
100
AcDbEllipse
 62
7
  6
CONTINUOUS
 10
-34.6146972986
 20
-25.1
 30
0.0
 11
0.0
 21
1.0
 31
0.0
 40
0.0174550649
 41
-0.0
 42
1.5707963268
  0
ELLIPSE
  5
677
100
AcDbEntity
  8
RACCORDO
100
AcDbEllipse
 62
7
  6
CONTINUOUS
 10
-34.6146972986
 20
-34.9
 30
0.0
 11
-0.0
 21
1.0
 31
0.0
 40
0.0174550649
 41
-4.7123889804
 42
-3.1415926536
  0
ELLIPSE
  5
678
100
AcDbEntity
  8
RACCORDO
100
AcDbEllipse
 62
7
  6
CONTINUOUS
 10
34.6146972986
 20
-25.1
 30
0.0
 11
0.0
 21
1.0
 31
0.0
 40
0.0174550649
 41
-1.5707963268
 42
0.0
  0
ELLIPSE
  5
679
100
AcDbEntity
  8
RACCORDO
100
AcDbEllipse
 62
7
  6
CONTINUOUS
 10
34.6146972986
 20
25.1
 30
0.0
 11
-0.0
 21
1.0
 31
0.0
 40
0.0174550649
 41
-3.1415926536
 42
-1.5707963268
  0
ELLIPSE
  5
67A
100
AcDbEntity
  8
RACCORDO
100
AcDbEllipse
 62
7
  6
CONTINUOUS
 10
34.6146972986
 20
34.9
 30
0.0
 11
-0.0
 21
1.0
 31
0.0
 40
0.0174550649
 41
-1.5707963268
 42
0.0
  0
ELLIPSE
  5
67B
100
AcDbEntity
  8
RACCORDO
100
AcDbEllipse
 62
7
  6
CONTINUOUS
 10
34.6146972986
 20
-34.9
 30
0.0
 11
0.0
 21
1.0
 31
0.0
 40
0.0174550649
 41
-3.1415926536
 42
-1.5707963268
  0
ELLIPSE
  5
67C
100
AcDbEntity
  8
RACCORDO
100
AcDbEllipse
 62
7
  6
CONTINUOUS
 10
-35.8162156883
 20
34.9
 30
0.0
 11
0.0
 21
1.0
 31
0.0
 40
0.0174550649
 41
-1.5707963268
 42
0.0
  0
ELLIPSE
  5
67D
100
AcDbEntity
  8
RACCORDO
100
AcDbEllipse
 62
7
  6
CONTINUOUS
 10
-35.8162156883
 20
25.1
 30
0.0
 11
-0.0
 21
1.0
 31
0.0
 40
0.0174550649
 41
-3.1415926536
 42
-1.5707963268
  0
ELLIPSE
  5
67E
100
AcDbEntity
  8
RACCORDO
100
AcDbEllipse
 62
7
  6
CONTINUOUS
 10
-35.8162156883
 20
-25.1
 30
0.0
 11
0.0
 21
1.0
 31
0.0
 40
0.0174550649
 41
-1.5707963268
 42
0.0
  0
ELLIPSE
  5
67F
100
AcDbEntity
  8
RACCORDO
100
AcDbEllipse
 62
7
  6
CONTINUOUS
 10
-35.8162156883
 20
-34.9
 30
0.0
 11
-0.0
 21
1.0
 31
0.0
 40
0.0174550649
 41
-3.1415926536
 42
-1.5707963268
  0
ELLIPSE
  5
680
100
AcDbEntity
  8
RACCORDO
100
AcDbEllipse
 62
7
  6
CONTINUOUS
 10
35.8162156883
 20
25.1
 30
0.0
 11
-0.0
 21
1.0
 31
0.0
 40
0.0174550649
 41
-4.7123889804
 42
-3.1415926536
  0
ELLIPSE
  5
681
100
AcDbEntity
  8
RACCORDO
100
AcDbEllipse
 62
7
  6
CONTINUOUS
 10
35.8162156883
 20
34.9
 30
0.0
 11
-0.0
 21
1.0
 31
0.0
 40
0.0174550649
 41
-0.0
 42
1.5707963268
  0
ELLIPSE
  5
682
100
AcDbEntity
  8
RACCORDO
100
AcDbEllipse
 62
7
  6
CONTINUOUS
 10
35.8162156883
 20
-25.1
 30
0.0
 11
0.0
 21
1.0
 31
0.0
 40
0.0174550649
 41
-0.0
 42
1.5707963268
  0
ELLIPSE
  5
683
100
AcDbEntity
  8
RACCORDO
100
AcDbEllipse
 62
7
  6
CONTINUOUS
 10
35.8162156883
 20
-34.9
 30
0.0
 11
-0.0
 21
1.0
 31
0.0
 40
0.0174550649
 41
-4.7123889804
 42
-3.1415926536
  0
ELLIPSE
  5
684
100
AcDbEntity
  8
RACCORDO
100
AcDbEllipse
 62
7
  6
CONTINUOUS
 10
-34.899847672
 20
-53.899847672
 30
0.0
 11
0.7073221892
 21
0.7073221892
 31
0.0
 40
0.9996954599
 41
-3.9268385237
 42
-2.3563467834
  0
ELLIPSE
  5
685
100
AcDbEntity
  8
RACCORDO
100
AcDbEllipse
 62
7
  6
CONTINUOUS
 10
34.899847672
 20
-53.899847672
 30
0.0
 11
0.7073221892
 21
-0.7073221892
 31
0.0
 40
0.9996954599
 41
-0.7852458701
 42
0.7852458701
  0
ELLIPSE
  5
686
100
AcDbEntity
  8
RACCORDO
100
AcDbEllipse
 62
7
  6
CONTINUOUS
 10
-34.899847672
 20
53.899847672
 30
0.0
 11
0.7073221892
 21
-0.7073221892
 31
0.0
 40
0.9996954599
 41
2.3563467834
 42
3.9268385237
  0
ELLIPSE
  5
687
100
AcDbEntity
  8
RACCORDO
100
AcDbEllipse
 62
7
  6
CONTINUOUS
 10
34.899847672
 20
53.899847672
 30
0.0
 11
0.7073221892
 21
0.7073221892
 31
0.0
 40
0.9996954599
 41
-0.7852458701
 42
0.7852458701
  0
ELLIPSE
  5
688
100
AcDbEntity
  8
RACCORDO
100
AcDbEllipse
 62
7
  6
CONTINUOUS
 10
-5.9546029997
 20
-0.9542982275
 30
0.0
 11
0.0
 21
0.5
 31
0.0
 40
0.0349207695
 41
-3.1066860685
 42
-1.5707963268
  0
ELLIPSE
  5
689
100
AcDbEntity
  8
RACCORDO
100
AcDbEllipse
 62
7
  6
CONTINUOUS
 10
5.9546029997
 20
-0.9542982275
 30
0.0
 11
0.0
 21
0.5
 31
0.0
 40
0.0349207695
 41
1.5707963268
 42
3.1066860685
  0
ELLIPSE
  5
68A
100
AcDbEntity
  8
RACCORDO
100
AcDbEllipse
 62
7
  6
CONTINUOUS
 10
5.9546029997
 20
0.9542982275
 30
0.0
 11
0.0
 21
0.5
 31
0.0
 40
0.0349207695
 41
0.034906585
 42
1.5707963268
  0
ELLIPSE
  5
68B
100
AcDbEntity
  8
RACCORDO
100
AcDbEllipse
 62
7
  6
CONTINUOUS
 10
-4.8483339502
 20
0.9542982275
 30
0.0
 11
0.0
 21
0.5
 31
0.0
 40
0.2679491924
 41
0.034906585
 42
1.5707963268
  0
ELLIPSE
  5
68C
100
AcDbEntity
  8
RACCORDO
100
AcDbEllipse
 62
7
  6
CONTINUOUS
 10
-4.8483339502
 20
-0.9542982275
 30
0.0
 11
0.0
 21
0.5
 31
0.0
 40
0.2679491924
 41
1.5707963268
 42
3.1066860685
  0
ELLIPSE
  5
68D
100
AcDbEntity
  8
RACCORDO
100
AcDbEllipse
 62
7
  6
CONTINUOUS
 10
34.7951172824
 20
-53.7951172824
 30
0.0
 11
0.7073221892
 21
-0.7073221892
 31
0.0
 40
0.9996954599
 41
-0.7852458701
 42
0.7852458701
  0
ELLIPSE
  5
68E
100
AcDbEntity
  8
RACCORDO
100
AcDbEllipse
 62
7
  6
CONTINUOUS
 10
-34.7951172824
 20
53.7951172824
 30
0.0
 11
-0.7073221892
 21
0.7073221892
 31
0.0
 40
0.9996954599
 41
-0.7852458701
 42
0.7852458701
  0
ELLIPSE
  5
68F
100
AcDbEntity
  8
RACCORDO
100
AcDbEllipse
 62
7
  6
CONTINUOUS
 10
4.8483339502
 20
-0.9542982275
 30
0.0
 11
0.0
 21
0.5
 31
0.0
 40
0.2679491924
 41
-3.1066860685
 42
-1.5707963268
  0
ELLIPSE
  5
690
100
AcDbEntity
  8
RACCORDO
100
AcDbEllipse
 62
7
  6
CONTINUOUS
 10
4.8483339502
 20
0.9542982275
 30
0.0
 11
0.0
 21
0.5
 31
0.0
 40
0.2679491924
 41
-1.5707963268
 42
-0.034906585
  0
ELLIPSE
  5
691
100
AcDbEntity
  8
RACCORDO
100
AcDbEllipse
 62
7
  6
CONTINUOUS
 10
34.7951172824
 20
53.7951172824
 30
0.0
 11
-0.7073221892
 21
-0.7073221892
 31
0.0
 40
0.9996954599
 41
2.3563467834
 42
3.9268385237
  0
ELLIPSE
  5
692
100
AcDbEntity
  8
RACCORDO
100
AcDbEllipse
 62
7
  6
CONTINUOUS
 10
-34.7951172824
 20
-53.7951172824
 30
0.0
 11
0.7073221892
 21
0.7073221892
 31
0.0
 40
0.9996954599
 41
2.3563467834
 42
3.9268385237
  0
ELLIPSE
  5
693
100
AcDbEntity
  8
RACCORDO
100
AcDbEllipse
 62
7
  6
CONTINUOUS
 10
-5.9546029997
 20
0.9542982275
 30
0.0
 11
0.0
 21
0.5
 31
0.0
 40
0.0349207695
 41
-1.5707963268
 42
-0.034906585
  0
ENDSEC
  0
SECTION
  2
OBJECTS
  0
DICTIONARY
  5
C
100
AcDbDictionary
280
0
281
1
  3
ACAD_GROUP
350
D
  3
ACAD_MLINESTYLE
350
17
  3
ACAD_LAYOUT
350
1A
  3
ACAD_PLOTSETTINGS
350
19
  3
ACAD_PLOTSTYLENAME
350
E
  0
DICTIONARY
  5
D
102
{ACAD_REACTORS
330
C
102
}
100
AcDbDictionary
280
0
281
1
  0
ACDBDICTIONARYWDFLT
  5
E
102
{ACAD_REACTORS
330
C
102
}
100
AcDbDictionary
281
1
  3
Normal
350
F
100
AcDbDictionaryWithDefault
340
F
  0
DICTIONARY
  5
17
102
{ACAD_REACTORS
330
C
102
}
100
AcDbDictionary
280
0
281
1
  3
Standard
350
18
  0
DICTIONARY
  5
19
102
{ACAD_REACTORS
330
C
102
}
100
AcDbDictionary
281
1
  0
DICTIONARY
  5
1A
102
{ACAD_REACTORS
330
C
102
}
100
AcDbDictionary
281
1
  3
Model
350
694
  3
Layout1
350
695
  0
ACDBPLACEHOLDER
  5
F
102
{ACAD_REACTORS
330
E
102
}
  0
MLINESTYLE
  5
18
102
{ACAD_REACTORS
330
17
102
}
100
AcDbMlineStyle
  2
STANDARD
 70
0
  3

 62
256
 51
90.0
 52
90.0
 71
2
 49
0.5
 62
256
  6
BYLAYER
 49
-0.5
 62
256
  6
BYLAYER
  0
LAYOUT
  5
694
102
{ACAD_REACTORS
330
1A
102
}
100
AcDbPlotSettings
  1

  2
none_device
  4
ISO_A4_(297.00_x_210.00_MM)
  6

 40
0.0
 41
0.0
 42
0.0
 43
0.0
 44
297.0
 45
210.0
 46
0.0
 47
0.0
 48
0.0
 49
0.0
140
0.0
141
0.0
142
1.0
143
1.0
 70
1024
 72
1
 73
0
 74
0
  7

 75
0
147
1.0
148
0.0
149
0.0
100
AcDbLayout
  1
Model
 70
0
 71
0
 10
0.0
 20
0.0
 11
297.0
 21
210.0
 12
0.0
 22
0.0
 32
0.0
 14
0.0
 24
0.0
 34
0.0
 15
0.0
 25
0.0
 35
0.0
146
0.0
 13
0.0
 23
0.0
 33
0.0
 16
1.0
 26
0.0
 36
0.0
 17
0.0
 27
1.0
 37
0.0
 76
0
330
2B1
345
0
346
0
  0
LAYOUT
  5
695
102
{ACAD_REACTORS
330
1A
102
}
100
AcDbPlotSettings
  1

  2
none_device
  4
ISO_A4_(297.00_x_210.00_MM)
  6

 40
0.0
 41
0.0
 42
0.0
 43
0.0
 44
297.0
 45
210.0
 46
0.0
 47
0.0
 48
0.0
 49
0.0
140
0.0
141
0.0
142
1.0
143
1.0
 70
0
 72
1
 73
0
 74
0
  7

 75
0
147
1.0
148
0.0
149
0.0
100
AcDbLayout
  1
Layout1
 70
0
 71
1
 10
0.0
 20
0.0
 11
297.0
 21
210.0
 12
0.0
 22
0.0
 32
0.0
 14
0.0
 24
0.0
 34
0.0
 15
0.0
 25
0.0
 35
0.0
146
0.0
 13
0.0
 23
0.0
 33
0.0
 16
1.0
 26
0.0
 36
0.0
 17
0.0
 27
1.0
 37
0.0
 76
0
330
2B2
345
0
346
0
  0
ENDSEC
  0
EOF
