  0
SECTION
  2
HEADER
  9
$ACADVER
  1
AC1024
  9
$DWGCODEPAGE
  3
ANSI_1252
  9
$EXTMAX
 10
297.0
 20
210.0
 30
0.0
  9
$EXTMIN
 10
0.0
 20
0.0
 30
0.0
  9
$LIMMIN
 10
0.0
 20
0.0
  9
$LIMMAX
 10
297.0
 20
210.0
  9
$VIEWCTR
 10
148.5
 20
105.0
  9
$VIEWSIZE
 40
210.0
  9
$CLAYER
  8
0
  9
$LTSCALE
 40
16.335
  9
$CELTYPE
  6
BYLAYER
  9
$DIMSCALE
 40
1.0
  9
$DIMASZ
 40
3.0
  9
$DIMEXO
 40
0.5
  9
$DIMDLI
 40
11.286
  9
$DIMEXE
 40
1.5
  9
$DIMCEN
 40
2.673
  9
$DIMLFAC
 40
1.0
  9
$DIMBLK
  1
_FILLED
  9
$DIMALT
 70
0
  9
$DIMALTF
 40
0.0393700787
  9
$DIMTXT
 40
3.0
  9
$DIMTOL
 70
1
  9
$DIMLIM
 70
0
  9
$DIMTFAC
 40
1.0
  9
$DIMTP
 40
0.01
  9
$DIMTM
 40
0.01
  9
$DIMGAP
 40
0.625
  9
$DIMDSEP
 70
44
  9
$AUNITS
 70
0
  9
$PDMODE
 70
3
  9
$PDSIZE
 40
3.0
  9
$HANDSEED
  5
541
  9
$TILEMODE
 70
1
  9
$MEASUREMENT
 70
1
  9
$INSUNITS
 70
4
  0
ENDSEC
  0
SECTION
  2
CLASSES
  0
CLASS
  1
ACDBDICTIONARYWDFLT
  2
AcDbDictionaryWithDefault
  3
AutoCAD 2000
 90
0
 91
1
280
0
281
0
  0
CLASS
  1
ACDBPLACEHOLDER
  2
AcDbPlaceHolder
  3
AutoCAD 2000
 90
0
 91
1
280
0
281
0
  0
CLASS
  1
LAYOUT
  2
AcDbLayout
  3
AutoCAD 2000
 90
0
 91
0
280
0
281
0
  0
ENDSEC
  0
SECTION
  2
TABLES
  0
TABLE
  2
VPORT
  5
8
100
AcDbSymbolTable
 70
2
  0
VPORT
  5
1F4
100
AcDbSymbolTableRecord
100
AcDbViewportTableRecord
  2
*ACTIVE
 70
0
 10
0.0
 20
0.0
 11
1.0
 21
1.0
 12
148.5
 22
105.0
 13
0.0
 23
0.0
 14
1.0
 24
1.0
 15
0.0
 25
0.0
 16
0.0
 26
0.0
 36
1.0
 17
0.0
 27
0.0
 37
0.0
 40
210.0
 41
1.4142857143
 42
50.0
 43
0.0
 44
0.0
 50
0.0
 51
0.0
 71
0
 72
100
 73
1
 74
1
 75
0
 76
0
 77
0
 78
0
  0
ENDTAB
  0
TABLE
  2
LTYPE
  5
5
100
AcDbSymbolTable
 70
6
  0
LTYPE
  5
14
100
AcDbSymbolTableRecord
100
AcDbLinetypeTableRecord
  2
BYBLOCK
 70
0
  3

 72
65
 73
0
 40
0.0
  0
LTYPE
  5
15
100
AcDbSymbolTableRecord
100
AcDbLinetypeTableRecord
  2
BYLAYER
 70
0
  3

 72
65
 73
0
 40
0.0
  0
LTYPE
  5
16
100
AcDbSymbolTableRecord
100
AcDbLinetypeTableRecord
  2
CONTINUOUS
 70
64
  3
Solid line
 72
65
 73
0
 40
0.0
  0
LTYPE
  5
1F5
100
AcDbSymbolTableRecord
100
AcDbLinetypeTableRecord
  2
CENTER
 70
64
  3
____ _ ____ _ ____ _ ____ _ ____ _ ____ _ ____
 72
65
 73
4
 40
0.6
 49
0.375
 74
0
 49
-0.075
 74
0
 49
0.075
 74
0
 49
-0.075
 74
0
  0
LTYPE
  5
1F6
100
AcDbSymbolTableRecord
100
AcDbLinetypeTableRecord
  2
HIDDEN
 70
64
  3
- - - - - - - - - - - - - - - - - - - -
 72
65
 73
2
 40
0.2
 49
0.1
 74
0
 49
-0.1
 74
0
  0
LTYPE
  5
1F7
100
AcDbSymbolTableRecord
100
AcDbLinetypeTableRecord
  2
PHANTOM
 70
64
  3
_____ _ _ _____ _ _ _____ _ _ _____
 72
65
 73
6
 40
0.8
 49
0.45
 74
0
 49
-0.05
 74
0
 49
0.1
 74
0
 49
-0.05
 74
0
 49
0.1
 74
0
 49
-0.05
 74
0
  0
LTYPE
  5
1F8
100
AcDbSymbolTableRecord
100
AcDbLinetypeTableRecord
  2
DOT
 70
64
  3
. . . . . . . . . . . . . . . . . . . .
 72
65
 73
2
 40
0.2
 49
0.1
 74
0
 49
-0.1
 74
0
  0
LTYPE
  5
1F9
100
AcDbSymbolTableRecord
100
AcDbLinetypeTableRecord
  2
DASHED
 70
64
  3
- - - - - - - - - - - - - - - - - - - -
 72
65
 73
2
 40
0.2
 49
0.1
 74
0
 49
-0.1
 74
0
  0
ENDTAB
  0
TABLE
  2
LAYER
  5
2
100
AcDbSymbolTable
 70
36
  0
LAYER
  5
10
100
AcDbSymbolTableRecord
100
AcDbLayerTableRecord
  2
0
 70
0
 62
7
  6
CONTINUOUS
370
-3
390
F
  0
LAYER
  5
1FA
100
AcDbSymbolTableRecord
100
AcDbLayerTableRecord
  2
DEFAULT_1
 70
0
 62
7
  6
CENTER
370
-3
390
F
  0
LAYER
  5
1FB
100
AcDbSymbolTableRecord
100
AcDbLayerTableRecord
  2
DEFAULT_2
 70
0
 62
7
  6
HIDDEN
370
-3
390
F
  0
LAYER
  5
1FC
100
AcDbSymbolTableRecord
100
AcDbLayerTableRecord
  2
DEFAULT_3
 70
0
 62
7
  6
PHANTOM
370
-3
390
F
  0
LAYER
  5
1FD
100
AcDbSymbolTableRecord
100
AcDbLayerTableRecord
  2
0402_C_REF_70000
 70
0
 62
7
  6
CONTINUOUS
370
-3
390
F
  0
LAYER
  5
1FE
100
AcDbSymbolTableRecord
100
AcDbLayerTableRecord
  2
0402_C_REF_70000_1
 70
0
 62
7
  6
CONTINUOUS
370
-3
390
F
  0
LAYER
  5
1FF
100
AcDbSymbolTableRecord
100
AcDbLayerTableRecord
  2
0402_C_REF_70000_10
 70
0
 62
7
  6
CONTINUOUS
370
-3
390
F
  0
LAYER
  5
200
100
AcDbSymbolTableRecord
100
AcDbLayerTableRecord
  2
0402_C_REF_70000_11
 70
0
 62
7
  6
CONTINUOUS
370
-3
390
F
  0
LAYER
  5
201
100
AcDbSymbolTableRecord
100
AcDbLayerTableRecord
  2
0402_C_REF_70000_12
 70
0
 62
7
  6
CONTINUOUS
370
-3
390
F
  0
LAYER
  5
202
100
AcDbSymbolTableRecord
100
AcDbLayerTableRecord
  2
0402_C_REF_70000_13
 70
0
 62
7
  6
CONTINUOUS
370
-3
390
F
  0
LAYER
  5
203
100
AcDbSymbolTableRecord
100
AcDbLayerTableRecord
  2
0402_C_REF_70000_14
 70
0
 62
7
  6
CONTINUOUS
370
-3
390
F
  0
LAYER
  5
204
100
AcDbSymbolTableRecord
100
AcDbLayerTableRecord
  2
0402_C_REF_70000_15
 70
0
 62
7
  6
CONTINUOUS
370
-3
390
F
  0
LAYER
  5
205
100
AcDbSymbolTableRecord
100
AcDbLayerTableRecord
  2
0402_C_REF_70000_16
 70
0
 62
7
  6
CONTINUOUS
370
-3
390
F
  0
LAYER
  5
206
100
AcDbSymbolTableRecord
100
AcDbLayerTableRecord
  2
0402_C_REF_70000_17
 70
0
 62
7
  6
CONTINUOUS
370
-3
390
F
  0
LAYER
  5
207
100
AcDbSymbolTableRecord
100
AcDbLayerTableRecord
  2
0402_C_REF_70000_18
 70
0
 62
7
  6
CONTINUOUS
370
-3
390
F
  0
LAYER
  5
208
100
AcDbSymbolTableRecord
100
AcDbLayerTableRecord
  2
0402_C_REF_70000_19
 70
0
 62
7
  6
CONTINUOUS
370
-3
390
F
  0
LAYER
  5
209
100
AcDbSymbolTableRecord
100
AcDbLayerTableRecord
  2
0402_C_REF_70000_2
 70
0
 62
7
  6
CONTINUOUS
370
-3
390
F
  0
LAYER
  5
20A
100
AcDbSymbolTableRecord
100
AcDbLayerTableRecord
  2
0402_C_REF_70000_20
 70
0
 62
7
  6
CONTINUOUS
370
-3
390
F
  0
LAYER
  5
20B
100
AcDbSymbolTableRecord
100
AcDbLayerTableRecord
  2
0402_C_REF_70000_21
 70
0
 62
7
  6
CONTINUOUS
370
-3
390
F
  0
LAYER
  5
20C
100
AcDbSymbolTableRecord
100
AcDbLayerTableRecord
  2
0402_C_REF_70000_22
 70
0
 62
7
  6
CONTINUOUS
370
-3
390
F
  0
LAYER
  5
20D
100
AcDbSymbolTableRecord
100
AcDbLayerTableRecord
  2
0402_C_REF_70000_23
 70
0
 62
7
  6
CONTINUOUS
370
-3
390
F
  0
LAYER
  5
20E
100
AcDbSymbolTableRecord
100
AcDbLayerTableRecord
  2
0402_C_REF_70000_24
 70
0
 62
7
  6
CONTINUOUS
370
-3
390
F
  0
LAYER
  5
20F
100
AcDbSymbolTableRecord
100
AcDbLayerTableRecord
  2
0402_C_REF_70000_25
 70
0
 62
7
  6
CONTINUOUS
370
-3
390
F
  0
LAYER
  5
210
100
AcDbSymbolTableRecord
100
AcDbLayerTableRecord
  2
0402_C_REF_70000_26
 70
0
 62
7
  6
CONTINUOUS
370
-3
390
F
  0
LAYER
  5
211
100
AcDbSymbolTableRecord
100
AcDbLayerTableRecord
  2
0402_C_REF_70000_27
 70
0
 62
7
  6
CONTINUOUS
370
-3
390
F
  0
LAYER
  5
212
100
AcDbSymbolTableRecord
100
AcDbLayerTableRecord
  2
0402_C_REF_70000_28
 70
0
 62
7
  6
CONTINUOUS
370
-3
390
F
  0
LAYER
  5
213
100
AcDbSymbolTableRecord
100
AcDbLayerTableRecord
  2
0402_C_REF_70000_29
 70
0
 62
7
  6
CONTINUOUS
370
-3
390
F
  0
LAYER
  5
214
100
AcDbSymbolTableRecord
100
AcDbLayerTableRecord
  2
0402_C_REF_70000_3
 70
0
 62
7
  6
CONTINUOUS
370
-3
390
F
  0
LAYER
  5
215
100
AcDbSymbolTableRecord
100
AcDbLayerTableRecord
  2
0402_C_REF_70000_30
 70
0
 62
7
  6
CONTINUOUS
370
-3
390
F
  0
LAYER
  5
216
100
AcDbSymbolTableRecord
100
AcDbLayerTableRecord
  2
0402_C_REF_70000_4
 70
0
 62
7
  6
CONTINUOUS
370
-3
390
F
  0
LAYER
  5
217
100
AcDbSymbolTableRecord
100
AcDbLayerTableRecord
  2
0402_C_REF_70000_5
 70
0
 62
7
  6
CONTINUOUS
370
-3
390
F
  0
LAYER
  5
218
100
AcDbSymbolTableRecord
100
AcDbLayerTableRecord
  2
0402_C_REF_70000_6
 70
0
 62
7
  6
CONTINUOUS
370
-3
390
F
  0
LAYER
  5
219
100
AcDbSymbolTableRecord
100
AcDbLayerTableRecord
  2
0402_C_REF_70000_7
 70
0
 62
7
  6
CONTINUOUS
370
-3
390
F
  0
LAYER
  5
21A
100
AcDbSymbolTableRecord
100
AcDbLayerTableRecord
  2
0402_C_REF_70000_8
 70
0
 62
7
  6
CONTINUOUS
370
-3
390
F
  0
LAYER
  5
21B
100
AcDbSymbolTableRecord
100
AcDbLayerTableRecord
  2
0402_C_REF_70000_9
 70
0
 62
7
  6
CONTINUOUS
370
-3
390
F
  0
LAYER
  5
21C
100
AcDbSymbolTableRecord
100
AcDbLayerTableRecord
  2
0402_L_REF_55000
 70
0
 62
7
  6
CONTINUOUS
370
-3
390
F
  0
LAYER
  5
21D
100
AcDbSymbolTableRecord
100
AcDbLayerTableRecord
  2
0402_R_REF_30000
 70
0
 62
7
  6
CONTINUOUS
370
-3
390
F
  0
LAYER
  5
21E
100
AcDbSymbolTableRecord
100
AcDbLayerTableRecord
  2
0402_R_REF_30000_1
 70
0
 62
7
  6
CONTINUOUS
370
-3
390
F
  0
LAYER
  5
21F
100
AcDbSymbolTableRecord
100
AcDbLayerTableRecord
  2
0402_R_REF_30000_2
 70
0
 62
7
  6
CONTINUOUS
370
-3
390
F
  0
LAYER
  5
220
100
AcDbSymbolTableRecord
100
AcDbLayerTableRecord
  2
0402_R_REF_30000_3
 70
0
 62
7
  6
CONTINUOUS
370
-3
390
F
  0
LAYER
  5
221
100
AcDbSymbolTableRecord
100
AcDbLayerTableRecord
  2
0402_R_REF_30000_4
 70
0
 62
7
  6
CONTINUOUS
370
-3
390
F
  0
LAYER
  5
222
100
AcDbSymbolTableRecord
100
AcDbLayerTableRecord
  2
0402_R_REF_30000_5
 70
0
 62
7
  6
CONTINUOUS
370
-3
390
F
  0
LAYER
  5
223
100
AcDbSymbolTableRecord
100
AcDbLayerTableRecord
  2
0402_R_REF_30000_6
 70
0
 62
7
  6
CONTINUOUS
370
-3
390
F
  0
LAYER
  5
224
100
AcDbSymbolTableRecord
100
AcDbLayerTableRecord
  2
0402_R_REF_30000_7
 70
0
 62
7
  6
CONTINUOUS
370
-3
390
F
  0
LAYER
  5
225
100
AcDbSymbolTableRecord
100
AcDbLayerTableRecord
  2
0603_C_REF_90000
 70
0
 62
7
  6
CONTINUOUS
370
-3
390
F
  0
LAYER
  5
226
100
AcDbSymbolTableRecord
100
AcDbLayerTableRecord
  2
0603_C_REF_90000_1
 70
0
 62
7
  6
CONTINUOUS
370
-3
390
F
  0
LAYER
  5
227
100
AcDbSymbolTableRecord
100
AcDbLayerTableRecord
  2
0603_C_REF_90000_2
 70
0
 62
7
  6
CONTINUOUS
370
-3
390
F
  0
LAYER
  5
228
100
AcDbSymbolTableRecord
100
AcDbLayerTableRecord
  2
0603_C_REF_90000_3
 70
0
 62
7
  6
CONTINUOUS
370
-3
390
F
  0
LAYER
  5
229
100
AcDbSymbolTableRecord
100
AcDbLayerTableRecord
  2
0603_C_REF_90000_4
 70
0
 62
7
  6
CONTINUOUS
370
-3
390
F
  0
LAYER
  5
22A
100
AcDbSymbolTableRecord
100
AcDbLayerTableRecord
  2
0603_R_REF_55000
 70
0
 62
7
  6
CONTINUOUS
370
-3
390
F
  0
LAYER
  5
22B
100
AcDbSymbolTableRecord
100
AcDbLayerTableRecord
  2
0603_R_REF_55000_1
 70
0
 62
7
  6
CONTINUOUS
370
-3
390
F
  0
LAYER
  5
22C
100
AcDbSymbolTableRecord
100
AcDbLayerTableRecord
  2
0603_R_REF_55000_2
 70
0
 62
7
  6
CONTINUOUS
370
-3
390
F
  0
LAYER
  5
22D
100
AcDbSymbolTableRecord
100
AcDbLayerTableRecord
  2
0603_R_REF_55000_3
 70
0
 62
7
  6
CONTINUOUS
370
-3
390
F
  0
LAYER
  5
22E
100
AcDbSymbolTableRecord
100
AcDbLayerTableRecord
  2
0603_R_REF_55000_4
 70
0
 62
7
  6
CONTINUOUS
370
-3
390
F
  0
LAYER
  5
22F
100
AcDbSymbolTableRecord
100
AcDbLayerTableRecord
  2
0603_R_REF_55000_5
 70
0
 62
7
  6
CONTINUOUS
370
-3
390
F
  0
LAYER
  5
230
100
AcDbSymbolTableRecord
100
AcDbLayerTableRecord
  2
0603_R_REF_55000_6
 70
0
 62
7
  6
CONTINUOUS
370
-3
390
F
  0
LAYER
  5
231
100
AcDbSymbolTableRecord
100
AcDbLayerTableRecord
  2
06___PRT_ALL_SURFS_1
 70
0
 62
7
  6
CONTINUOUS
370
-3
390
F
  0
LAYER
  5
232
100
AcDbSymbolTableRecord
100
AcDbLayerTableRecord
  2
06___PRT_ALL_SURFS_13
 70
0
 62
7
  6
CONTINUOUS
370
-3
390
F
  0
LAYER
  5
233
100
AcDbSymbolTableRecord
100
AcDbLayerTableRecord
  2
06___PRT_ALL_SURFS_2
 70
0
 62
7
  6
CONTINUOUS
370
-3
390
F
  0
LAYER
  5
234
100
AcDbSymbolTableRecord
100
AcDbLayerTableRecord
  2
06___PRT_ALL_SURFS_21
 70
0
 62
7
  6
CONTINUOUS
370
-3
390
F
  0
LAYER
  5
235
100
AcDbSymbolTableRecord
100
AcDbLayerTableRecord
  2
06___PRT_ALL_SURFS_5
 70
0
 62
7
  6
CONTINUOUS
370
-3
390
F
  0
LAYER
  5
236
100
AcDbSymbolTableRecord
100
AcDbLayerTableRecord
  2
06___PRT_ALL_SURFS_9
 70
0
 62
7
  6
CONTINUOUS
370
-3
390
F
  0
LAYER
  5
237
100
AcDbSymbolTableRecord
100
AcDbLayerTableRecord
  2
0805_L_REF_145000
 70
0
 62
7
  6
CONTINUOUS
370
-3
390
F
  0
LAYER
  5
238
100
AcDbSymbolTableRecord
100
AcDbLayerTableRecord
  2
43000982A0
 70
0
 62
7
  6
CONTINUOUS
370
-3
390
F
  0
LAYER
  5
239
100
AcDbSymbolTableRecord
100
AcDbLayerTableRecord
  2
43000986A0
 70
0
 62
7
  6
CONTINUOUS
370
-3
390
F
  0
LAYER
  5
23A
100
AcDbSymbolTableRecord
100
AcDbLayerTableRecord
  2
ASSI
 70
0
 62
7
  6
CONTINUOUS
370
-3
390
F
  0
LAYER
  5
23B
100
AcDbSymbolTableRecord
100
AcDbLayerTableRecord
  2
BASE_V3-H1_1
 70
0
 62
7
  6
CONTINUOUS
370
-3
390
F
  0
LAYER
  5
23C
100
AcDbSymbolTableRecord
100
AcDbLayerTableRecord
  2
BASE_V3-H2_1
 70
0
 62
7
  6
CONTINUOUS
370
-3
390
F
  0
LAYER
  5
23D
100
AcDbSymbolTableRecord
100
AcDbLayerTableRecord
  2
BASE_V3-H3_1
 70
0
 62
7
  6
CONTINUOUS
370
-3
390
F
  0
LAYER
  5
23E
100
AcDbSymbolTableRecord
100
AcDbLayerTableRecord
  2
CN_STRIP_M_THT_P2_54_R1_P4_TET_
 70
0
 62
7
  6
CONTINUOUS
370
-3
390
F
  0
LAYER
  5
23F
100
AcDbSymbolTableRecord
100
AcDbLayerTableRecord
  2
CN_THT_SAURO_MSB03001_R1_P3_SET
 70
0
 62
7
  6
CONTINUOUS
370
-3
390
F
  0
LAYER
  5
240
100
AcDbSymbolTableRecord
100
AcDbLayerTableRecord
  2
COLOR1
 70
0
 62
7
  6
CONTINUOUS
370
-3
390
F
  0
LAYER
  5
241
100
AcDbSymbolTableRecord
100
AcDbLayerTableRecord
  2
COLOR25
 70
0
 62
7
  6
CONTINUOUS
370
-3
390
F
  0
LAYER
  5
242
100
AcDbSymbolTableRecord
100
AcDbLayerTableRecord
  2
COLOR32
 70
0
 62
7
  6
CONTINUOUS
370
-3
390
F
  0
LAYER
  5
243
100
AcDbSymbolTableRecord
100
AcDbLayerTableRecord
  2
COLOR33
 70
0
 62
7
  6
CONTINUOUS
370
-3
390
F
  0
LAYER
  5
244
100
AcDbSymbolTableRecord
100
AcDbLayerTableRecord
  2
COLOR34
 70
0
 62
7
  6
CONTINUOUS
370
-3
390
F
  0
LAYER
  5
245
100
AcDbSymbolTableRecord
100
AcDbLayerTableRecord
  2
COLOR35
 70
0
 62
7
  6
CONTINUOUS
370
-3
390
F
  0
LAYER
  5
246
100
AcDbSymbolTableRecord
100
AcDbLayerTableRecord
  2
COLOR36
 70
0
 62
7
  6
CONTINUOUS
370
-3
390
F
  0
LAYER
  5
247
100
AcDbSymbolTableRecord
100
AcDbLayerTableRecord
  2
COLOR37
 70
0
 62
7
  6
CONTINUOUS
370
-3
390
F
  0
LAYER
  5
248
100
AcDbSymbolTableRecord
100
AcDbLayerTableRecord
  2
COLOR38
 70
0
 62
7
  6
CONTINUOUS
370
-3
390
F
  0
LAYER
  5
249
100
AcDbSymbolTableRecord
100
AcDbLayerTableRecord
  2
COORDINATE
 70
0
 62
7
  6
CONTINUOUS
370
-3
390
F
  0
LAYER
  5
24A
100
AcDbSymbolTableRecord
100
AcDbLayerTableRecord
  2
COPY_PUBLISH
 70
0
 62
7
  6
CONTINUOUS
370
-3
390
F
  0
LAYER
  5
24B
100
AcDbSymbolTableRecord
100
AcDbLayerTableRecord
  2
COSMETICI
 70
0
 62
7
  6
CONTINUOUS
370
-3
390
F
  0
LAYER
  5
24C
100
AcDbSymbolTableRecord
100
AcDbLayerTableRecord
  2
COVER_V3_1
 70
0
 62
7
  6
CONTINUOUS
370
-3
390
F
  0
LAYER
  5
24D
100
AcDbSymbolTableRecord
100
AcDbLayerTableRecord
  2
CURVE
 70
0
 62
7
  6
CONTINUOUS
370
-3
390
F
  0
LAYER
  5
24E
100
AcDbSymbolTableRecord
100
AcDbLayerTableRecord
  2
DRAFT
 70
0
 62
7
  6
CONTINUOUS
370
-3
390
F
  0
LAYER
  5
24F
100
AcDbSymbolTableRecord
100
AcDbLayerTableRecord
  2
FIDUCIAL_1MM_0
 70
0
 62
7
  6
CONTINUOUS
370
-3
390
F
  0
LAYER
  5
250
100
AcDbSymbolTableRecord
100
AcDbLayerTableRecord
  2
FIDUCIAL_1MM_0_1
 70
0
 62
7
  6
CONTINUOUS
370
-3
390
F
  0
LAYER
  5
251
100
AcDbSymbolTableRecord
100
AcDbLayerTableRecord
  2
FIDUCIAL_1_2_MM_RUOTATO_45_1000
 70
0
 62
7
  6
CONTINUOUS
370
-3
390
F
  0
LAYER
  5
252
100
AcDbSymbolTableRecord
100
AcDbLayerTableRecord
  2
FIDUCIAL_1_2_MM_RUOTATO_45_10_1
 70
0
 62
7
  6
CONTINUOUS
370
-3
390
F
  0
LAYER
  5
253
100
AcDbSymbolTableRecord
100
AcDbLayerTableRecord
  2
GEOMETRIA_SOLIDA
 70
0
 62
7
  6
CONTINUOUS
370
-3
390
F
  0
LAYER
  5
254
100
AcDbSymbolTableRecord
100
AcDbLayerTableRecord
  2
GEOMETRIA_SOLIDA_1
 70
0
 62
7
  6
CONTINUOUS
370
-3
390
F
  0
LAYER
  5
255
100
AcDbSymbolTableRecord
100
AcDbLayerTableRecord
  2
GEOMETRIA_SOLIDA_2
 70
0
 62
7
  6
CONTINUOUS
370
-3
390
F
  0
LAYER
  5
256
100
AcDbSymbolTableRecord
100
AcDbLayerTableRecord
  2
IMPORT_IGES
 70
0
 62
7
  6
CONTINUOUS
370
-3
390
F
  0
LAYER
  5
257
100
AcDbSymbolTableRecord
100
AcDbLayerTableRecord
  2
LOGO_RESIST-RESTYLING_10000
 70
0
 62
7
  6
CONTINUOUS
370
-3
390
F
  0
LAYER
  5
258
100
AcDbSymbolTableRecord
100
AcDbLayerTableRecord
  2
MAGNETE_TONDO_1
 70
0
 62
7
  6
CONTINUOUS
370
-3
390
F
  0
LAYER
  5
259
100
AcDbSymbolTableRecord
100
AcDbLayerTableRecord
  2
MB_PCB_LUNGO_ASM_2
 70
0
 62
7
  6
CONTINUOUS
370
-3
390
F
  0
LAYER
  5
25A
100
AcDbSymbolTableRecord
100
AcDbLayerTableRecord
  2
MC300-ASM_PCB_ASM_3
 70
0
 62
7
  6
CONTINUOUS
370
-3
390
F
  0
LAYER
  5
25B
100
AcDbSymbolTableRecord
100
AcDbLayerTableRecord
  2
MC300-BASE_33
 70
0
 62
7
  6
CONTINUOUS
370
-3
390
F
  0
LAYER
  5
25C
100
AcDbSymbolTableRecord
100
AcDbLayerTableRecord
  2
MC300-COVER_25_2
 70
0
 62
7
  6
CONTINUOUS
370
-3
390
F
  0
LAYER
  5
25D
100
AcDbSymbolTableRecord
100
AcDbLayerTableRecord
  2
MC300-TEST_BUTTON_1_1
 70
0
 62
7
  6
CONTINUOUS
370
-3
390
F
  0
LAYER
  5
25E
100
AcDbSymbolTableRecord
100
AcDbLayerTableRecord
  2
MC300_ASM_18
 70
0
 62
7
  6
CONTINUOUS
370
-3
390
F
  0
LAYER
  5
25F
100
AcDbSymbolTableRecord
100
AcDbLayerTableRecord
  2
MC300_DEVICE
 70
0
 62
7
  6
CONTINUOUS
370
-3
390
F
  0
LAYER
  5
260
100
AcDbSymbolTableRecord
100
AcDbLayerTableRecord
  2
MC300_MAGNATIC_CONTACT-V3_ASM_6
 70
0
 62
7
  6
CONTINUOUS
370
-3
390
F
  0
LAYER
  5
261
100
AcDbSymbolTableRecord
100
AcDbLayerTableRecord
  2
MC300_MAGNET
 70
0
 62
7
  6
CONTINUOUS
370
-3
390
F
  0
LAYER
  5
262
100
AcDbSymbolTableRecord
100
AcDbLayerTableRecord
  2
NOTE
 70
0
 62
7
  6
CONTINUOUS
370
-3
390
F
  0
LAYER
  5
263
100
AcDbSymbolTableRecord
100
AcDbLayerTableRecord
  2
PCB_MC300_LUNGO_ASM_4
 70
0
 62
7
  6
CONTINUOUS
370
-3
390
F
  0
LAYER
  5
264
100
AcDbSymbolTableRecord
100
AcDbLayerTableRecord
  2
PIANI
 70
0
 62
7
  6
CONTINUOUS
370
-3
390
F
  0
LAYER
  5
265
100
AcDbSymbolTableRecord
100
AcDbLayerTableRecord
  2
PUNTI
 70
0
 62
7
  6
CONTINUOUS
370
-3
390
F
  0
LAYER
  5
266
100
AcDbSymbolTableRecord
100
AcDbLayerTableRecord
  2
RACCORDO
 70
0
 62
7
  6
CONTINUOUS
370
-3
390
F
  0
LAYER
  5
267
100
AcDbSymbolTableRecord
100
AcDbLayerTableRecord
  2
SC70-6_REF_H1_1_110000
 70
0
 62
7
  6
CONTINUOUS
370
-3
390
F
  0
LAYER
  5
268
100
AcDbSymbolTableRecord
100
AcDbLayerTableRecord
  2
SCREW_2_2X4_5_2_1
 70
0
 62
7
  6
CONTINUOUS
370
-3
390
F
  0
LAYER
  5
269
100
AcDbSymbolTableRecord
100
AcDbLayerTableRecord
  2
SCREW_2_2X4_5_2_1_1
 70
0
 62
7
  6
CONTINUOUS
370
-3
390
F
  0
LAYER
  5
26A
100
AcDbSymbolTableRecord
100
AcDbLayerTableRecord
  2
SCREW_2_2X4_5_2_1_2
 70
0
 62
7
  6
CONTINUOUS
370
-3
390
F
  0
LAYER
  5
26B
100
AcDbSymbolTableRecord
100
AcDbLayerTableRecord
  2
SCREW_2_2X4_5_2_1_3
 70
0
 62
7
  6
CONTINUOUS
370
-3
390
F
  0
LAYER
  5
26C
100
AcDbSymbolTableRecord
100
AcDbLayerTableRecord
  2
SCREW_2_2X4_5_2_1_4
 70
0
 62
7
  6
CONTINUOUS
370
-3
390
F
  0
LAYER
  5
26D
100
AcDbSymbolTableRecord
100
AcDbLayerTableRecord
  2
SCREW_2_2X6_5_1_1
 70
0
 62
7
  6
CONTINUOUS
370
-3
390
F
  0
LAYER
  5
26E
100
AcDbSymbolTableRecord
100
AcDbLayerTableRecord
  2
SIMBOLI
 70
0
 62
7
  6
CONTINUOUS
370
-3
390
F
  0
LAYER
  5
26F
100
AcDbSymbolTableRecord
100
AcDbLayerTableRecord
  2
SMUSSO
 70
0
 62
7
  6
CONTINUOUS
370
-3
390
F
  0
LAYER
  5
270
100
AcDbSymbolTableRecord
100
AcDbLayerTableRecord
  2
SNAPLINE
 70
0
 62
7
  6
CONTINUOUS
370
-3
390
F
  0
LAYER
  5
271
100
AcDbSymbolTableRecord
100
AcDbLayerTableRecord
  2
SOT323_H1_1_REF_110000
 70
0
 62
7
  6
CONTINUOUS
370
-3
390
F
  0
LAYER
  5
272
100
AcDbSymbolTableRecord
100
AcDbLayerTableRecord
  2
SOT323_H1_1_REF_110000_1
 70
0
 62
7
  6
CONTINUOUS
370
-3
390
F
  0
LAYER
  5
273
100
AcDbSymbolTableRecord
100
AcDbLayerTableRecord
  2
SUPERFICI
 70
0
 62
7
  6
CONTINUOUS
370
-3
390
F
  0
LAYER
  5
274
100
AcDbSymbolTableRecord
100
AcDbLayerTableRecord
  2
SYMBOL_E4_10000
 70
0
 62
7
  6
CONTINUOUS
370
-3
390
F
  0
LAYER
  5
275
100
AcDbSymbolTableRecord
100
AcDbLayerTableRecord
  2
SYMBOL_NO-PB_10000
 70
0
 62
7
  6
CONTINUOUS
370
-3
390
F
  0
LAYER
  5
276
100
AcDbSymbolTableRecord
100
AcDbLayerTableRecord
  2
TP_PROGRAMMAZIONE_SWD_1000
 70
0
 62
7
  6
CONTINUOUS
370
-3
390
F
  0
LAYER
  5
277
100
AcDbSymbolTableRecord
100
AcDbLayerTableRecord
  2
TRASH
 70
0
 62
7
  6
CONTINUOUS
370
-3
390
F
  0
LAYER
  5
278
100
AcDbSymbolTableRecord
100
AcDbLayerTableRecord
  2
VG_CN-STRIP-F-THT-P2_54-R1-P4-T
 70
0
 62
7
  6
CONTINUOUS
370
-3
390
F
  0
LAYER
  5
279
100
AcDbSymbolTableRecord
100
AcDbLayerTableRecord
  2
VG_CN-THT-INIM-AA-CLIP-BLACK_15
 70
0
 62
7
  6
CONTINUOUS
370
-3
390
F
  0
LAYER
  5
27A
100
AcDbSymbolTableRecord
100
AcDbLayerTableRecord
  2
VG_CN-THT-INIM-AA-CLIP-RED_1550
 70
0
 62
7
  6
CONTINUOUS
370
-3
390
F
  0
LAYER
  5
27B
100
AcDbSymbolTableRecord
100
AcDbLayerTableRecord
  2
VG_IND-CHIP-0402-POL-1_0-REF_10
 70
0
 62
7
  6
CONTINUOUS
370
-3
390
F
  0
LAYER
  5
27C
100
AcDbSymbolTableRecord
100
AcDbLayerTableRecord
  2
VG_IND-CHIP-0402-POL-1_0-REF__1
 70
0
 62
7
  6
CONTINUOUS
370
-3
390
F
  0
LAYER
  5
27D
100
AcDbSymbolTableRecord
100
AcDbLayerTableRecord
  2
VG_IND-SMT-2_4-2_4-1_5-0_85-2_4
 70
0
 62
7
  6
CONTINUOUS
370
-3
390
F
  0
LAYER
  5
27E
100
AcDbSymbolTableRecord
100
AcDbLayerTableRecord
  2
VG_LED-1305-1_5-REV-4PIN_40000
 70
0
 62
7
  6
CONTINUOUS
370
-3
390
F
  0
LAYER
  5
27F
100
AcDbSymbolTableRecord
100
AcDbLayerTableRecord
  2
VG_PADS_CARBON_SWITCH_ANULAR_D8
 70
0
 62
7
  6
CONTINUOUS
370
-3
390
F
  0
LAYER
  5
280
100
AcDbSymbolTableRecord
100
AcDbLayerTableRecord
  2
VG_QCS5F_40000
 70
0
 62
7
  6
CONTINUOUS
370
-3
390
F
  0
LAYER
  5
281
100
AcDbSymbolTableRecord
100
AcDbLayerTableRecord
  2
VG_QFN73-7_0-7_0-7_0-7_0-0_85-0
 70
0
 62
7
  6
CONTINUOUS
370
-3
390
F
  0
LAYER
  5
282
100
AcDbSymbolTableRecord
100
AcDbLayerTableRecord
  2
VG_REED-LITTELFUSE-MDSM-SMT_200
 70
0
 62
7
  6
CONTINUOUS
370
-3
390
F
  0
LAYER
  5
283
100
AcDbSymbolTableRecord
100
AcDbLayerTableRecord
  2
VG_REED-LITTELFUSE-MDSM-SMT_2_1
 70
0
 62
7
  6
CONTINUOUS
370
-3
390
F
  0
LAYER
  5
284
100
AcDbSymbolTableRecord
100
AcDbLayerTableRecord
  2
VG_SOD523_70000
 70
0
 62
7
  6
CONTINUOUS
370
-3
390
F
  0
LAYER
  5
285
100
AcDbSymbolTableRecord
100
AcDbLayerTableRecord
  2
VG_SOT23_H1_1_REF_110000
 70
0
 62
7
  6
CONTINUOUS
370
-3
390
F
  0
LAYER
  5
286
100
AcDbSymbolTableRecord
100
AcDbLayerTableRecord
  2
VG_SOT23_H1_2_REF_120000
 70
0
 62
7
  6
CONTINUOUS
370
-3
390
F
  0
LAYER
  5
287
100
AcDbSymbolTableRecord
100
AcDbLayerTableRecord
  2
VG_WSON6-1_5-1_5-1_0_100000
 70
0
 62
7
  6
CONTINUOUS
370
-3
390
F
  0
LAYER
  5
288
100
AcDbSymbolTableRecord
100
AcDbLayerTableRecord
  2
VG_X-SMT-2-3_2-1_5-1_0_100000
 70
0
 62
7
  6
CONTINUOUS
370
-3
390
F
  0
LAYER
  5
289
100
AcDbSymbolTableRecord
100
AcDbLayerTableRecord
  2
VG_X-SMT-2-5_0-3_2-1_5_150000
 70
0
 62
7
  6
CONTINUOUS
370
-3
390
F
  0
LAYER
  5
28A
100
AcDbSymbolTableRecord
100
AcDbLayerTableRecord
  2
___SHELL
 70
0
 62
7
  6
CONTINUOUS
370
-3
390
F
  0
ENDTAB
  0
TABLE
  2
STYLE
  5
3
100
AcDbSymbolTable
 70
1
  0
STYLE
  5
11
100
AcDbSymbolTableRecord
100
AcDbTextStyleTableRecord
  2
STANDARD
 70
0
 40
0.0
 41
0.8
 50
0.0
 71
0
 42
0.2
  3
txt
  4

  0
STYLE
  5
28B
100
AcDbSymbolTableRecord
100
AcDbTextStyleTableRecord
  2
TEXTSTYLE_1
 70
0
 40
0.0
 41
0.8
 50
0.0
 71
0
 42
0.2
  3
gdt
  4

  0
ENDTAB
  0
TABLE
  2
VIEW
  5
6
100
AcDbSymbolTable
 70
0
  0
ENDTAB
  0
TABLE
  2
UCS
  5
7
100
AcDbSymbolTable
 70
0
  0
ENDTAB
  0
TABLE
  2
APPID
  5
9
100
AcDbSymbolTable
 70
1
  0
APPID
  5
28C
100
AcDbSymbolTableRecord
100
AcDbRegAppTableRecord
  2
ACAD
 70
0
  0
ENDTAB
  0
TABLE
  2
BLOCK_RECORD
  5
1
100
AcDbSymbolTable
 70
0
  0
BLOCK_RECORD
  5
28D
100
AcDbSymbolTableRecord
100
AcDbBlockTableRecord
  2
*Model_Space
  0
BLOCK_RECORD
  5
28E
100
AcDbSymbolTableRecord
100
AcDbBlockTableRecord
  2
*Paper_Space
  0
BLOCK_RECORD
  5
28F
100
AcDbSymbolTableRecord
100
AcDbBlockTableRecord
  2
_FILLED
  0
ENDTAB
  0
TABLE
  2
DIMSTYLE
  5
A
100
AcDbSymbolTable
 70
1
100
AcDbDimStyleTable
 71
0
  0
DIMSTYLE
105
290
100
AcDbSymbolTableRecord
100
AcDbDimStyleTableRecord
  2
STANDARD
 70
0
  3

  4

 40
1.0
 41
3.0
 42
0.5
 43
0.38
 44
1.5
 45
0.0
 46
0.0
 47
0.01
 48
0.01
140
3.0
141
0.09
142
0.0
143
25.4
144
1.0
145
0.0
146
1.0
147
0.625
 71
1
 72
0
 73
0
 74
0
 75
0
 76
0
 77
1
 78
8
 79
2
170
0
171
1
172
0
173
0
174
0
175
0
176
0
177
0
178
0
270
2
179
2
271
2
272
2
273
2
274
2
275
0
280
0
281
0
282
0
283
1
284
8
285
0
286
0
287
3
288
0
340
11
278
44
341
28F
342
28F
343
28F
344
28F
  0
ENDTAB
  0
ENDSEC
  0
SECTION
  2
BLOCKS
  0
BLOCK
  5
20
100
AcDbEntity
  8
0
100
AcDbBlockBegin
  2
*Model_Space
 70
0
 10
0.0
 20
0.0
 30
0.0
  3
*Model_Space
  1

  0
ENDBLK
  5
21
100
AcDbEntity
  8
0
100
AcDbBlockEnd
  0
BLOCK
  5
1C
100
AcDbEntity
  8
0
100
AcDbBlockBegin
  2
*Paper_Space
 70
0
 10
0.0
 20
0.0
 30
0.0
  3
*Paper_Space
  1

  0
ENDBLK
  5
1D
100
AcDbEntity
  8
0
100
AcDbBlockEnd
  0
BLOCK
  5
291
100
AcDbEntity
  8
0
100
AcDbBlockBegin
  2
_FILLED
 70
64
 10
0.0
 20
0.0
  3
_FILLED
  1

  0
SOLID
  5
292
100
AcDbEntity
  8
0
  6
BYBLOCK
 62
0
100
AcDbTrace
 10
0.0
 20
0.0
 11
-1.0
 21
0.3166666667
 12
-1.0
 22
-0.3166666667
 13
-1.0
 23
-0.3166666667
  0
ENDBLK
  5
293
100
AcDbEntity
  8
0
  6
BYBLOCK
 62
0
100
AcDbBlockEnd
  0
ENDSEC
  0
SECTION
  2
ENTITIES
  0
LWPOLYLINE
  5
294
100
AcDbEntity
  8
IMPORT_IGES
100
AcDbPolyline
 62
250
  6
CONTINUOUS
 90
23
 70
0
 10
36.1952346214
 20
-55.0447953992
 10
36.2590719712
 20
-55.0342692469
 10
36.3217591431
 20
-55.0197243763
 10
36.3830715263
 20
-55.0012800846
 10
36.4428342892
 20
-54.9790485183
 10
36.5006689033
 20
-54.9532418878
 10
36.5565250054
 20
-54.9239555722
 10
36.6106841604
 20
-54.8910373933
 10
36.663035682
 20
-54.8544670751
 10
36.7131831166
 20
-54.814429778
 10
36.7609257256
 20
-54.7710026678
 10
36.8060078289
 20
-54.7243240341
 10
36.8481983892
 20
-54.6745321423
 10
36.8873196106
 20
-54.621710565
 10
36.9231791481
 20
-54.5659480701
 10
36.9554800456
 20
-54.5075169156
 10
36.9839193021
 20
-54.4468128234
 10
37.0083380496
 20
-54.3840324946
 10
37.0285494071
 20
-54.3194910699
 10
37.0443364403
 20
-54.2538247859
 10
37.0556294618
 20
-54.1874580865
 10
37.0624278177
 20
-54.1205777332
 10
37.0647194473
 20
-54.0534879391
  0
LINE
  5
295
100
AcDbEntity
  8
IMPORT_IGES
100
AcDbLine
 62
250
  6
CONTINUOUS
 10
36.1305245862
 20
-55.0511904025
 11
36.2005876372
 21
-55.045303389
  0
LWPOLYLINE
  5
296
100
AcDbEntity
  8
IMPORT_IGES
100
AcDbPolyline
 62
7
  6
CONTINUOUS
 90
19
 70
0
 10
35.8593480261
 20
-54.4402188268
 10
35.9027797588
 20
-54.437706563
 10
35.9452054484
 20
-54.4315652395
 10
35.986625095
 20
-54.4217948562
 10
36.0272640351
 20
-54.4082645882
 10
36.0668969321
 20
-54.3911052605
 10
36.1048477761
 20
-54.3707093478
 10
36.1411627716
 20
-54.3469573547
 10
36.1757957141
 20
-54.3199687767
 10
36.2079319798
 20
-54.2904945741
 10
36.2375211515
 20
-54.2585719327
 10
36.2646136465
 20
-54.2241636668
 10
36.2885460931
 20
-54.1879091795
 10
36.3092882916
 20
-54.1497437995
 10
36.3268704418
 20
-54.1097321981
 10
36.3407197712
 20
-54.0687077933
 10
36.3506453558
 20
-54.0269483909
 10
36.3568381196
 20
-53.9841761851
 10
36.3592980626
 20
-53.9403911758
  0
LWPOLYLINE
  5
297
100
AcDbEntity
  8
IMPORT_IGES
100
AcDbPolyline
 62
7
  6
CONTINUOUS
 90
16
 70
0
 10
35.8593163012
 20
-54.9401452749
 10
35.9318371893
 20
-54.9374927187
 10
36.0039484842
 20
-54.929591432
 10
36.0752714988
 20
-54.9164887245
 10
36.1454276733
 20
-54.8982606845
 10
36.2140548185
 20
-54.8750078394
 10
36.2808078563
 20
-54.846851097
 10
36.3453369662
 20
-54.8139407469
 10
36.4073052899
 20
-54.7764514883
 10
36.4664020725
 20
-54.7345717328
 10
36.5223171189
 20
-54.6885197405
 10
36.5747557649
 20
-54.6385366442
 10
36.6234512453
 20
-54.5848726076
 10
36.668147428
 20
-54.5278024998
 10
36.7086026489
 20
-54.4676270228
 10
36.7446005465
 20
-54.4046601009
  0
LWPOLYLINE
  5
298
100
AcDbEntity
  8
IMPORT_IGES
100
AcDbPolyline
 62
7
  6
CONTINUOUS
 90
9
 70
0
 10
27.2086461513
 20
-54.7989806407
 10
27.2712052782
 20
-54.7967149017
 10
27.3260543941
 20
-54.7943977085
 10
27.3731193279
 20
-54.7920285462
 10
27.4124742506
 20
-54.7896079299
 10
27.4437208217
 20
-54.7871595704
 10
27.4667262607
 20
-54.7846913715
 10
27.4816233481
 20
-54.7821954295
 10
27.4884120837
 20
-54.7796717443
  0
LINE
  5
299
100
AcDbEntity
  8
IMPORT_IGES
100
AcDbLine
 62
250
  6
CONTINUOUS
 10
36.1337049287
 20
-55.0520864651
 11
36.06661555
 21
-55.0543600755
  0
LINE
  5
29A
100
AcDbEntity
  8
IMPORT_IGES
100
AcDbLine
 62
7
  6
CONTINUOUS
 10
27.2086402217
 20
-54.9952779432
 11
27.0621840287
 21
-54.9995878483
  0
LINE
  5
29B
100
AcDbEntity
  8
IMPORT_IGES
100
AcDbLine
 62
7
  6
CONTINUOUS
 10
27.0621917858
 20
-54.8032905438
 11
27.2086461513
 21
-54.7989806407
  0
LINE
  5
29C
100
AcDbEntity
  8
IMPORT_IGES
100
AcDbLine
 62
7
  6
CONTINUOUS
 10
27.0621840287
 20
-54.9995878483
 11
26.8881296907
 21
-55.0035825151
  0
LINE
  5
29D
100
AcDbEntity
  8
IMPORT_IGES
100
AcDbLine
 62
7
  6
CONTINUOUS
 10
26.8881389232
 20
-54.8072852238
 11
27.0621917858
 21
-54.8032905438
  0
LINE
  5
29E
100
AcDbEntity
  8
IMPORT_IGES
100
AcDbLine
 62
7
  6
CONTINUOUS
 10
26.8881296907
 20
-55.0035825151
 11
26.5809081707
 21
-55.0088521065
  0
LINE
  5
29F
100
AcDbEntity
  8
IMPORT_IGES
100
AcDbLine
 62
7
  6
CONTINUOUS
 10
26.5809185089
 20
-54.8125548544
 11
26.8881389232
 21
-54.8072852238
  0
LINE
  5
2A0
100
AcDbEntity
  8
IMPORT_IGES
100
AcDbLine
 62
7
  6
CONTINUOUS
 10
26.5809081707
 20
-55.0088521065
 11
26.0996238573
 21
-55.0143003991
  0
LINE
  5
2A1
100
AcDbEntity
  8
IMPORT_IGES
100
AcDbLine
 62
7
  6
CONTINUOUS
 10
26.0996332031
 20
-54.818003215
 11
26.5809185089
 21
-54.8125548544
  0
LINE
  5
2A2
100
AcDbEntity
  8
IMPORT_IGES
100
AcDbLine
 62
7
  6
CONTINUOUS
 10
26.0996238573
 20
-55.0143003991
 11
25.5592318291
 21
-55.0176936746
  0
LINE
  5
2A3
100
AcDbEntity
  8
IMPORT_IGES
100
AcDbLine
 62
7
  6
CONTINUOUS
 10
25.5592374437
 20
-54.8213965485
 11
26.0996332031
 21
-54.818003215
  0
LINE
  5
2A4
100
AcDbEntity
  8
IMPORT_IGES
100
AcDbLine
 62
7
  6
CONTINUOUS
 10
36.0956823816
 20
-55.083429276
 11
12.2953860168
 21
-55.083429276
  0
LINE
  5
2A5
100
AcDbEntity
  8
IMPORT_IGES
100
AcDbLine
 62
7
  6
CONTINUOUS
 10
-11.3098875914
 20
-55.0762868109
 11
-37.4310586742
 21
-55.0762868109
  0
LINE
  5
2A6
100
AcDbEntity
  8
IMPORT_IGES
100
AcDbLine
 62
7
  6
CONTINUOUS
 10
25.5592318291
 20
-55.0176936746
 11
23.402233283
 21
-55.0188456036
  0
LINE
  5
2A7
100
AcDbEntity
  8
IMPORT_IGES
100
AcDbLine
 62
250
  6
CONTINUOUS
 10
35.8593117614
 20
-54.9401453525
 11
27.5242355035
 21
-54.9401454275
  0
LINE
  5
2A8
100
AcDbEntity
  8
IMPORT_IGES
100
AcDbLine
 62
250
  6
CONTINUOUS
 10
20.8668352861
 20
-54.9401454285
 11
12.531759312
 21
-54.9401454301
  0
LINE
  5
2A9
100
AcDbEntity
  8
IMPORT_IGES
100
AcDbLine
 62
7
  6
CONTINUOUS
 10
27.5311073388
 20
-54.7369764892
 11
20.8599634513
 21
-54.7369764892
  0
LINE
  5
2AA
100
AcDbEntity
  8
IMPORT_IGES
100
AcDbLine
 62
250
  6
CONTINUOUS
 10
12.5317001669
 20
-54.4402190338
 11
35.8593480261
 21
-54.4402188268
  0
LINE
  5
2AB
100
AcDbEntity
  8
IMPORT_IGES
100
AcDbLine
 62
7
  6
CONTINUOUS
 10
29.422401001
 20
-54.0352731083
 11
18.9686697892
 21
-54.0352731083
  0
LINE
  5
2AC
100
AcDbEntity
  8
IMPORT_IGES
100
AcDbLine
 62
250
  6
CONTINUOUS
 10
12.0317730589
 20
-53.9404200111
 11
11.5320265363
 21
-53.9404320394
  0
LINE
  5
2AD
100
AcDbEntity
  8
IMPORT_IGES
100
AcDbLine
 62
7
  6
CONTINUOUS
 10
29.2705419361
 20
-53.8834140434
 11
19.120528854
 21
-53.8834140434
  0
LINE
  5
2AE
100
AcDbEntity
  8
IMPORT_IGES
100
AcDbLine
 62
7
  6
CONTINUOUS
 10
19.1715298112
 20
-53.8324130863
 11
19.4766673177
 21
-53.8324130863
  0
LINE
  5
2AF
100
AcDbEntity
  8
IMPORT_IGES
100
AcDbLine
 62
7
  6
CONTINUOUS
 10
28.9144033936
 20
-53.8324130863
 11
29.219540979
 21
-53.8324130863
  0
LINE
  5
2B0
100
AcDbEntity
  8
IMPORT_IGES
100
AcDbLine
 62
7
  6
CONTINUOUS
 10
19.1589753814
 20
-53.1131702831
 11
19.4891910872
 21
-53.1131702831
  0
LINE
  5
2B1
100
AcDbEntity
  8
IMPORT_IGES
100
AcDbLine
 62
7
  6
CONTINUOUS
 10
28.9018796764
 20
-53.1131702831
 11
29.2320954088
 21
-53.1131702831
  0
LINE
  5
2B2
100
AcDbEntity
  8
IMPORT_IGES
100
AcDbLine
 62
7
  6
CONTINUOUS
 10
28.8955353951
 20
-52.7488153053
 11
19.4955353951
 21
-52.7488153053
  0
LINE
  5
2B3
100
AcDbEntity
  8
IMPORT_IGES
100
AcDbLine
 62
7
  6
CONTINUOUS
 10
23.2575869868
 20
-54.8224739688
 11
25.5592374437
 21
-54.8213965485
  0
LWPOLYLINE
  5
2B4
100
AcDbEntity
  8
IMPORT_IGES
100
AcDbPolyline
 62
250
  6
CONTINUOUS
 90
3
 70
0
 10
36.3592979831
 20
-53.9403767696
 10
36.8560391979
 20
-53.9403956247
 10
36.8591320669
 20
-53.9404107088
  0
LINE
  5
2B5
100
AcDbEntity
  8
IMPORT_IGES
100
AcDbLine
 62
7
  6
CONTINUOUS
 10
23.4022332824
 20
-55.0188456336
 11
22.6925185859
 21
-55.0170492088
  0
LINE
  5
2B6
100
AcDbEntity
  8
IMPORT_IGES
100
AcDbLine
 62
7
  6
CONTINUOUS
 10
22.5560077242
 20
-54.8199722134
 11
23.2575869868
 21
-54.8224739688
  0
LINE
  5
2B7
100
AcDbEntity
  8
IMPORT_IGES
100
AcDbLine
 62
7
  6
CONTINUOUS
 10
22.6925185859
 20
-55.0170492088
 11
22.1646687008
 21
-55.0131232393
  0
LINE
  5
2B8
100
AcDbEntity
  8
IMPORT_IGES
100
AcDbLine
 62
7
  6
CONTINUOUS
 10
22.0420305207
 20
-54.8155228529
 11
22.5560077242
 21
-54.8199722134
  0
LINE
  5
2B9
100
AcDbEntity
  8
IMPORT_IGES
100
AcDbLine
 62
7
  6
CONTINUOUS
 10
22.1646687008
 20
-55.0131232393
 11
21.810159514
 21
-55.0088520617
  0
LINE
  5
2BA
100
AcDbEntity
  8
IMPORT_IGES
100
AcDbLine
 62
7
  6
CONTINUOUS
 10
21.7021719546
 20
-54.8109037549
 11
22.0420305207
 21
-54.8155228529
  0
LINE
  5
2BB
100
AcDbEntity
  8
IMPORT_IGES
100
AcDbLine
 62
7
  6
CONTINUOUS
 10
21.810159514
 20
-55.0088520617
 11
21.5029367711
 21
-55.0035824268
  0
LINE
  5
2BC
100
AcDbEntity
  8
IMPORT_IGES
100
AcDbLine
 62
7
  6
CONTINUOUS
 10
21.5029459651
 20
-54.8072855113
 11
21.7021719546
 21
-54.8109037549
  0
LINE
  5
2BD
100
AcDbEntity
  8
IMPORT_IGES
100
AcDbLine
 62
7
  6
CONTINUOUS
 10
21.5029367711
 20
-55.0035824268
 11
21.3288824642
 21
-54.9995877363
  0
LINE
  5
2BE
100
AcDbEntity
  8
IMPORT_IGES
100
AcDbLine
 62
7
  6
CONTINUOUS
 10
21.3288901179
 20
-54.8032908319
 11
21.5029459651
 21
-54.8072855113
  0
LWPOLYLINE
  5
2BF
100
AcDbEntity
  8
IMPORT_IGES
100
AcDbPolyline
 62
7
  6
CONTINUOUS
 90
10
 70
0
 10
21.3288824642
 20
-54.9995877363
 10
21.18242692
 20
-54.9952778209
 10
21.1198673226
 20
-54.9930120757
 10
21.0650177849
 20
-54.9906948754
 10
21.017952464
 20
-54.9883257047
 10
20.9785972028
 20
-54.9859050788
 10
20.9473503606
 20
-54.983456709
 10
20.9243447237
 20
-54.980988499
 10
20.9094475056
 20
-54.9784925452
 10
20.9026587065
 20
-54.9759688474
  0
LINE
  5
2C0
100
AcDbEntity
  8
IMPORT_IGES
100
AcDbLine
 62
7
  6
CONTINUOUS
 10
19.1589753814
 20
-49.8779532577
 11
29.2320954088
 21
-49.8779532577
  0
LINE
  5
2C1
100
AcDbEntity
  8
IMPORT_IGES
100
AcDbLine
 62
7
  6
CONTINUOUS
 10
29.3543302355
 20
-49.755718431
 11
19.0367405546
 21
-49.755718431
  0
LINE
  5
2C2
100
AcDbEntity
  8
IMPORT_IGES
100
AcDbLine
 62
7
  6
CONTINUOUS
 10
29.3805088452
 20
-48.2295398213
 11
19.0160396875
 21
-48.2295398213
  0
LWPOLYLINE
  5
2C3
100
AcDbEntity
  8
IMPORT_IGES
100
AcDbPolyline
 62
7
  6
CONTINUOUS
 90
10
 70
0
 10
20.9026587065
 20
-54.7796717443
 10
20.9094477508
 20
-54.7821954832
 10
20.9243453695
 20
-54.7846914734
 10
20.9473515626
 20
-54.7871597149
 10
20.9785991551
 20
-54.7896081114
 10
21.0179553219
 20
-54.7920287592
 10
21.065021588
 20
-54.7943979472
 10
21.1198721044
 20
-54.79671516
 10
21.18243272
 20
-54.798980913
 10
21.3288901179
 20
-54.8032908319
  0
LWPOLYLINE
  5
2C4
100
AcDbEntity
  8
IMPORT_IGES
100
AcDbPolyline
 62
250
  6
CONTINUOUS
 90
18
 70
0
 10
11.8887378124
 20
52.7874368456
 10
11.8328514992
 20
52.7581498849
 10
11.7786638814
 20
52.7252288672
 10
11.7262856322
 20
52.6886533195
 10
11.6761138444
 20
52.6486085772
 10
11.6283498054
 20
52.6051721059
 10
11.583249681
 20
52.5584825758
 10
11.5410444604
 20
52.5086781511
 10
11.5019117462
 20
52.4558419672
 10
11.4660439486
 20
52.400062435
 10
11.4337386651
 20
52.3416123398
 10
11.4052994988
 20
52.2808883315
 10
11.3808848054
 20
52.2180866993
 10
11.3606822718
 20
52.153523483
 10
11.3449104563
 20
52.0878381269
 10
11.3336387406
 20
52.0214564689
 10
11.3268663718
 20
51.9545646099
 10
11.3246045833
 20
51.8874669585
  0
LINE
  5
2C5
100
AcDbEntity
  8
IMPORT_IGES
100
AcDbLine
 62
250
  6
CONTINUOUS
 10
18.9686697892
 20
-48.4521388581
 11
19.0145939407
 21
-48.4645998857
  0
LINE
  5
2C6
100
AcDbEntity
  8
IMPORT_IGES
100
AcDbLine
 62
7
  6
CONTINUOUS
 10
-37.0346481686
 20
-32.3659440419
 11
-37.4310586745
 21
-55.0762867128
  0
LINE
  5
2C7
100
AcDbEntity
  8
IMPORT_IGES
100
AcDbLine
 62
250
  6
CONTINUOUS
 10
-36.4311979248
 20
-55.0762867912
 11
-36.0347984417
 21
-32.3659899459
  0
LWPOLYLINE
  5
2C8
100
AcDbEntity
  8
IMPORT_IGES
100
AcDbPolyline
 62
7
  6
CONTINUOUS
 90
5
 70
0
 10
22.9955413338
 20
52.8275489192
 10
22.9984359673
 20
52.8289930727
 10
23.0068511403
 20
52.8304181917
 10
23.0207868529
 20
52.8318242764
 10
23.0402431051
 20
52.8332113266
  0
LINE
  5
2C9
100
AcDbEntity
  8
IMPORT_IGES
100
AcDbLine
 62
250
  6
CONTINUOUS
 10
19.6962185397
 20
-45.9365715988
 11
19.6543263839
 21
-45.9252046102
  0
LINE
  5
2CA
100
AcDbEntity
  8
IMPORT_IGES
100
AcDbLine
 62
250
  6
CONTINUOUS
 10
29.3805088452
 20
-48.0156622974
 11
29.422401001
 21
-48.0270292861
  0
LINE
  5
2CB
100
AcDbEntity
  8
IMPORT_IGES
100
AcDbLine
 62
250
  6
CONTINUOUS
 10
30.1080575957
 20
-45.5000950382
 11
30.0661654399
 21
-45.4887280495
  0
LWPOLYLINE
  5
2CC
100
AcDbEntity
  8
IMPORT_IGES
100
AcDbPolyline
 62
250
  6
CONTINUOUS
 90
3
 70
0
 10
-34.2681721618
 20
-29.2596890819
 10
-34.2691701539
 20
-29.2534804741
 10
-34.2695982048
 20
-29.2514157144
  0
LINE
  5
2CD
100
AcDbEntity
  8
IMPORT_IGES
100
AcDbLine
 62
250
  6
CONTINUOUS
 10
-34.2644853156
 20
-29.2844121157
 11
-34.2681721618
 21
-29.2596890819
  0
LINE
  5
2CE
100
AcDbEntity
  8
IMPORT_IGES
100
AcDbLine
 62
250
  6
CONTINUOUS
 10
-34.245912864
 20
-29.4147331726
 11
-34.2644853156
 21
-29.2844121157
  0
LWPOLYLINE
  5
2CF
100
AcDbEntity
  8
IMPORT_IGES
100
AcDbPolyline
 62
250
  6
CONTINUOUS
 90
3
 70
0
 10
-34.1340028796
 20
-30.2247242909
 10
-34.1427069425
 20
-30.1606018017
 10
-34.245912864
 20
-29.4147331726
  0
LWPOLYLINE
  5
2D0
100
AcDbEntity
  8
IMPORT_IGES
100
AcDbPolyline
 62
250
  6
CONTINUOUS
 90
25
 70
0
 10
-36.0347984417
 20
-32.3659899459
 10
-36.0285582195
 20
-32.2353235539
 10
-36.0148090611
 20
-32.1061774617
 10
-35.9935509665
 20
-31.9785516691
 10
-35.9646514149
 20
-31.852014943
 10
-35.9282429271
 20
-31.7269985166
 10
-35.8847230658
 20
-31.6047960899
 10
-35.834022681
 20
-31.4854435584
 10
-35.7762109227
 20
-31.3689050266
 10
-35.7118928027
 20
-31.2563665075
 10
-35.6410045387
 20
-31.14786765
 10
-35.563609913
 20
-31.0433688051
 10
-35.4805052845
 20
-30.9439370387
 10
-35.3916343747
 20
-30.8496223053
 10
-35.2970534622
 20
-30.7603746503
 10
-35.1977277411
 20
-30.677111276
 10
-35.0936102804
 20
-30.5998908057
 10
-34.9847480112
 20
-30.5286546159
 10
-34.8722469213
 20
-30.464144039
 10
-34.7560694921
 20
-30.4064241527
 10
-34.6362532421
 20
-30.3554298793
 10
-34.5140167154
 20
-30.3117073167
 10
-34.3897660931
 20
-30.2754384977
 10
-34.2630951939
 20
-30.2464413896
 10
-34.1340040179
 20
-30.2247159925
  0
LWPOLYLINE
  5
2D1
100
AcDbEntity
  8
IMPORT_IGES
100
AcDbPolyline
 62
250
  6
CONTINUOUS
 90
9
 70
0
 10
-36.9005112651
 20
-32.3595510982
 10
-36.9313580125
 20
-32.3600192349
 10
-36.9583742714
 20
-32.3605874324
 10
-36.9814424091
 20
-32.3612530368
 10
-37.0004617818
 20
-32.3620135186
 10
-37.0153500613
 20
-32.3628665582
 10
-37.0260405084
 20
-32.3638088728
 10
-37.0324835209
 20
-32.3648362027
 10
-37.0346481716
 20
-32.3659442161
  0
LINE
  5
2D2
100
AcDbEntity
  8
IMPORT_IGES
100
AcDbLine
 62
250
  6
CONTINUOUS
 10
-12.4472248761
 20
-32.3620140728
 11
-12.706151769
 21
-32.3659284105
  0
LINE
  5
2D3
100
AcDbEntity
  8
IMPORT_IGES
100
AcDbLine
 62
250
  6
CONTINUOUS
 10
-12.2061726144
 20
-32.3595505105
 11
-12.4472248761
 21
-32.3620140728
  0
LINE
  5
2D4
100
AcDbEntity
  8
IMPORT_IGES
100
AcDbLine
 62
250
  6
CONTINUOUS
 10
-36.8278679404
 20
-32.358922325
 11
-36.9005112651
 21
-32.3595510982
  0
LINE
  5
2D5
100
AcDbEntity
  8
IMPORT_IGES
100
AcDbLine
 62
250
  6
CONTINUOUS
 10
-12.0469705088
 20
-32.3587637064
 11
-12.2061726144
 21
-32.3595505105
  0
LINE
  5
2D6
100
AcDbEntity
  8
IMPORT_IGES
100
AcDbLine
 62
250
  6
CONTINUOUS
 10
-36.7416869797
 20
-32.3587115862
 11
-36.8278679404
 21
-32.358922325
  0
LINE
  5
2D7
100
AcDbEntity
  8
IMPORT_IGES
100
AcDbLine
 62
250
  6
CONTINUOUS
 10
-11.9545556148
 20
-32.3587637075
 11
-12.0469705088
 21
-32.3587637064
  0
LINE
  5
2D8
100
AcDbEntity
  8
IMPORT_IGES
100
AcDbLine
 62
250
  6
CONTINUOUS
 10
-36.5902888252
 20
-32.3591850114
 11
-36.7416869797
 21
-32.3587115862
  0
LINE
  5
2D9
100
AcDbEntity
  8
IMPORT_IGES
100
AcDbLine
 62
250
  6
CONTINUOUS
 10
-36.356316901
 20
-32.3612534126
 11
-36.5902888252
 21
-32.3591850114
  0
LWPOLYLINE
  5
2DA
100
AcDbEntity
  8
IMPORT_IGES
100
AcDbPolyline
 62
250
  6
CONTINUOUS
 90
3
 70
0
 10
-36.0347984422
 20
-32.3659368849
 10
-36.1002518102
 20
-32.3648321738
 10
-36.356316901
 20
-32.3612534126
  0
LWPOLYLINE
  5
2DB
100
AcDbEntity
  8
IMPORT_IGES
100
AcDbPolyline
 62
250
  6
CONTINUOUS
 90
25
 70
0
 10
-14.6069420818
 20
-30.224724143
 10
-14.477853805
 20
-30.2464451492
 10
-14.3511860638
 20
-30.2754382133
 10
-14.2269388583
 20
-30.3117033352
 10
-14.1047061153
 20
-30.355422886
 10
-13.9848939078
 20
-30.4064144947
 10
-13.8687204557
 20
-30.4641310485
 10
-13.7562232489
 20
-30.5286373016
 10
-13.6473647974
 20
-30.5998684998
 10
-13.5432508503
 20
-30.6770832677
 10
-13.4439283464
 20
-30.7603402041
 10
-13.3493503469
 20
-30.8495807102
 10
-13.2604817843
 20
-30.9438876137
 10
-13.1773789379
 20
-31.0433108425
 10
-13.0999855283
 20
-31.1478004688
 10
-13.0290976505
 20
-31.2562895368
 10
-12.9647790803
 20
-31.3688176682
 10
-12.9069660419
 20
-31.4853452414
 10
-12.8562633025
 20
-31.6046864363
 10
-12.8127400562
 20
-31.7268726345
 10
-12.776327109
 20
-31.8518724543
 10
-12.7474216454
 20
-31.9784059306
 10
-12.7261560603
 20
-32.1060464083
 10
-12.7123979588
 20
-32.2352205425
 10
-12.7061473409
 20
-32.3659283332
  0
LWPOLYLINE
  5
2DC
100
AcDbEntity
  8
IMPORT_IGES
100
AcDbPolyline
 62
250
  6
CONTINUOUS
 90
11
 70
0
 10
-11.7062961255
 20
-32.365936226
 10
-11.7084608065
 20
-32.3648315055
 10
-11.7149035503
 20
-32.3638066431
 10
-11.7255935408
 20
-32.3628659723
 10
-11.7404813324
 20
-32.3620134826
 10
-11.7595002703
 20
-32.3612527315
 10
-11.78256794
 20
-32.3605868549
 10
-11.8095836418
 20
-32.3600186543
 10
-11.8404298183
 20
-32.3595505119
 10
-11.8749755498
 20
-32.3591843545
 10
-11.9545556148
 20
-32.3587637075
  0
LINE
  5
2DD
100
AcDbEntity
  8
IMPORT_IGES
100
AcDbLine
 62
250
  6
CONTINUOUS
 10
35.8593117614
 20
-54.9401453525
 11
36.0652140099
 21
-55.0533634209
  0
LINE
  5
2DE
100
AcDbEntity
  8
IMPORT_IGES
100
AcDbLine
 62
250
  6
CONTINUOUS
 10
36.8591341759
 20
51.7735744771
 11
37.0647194326
 21
51.8866580144
  0
LINE
  5
2DF
100
AcDbEntity
  8
IMPORT_IGES
100
AcDbLine
 62
250
  6
CONTINUOUS
 10
36.0652140091
 20
52.8865048682
 11
35.8593064271
 21
52.7732863735
  0
LINE
  5
2E0
100
AcDbEntity
  8
IMPORT_IGES
100
AcDbLine
 62
250
  6
CONTINUOUS
 10
34.6529099926
 20
-19.8561380532
 11
34.6948021484
 21
-19.8455710321
  0
LINE
  5
2E1
100
AcDbEntity
  8
IMPORT_IGES
100
AcDbLine
 62
7
  6
CONTINUOUS
 10
23.7158647623
 20
-26.3488975757
 11
24.6753010302
 21
-26.3488975757
  0
LINE
  5
2E2
100
AcDbEntity
  8
IMPORT_IGES
100
AcDbLine
 62
250
  6
CONTINUOUS
 10
33.2815968031
 20
-39.9998529515
 11
33.3234889589
 21
-40.0112199401
  0
LINE
  5
2E3
100
AcDbEntity
  8
IMPORT_IGES
100
AcDbLine
 62
250
  6
CONTINUOUS
 10
37.0647194299
 20
-54.0535203186
 11
36.8591414477
 21
-53.9404107088
  0
LWPOLYLINE
  5
2E4
100
AcDbEntity
  8
IMPORT_IGES
100
AcDbPolyline
 62
250
  6
CONTINUOUS
 90
10
 70
0
 10
36.0652140099
 20
-55.0533634209
 10
36.0654103249
 20
-55.0534741423
 10
36.0655965751
 20
-55.0535848684
 10
36.0657727603
 20
-55.0536955992
 10
36.0659388809
 20
-55.0538063348
 10
36.0660949366
 20
-55.0539170751
 10
36.0662409263
 20
-55.0540278193
 10
36.0663768496
 20
-55.0541385672
 10
36.066502707
 20
-55.054249319
 10
36.0666184983
 20
-55.0543600746
  0
LINE
  5
2E5
100
AcDbEntity
  8
IMPORT_IGES
100
AcDbLine
 62
7
  6
CONTINUOUS
 10
13.7346697846
 20
44.9738375715
 11
13.7458901747
 21
44.9850580898
  0
LINE
  5
2E6
100
AcDbEntity
  8
IMPORT_IGES
100
AcDbLine
 62
250
  6
CONTINUOUS
 10
33.498573148
 20
-15.1032116659
 11
33.4566809921
 21
-15.113778687
  0
LWPOLYLINE
  5
2E7
100
AcDbEntity
  8
IMPORT_IGES
100
AcDbPolyline
 62
250
  6
CONTINUOUS
 90
13
 70
0
 10
-34.1340040179
 20
-30.2247159925
 10
-32.5130679269
 20
-30.021361776
 10
-30.8896041701
 20
-29.8549571574
 10
-29.2636127476
 20
-29.7255021367
 10
-27.6342511042
 20
-29.6329675103
 10
-26.0023617951
 20
-29.5773824818
 10
-24.3704724856
 20
-29.5588346619
 10
-22.7385831338
 20
-29.5773821502
 10
-21.1066937816
 20
-29.632966847
 10
-19.4773322211
 20
-29.7255020636
 10
-17.8513410497
 20
-29.8549589036
 10
-16.2278776699
 20
-30.0213662634
 10
-14.6069420818
 20
-30.224724143
  0
LINE
  5
2E8
100
AcDbEntity
  8
IMPORT_IGES
100
AcDbLine
 62
250
  6
CONTINUOUS
 10
34.6948021484
 20
-34.9573514442
 11
34.6529099926
 21
-34.9459844556
  0
LINE
  5
2E9
100
AcDbEntity
  8
IMPORT_IGES
100
AcDbLine
 62
7
  6
CONTINUOUS
 10
20.9026587065
 20
-54.975968846
 11
20.8668352861
 21
-54.940145427
  0
LINE
  5
2EA
100
AcDbEntity
  8
IMPORT_IGES
100
AcDbLine
 62
7
  6
CONTINUOUS
 10
20.8599634513
 20
-54.7369764892
 11
20.9026587065
 21
-54.779671743
  0
LINE
  5
2EB
100
AcDbEntity
  8
IMPORT_IGES
100
AcDbLine
 62
7
  6
CONTINUOUS
 10
19.1589753814
 20
-49.8779532577
 11
19.0367405546
 21
-49.755718431
  0
LINE
  5
2EC
100
AcDbEntity
  8
IMPORT_IGES
100
AcDbLine
 62
7
  6
CONTINUOUS
 10
25.1954775672
 20
50.0088402177
 11
25.1947350748
 21
50.0081420157
  0
LWPOLYLINE
  5
2ED
100
AcDbEntity
  8
IMPORT_IGES
100
AcDbPolyline
 62
7
  6
CONTINUOUS
 90
10
 70
0
 10
37.0664613185
 20
-54.0545077971
 10
37.066317321
 20
-54.0543980597
 10
37.0661609359
 20
-54.0542883266
 10
37.0659921636
 20
-54.0541785978
 10
37.0658110043
 20
-54.0540688733
 10
37.0656174587
 20
-54.0539591531
 10
37.0654115272
 20
-54.0538494375
 10
37.0651932102
 20
-54.0537397266
 10
37.0649625083
 20
-54.0536300203
 10
37.0647194221
 20
-54.0535203186
  0
LINE
  5
2EE
100
AcDbEntity
  8
IMPORT_IGES
100
AcDbLine
 62
7
  6
CONTINUOUS
 10
29.219540979
 20
-53.8324130863
 11
29.422401001
 21
-54.0352731083
  0
LINE
  5
2EF
100
AcDbEntity
  8
IMPORT_IGES
100
AcDbLine
 62
250
  6
CONTINUOUS
 10
-12.7061473409
 20
-32.3659283332
 11
-12.3097462329
 21
-55.0762867912
  0
LWPOLYLINE
  5
2F0
100
AcDbEntity
  8
IMPORT_IGES
100
AcDbPolyline
 62
7
  6
CONTINUOUS
 90
8
 70
0
 10
23.095546853
 20
50.000112686
 10
23.0960655742
 20
50.0007087483
 10
23.1008117992
 20
50.0019852321
 10
23.110438141
 20
50.0032590582
 10
23.1248165124
 20
50.0045133384
 10
23.1439042173
 20
50.0057424434
 10
23.1677439516
 20
50.0069520025
 10
23.1963357153
 20
50.0081420157
  0
LWPOLYLINE
  5
2F1
100
AcDbEntity
  8
IMPORT_IGES
100
AcDbPolyline
 62
250
  6
CONTINUOUS
 90
10
 70
0
 10
36.0666184983
 20
52.8875015221
 10
36.0665027068
 20
52.8873907663
 10
36.0663768493
 20
52.8872800145
 10
36.0662409258
 20
52.8871692665
 10
36.0660949359
 20
52.8870585221
 10
36.06593888
 20
52.8869477817
 10
36.0657727592
 20
52.886837046
 10
36.065596574
 20
52.8867263153
 10
36.065410324
 20
52.8866155894
 10
36.0652140091
 20
52.8865048682
  0
LWPOLYLINE
  5
2F2
100
AcDbEntity
  8
IMPORT_IGES
100
AcDbPolyline
 62
7
  6
CONTINUOUS
 90
8
 70
0
 10
36.859128472
 20
-4.3168205879
 10
36.8566092886
 20
-4.3174753957
 10
36.8515648676
 20
-4.318114246
 10
36.8439952091
 20
-4.3187371388
 10
36.8338505667
 20
-4.3193452612
 10
36.8211806868
 20
-4.319937426
 10
36.8061348086
 20
-4.3205100724
 10
36.7887626784
 20
-4.3210620132
  0
LINE
  5
2F3
100
AcDbEntity
  8
IMPORT_IGES
100
AcDbLine
 62
250
  6
CONTINUOUS
 10
29.9786233454
 20
-8.6581890888
 11
30.0205155012
 21
-8.6476220677
  0
LINE
  5
2F4
100
AcDbEntity
  8
IMPORT_IGES
100
AcDbLine
 62
250
  6
CONTINUOUS
 10
29.422401001
 20
-6.2764423846
 11
29.3663622329
 21
-6.2905777958
  0
LINE
  5
2F5
100
AcDbEntity
  8
IMPORT_IGES
100
AcDbLine
 62
250
  6
CONTINUOUS
 10
19.5667842894
 20
-8.7395457139
 11
19.6086764452
 21
-8.7289786927
  0
LWPOLYLINE
  5
2F6
100
AcDbEntity
  8
IMPORT_IGES
100
AcDbPolyline
 62
250
  6
CONTINUOUS
 90
4
 70
0
 10
37.0647281107
 20
-14.8940158722
 10
37.0906131111
 20
-14.8926741938
 10
37.1160704777
 20
-14.8886892069
 10
37.1408368342
 20
-14.8821494114
  0
LWPOLYLINE
  5
2F7
100
AcDbEntity
  8
IMPORT_IGES
100
AcDbPolyline
 62
7
  6
CONTINUOUS
 90
19
 70
0
 10
36.8592074739
 20
-14.8940181158
 10
36.8809639488
 20
-14.8930582476
 10
36.9022894346
 20
-14.8902897232
 10
36.9231839314
 20
-14.8857125429
 10
36.9437950818
 20
-14.879284285
 10
36.9639752431
 20
-14.871047371
 10
36.9832814871
 20
-14.8611290655
 10
37.0017192413
 20
-14.8494722162
 10
37.0192830781
 20
-14.8361339753
 10
37.0355137868
 20
-14.8214130643
 10
37.0503749068
 20
-14.8052528893
 10
37.0639028987
 20
-14.7877100441
 10
37.0757479337
 20
-14.7692530312
 10
37.0858445007
 20
-14.7498985575
 10
37.0942581108
 20
-14.7296299162
 10
37.1008354686
 20
-14.708865489
 10
37.1055254756
 20
-14.6877447364
 10
37.1083792302
 20
-14.666128198
 10
37.1093967326
 20
-14.6440158736
  0
LINE
  5
2F8
100
AcDbEntity
  8
IMPORT_IGES
100
AcDbLine
 62
7
  6
CONTINUOUS
 10
37.0955353951
 20
-14.8940158615
 11
36.859230428
 21
-14.8940181158
  0
LINE
  5
2F9
100
AcDbEntity
  8
IMPORT_IGES
100
AcDbLine
 62
7
  6
CONTINUOUS
 10
36.8592310305
 20
-14.3940147526
 11
37.0955353951
 21
-14.3940158885
  0
LINE
  5
2FA
100
AcDbEntity
  8
IMPORT_IGES
100
AcDbLine
 62
250
  6
CONTINUOUS
 10
27.2401317058
 20
-33.0587979995
 11
27.2039851516
 21
-33.0376230298
  0
LINE
  5
2FB
100
AcDbEntity
  8
IMPORT_IGES
100
AcDbLine
 62
250
  6
CONTINUOUS
 10
36.0666184983
 20
-55.0543600746
 11
36.0956823816
 21
-55.083429276
  0
LINE
  5
2FC
100
AcDbEntity
  8
IMPORT_IGES
100
AcDbLine
 62
7
  6
CONTINUOUS
 10
-11.3098854834
 20
-55.0762867007
 11
-11.7062959899
 21
-32.3659439928
  0
LINE
  5
2FD
100
AcDbEntity
  8
IMPORT_IGES
100
AcDbLine
 62
250
  6
CONTINUOUS
 10
-14.6069409577
 20
-30.2247159631
 11
-14.5002357725
 21
-29.4517133961
  0
LINE
  5
2FE
100
AcDbEntity
  8
IMPORT_IGES
100
AcDbLine
 62
250
  6
CONTINUOUS
 10
-14.5002357725
 20
-29.4517133961
 11
-14.4791523044
 21
-29.302833841
  0
LWPOLYLINE
  5
2FF
100
AcDbEntity
  8
IMPORT_IGES
100
AcDbPolyline
 62
250
  6
CONTINUOUS
 90
5
 70
0
 10
-14.4791523044
 20
-29.302833841
 10
-14.4743558975
 20
-29.2700177898
 10
-14.472785856
 20
-29.2596841721
 10
-14.4717785313
 20
-29.2534705547
 10
-14.4713387703
 20
-29.2514075784
  0
LINE
  5
300
100
AcDbEntity
  8
IMPORT_IGES
100
AcDbLine
 62
250
  6
CONTINUOUS
 10
36.0956837355
 20
52.9165707237
 11
36.0666184983
 21
52.8875015221
  0
LINE
  5
301
100
AcDbEntity
  8
IMPORT_IGES
100
AcDbLine
 62
250
  6
CONTINUOUS
 10
37.0664613263
 20
51.8876475487
 11
37.095535395
 21
51.9167171629
  0
LINE
  5
302
100
AcDbEntity
  8
IMPORT_IGES
100
AcDbLine
 62
250
  6
CONTINUOUS
 10
19.0235925795
 20
-6.3545121177
 11
18.9686697892
 21
-6.3683660308
  0
LINE
  5
303
100
AcDbEntity
  8
IMPORT_IGES
100
AcDbLine
 62
250
  6
CONTINUOUS
 10
37.0890822761
 20
-14.395044095
 11
37.0647346392
 21
-14.3940158753
  0
LWPOLYLINE
  5
304
100
AcDbEntity
  8
IMPORT_IGES
100
AcDbPolyline
 62
7
  6
CONTINUOUS
 90
19
 70
0
 10
37.0955353737
 20
-14.3940172098
 10
37.1176275839
 20
-14.3950350358
 10
37.1392190675
 20
-14.3978794492
 10
37.1603098244
 20
-14.4025504498
 10
37.1810492055
 20
-14.4091120369
 10
37.2012878599
 20
-14.4175002113
 10
37.2205777354
 20
-14.4275229753
 10
37.2388982148
 20
-14.4392155721
 10
37.2562699152
 20
-14.4525427585
 10
37.2723066366
 20
-14.4672068075
 10
37.2869794803
 20
-14.4832368988
 10
37.3003173449
 20
-14.5006038527
 10
37.3120207264
 20
-14.5189224033
 10
37.3220543969
 20
-14.5382134187
 10
37.3304535842
 20
-14.5584560307
 10
37.337024468
 20
-14.5792023692
 10
37.3417024413
 20
-14.6003031442
 10
37.344552111
 20
-14.6219076456
 10
37.3455734771
 20
-14.6440158736
  0
LINE
  5
305
100
AcDbEntity
  8
IMPORT_IGES
100
AcDbLine
 62
250
  6
CONTINUOUS
 10
37.095535395
 20
-54.0835777125
 11
37.0664613263
 21
-54.0545077971
  0
LINE
  5
306
100
AcDbEntity
  8
IMPORT_IGES
100
AcDbLine
 62
7
  6
CONTINUOUS
 10
26.8872266603
 20
38.1310230834
 11
28.4504468041
 21
39.755640934
  0
LINE
  5
307
100
AcDbEntity
  8
IMPORT_IGES
100
AcDbLine
 62
7
  6
CONTINUOUS
 10
28.5591150982
 20
39.8685773308
 11
29.2788993396
 21
40.6166321276
  0
LINE
  5
308
100
AcDbEntity
  8
IMPORT_IGES
100
AcDbLine
 62
7
  6
CONTINUOUS
 10
29.3684344129
 20
40.7096838189
 11
29.8479935901
 21
41.2080783686
  0
LINE
  5
309
100
AcDbEntity
  8
IMPORT_IGES
100
AcDbLine
 62
7
  6
CONTINUOUS
 10
30.1173686181
 20
41.4880334861
 11
30.3926338431
 21
41.7741101465
  0
LINE
  5
30A
100
AcDbEntity
  8
IMPORT_IGES
100
AcDbLine
 62
7
  6
CONTINUOUS
 10
30.6764796685
 20
42.0691044225
 11
31.9592973809
 21
43.4023066352
  0
LINE
  5
30B
100
AcDbEntity
  8
IMPORT_IGES
100
AcDbLine
 62
7
  6
CONTINUOUS
 10
30.7515334226
 20
41.9642785845
 11
30.5093339861
 21
41.7126058303
  0
LINE
  5
30C
100
AcDbEntity
  8
IMPORT_IGES
100
AcDbLine
 62
7
  6
CONTINUOUS
 10
30.4275298264
 20
41.6276020067
 11
29.4545913236
 21
40.6166082728
  0
LINE
  5
30D
100
AcDbEntity
  8
IMPORT_IGES
100
AcDbLine
 62
7
  6
CONTINUOUS
 10
29.3651090758
 20
40.5236260426
 11
28.5722907473
 21
39.6997976505
  0
LINE
  5
30E
100
AcDbEntity
  8
IMPORT_IGES
100
AcDbLine
 62
7
  6
CONTINUOUS
 10
28.4647332063
 20
39.5880331354
 11
26.9799687958
 21
38.0451637781
  0
LINE
  5
30F
100
AcDbEntity
  8
IMPORT_IGES
100
AcDbLine
 62
7
  6
CONTINUOUS
 10
31.9580488677
 20
43.2180068513
 11
30.8883256716
 21
42.1064219847
  0
LINE
  5
310
100
AcDbEntity
  8
IMPORT_IGES
100
AcDbLine
 62
7
  6
CONTINUOUS
 10
34.6564010056
 20
43.859303876
 11
34.6451806154
 21
43.8480833578
  0
LWPOLYLINE
  5
311
100
AcDbEntity
  8
IMPORT_IGES
100
AcDbPolyline
 62
7
  6
CONTINUOUS
 90
10
 70
0
 10
32.2446968701
 20
-4.2809221875
 10
32.4166821478
 20
-4.2713332876
 10
32.5839594936
 20
-4.2520401749
 10
32.7465289075
 20
-4.2230428493
 10
32.9043297718
 20
-4.1840665538
 10
33.0574227043
 20
-4.1353860454
 10
33.2059895576
 20
-4.0778255956
 10
33.3500909494
 20
-4.0116599616
 10
33.4896662622
 20
-3.9366143861
 10
33.6247154959
 20
-3.8526888693
  0
LINE
  5
312
100
AcDbEntity
  8
IMPORT_IGES
100
AcDbLine
 62
7
  6
CONTINUOUS
 10
36.7887626784
 20
-4.3210620132
 11
36.746890423
 21
-4.3221073393
  0
LINE
  5
313
100
AcDbEntity
  8
IMPORT_IGES
100
AcDbLine
 62
7
  6
CONTINUOUS
 10
32.0985368863
 20
-4.2834292762
 11
32.2446950963
 21
-4.280922218
  0
LINE
  5
314
100
AcDbEntity
  8
IMPORT_IGES
100
AcDbLine
 62
7
  6
CONTINUOUS
 10
19.0280143514
 20
-4.2659768698
 11
18.010561945
 21
-4.2834292762
  0
LINE
  5
315
100
AcDbEntity
  8
IMPORT_IGES
100
AcDbLine
 62
7
  6
CONTINUOUS
 10
19.0661187543
 20
-7.1010366692
 11
29.4472275993
 21
-7.1010366692
  0
LINE
  5
316
100
AcDbEntity
  8
IMPORT_IGES
100
AcDbLine
 62
7
  6
CONTINUOUS
 10
19.0283243481
 20
-6.0834292762
 11
29.3627464421
 21
-6.0834292762
  0
LINE
  5
317
100
AcDbEntity
  8
IMPORT_IGES
100
AcDbLine
 62
7
  6
CONTINUOUS
 10
28.8028762473
 20
-5.8238975757
 11
29.3490897283
 21
-5.8238975757
  0
LINE
  5
318
100
AcDbEntity
  8
IMPORT_IGES
100
AcDbLine
 62
7
  6
CONTINUOUS
 10
19.8028762473
 20
-5.4738975757
 11
19.0419810619
 21
-5.4738975757
  0
LINE
  5
319
100
AcDbEntity
  8
IMPORT_IGES
100
AcDbLine
 62
7
  6
CONTINUOUS
 10
19.0419810619
 20
-4.9238975757
 11
19.8028762473
 21
-4.9238975757
  0
LINE
  5
31A
100
AcDbEntity
  8
IMPORT_IGES
100
AcDbLine
 62
7
  6
CONTINUOUS
 10
35.9436763302
 20
-4.3253214321
 11
29.422401001
 21
-4.3253214321
  0
LINE
  5
31B
100
AcDbEntity
  8
IMPORT_IGES
100
AcDbLine
 62
7
  6
CONTINUOUS
 10
18.9686697892
 20
-4.3253214321
 11
12.44739446
 21
-4.3253214321
  0
LINE
  5
31C
100
AcDbEntity
  8
IMPORT_IGES
100
AcDbLine
 62
7
  6
CONTINUOUS
 10
32.0985368863
 20
-4.2834292762
 11
30.3805088452
 21
-4.2834292762
  0
LINE
  5
31D
100
AcDbEntity
  8
IMPORT_IGES
100
AcDbLine
 62
7
  6
CONTINUOUS
 10
18.010561945
 20
-4.2834292762
 11
16.2925339039
 21
-4.2834292762
  0
LINE
  5
31E
100
AcDbEntity
  8
IMPORT_IGES
100
AcDbLine
 62
250
  6
CONTINUOUS
 10
11.6029963795
 20
-4.2809231068
 11
11.4666576444
 21
-4.2809251045
  0
LINE
  5
31F
100
AcDbEntity
  8
IMPORT_IGES
100
AcDbLine
 62
250
  6
CONTINUOUS
 10
16.1463756938
 20
-4.280922218
 11
12.4917926382
 21
-4.2809230091
  0
LINE
  5
320
100
AcDbEntity
  8
IMPORT_IGES
100
AcDbLine
 62
250
  6
CONTINUOUS
 10
35.899278152
 20
-4.2809226135
 11
32.2446950963
 21
-4.280922218
  0
LINE
  5
321
100
AcDbEntity
  8
IMPORT_IGES
100
AcDbLine
 62
250
  6
CONTINUOUS
 10
36.92441146
 20
-4.2809254968
 11
36.7880744107
 21
-4.2809231068
  0
LINE
  5
322
100
AcDbEntity
  8
IMPORT_IGES
100
AcDbLine
 62
7
  6
CONTINUOUS
 10
20.6528762473
 20
-4.0988975757
 11
19.7528762473
 21
-4.0988975757
  0
LINE
  5
323
100
AcDbEntity
  8
IMPORT_IGES
100
AcDbLine
 62
7
  6
CONTINUOUS
 10
31.7502717077
 20
38.1368494792
 11
31.6624595994
 21
38.0451637781
  0
LINE
  5
324
100
AcDbEntity
  8
IMPORT_IGES
100
AcDbLine
 62
7
  6
CONTINUOUS
 10
30.6955353951
 20
34.4165707238
 11
28.6955353951
 21
32.4165707238
  0
LINE
  5
325
100
AcDbEntity
  8
IMPORT_IGES
100
AcDbLine
 62
250
  6
CONTINUOUS
 10
11.3886789155
 20
-1.7815316151
 11
11.560119098
 21
-1.7813848204
  0
LINE
  5
326
100
AcDbEntity
  8
IMPORT_IGES
100
AcDbLine
 62
250
  6
CONTINUOUS
 10
36.8309516996
 20
-0.3854737321
 11
37.0023918791
 21
-0.3853258725
  0
LINE
  5
327
100
AcDbEntity
  8
IMPORT_IGES
100
AcDbLine
 62
7
  6
CONTINUOUS
 10
19.3528762473
 20
-3.9988975757
 11
19.0419810619
 21
-3.9988975757
  0
LINE
  5
328
100
AcDbEntity
  8
IMPORT_IGES
100
AcDbLine
 62
7
  6
CONTINUOUS
 10
21.7278762473
 20
-3.7488975757
 11
21.1778762473
 21
-3.7488975757
  0
LINE
  5
329
100
AcDbEntity
  8
IMPORT_IGES
100
AcDbLine
 62
7
  6
CONTINUOUS
 10
21.1778762473
 20
-2.7488975757
 11
21.7278762473
 21
-2.7488975757
  0
LINE
  5
32A
100
AcDbEntity
  8
IMPORT_IGES
100
AcDbLine
 62
7
  6
CONTINUOUS
 10
19.0419810619
 20
-2.3988975757
 11
19.3528762473
 21
-2.3988975757
  0
LINE
  5
32B
100
AcDbEntity
  8
IMPORT_IGES
100
AcDbLine
 62
7
  6
CONTINUOUS
 10
19.7528762473
 20
-2.3988975757
 11
20.6528762473
 21
-2.3988975757
  0
LINE
  5
32C
100
AcDbEntity
  8
IMPORT_IGES
100
AcDbLine
 62
250
  6
CONTINUOUS
 10
14.747150748
 20
-1.7813099161
 11
12.5346698522
 21
-1.7813255874
  0
LINE
  5
32D
100
AcDbEntity
  8
IMPORT_IGES
100
AcDbLine
 62
250
  6
CONTINUOUS
 10
33.6439200403
 20
-1.7813342881
 11
35.8564009242
 21
-1.7813569199
  0
LINE
  5
32E
100
AcDbEntity
  8
IMPORT_IGES
100
AcDbLine
 62
7
  6
CONTINUOUS
 10
19.4528762473
 20
-1.5988975757
 11
19.0419810619
 21
-1.5988975757
  0
LINE
  5
32F
100
AcDbEntity
  8
IMPORT_IGES
100
AcDbLine
 62
250
  6
CONTINUOUS
 10
35.8564009242
 20
-0.3855172938
 11
33.6439200421
 21
-0.3855486364
  0
LINE
  5
330
100
AcDbEntity
  8
IMPORT_IGES
100
AcDbLine
 62
250
  6
CONTINUOUS
 10
14.747150748
 20
-0.3855468961
 11
12.534669866
 21
-0.3855016326
  0
LINE
  5
331
100
AcDbEntity
  8
IMPORT_IGES
100
AcDbLine
 62
250
  6
CONTINUOUS
 10
36.8309516847
 20
-1.7813635774
 11
37.0023918313
 21
-1.7815019731
  0
LINE
  5
332
100
AcDbEntity
  8
IMPORT_IGES
100
AcDbLine
 62
250
  6
CONTINUOUS
 10
11.3886789632
 20
-0.3853576312
 11
11.560119098
 21
-0.3854949751
  0
LINE
  5
333
100
AcDbEntity
  8
IMPORT_IGES
100
AcDbLine
 62
7
  6
CONTINUOUS
 10
16.1463756938
 20
-4.280922218
 11
16.2925339039
 21
-4.2834292762
  0
LINE
  5
334
100
AcDbEntity
  8
IMPORT_IGES
100
AcDbLine
 62
7
  6
CONTINUOUS
 10
30.3805088452
 20
-4.2834292762
 11
29.3630564387
 21
-4.2659768698
  0
LINE
  5
335
100
AcDbEntity
  8
IMPORT_IGES
100
AcDbLine
 62
7
  6
CONTINUOUS
 10
25.2953535619
 20
52.8359283238
 11
25.295507351
 21
52.8362774246
  0
LWPOLYLINE
  5
336
100
AcDbEntity
  8
IMPORT_IGES
100
AcDbPolyline
 62
7
  6
CONTINUOUS
 90
10
 70
0
 10
37.0664613186
 20
51.8876475487
 10
37.0663173876
 20
51.8874334717
 10
37.0661607178
 20
51.887271617
 10
37.0659912267
 20
51.8871619846
 10
37.0658083022
 20
51.8871394945
 10
37.0656123203
 20
51.8871692268
 10
37.0654049976
 20
51.8871464209
 10
37.0651872024
 20
51.8870361569
 10
37.0649586015
 20
51.8868733547
 10
37.0647194248
 20
51.8866580144
  0
LINE
  5
337
100
AcDbEntity
  8
IMPORT_IGES
100
AcDbLine
 62
7
  6
CONTINUOUS
 10
11.4666592965
 20
2.1140669258
 11
11.5320265362
 21
2.1500122453
  0
LWPOLYLINE
  5
338
100
AcDbEntity
  8
IMPORT_IGES
100
AcDbPolyline
 62
250
  6
CONTINUOUS
 90
13
 70
0
 10
37.1408292914
 20
12.2390213715
 10
37.1645348305
 20
12.2479491345
 10
37.1870842268
 20
12.2591585313
 10
37.2085894168
 20
12.2727207029
 10
37.2288924636
 20
12.2886480127
 10
37.2476106975
 20
12.3067619771
 10
37.2644756748
 20
12.3269030618
 10
37.2792656538
 20
12.3489229331
 10
37.2917324565
 20
12.3725873827
 10
37.3016312279
 20
12.397540075
 10
37.3088102759
 20
12.423464006
 10
37.3131741315
 20
12.4501050356
 10
37.3146413546
 20
12.4771575089
  0
LWPOLYLINE
  5
339
100
AcDbEntity
  8
IMPORT_IGES
100
AcDbPolyline
 62
7
  6
CONTINUOUS
 90
10
 70
0
 10
16.1463739201
 20
2.1140636351
 10
15.9743886423
 20
2.1044747352
 10
15.8071112965
 20
2.0851816224
 10
15.6445418826
 20
2.0561842969
 10
15.4867410183
 20
2.0172080013
 10
15.3336480859
 20
1.9685274929
 10
15.1850812326
 20
1.9109670432
 10
15.0409798407
 20
1.8448014091
 10
14.9014045279
 20
1.7697558337
 10
14.7663552942
 20
1.6858303168
  0
LINE
  5
33A
100
AcDbEntity
  8
IMPORT_IGES
100
AcDbLine
 62
7
  6
CONTINUOUS
 10
29.3630564387
 20
2.0991183173
 11
30.3805088452
 21
2.1165707238
  0
LINE
  5
33B
100
AcDbEntity
  8
IMPORT_IGES
100
AcDbLine
 62
7
  6
CONTINUOUS
 10
16.2925339039
 20
2.1165707238
 11
16.1463756938
 21
2.1140636655
  0
LINE
  5
33C
100
AcDbEntity
  8
IMPORT_IGES
100
AcDbLine
 62
7
  6
CONTINUOUS
 10
19.0419810619
 20
0.9011024243
 11
19.4528762473
 21
0.9011024243
  0
LINE
  5
33D
100
AcDbEntity
  8
IMPORT_IGES
100
AcDbLine
 62
250
  6
CONTINUOUS
 10
36.7880744107
 20
2.1140645543
 11
36.9244131118
 21
2.1140665707
  0
LINE
  5
33E
100
AcDbEntity
  8
IMPORT_IGES
100
AcDbLine
 62
250
  6
CONTINUOUS
 10
32.2446950964
 20
2.1140636655
 11
35.899278152
 21
2.1140644566
  0
LINE
  5
33F
100
AcDbEntity
  8
IMPORT_IGES
100
AcDbLine
 62
250
  6
CONTINUOUS
 10
16.1463756938
 20
2.1140636655
 11
12.4917926382
 21
2.114064061
  0
LINE
  5
340
100
AcDbEntity
  8
IMPORT_IGES
100
AcDbLine
 62
250
  6
CONTINUOUS
 10
11.4666592965
 20
2.1140669258
 11
11.6029963795
 21
2.1140645543
  0
LINE
  5
341
100
AcDbEntity
  8
IMPORT_IGES
100
AcDbLine
 62
7
  6
CONTINUOUS
 10
16.2925339039
 20
2.1165707238
 11
18.010561945
 21
2.1165707238
  0
LINE
  5
342
100
AcDbEntity
  8
IMPORT_IGES
100
AcDbLine
 62
7
  6
CONTINUOUS
 10
30.3805088452
 20
2.1165707238
 11
32.0985368863
 21
2.1165707238
  0
LINE
  5
343
100
AcDbEntity
  8
IMPORT_IGES
100
AcDbLine
 62
7
  6
CONTINUOUS
 10
12.44739446
 20
2.1584628796
 11
18.9686697892
 21
2.1584628796
  0
LINE
  5
344
100
AcDbEntity
  8
IMPORT_IGES
100
AcDbLine
 62
7
  6
CONTINUOUS
 10
29.422401001
 20
2.1584628796
 11
35.9436763302
 21
2.1584628796
  0
LINE
  5
345
100
AcDbEntity
  8
IMPORT_IGES
100
AcDbLine
 62
7
  6
CONTINUOUS
 10
24.7778762473
 20
3.0011024243
 11
24.2278762473
 21
3.0011024243
  0
LINE
  5
346
100
AcDbEntity
  8
IMPORT_IGES
100
AcDbLine
 62
7
  6
CONTINUOUS
 10
23.6778762473
 20
3.0011024243
 11
23.1278762473
 21
3.0011024243
  0
LINE
  5
347
100
AcDbEntity
  8
IMPORT_IGES
100
AcDbLine
 62
7
  6
CONTINUOUS
 10
18.9686697892
 20
3.9165707238
 11
29.422401001
 21
3.9165707238
  0
LINE
  5
348
100
AcDbEntity
  8
IMPORT_IGES
100
AcDbLine
 62
7
  6
CONTINUOUS
 10
18.010561945
 20
2.1165707238
 11
19.0280143514
 21
2.0991183173
  0
LINE
  5
349
100
AcDbEntity
  8
IMPORT_IGES
100
AcDbLine
 62
7
  6
CONTINUOUS
 10
32.2446950964
 20
2.1140636655
 11
32.0985368863
 21
2.1165707238
  0
LWPOLYLINE
  5
34A
100
AcDbEntity
  8
IMPORT_IGES
100
AcDbPolyline
 62
7
  6
CONTINUOUS
 90
9
 70
0
 10
36.746890423
 20
2.1552487868
 10
36.7887615877
 20
2.1542034957
 10
36.8061334872
 20
2.1536515658
 10
36.8211794074
 20
2.1530789267
 10
36.833849539
 20
2.1524867647
 10
36.8439944541
 20
2.1518786388
 10
36.8515643433
 20
2.151255735
 10
36.8566090159
 20
2.1506168673
 10
36.8591284719
 20
2.1499620355
  0
LINE
  5
34B
100
AcDbEntity
  8
IMPORT_IGES
100
AcDbLine
 62
7
  6
CONTINUOUS
 10
11.5320265362
 20
-4.3168707978
 11
11.4666576444
 21
-4.2809251045
  0
LWPOLYLINE
  5
34C
100
AcDbEntity
  8
IMPORT_IGES
100
AcDbPolyline
 62
7
  6
CONTINUOUS
 90
19
 70
0
 10
12.0317733877
 20
-53.9404200111
 10
12.0342952266
 20
-53.9838448848
 10
12.0404460529
 20
-54.0262651687
 10
12.0502258666
 20
-54.0676808628
 10
12.0637663929
 20
-54.1083201393
 10
12.0809359065
 20
-54.1479548261
 10
12.1013392322
 20
-54.1859004063
 10
12.1250929314
 20
-54.2221963035
 10
12.1520804426
 20
-54.2568030941
 10
12.1815569061
 20
-54.288917991
 10
12.2134897619
 20
-54.3184960288
 10
12.2479115701
 20
-54.3455821729
 10
12.2841751502
 20
-54.3695085321
 10
12.3223403058
 20
-54.3902434532
 10
12.3623472335
 20
-54.4078185893
 10
12.4033693425
 20
-54.4216610086
 10
12.4451311026
 20
-54.4315797338
 10
12.4879080441
 20
-54.4377657422
 10
12.5317001669
 20
-54.4402190338
  0
LINE
  5
34D
100
AcDbEntity
  8
IMPORT_IGES
100
AcDbLine
 62
7
  6
CONTINUOUS
 10
11.6441803671
 20
2.1552487868
 11
11.6029963795
 21
2.1140645543
  0
LINE
  5
34E
100
AcDbEntity
  8
IMPORT_IGES
100
AcDbLine
 62
7
  6
CONTINUOUS
 10
11.6441803671
 20
-4.3221073393
 11
11.6029961348
 21
-4.2809231068
  0
LWPOLYLINE
  5
34F
100
AcDbEntity
  8
IMPORT_IGES
100
AcDbPolyline
 62
7
  6
CONTINUOUS
 90
12
 70
0
 10
11.4666574111
 20
-4.2809030373
 10
11.4620666917
 20
-4.2741273406
 10
11.4575265907
 20
-4.2592386847
 10
11.4530371079
 20
-4.2362370694
 10
11.4485838862
 20
-4.2049883139
 10
11.4441812828
 20
-4.1656265991
 10
11.4398723695
 20
-4.1185544675
 10
11.4356580784
 20
-4.0636987778
 10
11.4315374774
 20
-4.0011326713
 10
11.427550842
 20
-3.9314781151
 10
11.4236994706
 20
-3.8546667271
 10
11.4199820648
 20
-3.7707668894
  0
LWPOLYLINE
  5
350
100
AcDbEntity
  8
IMPORT_IGES
100
AcDbPolyline
 62
7
  6
CONTINUOUS
 90
9
 70
0
 10
11.5836872099
 20
-4.0011652418
 10
11.5859529561
 20
-4.0637234019
 10
11.5882701554
 20
-4.1185715351
 10
11.5906393228
 20
-4.1656354702
 10
11.5930599432
 20
-4.2049893783
 10
11.5955083058
 20
-4.2362349291
 10
11.5979765067
 20
-4.2592393457
 10
11.6004724497
 20
-4.2741354049
 10
11.6029961348
 20
-4.2809231068
  0
LINE
  5
351
100
AcDbEntity
  8
IMPORT_IGES
100
AcDbLine
 62
7
  6
CONTINUOUS
 10
11.4199820648
 20
-3.7707668894
 11
11.4130599419
 21
-3.5841226317
  0
LWPOLYLINE
  5
352
100
AcDbEntity
  8
IMPORT_IGES
100
AcDbPolyline
 62
250
  6
CONTINUOUS
 90
18
 70
0
 10
11.3263602297
 20
-54.0536234972
 10
11.3285393266
 20
-54.1189535118
 10
11.3349379735
 20
-54.1836788817
 10
11.3454655567
 20
-54.2475319829
 10
11.3600099869
 20
-54.3102357097
 10
11.3784521413
 20
-54.3715649424
 10
11.4006795954
 20
-54.4313435262
 10
11.4264798212
 20
-54.4891922083
 10
11.4557576758
 20
-54.5450613941
 10
11.4886657584
 20
-54.5992335538
 10
11.5252249109
 20
-54.6515985784
 10
11.565249734
 20
-54.7017591794
 10
11.608662161
 20
-54.7495134625
 10
11.6553230348
 20
-54.7946050946
 10
11.7050947469
 20
-54.8368039618
 10
11.7578951425
 20
-54.875933408
 10
11.8136365996
 20
-54.9118015151
 10
11.8720461866
 20
-54.9441104149
  0
LWPOLYLINE
  5
353
100
AcDbEntity
  8
IMPORT_IGES
100
AcDbPolyline
 62
7
  6
CONTINUOUS
 90
25
 70
0
 10
11.5320265936
 20
-53.940530066
 10
11.5341952335
 20
-54.0059471141
 10
11.5406376775
 20
-54.0710739957
 10
11.5513246497
 20
-54.135631958
 10
11.566208918
 20
-54.1993456716
 10
11.5852250529
 20
-54.2619419317
 10
11.6082892048
 20
-54.3231509779
 10
11.6352995813
 20
-54.38270936
 10
11.6661395267
 20
-54.4403656922
 10
11.700678225
 20
-54.4958788245
 10
11.7387670358
 20
-54.5490118698
 10
11.780242367
 20
-54.5995385445
 10
11.8249301708
 20
-54.6472477568
 10
11.8726395645
 20
-54.6919355573
 10
11.9231667419
 20
-54.733410966
 10
11.9763005681
 20
-54.7715000398
 10
12.0318148321
 20
-54.8060390291
 10
12.0894728059
 20
-54.8368791815
 10
12.1490334511
 20
-54.8638897948
 10
12.2102429531
 20
-54.8869531749
 10
12.2728404072
 20
-54.9059685342
 10
12.3365641049
 20
-54.920853583
 10
12.4011438846
 20
-54.9315414995
 10
12.4663019157
 20
-54.9379824777
 10
12.5317593135
 20
-54.9401454284
  0
LWPOLYLINE
  5
354
100
AcDbEntity
  8
IMPORT_IGES
100
AcDbPolyline
 62
250
  6
CONTINUOUS
 90
25
 70
0
 10
11.3246045805
 20
-54.05428419
 10
11.3267484911
 20
-54.1196500663
 10
11.3331179061
 20
-54.1844088449
 10
11.3436215833
 20
-54.2482925434
 10
11.3581464914
 20
-54.3110226606
 10
11.3765729844
 20
-54.3723750754
 10
11.3987892699
 20
-54.4321768105
 10
11.4245833471
 20
-54.4900494558
 10
11.4538595534
 20
-54.5459419998
 10
11.4867702134
 20
-54.6001365364
 10
11.5233358226
 20
-54.652522393
 10
11.5633711194
 20
-54.7027024303
 10
11.6067986754
 20
-54.7504753401
 10
11.6534798659
 20
-54.7955849214
 10
11.7032765691
 20
-54.837800153
 10
11.7561056858
 20
-54.8769434134
 10
11.8118788433
 20
-54.9128222708
 10
11.8703233043
 20
-54.9451390636
 10
11.9310424605
 20
-54.9735901003
 10
11.9938399934
 20
-54.9980169633
 10
12.0583999415
 20
-55.0182319281
 10
12.1240830465
 20
-55.0340163464
 10
12.1904635328
 20
-55.04530073
 10
12.2573552416
 20
-55.0520857476
 10
12.3244537546
 20
-55.0543600751
  0
LINE
  5
355
100
AcDbEntity
  8
IMPORT_IGES
100
AcDbLine
 62
7
  6
CONTINUOUS
 10
11.4130599419
 20
-3.5841226317
 11
11.4068522765
 21
-3.3733812864
  0
LINE
  5
356
100
AcDbEntity
  8
IMPORT_IGES
100
AcDbLine
 62
7
  6
CONTINUOUS
 10
11.5793772896
 20
-3.8547127324
 11
11.5836872099
 21
-4.0011652418
  0
LINE
  5
357
100
AcDbEntity
  8
IMPORT_IGES
100
AcDbLine
 62
7
  6
CONTINUOUS
 10
12.5111059998
 20
1.8341964289
 11
12.515413659
 21
1.6877863706
  0
LINE
  5
358
100
AcDbEntity
  8
IMPORT_IGES
100
AcDbLine
 62
7
  6
CONTINUOUS
 10
11.4068522765
 20
-3.3733812864
 11
11.4014555783
 21
-3.1415266365
  0
LINE
  5
359
100
AcDbEntity
  8
IMPORT_IGES
100
AcDbLine
 62
7
  6
CONTINUOUS
 10
11.5753825888
 20
-3.6806616134
 11
11.5793772896
 21
-3.8547127324
  0
LINE
  5
35A
100
AcDbEntity
  8
IMPORT_IGES
100
AcDbLine
 62
7
  6
CONTINUOUS
 10
12.515413659
 20
1.6877863706
 11
12.5194056784
 21
1.5138291535
  0
LINE
  5
35B
100
AcDbEntity
  8
IMPORT_IGES
100
AcDbLine
 62
7
  6
CONTINUOUS
 10
11.4014555783
 20
-3.1415266365
 11
11.3969449263
 21
-2.8921137075
  0
LINE
  5
35C
100
AcDbEntity
  8
IMPORT_IGES
100
AcDbLine
 62
7
  6
CONTINUOUS
 10
11.5701129204
 20
-3.373443542
 11
11.5753825888
 21
-3.6806616134
  0
LINE
  5
35D
100
AcDbEntity
  8
IMPORT_IGES
100
AcDbLine
 62
7
  6
CONTINUOUS
 10
12.5194056784
 20
1.5138291535
 11
12.5246721394
 21
1.206818328
  0
LINE
  5
35E
100
AcDbEntity
  8
IMPORT_IGES
100
AcDbLine
 62
7
  6
CONTINUOUS
 10
11.3969449263
 20
-2.8921137075
 11
11.3919466271
 21
-2.4910879095
  0
LINE
  5
35F
100
AcDbEntity
  8
IMPORT_IGES
100
AcDbLine
 62
7
  6
CONTINUOUS
 10
11.564664499
 20
-2.8921607389
 11
11.5701129204
 21
-3.373443542
  0
LINE
  5
360
100
AcDbEntity
  8
IMPORT_IGES
100
AcDbLine
 62
7
  6
CONTINUOUS
 10
12.5246721394
 20
1.206818328
 11
12.5301193927
 21
0.72579981
  0
LINE
  5
361
100
AcDbEntity
  8
IMPORT_IGES
100
AcDbLine
 62
7
  6
CONTINUOUS
 10
11.3919466271
 20
-2.4910879095
 11
11.3892090502
 21
-2.0693059644
  0
LINE
  5
362
100
AcDbEntity
  8
IMPORT_IGES
100
AcDbLine
 62
7
  6
CONTINUOUS
 10
11.5612710954
 20
-2.3517666406
 11
11.564664499
 21
-2.8921607389
  0
LINE
  5
363
100
AcDbEntity
  8
IMPORT_IGES
100
AcDbLine
 62
7
  6
CONTINUOUS
 10
12.5301193927
 20
0.72579981
 11
12.5335153437
 21
0.185396816
  0
LINE
  5
364
100
AcDbEntity
  8
IMPORT_IGES
100
AcDbLine
 62
250
  6
CONTINUOUS
 10
12.5317612638
 20
-54.9401454274
 11
12.5316829781
 21
-54.440217765
  0
LINE
  5
365
100
AcDbEntity
  8
IMPORT_IGES
100
AcDbLine
 62
7
  6
CONTINUOUS
 10
11.2955353946
 20
-54.0835563435
 11
11.2955353949
 21
51.9167177186
  0
LINE
  5
366
100
AcDbEntity
  8
IMPORT_IGES
100
AcDbLine
 62
250
  6
CONTINUOUS
 10
11.3246045602
 20
51.8874669585
 11
11.3246045602
 21
-54.05428419
  0
LINE
  5
367
100
AcDbEntity
  8
IMPORT_IGES
100
AcDbLine
 62
250
  6
CONTINUOUS
 10
11.326360244
 20
51.8867973102
 11
11.3263602636
 21
-54.0536951123
  0
LINE
  5
368
100
AcDbEntity
  8
IMPORT_IGES
100
AcDbLine
 62
7
  6
CONTINUOUS
 10
11.3892090502
 20
-2.0693059644
 11
11.3886789632
 21
-0.3853576312
  0
LINE
  5
369
100
AcDbEntity
  8
IMPORT_IGES
100
AcDbLine
 62
250
  6
CONTINUOUS
 10
11.5320265422
 20
-53.9404584513
 11
11.5320265362
 21
-4.3168707978
  0
LINE
  5
36A
100
AcDbEntity
  8
IMPORT_IGES
100
AcDbLine
 62
250
  6
CONTINUOUS
 10
11.5320265363
 20
2.1500122453
 11
11.5320265363
 21
51.7735665504
  0
LINE
  5
36B
100
AcDbEntity
  8
IMPORT_IGES
100
AcDbLine
 62
7
  6
CONTINUOUS
 10
11.6441803671
 20
2.1552487868
 11
11.6441803671
 21
-4.3221073393
  0
LINE
  5
36C
100
AcDbEntity
  8
IMPORT_IGES
100
AcDbLine
 62
250
  6
CONTINUOUS
 10
12.031773059
 20
51.7735676703
 11
12.0317733877
 21
-53.9404200111
  0
LINE
  5
36D
100
AcDbEntity
  8
IMPORT_IGES
100
AcDbLine
 62
7
  6
CONTINUOUS
 10
12.44739446
 20
-4.3253214321
 11
12.44739446
 21
2.1584628796
  0
LINE
  5
36E
100
AcDbEntity
  8
IMPORT_IGES
100
AcDbLine
 62
7
  6
CONTINUOUS
 10
12.5335153437
 20
0.185396816
 11
12.5346697846
 21
-1.7813412586
  0
LINE
  5
36F
100
AcDbEntity
  8
IMPORT_IGES
100
AcDbLine
 62
7
  6
CONTINUOUS
 10
13.7346697846
 20
50.3774211014
 11
13.7346697846
 21
30.4165707238
  0
LINE
  5
370
100
AcDbEntity
  8
IMPORT_IGES
100
AcDbLine
 62
7
  6
CONTINUOUS
 10
13.7458903662
 20
50.3774211013
 11
13.7458903099
 21
44.9860598551
  0
LINE
  5
371
100
AcDbEntity
  8
IMPORT_IGES
100
AcDbLine
 62
7
  6
CONTINUOUS
 10
13.745890239
 20
43.847032196
 11
13.745890239
 21
35.6165707238
  0
LINE
  5
372
100
AcDbEntity
  8
IMPORT_IGES
100
AcDbLine
 62
7
  6
CONTINUOUS
 10
13.745890239
 20
34.4165707238
 11
13.745890239
 21
30.4165707238
  0
LINE
  5
373
100
AcDbEntity
  8
IMPORT_IGES
100
AcDbLine
 62
250
  6
CONTINUOUS
 10
12.5316822425
 20
52.2733630411
 11
12.5317598574
 21
52.7732868781
  0
LINE
  5
374
100
AcDbEntity
  8
IMPORT_IGES
100
AcDbLine
 62
7
  6
CONTINUOUS
 10
11.5601936151
 20
-0.2408486175
 11
11.5612710954
 21
-2.3517666406
  0
LINE
  5
375
100
AcDbEntity
  8
IMPORT_IGES
100
AcDbLine
 62
7
  6
CONTINUOUS
 10
11.3886789153
 20
-0.3853576226
 11
11.3898607461
 21
0.0441545187
  0
LINE
  5
376
100
AcDbEntity
  8
IMPORT_IGES
100
AcDbLine
 62
7
  6
CONTINUOUS
 10
12.5346697846
 20
-1.7813412586
 11
12.5328700119
 21
-2.4915935465
  0
LINE
  5
377
100
AcDbEntity
  8
IMPORT_IGES
100
AcDbLine
 62
7
  6
CONTINUOUS
 10
11.5626954488
 20
0.4607301853
 11
11.5601936151
 21
-0.2408486175
  0
LINE
  5
378
100
AcDbEntity
  8
IMPORT_IGES
100
AcDbLine
 62
7
  6
CONTINUOUS
 10
12.5328700119
 20
-2.4915935465
 11
12.5289423105
 21
-3.0193580313
  0
LINE
  5
379
100
AcDbEntity
  8
IMPORT_IGES
100
AcDbLine
 62
7
  6
CONTINUOUS
 10
11.3898607461
 20
0.0441545187
 11
11.3933647042
 21
0.4607176335
  0
LINE
  5
37A
100
AcDbEntity
  8
IMPORT_IGES
100
AcDbLine
 62
7
  6
CONTINUOUS
 10
11.5671448698
 20
0.9747060722
 11
11.5626954488
 21
0.4607301853
  0
LINE
  5
37B
100
AcDbEntity
  8
IMPORT_IGES
100
AcDbLine
 62
7
  6
CONTINUOUS
 10
12.5289423105
 20
-3.0193580313
 11
12.5246724945
 21
-3.3736495654
  0
LINE
  5
37C
100
AcDbEntity
  8
IMPORT_IGES
100
AcDbLine
 62
7
  6
CONTINUOUS
 10
11.3933647042
 20
0.4607176335
 11
11.396944826
 21
0.7252487371
  0
LINE
  5
37D
100
AcDbEntity
  8
IMPORT_IGES
100
AcDbLine
 62
7
  6
CONTINUOUS
 10
11.5717640096
 20
1.3145631161
 11
11.5671448698
 21
0.9747060722
  0
LINE
  5
37E
100
AcDbEntity
  8
IMPORT_IGES
100
AcDbLine
 62
7
  6
CONTINUOUS
 10
11.5753822786
 20
1.5137878529
 11
11.5717640096
 21
1.3145631161
  0
LINE
  5
37F
100
AcDbEntity
  8
IMPORT_IGES
100
AcDbLine
 62
7
  6
CONTINUOUS
 10
12.5246724945
 20
-3.3736495654
 11
12.5194061
 21
-3.6806663111
  0
LINE
  5
380
100
AcDbEntity
  8
IMPORT_IGES
100
AcDbLine
 62
7
  6
CONTINUOUS
 10
11.396944826
 20
0.7252487371
 11
11.4014555549
 21
0.9746669251
  0
LINE
  5
381
100
AcDbEntity
  8
IMPORT_IGES
100
AcDbLine
 62
7
  6
CONTINUOUS
 10
11.5793769809
 20
1.6878422714
 11
11.5753822786
 21
1.5137878529
  0
LINE
  5
382
100
AcDbEntity
  8
IMPORT_IGES
100
AcDbLine
 62
7
  6
CONTINUOUS
 10
12.5194061
 20
-3.6806663111
 11
12.515414091
 21
-3.8546285534
  0
LINE
  5
383
100
AcDbEntity
  8
IMPORT_IGES
100
AcDbLine
 62
7
  6
CONTINUOUS
 10
11.4014555549
 20
0.9746669251
 11
11.4068523604
 21
1.2065259245
  0
LINE
  5
384
100
AcDbEntity
  8
IMPORT_IGES
100
AcDbLine
 62
7
  6
CONTINUOUS
 10
11.4068523604
 20
1.2065259245
 11
11.4130601532
 21
1.4172704402
  0
LWPOLYLINE
  5
385
100
AcDbEntity
  8
IMPORT_IGES
100
AcDbPolyline
 62
7
  6
CONTINUOUS
 90
10
 70
0
 10
12.515414091
 20
-3.8546285534
 10
12.5111064107
 20
-4.0010439139
 10
12.5088415234
 20
-4.0636045955
 10
12.5065248412
 20
-4.1184626508
 10
12.5041558485
 20
-4.1655455403
 10
12.5017350608
 20
-4.2049258034
 10
12.4992860166
 20
-4.236194569
 10
12.4968165619
 20
-4.2592155466
 10
12.4943188507
 20
-4.2741250266
 10
12.4917928829
 20
-4.2809230091
  0
LWPOLYLINE
  5
386
100
AcDbEntity
  8
IMPORT_IGES
100
AcDbPolyline
 62
7
  6
CONTINUOUS
 90
25
 70
0
 10
11.5320265344
 20
51.7735665511
 10
11.5341907386
 20
51.8390207126
 10
11.5406326873
 20
51.9041778326
 10
11.5513217328
 20
51.9687589055
 10
11.5662086436
 20
52.0324862124
 10
11.5852269476
 20
52.0950890595
 10
11.6082942289
 20
52.1563046394
 10
11.6353098858
 20
52.215871775
 10
11.6661564006
 20
52.27353643
 10
11.7007025117
 20
52.3290566793
 10
11.738799412
 20
52.3821955698
 10
11.7802833599
 20
52.4327267959
 10
11.8249796437
 20
52.480438741
 10
11.8726971311
 20
52.5251275573
 10
11.9232317779
 20
52.5666023899
 10
11.9763716307
 20
52.604689046
 10
12.0318902197
 20
52.6392240804
 10
12.0895505791
 20
52.6700590622
 10
12.1491107819
 20
52.6970633516
 10
12.2103169657
 20
52.7201198199
 10
12.272907963
 20
52.7391281498
 10
12.3366208141
 20
52.7540063653
 10
12.4011849285
 20
52.7646883886
 10
12.4663229487
 20
52.7711253232
 10
12.5317561738
 20
52.7732868764
  0
LWPOLYLINE
  5
387
100
AcDbEntity
  8
IMPORT_IGES
100
AcDbPolyline
 62
7
  6
CONTINUOUS
 90
25
 70
0
 10
11.2955370547
 20
51.9167099954
 10
11.297763013
 20
51.9826491442
 10
11.3041771472
 20
52.0477357904
 10
11.3147794572
 20
52.111969934
 10
11.3296531672
 20
52.1756158708
 10
11.348715053
 20
52.238409305
 10
11.3717154424
 20
52.2995573493
 10
11.3987030893
 20
52.3590389667
 10
11.4296292398
 20
52.4168751942
 10
11.4640979607
 20
52.472336255
 10
11.5021530766
 20
52.5253921925
 10
11.5437507629
 20
52.5760729633
 10
11.5883636127
 20
52.6237386601
 10
11.6360291139
 20
52.6683518011
 10
11.6867097787
 20
52.7099498681
 10
11.7397657368
 20
52.7480053998
 10
11.795226952
 20
52.7824745754
 10
11.8530634606
 20
52.8134012157
 10
11.9125455005
 20
52.8403893217
 10
11.9736944342
 20
52.8633900795
 10
12.0364888991
 20
52.882452303
 10
12.1001350459
 20
52.8973264349
 10
12.164368258
 20
52.9079292894
 10
12.2294531519
 20
52.9143440523
 10
12.2953897276
 20
52.9165707236
  0
LWPOLYLINE
  5
388
100
AcDbEntity
  8
IMPORT_IGES
100
AcDbPolyline
 62
7
  6
CONTINUOUS
 90
13
 70
0
 10
11.4130601532
 20
1.4172704402
 10
11.4199824096
 20
1.6039165955
 10
11.4236998828
 20
1.687816889
 10
11.4275513172
 20
1.7646284335
 10
11.4315380112
 20
1.8342828268
 10
11.4356586665
 20
1.896848471
 10
11.439873003
 20
1.951703482
 10
11.444181953
 20
1.9987738817
 10
11.4485845842
 20
2.038133648
 10
11.4530378202
 20
2.0693828307
 10
11.4575273021
 20
2.0923881127
 10
11.4620673886
 20
2.1072828111
 10
11.4666580799
 20
2.1140669256
  0
LWPOLYLINE
  5
389
100
AcDbEntity
  8
IMPORT_IGES
100
AcDbPolyline
 62
7
  6
CONTINUOUS
 90
10
 70
0
 10
11.6029961348
 20
2.1140645543
 10
11.6004723934
 20
2.1072765326
 10
11.5979763998
 20
2.0923799151
 10
11.5955081539
 20
2.0693747018
 10
11.593059752
 20
2.0381280707
 10
11.5906390979
 20
1.9987728437
 10
11.5882699027
 20
1.9517074875
 10
11.5859526819
 20
1.8968578504
 10
11.5836869199
 20
1.834298084
 10
11.5793769809
 20
1.6878422714
  0
LINE
  5
38A
100
AcDbEntity
  8
IMPORT_IGES
100
AcDbLine
 62
7
  6
CONTINUOUS
 10
12.4917928829
 20
-4.2809230091
 11
12.44739446
 21
-4.3253214321
  0
LWPOLYLINE
  5
38B
100
AcDbEntity
  8
IMPORT_IGES
100
AcDbPolyline
 62
250
  6
CONTINUOUS
 90
4
 70
0
 10
37.0647417082
 20
12.2271573224
 10
37.0906169686
 20
12.2284986861
 10
37.1160672765
 20
12.2324827381
 10
37.1408292914
 20
12.2390213715
  0
LWPOLYLINE
  5
38C
100
AcDbEntity
  8
IMPORT_IGES
100
AcDbPolyline
 62
7
  6
CONTINUOUS
 90
34
 70
0
 10
36.8592074655
 20
12.2271547897
 10
36.883341915
 20
12.2283766392
 10
36.9068310047
 20
12.2317484045
 10
36.9296747344
 20
12.2372700855
 10
36.9520363447
 20
12.2449994354
 10
36.973752595
 20
12.254878701
 10
36.9943337644
 20
12.2667346233
 10
37.0138397843
 20
12.2807064806
 10
37.0322107233
 20
12.2966549946
 10
37.0487770662
 20
12.313989071
 10
37.0633897218
 20
12.3326490994
 10
37.0761977814
 20
12.3526946903
 10
37.0869790038
 20
12.3737135805
 10
37.0957276809
 20
12.3958067187
 10
37.1024495208
 20
12.4188731563
 10
37.1069394065
 20
12.4421977843
 10
37.1091296565
 20
12.4657148518
 10
37.1090879523
 20
12.4894901098
 10
37.1068122211
 20
12.5130057019
 10
37.1022468057
 20
12.5363138372
 10
37.0954473634
 20
12.5593623065
 10
37.0865787936
 20
12.5814766263
 10
37.07560291
 20
12.6026029266
 10
37.0625578988
 20
12.6227950774
 10
37.047723218
 20
12.641540204
 10
37.0309475979
 20
12.6588581453
 10
37.0123823083
 20
12.6747290625
 10
36.992760616
 20
12.6885805642
 10
36.9721456497
 20
12.7002581767
 10
36.9504742807
 20
12.7099163737
 10
36.9282903897
 20
12.7174461851
 10
36.9057752703
 20
12.7228112876
 10
36.8827476289
 20
12.7260480045
 10
36.8592074655
 20
12.7271563359
  0
LINE
  5
38D
100
AcDbEntity
  8
IMPORT_IGES
100
AcDbLine
 62
7
  6
CONTINUOUS
 10
37.0955353951
 20
12.2271574716
 11
36.8592310291
 21
12.2271547897
  0
LINE
  5
38E
100
AcDbEntity
  8
IMPORT_IGES
100
AcDbLine
 62
7
  6
CONTINUOUS
 10
36.8592304148
 20
12.7271568285
 11
37.095535395
 21
12.7271570281
  0
LINE
  5
38F
100
AcDbEntity
  8
IMPORT_IGES
100
AcDbLine
 62
7
  6
CONTINUOUS
 10
12.4917926382
 20
2.114064061
 11
12.44739446
 21
2.1584628796
  0
LINE
  5
390
100
AcDbEntity
  8
IMPORT_IGES
100
AcDbLine
 62
7
  6
CONTINUOUS
 10
19.5667842894
 20
-8.7395457139
 11
27.3790960109
 21
-23.2399029275
  0
LINE
  5
391
100
AcDbEntity
  8
IMPORT_IGES
100
AcDbLine
 62
7
  6
CONTINUOUS
 10
27.4159761422
 20
-23.2200331354
 11
19.6086764452
 21
-8.7289786927
  0
LWPOLYLINE
  5
392
100
AcDbEntity
  8
IMPORT_IGES
100
AcDbPolyline
 62
7
  6
CONTINUOUS
 90
9
 70
0
 10
12.4917928829
 20
2.1140644566
 10
12.4943187721
 20
2.1072654846
 10
12.4968164124
 20
2.0923558003
 10
12.4992858038
 20
2.0693354036
 10
12.5017347922
 20
2.0380682127
 10
12.5041555316
 20
1.9986903095
 10
12.5065244844
 20
1.9516099398
 10
12.5088411354
 20
1.8967544175
 10
12.5111059998
 20
1.8341964289
  0
LINE
  5
393
100
AcDbEntity
  8
IMPORT_IGES
100
AcDbLine
 62
7
  6
CONTINUOUS
 10
19.1715298112
 20
-53.8324130863
 11
19.1589753814
 21
-53.1131702831
  0
LINE
  5
394
100
AcDbEntity
  8
IMPORT_IGES
100
AcDbLine
 62
7
  6
CONTINUOUS
 10
19.0367405546
 20
-49.755718431
 11
19.0145939407
 21
-48.4645998857
  0
LINE
  5
395
100
AcDbEntity
  8
IMPORT_IGES
100
AcDbLine
 62
7
  6
CONTINUOUS
 10
14.2028762473
 20
50.0011024243
 11
14.2028762473
 21
35.6165707238
  0
LINE
  5
396
100
AcDbEntity
  8
IMPORT_IGES
100
AcDbLine
 62
7
  6
CONTINUOUS
 10
14.2028762473
 20
30.4165707238
 11
14.2028762473
 21
34.4165707238
  0
LINE
  5
397
100
AcDbEntity
  8
IMPORT_IGES
100
AcDbLine
 62
7
  6
CONTINUOUS
 10
14.6955353951
 20
34.4165707238
 11
14.6955353951
 21
49.4165707238
  0
LINE
  5
398
100
AcDbEntity
  8
IMPORT_IGES
100
AcDbLine
 62
7
  6
CONTINUOUS
 10
14.7471507351
 20
-1.7813029513
 11
14.7471507351
 21
-0.3855468961
  0
LINE
  5
399
100
AcDbEntity
  8
IMPORT_IGES
100
AcDbLine
 62
7
  6
CONTINUOUS
 10
14.7663552942
 20
1.6858303168
 11
14.7663552942
 21
-3.8526888693
  0
LINE
  5
39A
100
AcDbEntity
  8
IMPORT_IGES
100
AcDbLine
 62
7
  6
CONTINUOUS
 10
16.2925339039
 20
-4.2834292762
 11
16.2925339039
 21
2.1165707238
  0
LINE
  5
39B
100
AcDbEntity
  8
IMPORT_IGES
100
AcDbLine
 62
7
  6
CONTINUOUS
 10
16.4955353951
 20
50.3774211014
 11
16.4955353951
 21
49.4165707238
  0
LINE
  5
39C
100
AcDbEntity
  8
IMPORT_IGES
100
AcDbLine
 62
7
  6
CONTINUOUS
 10
16.6955353951
 20
36.6165707238
 11
16.6955353951
 21
34.4165707238
  0
LINE
  5
39D
100
AcDbEntity
  8
IMPORT_IGES
100
AcDbLine
 62
7
  6
CONTINUOUS
 10
17.6955353951
 20
49.4165707238
 11
17.6955353951
 21
50.3774211014
  0
LINE
  5
39E
100
AcDbEntity
  8
IMPORT_IGES
100
AcDbLine
 62
7
  6
CONTINUOUS
 10
17.9955353951
 20
25.9165707238
 11
17.9955353951
 21
28.9165707238
  0
LINE
  5
39F
100
AcDbEntity
  8
IMPORT_IGES
100
AcDbLine
 62
7
  6
CONTINUOUS
 10
18.010561945
 20
2.1165707238
 11
18.010561945
 21
-4.2834292762
  0
LWPOLYLINE
  5
3A0
100
AcDbEntity
  8
IMPORT_IGES
100
AcDbPolyline
 62
7
  6
CONTINUOUS
 90
13
 70
0
 10
18.7414762473
 20
29.3319696084
 10
18.7432583007
 20
29.3457486236
 10
18.7479792026
 20
29.3590714341
 10
18.755638953
 20
29.37193804
 10
18.766376728
 20
29.3844562627
 10
18.7800533515
 20
29.3965182807
 10
18.7962512946
 20
29.40780063
 10
18.8150159628
 20
29.4182892696
 10
18.8363019506
 20
29.4279982405
 10
18.8595555128
 20
29.4366462008
 10
18.8845920675
 20
29.4441393697
 10
18.9115961965
 20
29.450571528
 10
18.9405678999
 20
29.4559426756
  0
LINE
  5
3A1
100
AcDbEntity
  8
IMPORT_IGES
100
AcDbLine
 62
7
  6
CONTINUOUS
 10
19.0280143514
 20
-4.2659768698
 11
18.9686697892
 21
-4.3253214321
  0
LINE
  5
3A2
100
AcDbEntity
  8
IMPORT_IGES
100
AcDbLine
 62
7
  6
CONTINUOUS
 10
29.3490897283
 20
3.8816605938
 11
29.3839998582
 21
3.9165707238
  0
LINE
  5
3A3
100
AcDbEntity
  8
IMPORT_IGES
100
AcDbLine
 62
250
  6
CONTINUOUS
 10
37.0874464058
 20
12.7261248358
 11
37.0647281162
 21
12.7271573197
  0
LWPOLYLINE
  5
3A4
100
AcDbEntity
  8
IMPORT_IGES
100
AcDbPolyline
 62
7
  6
CONTINUOUS
 90
34
 70
0
 10
37.0955353955
 20
12.7271537453
 10
37.1196569055
 20
12.7259385091
 10
37.1431441373
 20
12.7225623703
 10
37.1659970911
 20
12.717025329
 10
37.1884194094
 20
12.7092279569
 10
37.2102074496
 20
12.6992696823
 10
37.2307502837
 20
12.6874487898
 10
37.2499908422
 20
12.6737291864
 10
37.2679861945
 20
12.6581469651
 10
37.2842966206
 20
12.6411086901
 10
37.298886134
 20
12.6225857297
 10
37.3117907211
 20
12.6026067155
 10
37.3226786219
 20
12.5816641071
 10
37.3315059844
 20
12.5597011431
 10
37.3383166604
 20
12.5367745848
 10
37.3429104456
 20
12.513547175
 10
37.3452203488
 20
12.4900428241
 10
37.3453133612
 20
12.4662376215
 10
37.3431902514
 20
12.4427225792
 10
37.3387959071
 20
12.4194877378
 10
37.3321854406
 20
12.3965430567
 10
37.323524958
 20
12.3745094253
 10
37.3127687658
 20
12.3534191675
 10
37.2999625575
 20
12.3332399595
 10
37.2854095203
 20
12.3144957193
 10
37.2690541293
 20
12.2972074206
 10
37.2509519095
 20
12.2813540896
 10
37.2315726228
 20
12.267396723
 10
37.2108462878
 20
12.2553864734
 10
37.1888428859
 20
12.2452721883
 10
37.1662421228
 20
12.2373614058
 10
37.1432705671
 20
12.231756639
 10
37.1197016502
 20
12.2283553748
 10
37.0955353721
 20
12.2271576135
  0
LWPOLYLINE
  5
3A5
100
AcDbEntity
  8
IMPORT_IGES
100
AcDbPolyline
 62
250
  6
CONTINUOUS
 90
16
 70
0
 10
37.0664442429
 20
12.7271573211
 10
37.0922516368
 20
12.72582074
 10
37.1176662336
 20
12.7218504362
 10
37.1424245227
 20
12.7153249922
 10
37.1661711037
 20
12.7063942873
 10
37.1887862281
 20
12.6951609097
 10
37.2103361315
 20
12.6815739727
 10
37.230650327
 20
12.6656384188
 10
37.2493655171
 20
12.6475282278
 10
37.2662216874
 20
12.6274009078
 10
37.2809953466
 20
12.6054142885
 10
37.2934480368
 20
12.5817966962
 10
37.3033496485
 20
12.5568716126
 10
37.310543952
 20
12.5309410057
 10
37.3149228952
 20
12.5042677302
 10
37.3163969663
 20
12.4771573217
  0
LINE
  5
3A6
100
AcDbEntity
  8
IMPORT_IGES
100
AcDbLine
 62
7
  6
CONTINUOUS
 10
18.9686697892
 20
2.1584628796
 11
19.0280143514
 21
2.0991183173
  0
LINE
  5
3A7
100
AcDbEntity
  8
IMPORT_IGES
100
AcDbLine
 62
7
  6
CONTINUOUS
 10
19.007070932
 20
3.9165707238
 11
19.0419810619
 21
3.8816605939
  0
LINE
  5
3A8
100
AcDbEntity
  8
IMPORT_IGES
100
AcDbLine
 62
7
  6
CONTINUOUS
 10
29.422401001
 20
-4.3253214321
 11
29.3630564387
 21
-4.2659768698
  0
LINE
  5
3A9
100
AcDbEntity
  8
IMPORT_IGES
100
AcDbLine
 62
7
  6
CONTINUOUS
 10
18.7414762473
 20
28.521763222
 11
18.7414762473
 21
30.5467632219
  0
LINE
  5
3AA
100
AcDbEntity
  8
IMPORT_IGES
100
AcDbLine
 62
250
  6
CONTINUOUS
 10
18.9405678999
 20
29.7298295563
 11
18.9405678999
 21
29.4559426756
  0
LINE
  5
3AB
100
AcDbEntity
  8
IMPORT_IGES
100
AcDbLine
 62
7
  6
CONTINUOUS
 10
18.9686697892
 20
-54.0352731083
 11
18.9686697892
 21
-48.4521388581
  0
LINE
  5
3AC
100
AcDbEntity
  8
IMPORT_IGES
100
AcDbLine
 62
7
  6
CONTINUOUS
 10
18.9686697892
 20
-6.3683660308
 11
18.9686697892
 21
-4.3253214321
  0
LINE
  5
3AD
100
AcDbEntity
  8
IMPORT_IGES
100
AcDbLine
 62
7
  6
CONTINUOUS
 10
18.9686697892
 20
2.1584628796
 11
18.9686697892
 21
3.9165707238
  0
LINE
  5
3AE
100
AcDbEntity
  8
IMPORT_IGES
100
AcDbLine
 62
7
  6
CONTINUOUS
 10
19.0280143514
 20
2.0991183173
 11
19.0280143514
 21
-4.2659768698
  0
LINE
  5
3AF
100
AcDbEntity
  8
IMPORT_IGES
100
AcDbLine
 62
7
  6
CONTINUOUS
 10
19.0419810619
 20
3.8816605939
 11
19.0419810619
 21
-6.0834292762
  0
LINE
  5
3B0
100
AcDbEntity
  8
IMPORT_IGES
100
AcDbLine
 62
7
  6
CONTINUOUS
 10
19.1589753814
 20
-53.1131702831
 11
19.1589753814
 21
-49.8779532577
  0
LINE
  5
3B1
100
AcDbEntity
  8
IMPORT_IGES
100
AcDbLine
 62
7
  6
CONTINUOUS
 10
19.3028762473
 20
43.5011024243
 11
19.3028762473
 21
42.6011024243
  0
LINE
  5
3B2
100
AcDbEntity
  8
IMPORT_IGES
100
AcDbLine
 62
7
  6
CONTINUOUS
 10
19.3028762473
 20
38.4011024243
 11
19.3028762473
 21
37.5011024243
  0
LINE
  5
3B3
100
AcDbEntity
  8
IMPORT_IGES
100
AcDbLine
 62
7
  6
CONTINUOUS
 10
19.3528762473
 20
-2.3988975757
 11
19.3528762473
 21
-3.9988975757
  0
LINE
  5
3B4
100
AcDbEntity
  8
IMPORT_IGES
100
AcDbLine
 62
7
  6
CONTINUOUS
 10
19.4028762473
 20
49.4165707238
 11
19.4028762473
 21
50.0011024243
  0
LINE
  5
3B5
100
AcDbEntity
  8
IMPORT_IGES
100
AcDbLine
 62
7
  6
CONTINUOUS
 10
19.4528762473
 20
0.9011024243
 11
19.4528762473
 21
-1.5988975757
  0
LINE
  5
3B6
100
AcDbEntity
  8
IMPORT_IGES
100
AcDbLine
 62
7
  6
CONTINUOUS
 10
19.6955353951
 20
32.4165707238
 11
19.6955353951
 21
27.9165707238
  0
LINE
  5
3B7
100
AcDbEntity
  8
IMPORT_IGES
100
AcDbLine
 62
7
  6
CONTINUOUS
 10
19.7528762473
 20
-4.0988975757
 11
19.7528762473
 21
-2.3988975757
  0
LINE
  5
3B8
100
AcDbEntity
  8
IMPORT_IGES
100
AcDbLine
 62
7
  6
CONTINUOUS
 10
19.8028762473
 20
-4.9238975757
 11
19.8028762473
 21
-5.4738975757
  0
LINE
  5
3B9
100
AcDbEntity
  8
IMPORT_IGES
100
AcDbLine
 62
7
  6
CONTINUOUS
 10
19.8955353951
 20
44.5165707238
 11
19.8955353951
 21
49.4165707238
  0
LINE
  5
3BA
100
AcDbEntity
  8
IMPORT_IGES
100
AcDbLine
 62
7
  6
CONTINUOUS
 10
20.1955353951
 20
49.6488035865
 11
20.1955353951
 21
50.3774211014
  0
LINE
  5
3BB
100
AcDbEntity
  8
IMPORT_IGES
100
AcDbLine
 62
7
  6
CONTINUOUS
 10
20.2666852182
 20
25.7247862627
 11
20.2666852182
 21
21.7276513863
  0
LINE
  5
3BC
100
AcDbEntity
  8
IMPORT_IGES
100
AcDbLine
 62
7
  6
CONTINUOUS
 10
20.6528762473
 20
-2.3988975757
 11
20.6528762473
 21
-4.0988975757
  0
LINE
  5
3BD
100
AcDbEntity
  8
IMPORT_IGES
100
AcDbLine
 62
7
  6
CONTINUOUS
 10
20.6757846959
 20
25.1137074831
 11
20.6757846959
 21
21.4880474682
  0
LINE
  5
3BE
100
AcDbEntity
  8
IMPORT_IGES
100
AcDbLine
 62
250
  6
CONTINUOUS
 10
20.9026587065
 20
-54.975968846
 11
20.9026587065
 21
-54.779671743
  0
LINE
  5
3BF
100
AcDbEntity
  8
IMPORT_IGES
100
AcDbLine
 62
7
  6
CONTINUOUS
 10
21.1778762473
 20
-3.7488975757
 11
21.1778762473
 21
-2.7488975757
  0
LINE
  5
3C0
100
AcDbEntity
  8
IMPORT_IGES
100
AcDbLine
 62
7
  6
CONTINUOUS
 10
21.2955353951
 20
50.3774211014
 11
21.2955353951
 21
52.8031128017
  0
LINE
  5
3C1
100
AcDbEntity
  8
IMPORT_IGES
100
AcDbLine
 62
7
  6
CONTINUOUS
 10
21.2955353951
 20
52.8764240744
 11
21.2955353951
 21
52.9165707237
  0
LINE
  5
3C2
100
AcDbEntity
  8
IMPORT_IGES
100
AcDbLine
 62
250
  6
CONTINUOUS
 10
21.2972600458
 20
48.5165707238
 11
21.2972600458
 21
44.5165707238
  0
LINE
  5
3C3
100
AcDbEntity
  8
IMPORT_IGES
100
AcDbLine
 62
7
  6
CONTINUOUS
 10
21.6955353951
 20
49.7801788678
 11
21.6955353951
 21
52.6118251014
  0
LINE
  5
3C4
100
AcDbEntity
  8
IMPORT_IGES
100
AcDbLine
 62
7
  6
CONTINUOUS
 10
21.6955353951
 20
52.8764240744
 11
21.6955353951
 21
52.9165707238
  0
LINE
  5
3C5
100
AcDbEntity
  8
IMPORT_IGES
100
AcDbLine
 62
7
  6
CONTINUOUS
 10
21.7278762473
 20
-2.7488975757
 11
21.7278762473
 21
-3.7488975757
  0
LINE
  5
3C6
100
AcDbEntity
  8
IMPORT_IGES
100
AcDbLine
 62
7
  6
CONTINUOUS
 10
22.0955353951
 20
53.4165707238
 11
22.0955353951
 21
54.2165707238
  0
LINE
  5
3C7
100
AcDbEntity
  8
IMPORT_IGES
100
AcDbLine
 62
250
  6
CONTINUOUS
 10
22.2321875779
 20
44.5165707238
 11
22.2321875779
 21
48.5165707238
  0
LINE
  5
3C8
100
AcDbEntity
  8
IMPORT_IGES
100
AcDbLine
 62
7
  6
CONTINUOUS
 10
19.0283243481
 20
-6.0834292762
 11
19.0235925795
 21
-6.3545121177
  0
LINE
  5
3C9
100
AcDbEntity
  8
IMPORT_IGES
100
AcDbLine
 62
7
  6
CONTINUOUS
 10
19.4757792668
 20
-53.8834140434
 11
19.4955353951
 21
-52.7488153053
  0
LINE
  5
3CA
100
AcDbEntity
  8
IMPORT_IGES
100
AcDbLine
 62
7
  6
CONTINUOUS
 10
29.3630564387
 20
2.0991183173
 11
29.422401001
 21
2.1584628796
  0
LINE
  5
3CB
100
AcDbEntity
  8
IMPORT_IGES
100
AcDbLine
 62
7
  6
CONTINUOUS
 10
36.92441146
 20
-4.2809254968
 11
36.859128472
 21
-4.3168205879
  0
LINE
  5
3CC
100
AcDbEntity
  8
IMPORT_IGES
100
AcDbLine
 62
7
  6
CONTINUOUS
 10
25.3955353951
 20
20.9165707238
 11
22.9955353951
 21
20.9165707238
  0
LINE
  5
3CD
100
AcDbEntity
  8
IMPORT_IGES
100
AcDbLine
 62
7
  6
CONTINUOUS
 10
21.9812280805
 20
21.0217632219
 11
26.4098432899
 21
21.0217632219
  0
LINE
  5
3CE
100
AcDbEntity
  8
IMPORT_IGES
100
AcDbLine
 62
7
  6
CONTINUOUS
 10
36.8591284719
 20
2.1499620355
 11
36.9244131118
 21
2.1140665707
  0
LINE
  5
3CF
100
AcDbEntity
  8
IMPORT_IGES
100
AcDbLine
 62
7
  6
CONTINUOUS
 10
35.899278152
 20
-4.2809226135
 11
35.9436763302
 21
-4.3253214321
  0
LINE
  5
3D0
100
AcDbEntity
  8
IMPORT_IGES
100
AcDbLine
 62
7
  6
CONTINUOUS
 10
29.9786233454
 20
-8.6581890888
 11
33.4566809922
 21
-15.113778687
  0
LINE
  5
3D1
100
AcDbEntity
  8
IMPORT_IGES
100
AcDbLine
 62
7
  6
CONTINUOUS
 10
33.498573148
 20
-15.1032116659
 11
30.0205155012
 21
-8.6476220677
  0
LINE
  5
3D2
100
AcDbEntity
  8
IMPORT_IGES
100
AcDbLine
 62
7
  6
CONTINUOUS
 10
22.9955353951
 20
52.6118251014
 11
22.9955353951
 21
52.8275489229
  0
LINE
  5
3D3
100
AcDbEntity
  8
IMPORT_IGES
100
AcDbLine
 62
7
  6
CONTINUOUS
 10
23.0955353951
 20
48.5165707238
 11
23.0955353951
 21
50.0001126858
  0
LINE
  5
3D4
100
AcDbEntity
  8
IMPORT_IGES
100
AcDbLine
 62
7
  6
CONTINUOUS
 10
23.0955353951
 20
52.9165707238
 11
23.0957172283
 21
52.6118251014
  0
LINE
  5
3D5
100
AcDbEntity
  8
IMPORT_IGES
100
AcDbLine
 62
7
  6
CONTINUOUS
 10
23.1278762473
 20
3.0011024243
 11
23.1278762473
 21
3.9165707238
  0
LINE
  5
3D6
100
AcDbEntity
  8
IMPORT_IGES
100
AcDbLine
 62
250
  6
CONTINUOUS
 10
23.402233283
 20
-55.0188456036
 11
23.4022332807
 21
-54.8225484888
  0
LINE
  5
3D7
100
AcDbEntity
  8
IMPORT_IGES
100
AcDbLine
 62
7
  6
CONTINUOUS
 10
23.6778762473
 20
3.9165707238
 11
23.6778762473
 21
3.0011024243
  0
LINE
  5
3D8
100
AcDbEntity
  8
IMPORT_IGES
100
AcDbLine
 62
7
  6
CONTINUOUS
 10
24.1028762473
 20
40.9511024243
 11
24.1028762473
 21
40.0511024243
  0
LINE
  5
3D9
100
AcDbEntity
  8
IMPORT_IGES
100
AcDbLine
 62
7
  6
CONTINUOUS
 10
24.2278762473
 20
3.0011024243
 11
24.2278762473
 21
3.9165707238
  0
LINE
  5
3DA
100
AcDbEntity
  8
IMPORT_IGES
100
AcDbLine
 62
7
  6
CONTINUOUS
 10
24.2786762473
 20
28.5437907561
 11
24.2786762473
 21
28.521763222
  0
LINE
  5
3DB
100
AcDbEntity
  8
IMPORT_IGES
100
AcDbLine
 62
7
  6
CONTINUOUS
 10
24.4028762473
 20
43.5011024243
 11
24.4028762473
 21
42.6011024243
  0
LINE
  5
3DC
100
AcDbEntity
  8
IMPORT_IGES
100
AcDbLine
 62
7
  6
CONTINUOUS
 10
24.4028762473
 20
38.4011024243
 11
24.4028762473
 21
37.5011024243
  0
LINE
  5
3DD
100
AcDbEntity
  8
IMPORT_IGES
100
AcDbLine
 62
7
  6
CONTINUOUS
 10
24.7319677986
 20
28.5217632219
 11
24.7319677986
 21
26.198693705
  0
LINE
  5
3DE
100
AcDbEntity
  8
IMPORT_IGES
100
AcDbLine
 62
7
  6
CONTINUOUS
 10
24.7319677986
 20
23.4499530263
 11
24.7319677986
 21
21.0217632219
  0
LINE
  5
3DF
100
AcDbEntity
  8
IMPORT_IGES
100
AcDbLine
 62
7
  6
CONTINUOUS
 10
24.7778762473
 20
3.9165707238
 11
24.7778762473
 21
3.0011024243
  0
LINE
  5
3E0
100
AcDbEntity
  8
IMPORT_IGES
100
AcDbLine
 62
250
  6
CONTINUOUS
 10
24.9888549219
 20
-55.0188456036
 11
24.9888549154
 21
-54.8225485006
  0
LINE
  5
3E1
100
AcDbEntity
  8
IMPORT_IGES
100
AcDbLine
 62
7
  6
CONTINUOUS
 10
25.1410672764
 20
28.5217632219
 11
25.1410672764
 21
26.3849903641
  0
LINE
  5
3E2
100
AcDbEntity
  8
IMPORT_IGES
100
AcDbLine
 62
7
  6
CONTINUOUS
 10
25.1410672764
 20
23.518355725
 11
25.1410672764
 21
21.0217632219
  0
LINE
  5
3E3
100
AcDbEntity
  8
IMPORT_IGES
100
AcDbLine
 62
7
  6
CONTINUOUS
 10
25.2955353951
 20
48.5165707238
 11
25.2955353951
 21
50.0001126858
  0
LINE
  5
3E4
100
AcDbEntity
  8
IMPORT_IGES
100
AcDbLine
 62
7
  6
CONTINUOUS
 10
25.2953535619
 20
52.6118251014
 11
25.2955353951
 21
52.9165707238
  0
LINE
  5
3E5
100
AcDbEntity
  8
IMPORT_IGES
100
AcDbLine
 62
7
  6
CONTINUOUS
 10
25.3955353951
 20
52.6118251014
 11
25.3955353951
 21
52.8275491412
  0
LINE
  5
3E6
100
AcDbEntity
  8
IMPORT_IGES
100
AcDbLine
 62
250
  6
CONTINUOUS
 10
26.1588832123
 20
48.5165707238
 11
26.1588832123
 21
44.5165707238
  0
LINE
  5
3E7
100
AcDbEntity
  8
IMPORT_IGES
100
AcDbLine
 62
7
  6
CONTINUOUS
 10
26.2955353951
 20
53.4165707238
 11
26.2955353951
 21
54.2165707238
  0
LINE
  5
3E8
100
AcDbEntity
  8
IMPORT_IGES
100
AcDbLine
 62
7
  6
CONTINUOUS
 10
26.6955353951
 20
52.9165707238
 11
26.6955353951
 21
52.8764240744
  0
LINE
  5
3E9
100
AcDbEntity
  8
IMPORT_IGES
100
AcDbLine
 62
7
  6
CONTINUOUS
 10
26.6955353951
 20
49.7801788678
 11
26.6955353951
 21
52.6118251014
  0
LINE
  5
3EA
100
AcDbEntity
  8
IMPORT_IGES
100
AcDbLine
 62
250
  6
CONTINUOUS
 10
27.0938107443
 20
48.5165707238
 11
27.0938107443
 21
44.5165707238
  0
LINE
  5
3EB
100
AcDbEntity
  8
IMPORT_IGES
100
AcDbLine
 62
7
  6
CONTINUOUS
 10
27.0955353951
 20
52.9165707237
 11
27.0955353951
 21
52.8764240744
  0
LINE
  5
3EC
100
AcDbEntity
  8
IMPORT_IGES
100
AcDbLine
 62
7
  6
CONTINUOUS
 10
27.0955353951
 20
52.8031128017
 11
27.0955353951
 21
50.3774211014
  0
LINE
  5
3ED
100
AcDbEntity
  8
IMPORT_IGES
100
AcDbLine
 62
7
  6
CONTINUOUS
 10
30.4715497837
 20
42.1929953665
 11
30.4619043343
 21
42.0691044225
  0
LINE
  5
3EE
100
AcDbEntity
  8
IMPORT_IGES
100
AcDbLine
 62
7
  6
CONTINUOUS
 10
30.2793130202
 20
39.7256591704
 11
30.4275298264
 21
41.6276020067
  0
LINE
  5
3EF
100
AcDbEntity
  8
IMPORT_IGES
100
AcDbLine
 62
7
  6
CONTINUOUS
 10
30.2657542921
 20
39.5519784166
 11
30.2578675462
 21
39.4509530109
  0
LINE
  5
3F0
100
AcDbEntity
  8
IMPORT_IGES
100
AcDbLine
 62
7
  6
CONTINUOUS
 10
30.6118888705
 20
42.2563903058
 11
30.5961199676
 21
42.0691044225
  0
LINE
  5
3F1
100
AcDbEntity
  8
IMPORT_IGES
100
AcDbLine
 62
7
  6
CONTINUOUS
 10
30.5533820586
 20
41.573604673
 11
30.3839820333
 21
39.6125849496
  0
LINE
  5
3F2
100
AcDbEntity
  8
IMPORT_IGES
100
AcDbLine
 62
7
  6
CONTINUOUS
 10
35.8992779085
 20
2.1140605193
 11
35.9436763302
 21
2.1584628796
  0
LWPOLYLINE
  5
3F3
100
AcDbEntity
  8
IMPORT_IGES
100
AcDbPolyline
 62
250
  6
CONTINUOUS
 90
13
 70
0
 10
37.1408368342
 20
-14.8821494114
 10
37.1645432195
 20
-14.8732208047
 10
37.1870909397
 20
-14.8620111506
 10
37.2085944677
 20
-14.8484489348
 10
37.2288966558
 20
-14.8325215283
 10
37.247614054
 20
-14.8144076122
 10
37.2644782407
 20
-14.794266719
 10
37.2792675023
 20
-14.7722471664
 10
37.291733677
 20
-14.7485831602
 10
37.3016319223
 20
-14.7236310518
 10
37.3088105724
 20
-14.6977078398
 10
37.3131741887
 20
-14.6710676335
 10
37.3146413546
 20
-14.6440160614
  0
LWPOLYLINE
  5
3F4
100
AcDbEntity
  8
IMPORT_IGES
100
AcDbPolyline
 62
7
  6
CONTINUOUS
 90
13
 70
0
 10
18.9405678999
 20
29.7298295562
 10
18.9115961965
 20
29.7244584086
 10
18.8845920675
 20
29.7180262503
 10
18.8595555128
 20
29.7105330814
 10
18.8363019506
 20
29.7018851212
 10
18.8150159628
 20
29.6921761503
 10
18.7962512946
 20
29.6816875106
 10
18.7800533515
 20
29.6704051614
 10
18.766376728
 20
29.6583431433
 10
18.755638953
 20
29.6458249207
 10
18.7479792026
 20
29.6329583147
 10
18.7432583007
 20
29.6196355042
 10
18.7414762473
 20
29.605856489
  0
LWPOLYLINE
  5
3F5
100
AcDbEntity
  8
IMPORT_IGES
100
AcDbPolyline
 62
7
  6
CONTINUOUS
 90
3
 70
0
 10
18.9405678999
 20
29.4559426756
 10
19.345914352
 20
29.5154207191
 10
19.6955353951
 20
29.5603750716
  0
LINE
  5
3F6
100
AcDbEntity
  8
IMPORT_IGES
100
AcDbLine
 62
7
  6
CONTINUOUS
 10
26.8851835885
 20
43.1992471373
 11
26.8759637975
 21
43.4023066353
  0
LINE
  5
3F7
100
AcDbEntity
  8
IMPORT_IGES
100
AcDbLine
 62
7
  6
CONTINUOUS
 10
28.8955353951
 20
-52.7488153053
 11
28.9152914408
 21
-53.8834140434
  0
LINE
  5
3F8
100
AcDbEntity
  8
IMPORT_IGES
100
AcDbLine
 62
7
  6
CONTINUOUS
 10
29.3663622329
 20
-6.2905777958
 11
29.3627464421
 21
-6.0834292762
  0
LINE
  5
3F9
100
AcDbEntity
  8
IMPORT_IGES
100
AcDbLine
 62
250
  6
CONTINUOUS
 10
27.4884120837
 20
-54.779671743
 11
27.4884120837
 21
-54.975968846
  0
LINE
  5
3FA
100
AcDbEntity
  8
IMPORT_IGES
100
AcDbLine
 62
7
  6
CONTINUOUS
 10
28.0347682888
 20
42.1929953665
 11
28.0347682888
 21
42.4060109585
  0
LINE
  5
3FB
100
AcDbEntity
  8
IMPORT_IGES
100
AcDbLine
 62
7
  6
CONTINUOUS
 10
28.1955353951
 20
49.6488035865
 11
28.1955353951
 21
50.3774211014
  0
LINE
  5
3FC
100
AcDbEntity
  8
IMPORT_IGES
100
AcDbLine
 62
7
  6
CONTINUOUS
 10
28.4955353951
 20
49.4165707238
 11
28.4955353951
 21
44.5165707238
  0
LINE
  5
3FD
100
AcDbEntity
  8
IMPORT_IGES
100
AcDbLine
 62
7
  6
CONTINUOUS
 10
28.5109528238
 20
42.6903463991
 11
28.5109454842
 21
42.8373883409
  0
LINE
  5
3FE
100
AcDbEntity
  8
IMPORT_IGES
100
AcDbLine
 62
7
  6
CONTINUOUS
 10
28.5962471689
 20
38.5405494807
 11
28.5962471689
 21
38.8284118497
  0
LINE
  5
3FF
100
AcDbEntity
  8
IMPORT_IGES
100
AcDbLine
 62
7
  6
CONTINUOUS
 10
28.6955353951
 20
32.4165707238
 11
28.6955353951
 21
27.9165707238
  0
LINE
  5
400
100
AcDbEntity
  8
IMPORT_IGES
100
AcDbLine
 62
7
  6
CONTINUOUS
 10
28.736649107
 20
28.5217632212
 11
28.736649107
 21
22.1985727777
  0
LINE
  5
401
100
AcDbEntity
  8
IMPORT_IGES
100
AcDbLine
 62
7
  6
CONTINUOUS
 10
28.793448258
 20
42.4060749848
 11
28.793448258
 21
42.6386719026
  0
LINE
  5
402
100
AcDbEntity
  8
IMPORT_IGES
100
AcDbLine
 62
7
  6
CONTINUOUS
 10
28.7934802711
 20
42.8373883409
 11
28.7934802711
 21
42.7713254091
  0
LINE
  5
403
100
AcDbEntity
  8
IMPORT_IGES
100
AcDbLine
 62
7
  6
CONTINUOUS
 10
28.8028762473
 20
-6.0834292762
 11
28.8028762473
 21
-5.8238975757
  0
LINE
  5
404
100
AcDbEntity
  8
IMPORT_IGES
100
AcDbLine
 62
7
  6
CONTINUOUS
 10
28.8663102188
 20
38.8284112633
 11
28.8663102188
 21
38.5405494807
  0
LINE
  5
405
100
AcDbEntity
  8
IMPORT_IGES
100
AcDbLine
 62
250
  6
CONTINUOUS
 10
28.8732946714
 20
28.5217632211
 11
28.8732946714
 21
22.3253230958
  0
LINE
  5
406
100
AcDbEntity
  8
IMPORT_IGES
100
AcDbLine
 62
7
  6
CONTINUOUS
 10
29.0028762473
 20
50.0011024243
 11
29.0028762473
 21
49.4165707238
  0
LINE
  5
407
100
AcDbEntity
  8
IMPORT_IGES
100
AcDbLine
 62
7
  6
CONTINUOUS
 10
29.1470976786
 20
41.4880334861
 11
29.1470976786
 21
41.2080783686
  0
LINE
  5
408
100
AcDbEntity
  8
IMPORT_IGES
100
AcDbLine
 62
7
  6
CONTINUOUS
 10
29.1630402342
 20
42.6944345831
 11
29.1630402342
 21
42.5967774017
  0
LINE
  5
409
100
AcDbEntity
  8
IMPORT_IGES
100
AcDbLine
 62
7
  6
CONTINUOUS
 10
29.1630402342
 20
42.8231104698
 11
29.1630402342
 21
42.9069209327
  0
LINE
  5
40A
100
AcDbEntity
  8
IMPORT_IGES
100
AcDbLine
 62
7
  6
CONTINUOUS
 10
29.2320954088
 20
-49.8779532577
 11
29.2320954088
 21
-53.1131702831
  0
LINE
  5
40B
100
AcDbEntity
  8
IMPORT_IGES
100
AcDbLine
 62
7
  6
CONTINUOUS
 10
29.292757574
 20
42.7269109126
 11
29.292757574
 21
42.7803728961
  0
LINE
  5
40C
100
AcDbEntity
  8
IMPORT_IGES
100
AcDbLine
 62
7
  6
CONTINUOUS
 10
29.3490897283
 20
-6.0834292762
 11
29.3490897283
 21
3.8816605938
  0
LINE
  5
40D
100
AcDbEntity
  8
IMPORT_IGES
100
AcDbLine
 62
250
  6
CONTINUOUS
 10
29.3572231268
 20
28.5217632211
 11
29.3572231268
 21
22.8678329555
  0
LINE
  5
40E
100
AcDbEntity
  8
IMPORT_IGES
100
AcDbLine
 62
7
  6
CONTINUOUS
 10
29.3630564387
 20
-4.2659768698
 11
29.3630564387
 21
2.0991183173
  0
LINE
  5
40F
100
AcDbEntity
  8
IMPORT_IGES
100
AcDbLine
 62
7
  6
CONTINUOUS
 10
29.3805088452
 20
-48.0156622974
 11
29.3805088452
 21
-48.2295398213
  0
LINE
  5
410
100
AcDbEntity
  8
IMPORT_IGES
100
AcDbLine
 62
7
  6
CONTINUOUS
 10
29.422401001
 20
3.9165707238
 11
29.422401001
 21
2.1584628796
  0
LINE
  5
411
100
AcDbEntity
  8
IMPORT_IGES
100
AcDbLine
 62
7
  6
CONTINUOUS
 10
29.422401001
 20
-4.3253214321
 11
29.422401001
 21
-6.2764423846
  0
LINE
  5
412
100
AcDbEntity
  8
IMPORT_IGES
100
AcDbLine
 62
7
  6
CONTINUOUS
 10
29.422401001
 20
-48.0270292861
 11
29.422401001
 21
-54.0352731083
  0
LINE
  5
413
100
AcDbEntity
  8
IMPORT_IGES
100
AcDbLine
 62
7
  6
CONTINUOUS
 10
29.7315940235
 20
42.7803728961
 11
29.7315940235
 21
42.7269109126
  0
LINE
  5
414
100
AcDbEntity
  8
IMPORT_IGES
100
AcDbLine
 62
7
  6
CONTINUOUS
 10
29.8577899153
 20
42.9069209327
 11
29.8577899153
 21
42.8037444342
  0
LINE
  5
415
100
AcDbEntity
  8
IMPORT_IGES
100
AcDbLine
 62
7
  6
CONTINUOUS
 10
29.8577899153
 20
42.5967774017
 11
29.8577899153
 21
42.6749181389
  0
LINE
  5
416
100
AcDbEntity
  8
IMPORT_IGES
100
AcDbLine
 62
250
  6
CONTINUOUS
 10
29.8765391193
 20
28.5217632211
 11
29.8765391193
 21
23.7013133384
  0
LINE
  5
417
100
AcDbEntity
  8
IMPORT_IGES
100
AcDbLine
 62
7
  6
CONTINUOUS
 10
30.3765391193
 20
28.5217632211
 11
30.3765391193
 21
25.4931428042
  0
LINE
  5
418
100
AcDbEntity
  8
IMPORT_IGES
100
AcDbLine
 62
7
  6
CONTINUOUS
 10
30.3805088452
 20
-4.2834292762
 11
30.3805088452
 21
2.1165707238
  0
LINE
  5
419
100
AcDbEntity
  8
IMPORT_IGES
100
AcDbLine
 62
7
  6
CONTINUOUS
 10
30.3926338431
 20
42.0691044225
 11
30.3926338431
 21
41.7741101465
  0
LINE
  5
41A
100
AcDbEntity
  8
IMPORT_IGES
100
AcDbLine
 62
7
  6
CONTINUOUS
 10
30.3955353951
 20
28.9165707238
 11
30.3955353951
 21
25.9165707238
  0
LINE
  5
41B
100
AcDbEntity
  8
IMPORT_IGES
100
AcDbLine
 62
7
  6
CONTINUOUS
 10
30.6955353951
 20
50.3774211014
 11
30.6955353951
 21
49.4165707238
  0
LINE
  5
41C
100
AcDbEntity
  8
IMPORT_IGES
100
AcDbLine
 62
7
  6
CONTINUOUS
 10
30.7515334226
 20
41.9642785845
 11
30.7515334226
 21
41.7126058303
  0
LINE
  5
41D
100
AcDbEntity
  8
IMPORT_IGES
100
AcDbLine
 62
7
  6
CONTINUOUS
 10
30.8883256716
 20
42.1064219847
 11
30.8883256716
 21
41.573604673
  0
LINE
  5
41E
100
AcDbEntity
  8
IMPORT_IGES
100
AcDbLine
 62
7
  6
CONTINUOUS
 10
28.5109660913
 20
42.5518541967
 11
28.5109320873
 21
42.4060109585
  0
LINE
  5
41F
100
AcDbEntity
  8
IMPORT_IGES
100
AcDbLine
 62
7
  6
CONTINUOUS
 10
29.3805088452
 20
-48.2295398213
 11
29.3543302355
 21
-49.755718431
  0
LINE
  5
420
100
AcDbEntity
  8
IMPORT_IGES
100
AcDbLine
 62
7
  6
CONTINUOUS
 10
29.2320954088
 20
-53.1131702831
 11
29.219540979
 21
-53.8324130863
  0
LINE
  5
421
100
AcDbEntity
  8
IMPORT_IGES
100
AcDbLine
 62
7
  6
CONTINUOUS
 10
36.7880746554
 20
-4.2809231068
 11
36.746890423
 21
-4.3221073393
  0
LWPOLYLINE
  5
422
100
AcDbEntity
  8
IMPORT_IGES
100
AcDbPolyline
 62
7
  6
CONTINUOUS
 90
3
 70
0
 10
19.6955353951
 20
29.8346186832
 10
19.3458053699
 20
29.7895110053
 10
18.9405678999
 20
29.7298295562
  0
LINE
  5
423
100
AcDbEntity
  8
IMPORT_IGES
100
AcDbLine
 62
7
  6
CONTINUOUS
 10
19.6955353951
 20
28.5217632219
 11
17.9955353951
 21
28.5217632218
  0
LINE
  5
424
100
AcDbEntity
  8
IMPORT_IGES
100
AcDbLine
 62
7
  6
CONTINUOUS
 10
24.2460096928
 20
28.5217632219
 11
25.8904672653
 21
28.5217632219
  0
LINE
  5
425
100
AcDbEntity
  8
IMPORT_IGES
100
AcDbLine
 62
7
  6
CONTINUOUS
 10
28.6955353951
 20
28.5217632217
 11
30.3767342502
 21
28.5217632211
  0
LINE
  5
426
100
AcDbEntity
  8
IMPORT_IGES
100
AcDbLine
 62
250
  6
CONTINUOUS
 10
25.7053223185
 20
28.8957633542
 11
24.7118794223
 21
28.8957632678
  0
LINE
  5
427
100
AcDbEntity
  8
IMPORT_IGES
100
AcDbLine
 62
250
  6
CONTINUOUS
 10
19.6955353951
 20
28.895763305
 11
18.7414762473
 21
28.895763222
  0
LINE
  5
428
100
AcDbEntity
  8
IMPORT_IGES
100
AcDbLine
 62
7
  6
CONTINUOUS
 10
25.5977612399
 20
29.0437695656
 11
22.7933159683
 21
29.0437695656
  0
LINE
  5
429
100
AcDbEntity
  8
IMPORT_IGES
100
AcDbLine
 62
7
  6
CONTINUOUS
 10
19.6955353951
 20
29.0437695656
 11
18.7414762473
 21
29.0437695656
  0
LINE
  5
42A
100
AcDbEntity
  8
IMPORT_IGES
100
AcDbLine
 62
250
  6
CONTINUOUS
 10
25.5460093859
 20
29.1055958044
 11
22.8450031853
 21
29.1055958044
  0
LINE
  5
42B
100
AcDbEntity
  8
IMPORT_IGES
100
AcDbLine
 62
250
  6
CONTINUOUS
 10
19.6955353951
 20
29.1055958044
 11
18.7414762473
 21
29.1055958044
  0
LINE
  5
42C
100
AcDbEntity
  8
IMPORT_IGES
100
AcDbLine
 62
7
  6
CONTINUOUS
 10
34.6564010056
 20
30.4165707238
 11
31.8955353951
 21
30.4165707238
  0
LINE
  5
42D
100
AcDbEntity
  8
IMPORT_IGES
100
AcDbLine
 62
7
  6
CONTINUOUS
 10
16.4955353951
 20
30.4165707238
 11
13.7346697846
 21
30.4165707238
  0
LINE
  5
42E
100
AcDbEntity
  8
IMPORT_IGES
100
AcDbLine
 62
250
  6
CONTINUOUS
 10
19.6955353951
 20
30.5352689525
 11
18.7414762473
 21
30.5352689525
  0
LINE
  5
42F
100
AcDbEntity
  8
IMPORT_IGES
100
AcDbLine
 62
7
  6
CONTINUOUS
 10
18.7414762473
 20
30.5467632219
 11
19.6955353951
 21
30.5467632219
  0
LWPOLYLINE
  5
430
100
AcDbEntity
  8
IMPORT_IGES
100
AcDbPolyline
 62
7
  6
CONTINUOUS
 90
3
 70
0
 10
24.0199953491
 20
29.7071354113
 10
24.4027160911
 20
29.6845364636
 10
24.6012428475
 20
29.6694456161
  0
LINE
  5
431
100
AcDbEntity
  8
IMPORT_IGES
100
AcDbLine
 62
7
  6
CONTINUOUS
 10
36.7880744107
 20
2.1140645543
 11
36.746890423
 21
2.1552487868
  0
LINE
  5
432
100
AcDbEntity
  8
IMPORT_IGES
100
AcDbLine
 62
7
  6
CONTINUOUS
 10
28.5294811196
 20
38.8284118497
 11
28.4647332063
 21
39.5880331354
  0
LINE
  5
433
100
AcDbEntity
  8
IMPORT_IGES
100
AcDbLine
 62
7
  6
CONTINUOUS
 10
28.4504468041
 20
39.755640934
 11
28.2857297487
 21
41.6880982919
  0
LINE
  5
434
100
AcDbEntity
  8
IMPORT_IGES
100
AcDbLine
 62
7
  6
CONTINUOUS
 10
28.2677763023
 20
41.8987277832
 11
28.2427879475
 21
42.1929953665
  0
LINE
  5
435
100
AcDbEntity
  8
IMPORT_IGES
100
AcDbLine
 62
7
  6
CONTINUOUS
 10
28.429154684
 20
41.5333664447
 11
28.5591150982
 21
39.8685773308
  0
LINE
  5
436
100
AcDbEntity
  8
IMPORT_IGES
100
AcDbLine
 62
7
  6
CONTINUOUS
 10
28.5722907473
 20
39.6997976505
 11
28.6299297423
 21
38.9602740714
  0
LINE
  5
437
100
AcDbEntity
  8
IMPORT_IGES
100
AcDbLine
 62
7
  6
CONTINUOUS
 10
28.377836519
 20
42.1929953665
 11
28.4128691566
 21
41.7419835763
  0
LWPOLYLINE
  5
438
100
AcDbEntity
  8
IMPORT_IGES
100
AcDbPolyline
 62
7
  6
CONTINUOUS
 90
9
 70
0
 10
35.8799688908
 20
-4.0011596204
 10
35.8822346448
 20
-4.0637187541
 10
35.8845518532
 20
-4.118567785
 10
35.8869210308
 20
-4.1656325405
 10
35.8893416627
 20
-4.2049871931
 10
35.8917900374
 20
-4.2362334006
 10
35.8942582512
 20
-4.259238382
 10
35.8967542078
 20
-4.2741349181
 10
35.8992779073
 20
-4.2809230091
  0
LINE
  5
439
100
AcDbEntity
  8
IMPORT_IGES
100
AcDbLine
 62
7
  6
CONTINUOUS
 10
35.8756589592
 20
-3.8547049854
 11
35.8799688908
 21
-4.0011596204
  0
LINE
  5
43A
100
AcDbEntity
  8
IMPORT_IGES
100
AcDbLine
 62
7
  6
CONTINUOUS
 10
35.8716642533
 20
-3.6806515237
 11
35.8756589592
 21
-3.8547049854
  0
LINE
  5
43B
100
AcDbEntity
  8
IMPORT_IGES
100
AcDbLine
 62
7
  6
CONTINUOUS
 10
35.8663945906
 20
-3.3734296717
 11
35.8716642533
 21
-3.6806515237
  0
LINE
  5
43C
100
AcDbEntity
  8
IMPORT_IGES
100
AcDbLine
 62
7
  6
CONTINUOUS
 10
35.8609462041
 20
-2.8921416696
 11
35.8663945906
 21
-3.3734296717
  0
LINE
  5
43D
100
AcDbEntity
  8
IMPORT_IGES
100
AcDbLine
 62
7
  6
CONTINUOUS
 10
35.8575528677
 20
-2.3517426959
 11
35.8609462041
 21
-2.8921416696
  0
LINE
  5
43E
100
AcDbEntity
  8
IMPORT_IGES
100
AcDbLine
 62
250
  6
CONTINUOUS
 10
35.8593016939
 20
52.7732868769
 11
35.8593876616
 21
52.2733630388
  0
LINE
  5
43F
100
AcDbEntity
  8
IMPORT_IGES
100
AcDbLine
 62
7
  6
CONTINUOUS
 10
31.6955353951
 20
34.4165707238
 11
31.6955353951
 21
36.6165707238
  0
LINE
  5
440
100
AcDbEntity
  8
IMPORT_IGES
100
AcDbLine
 62
7
  6
CONTINUOUS
 10
31.8955353951
 20
49.4165707238
 11
31.8955353951
 21
50.3774211014
  0
LINE
  5
441
100
AcDbEntity
  8
IMPORT_IGES
100
AcDbLine
 62
7
  6
CONTINUOUS
 10
32.0985368863
 20
2.1165707238
 11
32.0985368863
 21
-4.2834292762
  0
LINE
  5
442
100
AcDbEntity
  8
IMPORT_IGES
100
AcDbLine
 62
7
  6
CONTINUOUS
 10
33.6247154959
 20
-3.8526888693
 11
33.6247154959
 21
1.6858303168
  0
LINE
  5
443
100
AcDbEntity
  8
IMPORT_IGES
100
AcDbLine
 62
7
  6
CONTINUOUS
 10
33.6439200403
 20
-1.7813342881
 11
33.6439200421
 21
-0.3855486364
  0
LINE
  5
444
100
AcDbEntity
  8
IMPORT_IGES
100
AcDbLine
 62
7
  6
CONTINUOUS
 10
33.6955353951
 20
34.4165707238
 11
33.6955353951
 21
49.4165707238
  0
LINE
  5
445
100
AcDbEntity
  8
IMPORT_IGES
100
AcDbLine
 62
7
  6
CONTINUOUS
 10
34.2028762473
 20
30.4165707238
 11
34.2028762473
 21
34.4165707238
  0
LINE
  5
446
100
AcDbEntity
  8
IMPORT_IGES
100
AcDbLine
 62
7
  6
CONTINUOUS
 10
34.2028762473
 20
35.6165707238
 11
34.2028762473
 21
50.0011024243
  0
LINE
  5
447
100
AcDbEntity
  8
IMPORT_IGES
100
AcDbLine
 62
7
  6
CONTINUOUS
 10
34.6451805566
 20
30.4165707238
 11
34.6451805547
 21
34.4165707238
  0
LINE
  5
448
100
AcDbEntity
  8
IMPORT_IGES
100
AcDbLine
 62
7
  6
CONTINUOUS
 10
34.6451805542
 20
35.6165707238
 11
34.6451805503
 21
43.8470815925
  0
LINE
  5
449
100
AcDbEntity
  8
IMPORT_IGES
100
AcDbLine
 62
7
  6
CONTINUOUS
 10
34.6451805511
 20
44.9861092515
 11
34.6451804705
 21
50.3774211013
  0
LINE
  5
44A
100
AcDbEntity
  8
IMPORT_IGES
100
AcDbLine
 62
7
  6
CONTINUOUS
 10
34.6529099926
 20
-19.8561380532
 11
34.6529099926
 21
-34.9459844556
  0
LINE
  5
44B
100
AcDbEntity
  8
IMPORT_IGES
100
AcDbLine
 62
7
  6
CONTINUOUS
 10
34.6564010056
 20
50.3774211014
 11
34.6564010056
 21
30.4165707238
  0
LINE
  5
44C
100
AcDbEntity
  8
IMPORT_IGES
100
AcDbLine
 62
7
  6
CONTINUOUS
 10
34.6948021484
 20
-19.8455710321
 11
34.6948021484
 21
-34.9573514442
  0
LINE
  5
44D
100
AcDbEntity
  8
IMPORT_IGES
100
AcDbLine
 62
7
  6
CONTINUOUS
 10
35.8575528677
 20
-2.3517426959
 11
35.8564010055
 21
-0.3855172938
  0
LINE
  5
44E
100
AcDbEntity
  8
IMPORT_IGES
100
AcDbLine
 62
7
  6
CONTINUOUS
 10
35.9436763302
 20
2.1584628796
 11
35.9436763302
 21
-4.3253214321
  0
LINE
  5
44F
100
AcDbEntity
  8
IMPORT_IGES
100
AcDbLine
 62
250
  6
CONTINUOUS
 10
35.8593480261
 20
-54.4402190336
 11
35.859284696
 21
-54.9401454274
  0
LINE
  5
450
100
AcDbEntity
  8
IMPORT_IGES
100
AcDbLine
 62
7
  6
CONTINUOUS
 10
35.8581972751
 20
0.324193948
 11
35.8564010055
 21
-0.3855172938
  0
LINE
  5
451
100
AcDbEntity
  8
IMPORT_IGES
100
AcDbLine
 62
7
  6
CONTINUOUS
 10
31.9592973809
 20
43.4023066352
 11
31.9580488677
 21
43.2180068513
  0
LINE
  5
452
100
AcDbEntity
  8
IMPORT_IGES
100
AcDbLine
 62
7
  6
CONTINUOUS
 10
35.8621231963
 20
0.8520436066
 11
35.8581972751
 21
0.324193948
  0
LINE
  5
453
100
AcDbEntity
  8
IMPORT_IGES
100
AcDbLine
 62
7
  6
CONTINUOUS
 10
35.8663943464
 20
1.2065541822
 11
35.8621231963
 21
0.8520436066
  0
LINE
  5
454
100
AcDbEntity
  8
IMPORT_IGES
100
AcDbLine
 62
7
  6
CONTINUOUS
 10
35.871663976
 20
1.5137793778
 11
35.8663943464
 21
1.2065541822
  0
LINE
  5
455
100
AcDbEntity
  8
IMPORT_IGES
100
AcDbLine
 62
7
  6
CONTINUOUS
 10
35.8756586804
 20
1.6878356808
 11
35.871663976
 21
1.5137793778
  0
LWPOLYLINE
  5
456
100
AcDbEntity
  8
IMPORT_IGES
100
AcDbPolyline
 62
7
  6
CONTINUOUS
 90
10
 70
0
 10
35.8992779085
 20
2.1140605193
 10
35.8967541559
 20
2.1072738747
 10
35.8942581518
 20
2.092378132
 10
35.8917898962
 20
2.069373291
 10
35.8893414854
 20
2.0381263806
 10
35.8869208232
 20
1.9987703719
 10
35.8845516208
 20
1.9517041787
 10
35.8822343937
 20
1.8968537943
 10
35.8799686265
 20
1.8342932253
 10
35.8756586804
 20
1.6878356808
  0
LINE
  5
457
100
AcDbEntity
  8
IMPORT_IGES
100
AcDbLine
 62
250
  6
CONTINUOUS
 10
27.4159761422
 20
-23.2200331355
 11
27.3790960109
 21
-23.2399029275
  0
LINE
  5
458
100
AcDbEntity
  8
IMPORT_IGES
100
AcDbLine
 62
7
  6
CONTINUOUS
 10
14.2028762473
 20
32.2011024243
 11
19.6955353951
 21
32.2011024243
  0
LINE
  5
459
100
AcDbEntity
  8
IMPORT_IGES
100
AcDbLine
 62
7
  6
CONTINUOUS
 10
28.6955353951
 20
32.2011024243
 11
34.2028762473
 21
32.2011024243
  0
LINE
  5
45A
100
AcDbEntity
  8
IMPORT_IGES
100
AcDbLine
 62
7
  6
CONTINUOUS
 10
13.7346697846
 20
34.4165707238
 11
17.6955353951
 21
34.4165707238
  0
LINE
  5
45B
100
AcDbEntity
  8
IMPORT_IGES
100
AcDbLine
 62
7
  6
CONTINUOUS
 10
30.6955353951
 20
34.4165707238
 11
34.6564010056
 21
34.4165707238
  0
LINE
  5
45C
100
AcDbEntity
  8
IMPORT_IGES
100
AcDbLine
 62
7
  6
CONTINUOUS
 10
14.6955353951
 20
35.6165707238
 11
13.7346697846
 21
35.6165707238
  0
LINE
  5
45D
100
AcDbEntity
  8
IMPORT_IGES
100
AcDbLine
 62
7
  6
CONTINUOUS
 10
33.6955353951
 20
35.6165707238
 11
34.6564010056
 21
35.6165707238
  0
LWPOLYLINE
  5
45E
100
AcDbEntity
  8
IMPORT_IGES
100
AcDbPolyline
 62
7
  6
CONTINUOUS
 90
12
 70
0
 10
36.9244133447
 20
2.1140437314
 10
36.9290040642
 20
2.1072684402
 10
36.9335441654
 20
2.0923801037
 10
36.9380336485
 20
2.0693787218
 10
36.9424868705
 20
2.0381300854
 10
36.9468894743
 20
1.9987684036
 10
36.9511983881
 20
1.9516963044
 10
36.9554126797
 20
1.8968406756
 10
36.9595332815
 20
1.8342746294
 10
36.9635199178
 20
1.76462013
 10
36.9673712903
 20
1.6878087936
 10
36.9710886975
 20
1.603909004
  0
LWPOLYLINE
  5
45F
100
AcDbEntity
  8
IMPORT_IGES
100
AcDbPolyline
 62
7
  6
CONTINUOUS
 90
19
 70
0
 10
36.3592981733
 20
51.7735604471
 10
36.3567751978
 20
51.8169873714
 10
36.3506234581
 20
51.8594091
 10
36.340842954
 20
51.9008256329
 10
36.3273020017
 20
51.9414649692
 10
36.310132285
 20
51.9810991099
 10
36.289728856
 20
52.0190440576
 10
36.2659751306
 20
52.0553393495
 10
36.2389876929
 20
52.0899454486
 10
36.2095113472
 20
52.1220597463
 10
36.1775785613
 20
52.1516373833
 10
36.1431568675
 20
52.178723219
 10
36.1068936663
 20
52.2026492239
 10
36.0687294805
 20
52.2233835123
 10
36.0287237872
 20
52.2409579699
 10
35.9877024185
 20
52.2548002239
 10
35.9459406515
 20
52.2647194832
 10
35.903163209
 20
52.2709065388
 10
35.859370091
 20
52.2733613908
  0
LWPOLYLINE
  5
460
100
AcDbEntity
  8
IMPORT_IGES
100
AcDbPolyline
 62
250
  6
CONTINUOUS
 90
5
 70
0
 10
37.3146413546
 20
-14.6440160614
 10
37.3136363045
 20
-14.6216157174
 10
37.3106987504
 20
-14.5997808737
 10
37.3059537886
 20
-14.5786674149
 10
37.2995954411
 20
-14.5585750267
  0
LWPOLYLINE
  5
461
100
AcDbEntity
  8
IMPORT_IGES
100
AcDbPolyline
 62
250
  6
CONTINUOUS
 90
18
 70
0
 10
37.3163969663
 20
-14.6440158741
 10
37.3153881639
 20
-14.621577958
 10
37.3124424218
 20
-14.5997221913
 10
37.3076892674
 20
-14.5786043641
 10
37.301329898
 20
-14.5585313954
 10
37.2934749348
 20
-14.5394348907
 10
37.2840018089
 20
-14.5209293995
 10
37.2728561213
 20
-14.5030287962
 10
37.2601528544
 20
-14.4860222794
 10
37.2459022097
 20
-14.46999943
 10
37.2301230776
 20
-14.4550765614
 10
37.2129330859
 20
-14.4414528356
 10
37.194515785
 20
-14.4293292991
 10
37.1750248547
 20
-14.4188389209
 10
37.1545741428
 20
-14.4100732907
 10
37.1333233486
 20
-14.4031329324
 10
37.1114370159
 20
-14.3981008367
 10
37.0890822761
 20
-14.395044095
  0
LWPOLYLINE
  5
462
100
AcDbEntity
  8
IMPORT_IGES
100
AcDbPolyline
 62
250
  6
CONTINUOUS
 90
18
 70
0
 10
37.3146413546
 20
12.4771575089
 10
37.3136363373
 20
12.4995571128
 10
37.3106989344
 20
12.5213912967
 10
37.3059542192
 20
12.5425041886
 10
37.2995961794
 20
12.5625961368
 10
37.2917332793
 20
12.5817254718
 10
37.2822523664
 20
12.6002530048
 10
37.2711085251
 20
12.6181550562
 10
37.2584135345
 20
12.63515516
 10
37.2441711108
 20
12.6511740157
 10
37.2283923021
 20
12.6661013674
 10
37.2112005178
 20
12.6797299766
 10
37.1927936796
 20
12.6918494445
 10
37.1733462317
 20
12.7023212989
 10
37.1529560694
 20
12.7110698065
 10
37.1317394475
 20
12.7180103887
 10
37.1098429374
 20
12.7230554366
 10
37.0874464058
 20
12.7261248358
  0
LWPOLYLINE
  5
463
100
AcDbEntity
  8
IMPORT_IGES
100
AcDbPolyline
 62
7
  6
CONTINUOUS
 90
19
 70
0
 10
37.1093967326
 20
-14.6440158736
 10
37.1084285763
 20
-14.6222223366
 10
37.1056444337
 20
-14.6008665307
 10
37.101044305
 20
-14.5799484558
 10
37.094583436
 20
-14.5593204478
 10
37.0863065809
 20
-14.5391301709
 10
37.0763480014
 20
-14.5198206175
 10
37.0646494913
 20
-14.5013854089
 10
37.0512692568
 20
-14.4838309238
 10
37.0365161792
 20
-14.4676192906
 10
37.0203393667
 20
-14.4527917221
 10
37.0027897109
 20
-14.4393070054
 10
36.9843287682
 20
-14.4275036301
 10
36.9649674913
 20
-14.4174446075
 10
36.9446949275
 20
-14.4090669264
 10
36.923939774
 20
-14.4025200426
 10
36.9028449302
 20
-14.3978537748
 10
36.8812674969
 20
-14.3950183045
 10
36.8592074739
 20
-14.3940136315
  0
LWPOLYLINE
  5
464
100
AcDbEntity
  8
IMPORT_IGES
100
AcDbPolyline
 62
7
  6
CONTINUOUS
 90
9
 70
0
 10
36.8073835774
 20
1.8343067836
 10
36.8051178331
 20
1.8968648817
 10
36.8028006354
 20
1.9517129684
 10
36.800431469
 20
1.9987768879
 10
36.7980108491
 20
2.038130796
 10
36.7955624867
 20
2.069376351
 10
36.7930942854
 20
2.092380772
 10
36.7905983417
 20
2.1072768398
 10
36.7880746554
 20
2.1140645543
  0
LINE
  5
465
100
AcDbEntity
  8
IMPORT_IGES
100
AcDbLine
 62
7
  6
CONTINUOUS
 10
36.9710886975
 20
1.603909004
 11
36.9780108232
 21
1.4172648374
  0
LWPOLYLINE
  5
466
100
AcDbEntity
  8
IMPORT_IGES
100
AcDbPolyline
 62
7
  6
CONTINUOUS
 90
10
 70
0
 10
36.859134166
 20
51.7735918247
 10
36.8574434192
 20
51.8310062891
 10
36.8524401329
 20
51.8884166214
 10
36.8441090404
 20
51.9456293229
 10
36.8323933692
 20
52.0026763518
 10
36.8173273644
 20
52.0591251681
 10
36.7991681126
 20
52.1141144744
 10
36.7781528345
 20
52.1672726698
 10
36.7543662338
 20
52.2186828271
 10
36.7279640704
 20
52.2682166974
  0
LINE
  5
467
100
AcDbEntity
  8
IMPORT_IGES
100
AcDbLine
 62
7
  6
CONTINUOUS
 10
36.9780108232
 20
1.4172648374
 11
36.9842184916
 21
1.2065235764
  0
LINE
  5
468
100
AcDbEntity
  8
IMPORT_IGES
100
AcDbLine
 62
7
  6
CONTINUOUS
 10
36.8116934966
 20
1.6878543225
 11
36.8073835774
 21
1.8343067836
  0
LINE
  5
469
100
AcDbEntity
  8
IMPORT_IGES
100
AcDbLine
 62
7
  6
CONTINUOUS
 10
36.9842184916
 20
1.2065235764
 11
36.9896151928
 21
0.9746690089
  0
LINE
  5
46A
100
AcDbEntity
  8
IMPORT_IGES
100
AcDbLine
 62
7
  6
CONTINUOUS
 10
36.8156881988
 20
1.5138031873
 11
36.8116934966
 21
1.6878543225
  0
LINE
  5
46B
100
AcDbEntity
  8
IMPORT_IGES
100
AcDbLine
 62
7
  6
CONTINUOUS
 10
36.9896151928
 20
0.9746690089
 11
36.9941258484
 21
0.7252561347
  0
LINE
  5
46C
100
AcDbEntity
  8
IMPORT_IGES
100
AcDbLine
 62
7
  6
CONTINUOUS
 10
36.8209578666
 20
1.2065852105
 11
36.8156881988
 21
1.5138031873
  0
LINE
  5
46D
100
AcDbEntity
  8
IMPORT_IGES
100
AcDbLine
 62
7
  6
CONTINUOUS
 10
36.9941258484
 20
0.7252561347
 11
36.9991241534
 21
0.3242303768
  0
LINE
  5
46E
100
AcDbEntity
  8
IMPORT_IGES
100
AcDbLine
 62
7
  6
CONTINUOUS
 10
36.8264062874
 20
0.7253026086
 11
36.8209578666
 21
1.2065852105
  0
LINE
  5
46F
100
AcDbEntity
  8
IMPORT_IGES
100
AcDbLine
 62
7
  6
CONTINUOUS
 10
36.8297996868
 20
0.1849082839
 11
36.8264062874
 21
0.7253026086
  0
LINE
  5
470
100
AcDbEntity
  8
IMPORT_IGES
100
AcDbLine
 62
7
  6
CONTINUOUS
 10
36.9991241534
 20
0.3242303768
 11
37.0018617361
 21
-0.0975515378
  0
LINE
  5
471
100
AcDbEntity
  8
IMPORT_IGES
100
AcDbLine
 62
250
  6
CONTINUOUS
 10
36.3592980626
 20
-53.9403911758
 11
36.3592981733
 21
51.7735604471
  0
LINE
  5
472
100
AcDbEntity
  8
IMPORT_IGES
100
AcDbLine
 62
7
  6
CONTINUOUS
 10
36.746890423
 20
-4.3221073393
 11
36.746890423
 21
2.1552487868
  0
LINE
  5
473
100
AcDbEntity
  8
IMPORT_IGES
100
AcDbLine
 62
7
  6
CONTINUOUS
 10
36.8309516847
 20
-1.7813635774
 11
36.8297996868
 21
0.1849082839
  0
LINE
  5
474
100
AcDbEntity
  8
IMPORT_IGES
100
AcDbLine
 62
7
  6
CONTINUOUS
 10
36.8591355562
 20
2.1499625104
 11
36.8591341759
 21
51.7735744771
  0
LINE
  5
475
100
AcDbEntity
  8
IMPORT_IGES
100
AcDbLine
 62
7
  6
CONTINUOUS
 10
36.8591414477
 20
-53.9404107088
 11
36.8591355563
 21
-4.3168210627
  0
LINE
  5
476
100
AcDbEntity
  8
IMPORT_IGES
100
AcDbLine
 62
7
  6
CONTINUOUS
 10
37.0018617361
 20
-0.0975515378
 11
37.0023918313
 21
-1.7815019731
  0
LINE
  5
477
100
AcDbEntity
  8
IMPORT_IGES
100
AcDbLine
 62
250
  6
CONTINUOUS
 10
37.064763672
 20
12.2271560554
 11
37.064763672
 21
-14.3940158736
  0
LINE
  5
478
100
AcDbEntity
  8
IMPORT_IGES
100
AcDbLine
 62
250
  6
CONTINUOUS
 10
37.0647548238
 20
12.7271573211
 11
37.0647194326
 21
51.8866580144
  0
LINE
  5
479
100
AcDbEntity
  8
IMPORT_IGES
100
AcDbLine
 62
250
  6
CONTINUOUS
 10
37.0647194299
 20
-54.0535203186
 11
37.0647548236
 21
-14.8940169947
  0
LINE
  5
47A
100
AcDbEntity
  8
IMPORT_IGES
100
AcDbLine
 62
250
  6
CONTINUOUS
 10
37.0664613263
 20
-54.0545077971
 11
37.0664418568
 21
-14.8940158649
  0
LINE
  5
47B
100
AcDbEntity
  8
IMPORT_IGES
100
AcDbLine
 62
250
  6
CONTINUOUS
 10
37.0664418568
 20
12.7271571703
 11
37.0664613263
 21
51.8876475487
  0
LINE
  5
47C
100
AcDbEntity
  8
IMPORT_IGES
100
AcDbLine
 62
250
  6
CONTINUOUS
 10
37.0664369895
 20
12.2271573298
 11
37.0664369895
 21
-14.3940158823
  0
LINE
  5
47D
100
AcDbEntity
  8
IMPORT_IGES
100
AcDbLine
 62
7
  6
CONTINUOUS
 10
37.095535395
 20
51.9167171629
 11
37.095535395
 21
12.7271570281
  0
LINE
  5
47E
100
AcDbEntity
  8
IMPORT_IGES
100
AcDbLine
 62
7
  6
CONTINUOUS
 10
37.0955353951
 20
12.2271574716
 11
37.0955353951
 21
-14.3940158885
  0
LINE
  5
47F
100
AcDbEntity
  8
IMPORT_IGES
100
AcDbLine
 62
7
  6
CONTINUOUS
 10
37.0955353951
 20
-14.8940158615
 11
37.095535395
 21
-54.0835777125
  0
LINE
  5
480
100
AcDbEntity
  8
IMPORT_IGES
100
AcDbLine
 62
7
  6
CONTINUOUS
 10
37.002391885
 20
-1.7815019818
 11
37.0012100383
 21
-2.2110141095
  0
LINE
  5
481
100
AcDbEntity
  8
IMPORT_IGES
100
AcDbLine
 62
7
  6
CONTINUOUS
 10
37.0012100383
 20
-2.2110141095
 11
36.9977060746
 21
-2.6275771768
  0
LINE
  5
482
100
AcDbEntity
  8
IMPORT_IGES
100
AcDbLine
 62
7
  6
CONTINUOUS
 10
36.9977060746
 20
-2.6275771768
 11
36.9941259494
 21
-2.8921082297
  0
LINE
  5
483
100
AcDbEntity
  8
IMPORT_IGES
100
AcDbLine
 62
7
  6
CONTINUOUS
 10
36.9941259494
 20
-2.8921082297
 11
36.9896152171
 21
-3.1415263592
  0
LINE
  5
484
100
AcDbEntity
  8
IMPORT_IGES
100
AcDbLine
 62
7
  6
CONTINUOUS
 10
36.9896152171
 20
-3.1415263592
 11
36.9842184083
 21
-3.3733852927
  0
LINE
  5
485
100
AcDbEntity
  8
IMPORT_IGES
100
AcDbLine
 62
7
  6
CONTINUOUS
 10
36.9842184083
 20
-3.3733852927
 11
36.9780106126
 21
-3.5841297288
  0
LWPOLYLINE
  5
486
100
AcDbEntity
  8
IMPORT_IGES
100
AcDbPolyline
 62
250
  6
CONTINUOUS
 90
23
 70
0
 10
37.0664613269
 20
-54.0545057211
 10
37.0643060047
 20
-54.1198544786
 10
37.0579268575
 20
-54.1845976141
 10
37.0474146108
 20
-54.2484673128
 10
37.032881371
 20
-54.311185855
 10
37.0144465641
 20
-54.3725284293
 10
36.9922230259
 20
-54.4323200606
 10
36.9664233104
 20
-54.4901818726
 10
36.937142586
 20
-54.5460635535
 10
36.9042285335
 20
-54.6002470968
 10
36.8676606818
 20
-54.6526218781
 10
36.8276242869
 20
-54.7027909242
 10
36.7841967772
 20
-54.7505530158
 10
36.7375167456
 20
-54.7956520806
 10
36.687722303
 20
-54.8378571894
 10
36.6348965835
 20
-54.876990772
 10
36.5791279942
 20
-54.912860472
 10
36.5206891632
 20
-54.9451688129
 10
36.4599764928
 20
-54.9736123001
 10
36.3971861755
 20
-54.9980326097
 10
36.3326341056
 20
-55.0182420813
 10
36.2669593805
 20
-55.0340221563
 10
36.2005876372
 20
-55.045303389
  0
LWPOLYLINE
  5
487
100
AcDbEntity
  8
IMPORT_IGES
100
AcDbPolyline
 62
7
  6
CONTINUOUS
 90
25
 70
0
 10
37.0955333242
 20
-54.0835711366
 10
37.0933073939
 20
-54.1495100469
 10
37.0868932729
 20
-54.2145964524
 10
37.0762909611
 20
-54.2788303532
 10
37.0614172196
 20
-54.3424760422
 10
37.0423552873
 20
-54.4052692265
 10
37.0193548812
 20
-54.4664170268
 10
36.9923672633
 20
-54.5258984065
 10
36.9614411715
 20
-54.5837344023
 10
36.9269725365
 20
-54.6391952451
 10
36.8889175347
 20
-54.6922509784
 10
36.8473199897
 20
-54.7429315587
 10
36.8027073026
 20
-54.790597087
 10
36.7550419863
 20
-54.8352100818
 10
36.7043615279
 20
-54.8768080245
 10
36.6513057898
 20
-54.9148634597
 10
36.5958448081
 20
-54.9493325675
 10
36.5380085467
 20
-54.9802591678
 10
36.4785267599
 20
-55.0072472646
 10
36.4173781483
 20
-55.0302480445
 10
36.3545840114
 20
-55.0493103209
 10
36.2909380011
 20
-55.0641845379
 10
36.226704668
 20
-55.0747875101
 10
36.1616194615
 20
-55.0812024227
 10
36.0956823816
 20
-55.083429276
  0
LWPOLYLINE
  5
488
100
AcDbEntity
  8
IMPORT_IGES
100
AcDbPolyline
 62
7
  6
CONTINUOUS
 90
13
 70
0
 10
36.9780106126
 20
-3.5841297288
 10
36.9710883536
 20
-3.7707757937
 10
36.9673708792
 20
-3.8546760382
 10
36.9635194437
 20
-3.9314875314
 10
36.9595327488
 20
-4.0011418709
 10
36.9554120927
 20
-4.0637074591
 10
36.9511977555
 20
-4.1185624128
 10
36.946888805
 20
-4.1656327542
 10
36.9424861732
 20
-4.2049924612
 10
36.9380329369
 20
-4.2362415838
 10
36.9335434547
 20
-4.2592468057
 10
36.929003368
 20
-4.2741414433
 10
36.9244126767
 20
-4.2809254966
  0
LWPOLYLINE
  5
489
100
AcDbEntity
  8
IMPORT_IGES
100
AcDbPolyline
 62
250
  6
CONTINUOUS
 90
19
 70
0
 10
37.3163969663
 20
12.4771573217
 10
37.3153881636
 20
12.4547194016
 10
37.3124424207
 20
12.432863633
 10
37.3076892659
 20
12.4117458061
 10
37.3013298971
 20
12.3916728403
 10
37.2934749358
 20
12.3725763403
 10
37.2840018124
 20
12.3540708532
 10
37.2728561277
 20
12.3361702532
 10
37.2601528642
 20
12.319163739
 10
37.2459022227
 20
12.3031408908
 10
37.230123093
 20
12.2882180223
 10
37.2129331031
 20
12.2745942956
 10
37.194515802
 20
12.2624707568
 10
37.1750247965
 20
12.2519803752
 10
37.1545740069
 20
12.2432147413
 10
37.1333233496
 20
12.2362743802
 10
37.1114374412
 20
12.2312422829
 10
37.0890833407
 20
12.2281855409
 10
37.0664393303
 20
12.2271573211
  0
LWPOLYLINE
  5
48A
100
AcDbEntity
  8
IMPORT_IGES
100
AcDbPolyline
 62
7
  6
CONTINUOUS
 90
19
 70
0
 10
37.3455734771
 20
-14.6440158736
 10
37.3445519596
 20
-14.6661251739
 10
37.3417020459
 20
-14.6877305836
 10
37.3370237361
 20
-14.7088321028
 10
37.3304523911
 20
-14.7295790186
 10
37.32205265
 20
-14.7498220437
 10
37.3120184298
 20
-14.7691133168
 10
37.3003144957
 20
-14.7874319657
 10
37.2869760825
 20
-14.8047988626
 10
37.2723028124
 20
-14.8208287618
 10
37.2562658083
 20
-14.8354924549
 10
37.2388939472
 20
-14.8488191504
 10
37.220573482
 20
-14.8605112278
 10
37.2012837974
 20
-14.870533392
 10
37.1810455088
 20
-14.8789209382
 10
37.1603067143
 20
-14.8854821314
 10
37.1392167803
 20
-14.89015306
 10
37.1176263405
 20
-14.8929976356
 10
37.095535395
 20
-14.8940158582
  0
LWPOLYLINE
  5
48B
100
AcDbEntity
  8
IMPORT_IGES
100
AcDbPolyline
 62
250
  6
CONTINUOUS
 90
4
 70
0
 10
37.3033496435
 20
-14.7237301801
 10
37.3105439491
 20
-14.6977995716
 10
37.3149228943
 20
-14.6711262912
 10
37.3163969663
 20
-14.6440158741
  0
LINE
  5
48C
100
AcDbEntity
  8
IMPORT_IGES
100
AcDbLine
 62
7
  6
CONTINUOUS
 10
27.2039851516
 20
-33.0376230298
 11
19.6543263839
 21
-45.9252046102
  0
LINE
  5
48D
100
AcDbEntity
  8
IMPORT_IGES
100
AcDbLine
 62
7
  6
CONTINUOUS
 10
19.6962185398
 20
-45.9365715988
 11
27.2401317058
 21
-33.0587979995
  0
LINE
  5
48E
100
AcDbEntity
  8
IMPORT_IGES
100
AcDbLine
 62
7
  6
CONTINUOUS
 10
33.6955353951
 20
36.6165707238
 11
14.6955353951
 21
36.6165707238
  0
LINE
  5
48F
100
AcDbEntity
  8
IMPORT_IGES
100
AcDbLine
 62
7
  6
CONTINUOUS
 10
28.8663102188
 20
38.5405494807
 11
28.5962471689
 21
38.5405494807
  0
LINE
  5
490
100
AcDbEntity
  8
IMPORT_IGES
100
AcDbLine
 62
7
  6
CONTINUOUS
 10
29.7516193012
 20
38.8284118497
 11
28.8663102188
 21
38.8284112633
  0
LINE
  5
491
100
AcDbEntity
  8
IMPORT_IGES
100
AcDbLine
 62
7
  6
CONTINUOUS
 10
28.5962471689
 20
38.8284118497
 11
28.5294811196
 21
38.8284118497
  0
LINE
  5
492
100
AcDbEntity
  8
IMPORT_IGES
100
AcDbLine
 62
7
  6
CONTINUOUS
 10
29.7181679373
 20
38.9602740714
 11
28.6299297423
 21
38.9602740714
  0
LINE
  5
493
100
AcDbEntity
  8
IMPORT_IGES
100
AcDbLine
 62
7
  6
CONTINUOUS
 10
24.1028762473
 20
40.0511024243
 11
22.3516570976
 21
40.0511024243
  0
LINE
  5
494
100
AcDbEntity
  8
IMPORT_IGES
100
AcDbLine
 62
7
  6
CONTINUOUS
 10
19.6955353951
 20
32.4165707238
 11
17.6955353951
 21
34.4165707238
  0
LINE
  5
495
100
AcDbEntity
  8
IMPORT_IGES
100
AcDbLine
 62
7
  6
CONTINUOUS
 10
34.6451806154
 20
43.8480833578
 11
34.2028762473
 21
43.8469555018
  0
LINE
  5
496
100
AcDbEntity
  8
IMPORT_IGES
100
AcDbLine
 62
7
  6
CONTINUOUS
 10
22.3516570976
 20
40.9511024243
 11
24.1028762473
 21
40.9511024243
  0
LINE
  5
497
100
AcDbEntity
  8
IMPORT_IGES
100
AcDbLine
 62
7
  6
CONTINUOUS
 10
29.1470976786
 20
41.2080783686
 11
29.8479935901
 21
41.2080783686
  0
LINE
  5
498
100
AcDbEntity
  8
IMPORT_IGES
100
AcDbLine
 62
7
  6
CONTINUOUS
 10
30.1173686181
 20
41.4880334861
 11
29.1470976786
 21
41.4880334861
  0
LINE
  5
499
100
AcDbEntity
  8
IMPORT_IGES
100
AcDbLine
 62
7
  6
CONTINUOUS
 10
30.8883256716
 20
41.573604673
 11
30.5533820586
 21
41.573604673
  0
LINE
  5
49A
100
AcDbEntity
  8
IMPORT_IGES
100
AcDbLine
 62
7
  6
CONTINUOUS
 10
30.7515334226
 20
41.7126058303
 11
30.5093339861
 21
41.7126058303
  0
LINE
  5
49B
100
AcDbEntity
  8
IMPORT_IGES
100
AcDbLine
 62
7
  6
CONTINUOUS
 10
30.4619043343
 20
42.0691044225
 11
30.3926338431
 21
42.0691044225
  0
LINE
  5
49C
100
AcDbEntity
  8
IMPORT_IGES
100
AcDbLine
 62
7
  6
CONTINUOUS
 10
30.5961199676
 20
42.0691044225
 11
30.6764796685
 21
42.0691044225
  0
LINE
  5
49D
100
AcDbEntity
  8
IMPORT_IGES
100
AcDbLine
 62
7
  6
CONTINUOUS
 10
28.2427879475
 20
42.1929953665
 11
28.0347682888
 21
42.1929953665
  0
LINE
  5
49E
100
AcDbEntity
  8
IMPORT_IGES
100
AcDbLine
 62
7
  6
CONTINUOUS
 10
28.377836519
 20
42.1929953665
 11
30.4715497837
 21
42.1929953665
  0
LINE
  5
49F
100
AcDbEntity
  8
IMPORT_IGES
100
AcDbLine
 62
7
  6
CONTINUOUS
 10
28.5109320873
 20
42.4060109585
 11
28.3454957797
 21
42.4060109585
  0
LINE
  5
4A0
100
AcDbEntity
  8
IMPORT_IGES
100
AcDbLine
 62
7
  6
CONTINUOUS
 10
28.0347682888
 20
42.4060109585
 11
28.1999882272
 21
42.4060109585
  0
LINE
  5
4A1
100
AcDbEntity
  8
IMPORT_IGES
100
AcDbLine
 62
7
  6
CONTINUOUS
 10
30.484170276
 20
42.4060109585
 11
28.793448258
 21
42.4060749848
  0
LINE
  5
4A2
100
AcDbEntity
  8
IMPORT_IGES
100
AcDbLine
 62
7
  6
CONTINUOUS
 10
29.1630402342
 20
42.5967774017
 11
29.8577899153
 21
42.5967774017
  0
LINE
  5
4A3
100
AcDbEntity
  8
IMPORT_IGES
100
AcDbLine
 62
7
  6
CONTINUOUS
 10
29.7315940235
 20
42.7269109126
 11
29.292757574
 21
42.7269109126
  0
LINE
  5
4A4
100
AcDbEntity
  8
IMPORT_IGES
100
AcDbLine
 62
7
  6
CONTINUOUS
 10
29.292757574
 20
42.7803728961
 11
29.7315940235
 21
42.7803728961
  0
LINE
  5
4A5
100
AcDbEntity
  8
IMPORT_IGES
100
AcDbLine
 62
7
  6
CONTINUOUS
 10
28.5109454842
 20
42.8373883409
 11
28.7934802711
 21
42.8373883409
  0
LINE
  5
4A6
100
AcDbEntity
  8
IMPORT_IGES
100
AcDbLine
 62
7
  6
CONTINUOUS
 10
29.1630402342
 20
42.9069209327
 11
29.8577899153
 21
42.9069209327
  0
LINE
  5
4A7
100
AcDbEntity
  8
IMPORT_IGES
100
AcDbLine
 62
7
  6
CONTINUOUS
 10
34.6564010056
 20
43.8816605939
 11
34.2028762473
 21
43.8816605939
  0
LINE
  5
4A8
100
AcDbEntity
  8
IMPORT_IGES
100
AcDbLine
 62
7
  6
CONTINUOUS
 10
14.2028762473
 20
43.8816605939
 11
13.7346697846
 21
43.8816605939
  0
LINE
  5
4A9
100
AcDbEntity
  8
IMPORT_IGES
100
AcDbLine
 62
7
  6
CONTINUOUS
 10
19.8955353951
 20
44.5165707238
 11
28.4955353951
 21
44.5165707238
  0
LINE
  5
4AA
100
AcDbEntity
  8
IMPORT_IGES
100
AcDbLine
 62
7
  6
CONTINUOUS
 10
14.2028762473
 20
43.8469191478
 11
13.7458902919
 21
43.8480833972
  0
LINE
  5
4AB
100
AcDbEntity
  8
IMPORT_IGES
100
AcDbLine
 62
7
  6
CONTINUOUS
 10
13.7458902919
 20
43.8480833972
 11
13.7346697846
 21
43.8593039803
  0
LINE
  5
4AC
100
AcDbEntity
  8
IMPORT_IGES
100
AcDbLine
 62
250
  6
CONTINUOUS
 10
11.2955353949
 20
51.9167177186
 11
11.3246045602
 21
51.8874669585
  0
LINE
  5
4AD
100
AcDbEntity
  8
IMPORT_IGES
100
AcDbLine
 62
7
  6
CONTINUOUS
 10
23.0955634395
 20
52.8362774246
 11
23.0957172283
 21
52.8359283238
  0
LINE
  5
4AE
100
AcDbEntity
  8
IMPORT_IGES
100
AcDbLine
 62
7
  6
CONTINUOUS
 10
33.2815968031
 20
-39.9998529515
 11
30.0661654399
 21
-45.4887280495
  0
LINE
  5
4AF
100
AcDbEntity
  8
IMPORT_IGES
100
AcDbLine
 62
7
  6
CONTINUOUS
 10
30.1080575957
 20
-45.5000950382
 11
33.3234889589
 21
-40.0112199401
  0
LINE
  5
4B0
100
AcDbEntity
  8
IMPORT_IGES
100
AcDbLine
 62
250
  6
CONTINUOUS
 10
11.3246045602
 20
-54.05428419
 11
11.2955353946
 21
-54.0835563435
  0
LINE
  5
4B1
100
AcDbEntity
  8
IMPORT_IGES
100
AcDbLine
 62
250
  6
CONTINUOUS
 10
12.2953860168
 20
-55.083429276
 11
12.3244522918
 21
-55.0543600746
  0
LWPOLYLINE
  5
4B2
100
AcDbEntity
  8
IMPORT_IGES
100
AcDbPolyline
 62
250
  6
CONTINUOUS
 90
10
 70
0
 10
12.3244522918
 20
-55.0543600746
 10
12.3245681056
 20
-55.0542492984
 10
12.3246939892
 20
-55.0541385261
 10
12.3248299424
 20
-55.0540277576
 10
12.3249759658
 20
-55.0539169928
 10
12.3251320589
 20
-55.0538062319
 10
12.3252982206
 20
-55.0536954758
 10
12.3254744504
 20
-55.0535847246
 10
12.3256607488
 20
-55.0534739782
 10
12.3258571158
 20
-55.0533632366
  0
LWPOLYLINE
  5
4B3
100
AcDbEntity
  8
IMPORT_IGES
100
AcDbPolyline
 62
7
  6
CONTINUOUS
 90
9
 70
0
 10
11.3246045545
 20
-54.05428419
 10
11.3247482163
 20
-54.0541662317
 10
11.3249045725
 20
-54.0540773133
 10
11.3250736891
 20
-54.0540174346
 10
11.3252556267
 20
-54.0540078137
 10
11.3254504562
 20
-54.0540272326
 10
11.325658262
 20
-54.0540120373
 10
11.3258791199
 20
-54.0539410098
 10
11.3261130939
 20
-54.0538353682
  0
LINE
  5
4B4
100
AcDbEntity
  8
IMPORT_IGES
100
AcDbLine
 62
7
  6
CONTINUOUS
 10
13.7458901747
 20
44.9850580898
 11
14.2028762473
 21
44.9862222843
  0
LINE
  5
4B5
100
AcDbEntity
  8
IMPORT_IGES
100
AcDbLine
 62
7
  6
CONTINUOUS
 10
13.7346697846
 20
44.9514808536
 11
14.2028762473
 21
44.9514808536
  0
LINE
  5
4B6
100
AcDbEntity
  8
IMPORT_IGES
100
AcDbLine
 62
7
  6
CONTINUOUS
 10
34.2028762473
 20
44.9514808536
 11
34.6564010056
 21
44.9514808536
  0
LINE
  5
4B7
100
AcDbEntity
  8
IMPORT_IGES
100
AcDbLine
 62
7
  6
CONTINUOUS
 10
19.8955353951
 20
48.5165707238
 11
28.4955353951
 21
48.5165707238
  0
LINE
  5
4B8
100
AcDbEntity
  8
IMPORT_IGES
100
AcDbLine
 62
7
  6
CONTINUOUS
 10
19.8955353951
 20
48.9011024243
 11
23.0955353951
 21
48.9011024243
  0
LINE
  5
4B9
100
AcDbEntity
  8
IMPORT_IGES
100
AcDbLine
 62
7
  6
CONTINUOUS
 10
25.2955353951
 20
48.9011024243
 11
28.4955353951
 21
48.9011024243
  0
LINE
  5
4BA
100
AcDbEntity
  8
IMPORT_IGES
100
AcDbLine
 62
7
  6
CONTINUOUS
 10
34.2028762473
 20
44.98618596
 11
34.6451804981
 21
44.9850580503
  0
LINE
  5
4BB
100
AcDbEntity
  8
IMPORT_IGES
100
AcDbLine
 62
7
  6
CONTINUOUS
 10
26.9799687958
 20
38.0451637781
 11
26.8872266603
 21
38.1310230834
  0
LWPOLYLINE
  5
4BC
100
AcDbEntity
  8
IMPORT_IGES
100
AcDbPolyline
 62
7
  6
CONTINUOUS
 90
10
 70
0
 10
11.3246045602
 20
51.8874669585
 10
11.324748079
 20
51.8873312093
 10
11.3249043085
 20
51.8872287718
 10
11.3250733238
 20
51.8871596461
 10
11.3252551973
 20
51.8871477997
 10
11.3254500068
 20
51.8871692651
 10
11.3256578385
 20
51.8871521392
 10
11.3258787734
 20
51.8870724542
 10
11.3261128859
 20
51.8869541779
 10
11.3263602538
 20
51.8867973102
  0
LINE
  5
4BD
100
AcDbEntity
  8
IMPORT_IGES
100
AcDbLine
 62
250
  6
CONTINUOUS
 10
12.3244522918
 20
52.8875015222
 11
12.2953897276
 21
52.9165707235
  0
LINE
  5
4BE
100
AcDbEntity
  8
IMPORT_IGES
100
AcDbLine
 62
7
  6
CONTINUOUS
 10
31.6624595994
 20
38.0451637781
 11
30.5672712337
 21
39.2266991228
  0
LINE
  5
4BF
100
AcDbEntity
  8
IMPORT_IGES
100
AcDbLine
 62
7
  6
CONTINUOUS
 10
30.2657542921
 20
39.5519784166
 11
29.3651090758
 21
40.5236260426
  0
LINE
  5
4C0
100
AcDbEntity
  8
IMPORT_IGES
100
AcDbLine
 62
7
  6
CONTINUOUS
 10
29.2788993396
 20
40.6166321276
 11
28.429154684
 21
41.5333664447
  0
LINE
  5
4C1
100
AcDbEntity
  8
IMPORT_IGES
100
AcDbLine
 62
7
  6
CONTINUOUS
 10
28.2857297487
 20
41.6880982919
 11
26.8851835885
 21
43.1992471373
  0
LINE
  5
4C2
100
AcDbEntity
  8
IMPORT_IGES
100
AcDbLine
 62
7
  6
CONTINUOUS
 10
19.1715298112
 20
-53.8324130863
 11
18.9686697892
 21
-54.0352731083
  0
LINE
  5
4C3
100
AcDbEntity
  8
IMPORT_IGES
100
AcDbLine
 62
250
  6
CONTINUOUS
 10
11.5320265422
 20
-53.9404584513
 11
11.3263602636
 21
-54.0536951123
  0
LWPOLYLINE
  5
4C4
100
AcDbEntity
  8
IMPORT_IGES
100
AcDbPolyline
 62
7
  6
CONTINUOUS
 90
19
 70
0
 10
12.5317030134
 20
52.2733619741
 10
12.4882914351
 20
52.2708534991
 10
12.4458798365
 20
52.2647148975
 10
12.4044682176
 20
52.2549461694
 10
12.3638290589
 20
52.2414162221
 10
12.32418988
 20
52.2242561483
 10
12.2862332392
 20
52.2038592258
 10
12.2499151253
 20
52.1801063483
 10
12.2152795496
 20
52.153116622
 10
12.1831411046
 20
52.1236406433
 10
12.1535504773
 20
52.0917150655
 10
12.1264569808
 20
52.0573032353
 10
12.1025231469
 20
52.0210457886
 10
12.0817781553
 20
51.9828768919
 10
12.0641928263
 20
51.9428623788
 10
12.050342153
 20
51.9018403864
 10
12.0404177994
 20
51.8600902937
 10
12.0342281015
 20
51.8173327217
 10
12.031773059
 20
51.7735676703
  0
LWPOLYLINE
  5
4C5
100
AcDbEntity
  8
IMPORT_IGES
100
AcDbPolyline
 62
7
  6
CONTINUOUS
 90
3
 70
0
 10
23.0402431051
 20
52.8332113266
 10
23.0652198969
 20
52.8345793424
 10
23.0957172283
 20
52.8359283238
  0
LWPOLYLINE
  5
4C6
100
AcDbEntity
  8
IMPORT_IGES
100
AcDbPolyline
 62
250
  6
CONTINUOUS
 90
25
 70
0
 10
12.3258632825
 20
52.8865048722
 10
12.2605497286
 20
52.884332083
 10
12.1958407979
 20
52.8779374569
 10
12.1320040893
 20
52.8674117397
 10
12.0693169849
 20
52.8528672449
 10
12.0080042322
 20
52.8344232019
 10
11.9482410235
 20
52.8121918144
 10
11.8904059451
 20
52.7863853026
 10
11.8345493199
 20
52.7570990179
 10
11.7803897616
 20
52.7241808831
 10
11.7280380831
 20
52.6876107453
 10
11.6778905775
 20
52.6475737006
 10
11.6301477471
 20
52.6041467184
 10
11.5850651427
 20
52.557467892
 10
11.5428740064
 20
52.5076756148
 10
11.5037523838
 20
52.4548537555
 10
11.4678927186
 20
52.3990913202
 10
11.4355917813
 20
52.3406603959
 10
11.4071523975
 20
52.2799563944
 10
11.3827318038
 20
52.2171723803
 10
11.3625190911
 20
52.1526269444
 10
11.3467345735
 20
52.0869673247
 10
11.3354464949
 20
52.0206221102
 10
11.3286518004
 20
51.9537745565
 10
11.3263602085
 20
51.886728647
  0
LINE
  5
4C7
100
AcDbEntity
  8
IMPORT_IGES
100
AcDbLine
 62
7
  6
CONTINUOUS
 10
28.1955353951
 20
49.6494964977
 11
25.2955353951
 21
49.6476886811
  0
LINE
  5
4C8
100
AcDbEntity
  8
IMPORT_IGES
100
AcDbLine
 62
7
  6
CONTINUOUS
 10
33.6955353951
 20
49.4165707238
 11
31.8955353951
 21
49.4165707238
  0
LINE
  5
4C9
100
AcDbEntity
  8
IMPORT_IGES
100
AcDbLine
 62
7
  6
CONTINUOUS
 10
30.6955353951
 20
49.4165707238
 11
28.4955353951
 21
49.4165707238
  0
LINE
  5
4CA
100
AcDbEntity
  8
IMPORT_IGES
100
AcDbLine
 62
7
  6
CONTINUOUS
 10
19.8955353951
 20
49.4165707238
 11
17.6955353951
 21
49.4165707238
  0
LINE
  5
4CB
100
AcDbEntity
  8
IMPORT_IGES
100
AcDbLine
 62
7
  6
CONTINUOUS
 10
16.4955353951
 20
49.4165707238
 11
14.6955353951
 21
49.4165707238
  0
LINE
  5
4CC
100
AcDbEntity
  8
IMPORT_IGES
100
AcDbLine
 62
7
  6
CONTINUOUS
 10
28.1955353951
 20
49.7801788678
 11
26.6955353951
 21
49.7801788678
  0
LINE
  5
4CD
100
AcDbEntity
  8
IMPORT_IGES
100
AcDbLine
 62
7
  6
CONTINUOUS
 10
21.6955353951
 20
49.7801788678
 11
20.1955353951
 21
49.7801788678
  0
LINE
  5
4CE
100
AcDbEntity
  8
IMPORT_IGES
100
AcDbLine
 62
7
  6
CONTINUOUS
 10
34.2028762473
 20
50.0011024243
 11
31.8955353951
 21
50.0011024243
  0
LINE
  5
4CF
100
AcDbEntity
  8
IMPORT_IGES
100
AcDbLine
 62
7
  6
CONTINUOUS
 10
30.6955353951
 20
50.0011024243
 11
29.0028762473
 21
50.0011024243
  0
LINE
  5
4D0
100
AcDbEntity
  8
IMPORT_IGES
100
AcDbLine
 62
7
  6
CONTINUOUS
 10
19.4028762473
 20
50.0011024243
 11
17.6955353951
 21
50.0011024243
  0
LINE
  5
4D1
100
AcDbEntity
  8
IMPORT_IGES
100
AcDbLine
 62
7
  6
CONTINUOUS
 10
16.4955353951
 20
50.0011024243
 11
14.2028762473
 21
50.0011024243
  0
LINE
  5
4D2
100
AcDbEntity
  8
IMPORT_IGES
100
AcDbLine
 62
7
  6
CONTINUOUS
 10
26.6955353951
 20
50.0681874391
 11
21.6955353951
 21
50.0681874391
  0
LINE
  5
4D3
100
AcDbEntity
  8
IMPORT_IGES
100
AcDbLine
 62
7
  6
CONTINUOUS
 10
13.7346697846
 20
50.3774211014
 11
21.2955353951
 21
50.3774211014
  0
LINE
  5
4D4
100
AcDbEntity
  8
IMPORT_IGES
100
AcDbLine
 62
7
  6
CONTINUOUS
 10
27.0955353951
 20
50.3774211014
 11
34.6564010056
 21
50.3774211014
  0
LINE
  5
4D5
100
AcDbEntity
  8
IMPORT_IGES
100
AcDbLine
 62
7
  6
CONTINUOUS
 10
26.6955353951
 20
50.8681874391
 11
21.6955353951
 21
50.8681874391
  0
LINE
  5
4D6
100
AcDbEntity
  8
IMPORT_IGES
100
AcDbLine
 62
7
  6
CONTINUOUS
 10
27.0955353951
 20
51.7031128017
 11
26.6955353951
 21
51.7031128017
  0
LINE
  5
4D7
100
AcDbEntity
  8
IMPORT_IGES
100
AcDbLine
 62
7
  6
CONTINUOUS
 10
21.6955353951
 20
51.7031128017
 11
21.2955353951
 21
51.7031128017
  0
LINE
  5
4D8
100
AcDbEntity
  8
IMPORT_IGES
100
AcDbLine
 62
250
  6
CONTINUOUS
 10
36.3592980627
 20
51.7735604471
 11
36.8591261462
 21
51.7735744771
  0
LINE
  5
4D9
100
AcDbEntity
  8
IMPORT_IGES
100
AcDbLine
 62
250
  6
CONTINUOUS
 10
11.5320265363
 20
51.7735665504
 11
12.0317726849
 21
51.7735449923
  0
LINE
  5
4DA
100
AcDbEntity
  8
IMPORT_IGES
100
AcDbLine
 62
250
  6
CONTINUOUS
 10
21.2955353951
 20
52.2733625007
 11
12.5317030134
 21
52.2733619741
  0
LINE
  5
4DB
100
AcDbEntity
  8
IMPORT_IGES
100
AcDbLine
 62
250
  6
CONTINUOUS
 10
35.859370091
 20
52.2733613908
 11
27.0955353951
 21
52.2733630273
  0
LINE
  5
4DC
100
AcDbEntity
  8
IMPORT_IGES
100
AcDbLine
 62
7
  6
CONTINUOUS
 10
26.6955353951
 20
52.6118251014
 11
21.6955353951
 21
52.6118251014
  0
LINE
  5
4DD
100
AcDbEntity
  8
IMPORT_IGES
100
AcDbLine
 62
250
  6
CONTINUOUS
 10
12.5317602403
 20
52.7732868767
 11
21.2955353951
 21
52.7732868747
  0
LINE
  5
4DE
100
AcDbEntity
  8
IMPORT_IGES
100
AcDbLine
 62
250
  6
CONTINUOUS
 10
27.0955353951
 20
52.7732866247
 11
35.8593064271
 21
52.7732863735
  0
LINE
  5
4DF
100
AcDbEntity
  8
IMPORT_IGES
100
AcDbLine
 62
7
  6
CONTINUOUS
 10
21.2955353951
 20
52.8031128017
 11
22.9955353951
 21
52.8031128017
  0
LINE
  5
4E0
100
AcDbEntity
  8
IMPORT_IGES
100
AcDbLine
 62
7
  6
CONTINUOUS
 10
25.3955353951
 20
52.8031128017
 11
27.0955353951
 21
52.8031128017
  0
LINE
  5
4E1
100
AcDbEntity
  8
IMPORT_IGES
100
AcDbLine
 62
7
  6
CONTINUOUS
 10
27.0955353951
 20
52.8764240744
 11
25.2955353951
 21
52.8764240744
  0
LINE
  5
4E2
100
AcDbEntity
  8
IMPORT_IGES
100
AcDbLine
 62
7
  6
CONTINUOUS
 10
23.0955353951
 20
52.8764240744
 11
21.2955353951
 21
52.8764240744
  0
LINE
  5
4E3
100
AcDbEntity
  8
IMPORT_IGES
100
AcDbLine
 62
7
  6
CONTINUOUS
 10
12.2953897276
 20
52.9165707235
 11
21.2955353951
 21
52.9165707236
  0
LINE
  5
4E4
100
AcDbEntity
  8
IMPORT_IGES
100
AcDbLine
 62
7
  6
CONTINUOUS
 10
21.6955353951
 20
52.9165707238
 11
26.6955353951
 21
52.9165707238
  0
LINE
  5
4E5
100
AcDbEntity
  8
IMPORT_IGES
100
AcDbLine
 62
7
  6
CONTINUOUS
 10
27.0955353951
 20
52.9165707237
 11
36.0956837355
 21
52.9165707237
  0
LINE
  5
4E6
100
AcDbEntity
  8
IMPORT_IGES
100
AcDbLine
 62
250
  6
CONTINUOUS
 10
22.095535403
 20
53.4165707238
 11
26.2955353951
 21
53.4165707238
  0
LINE
  5
4E7
100
AcDbEntity
  8
IMPORT_IGES
100
AcDbLine
 62
7
  6
CONTINUOUS
 10
23.0955353951
 20
49.6476886811
 11
20.1955353951
 21
49.6494964977
  0
LWPOLYLINE
  5
4E8
100
AcDbEntity
  8
IMPORT_IGES
100
AcDbPolyline
 62
7
  6
CONTINUOUS
 90
8
 70
0
 10
25.1947350748
 20
50.0081420157
 10
25.2233268311
 20
50.0069520029
 10
25.2471665607
 20
50.0057424441
 10
25.2662542637
 20
50.0045133395
 10
25.2806326363
 20
50.0032590595
 10
25.2902589823
 20
50.0019852337
 10
25.2950052128
 20
50.0007087501
 10
25.2955239369
 20
50.000112686
  0
LINE
  5
4E9
100
AcDbEntity
  8
IMPORT_IGES
100
AcDbLine
 62
250
  6
CONTINUOUS
 10
12.5317602403
 20
52.7732868767
 11
12.325859216
 21
52.88650487
  0
LINE
  5
4EA
100
AcDbEntity
  8
IMPORT_IGES
100
AcDbLine
 62
250
  6
CONTINUOUS
 10
11.326360244
 20
51.8867973102
 11
11.5320265363
 21
51.7735665504
  0
LWPOLYLINE
  5
4EB
100
AcDbEntity
  8
IMPORT_IGES
100
AcDbPolyline
 62
250
  6
CONTINUOUS
 90
10
 70
0
 10
12.325859216
 20
52.88650487
 10
12.325661818
 20
52.886615591
 10
12.3254747557
 20
52.8867263167
 10
12.3252980292
 20
52.8868370472
 10
12.3251317282
 20
52.8869477827
 10
12.3249757629
 20
52.8870585229
 10
12.3248298636
 20
52.8871692671
 10
12.3246939404
 20
52.8872800149
 10
12.3245680831
 20
52.8873907666
 10
12.3244522918
 20
52.8875015222
  0
LINE
  5
4EC
100
AcDbEntity
  8
IMPORT_IGES
100
AcDbLine
 62
7
  6
CONTINUOUS
 10
23.1963357153
 20
50.0081420157
 11
23.1955942355
 21
50.0088402176
  0
LINE
  5
4ED
100
AcDbEntity
  8
IMPORT_IGES
100
AcDbLine
 62
7
  6
CONTINUOUS
 10
26.8759637975
 20
43.4023066353
 11
28.2677763023
 21
41.8987277832
  0
LINE
  5
4EE
100
AcDbEntity
  8
IMPORT_IGES
100
AcDbLine
 62
7
  6
CONTINUOUS
 10
28.4128691566
 20
41.7419835763
 11
29.3684344129
 21
40.7096838189
  0
LINE
  5
4EF
100
AcDbEntity
  8
IMPORT_IGES
100
AcDbLine
 62
7
  6
CONTINUOUS
 10
29.4545913236
 20
40.6166082728
 11
30.2793130202
 21
39.7256591704
  0
LINE
  5
4F0
100
AcDbEntity
  8
IMPORT_IGES
100
AcDbLine
 62
7
  6
CONTINUOUS
 10
30.3839820333
 20
39.6125849496
 11
31.7502717077
 21
38.1368494792
  0
LWPOLYLINE
  5
4F1
100
AcDbEntity
  8
IMPORT_IGES
100
AcDbPolyline
 62
7
  6
CONTINUOUS
 90
10
 70
0
 10
36.7446005465
 20
-54.4046601009
 10
36.7677118644
 20
-54.35764807
 10
36.7886029783
 20
-54.3088076236
 10
36.8071072922
 20
-54.2582306005
 10
36.8232075587
 20
-54.2054821951
 10
36.836532791
 20
-54.1512088604
 10
36.8466618627
 20
-54.0972129035
 10
36.8536598715
 20
-54.0442438856
 10
36.8577740928
 20
-53.9919245547
 10
36.8591414456
 20
-53.9404107085
  0
LINE
  5
4F2
100
AcDbEntity
  8
IMPORT_IGES
100
AcDbLine
 62
7
  6
CONTINUOUS
 10
29.3543302355
 20
-49.755718431
 11
29.2320954088
 21
-49.8779532577
  0
LINE
  5
4F3
100
AcDbEntity
  8
IMPORT_IGES
100
AcDbLine
 62
7
  6
CONTINUOUS
 10
27.5311073388
 20
-54.7369764892
 11
27.4884120837
 21
-54.7796717443
  0
LINE
  5
4F4
100
AcDbEntity
  8
IMPORT_IGES
100
AcDbLine
 62
250
  6
CONTINUOUS
 10
12.3258571158
 20
-55.0533632366
 11
12.531759312
 21
-54.9401454301
  0
LINE
  5
4F5
100
AcDbEntity
  8
IMPORT_IGES
100
AcDbLine
 62
250
  6
CONTINUOUS
 10
26.2955353902
 20
54.2165707238
 11
22.0955353951
 21
54.2165707238
  0
LINE
  5
4F6
100
AcDbEntity
  8
IMPORT_IGES
100
AcDbLine
 62
7
  6
CONTINUOUS
 10
25.7955308741
 20
54.7165707238
 11
22.5955399166
 21
54.7165707238
  0
LWPOLYLINE
  5
4F7
100
AcDbEntity
  8
IMPORT_IGES
100
AcDbPolyline
 62
250
  6
CONTINUOUS
 90
25
 70
0
 10
36.0666165168
 20
52.8875015227
 10
36.1319635045
 20
52.885344024
 10
36.1967052918
 20
52.878963205
 10
36.2605740625
 20
52.8684498145
 10
36.323292226
 20
52.8539161762
 10
36.38463485
 20
52.8354815507
 10
36.4444265797
 20
52.8132581911
 10
36.502288444
 20
52.7874584198
 10
36.5581702144
 20
52.7581776086
 10
36.6123537713
 20
52.7252635
 10
36.6647284129
 20
52.6886956999
 10
36.7148972684
 20
52.6486594236
 10
36.762659267
 20
52.6052319775
 10
36.8077584189
 20
52.5585518318
 10
36.8499636693
 20
52.5087571763
 10
36.8890972936
 20
52.4559313294
 10
36.9249668754
 20
52.4001628464
 10
36.9572750565
 20
52.3417242473
 10
36.9857184549
 20
52.2810117375
 10
37.0101389448
 20
52.2182215819
 10
37.0303486201
 20
52.1536695799
 10
37.0461283447
 20
52.0879943693
 10
37.0574084867
 20
52.0216214369
 10
37.0641899178
 20
51.9547369891
 10
37.066461327
 20
51.8876453222
  0
LWPOLYLINE
  5
4F8
100
AcDbEntity
  8
IMPORT_IGES
100
AcDbPolyline
 62
7
  6
CONTINUOUS
 90
25
 70
0
 10
36.0956772556
 20
52.9165686529
 10
36.1616161843
 20
52.9143427213
 10
36.2267026076
 20
52.9079285968
 10
36.2909365254
 20
52.8973262792
 10
36.3545822309
 20
52.8824525295
 10
36.417375431
 20
52.8633905869
 10
36.4785232458
 20
52.8403901683
 10
36.5380046386
 20
52.8134025361
 10
36.5958406462
 20
52.7824764279
 10
36.6513014989
 20
52.748007775
 10
36.7043572402
 20
52.7099527537
 10
36.7550378267
 20
52.6683551876
 10
36.8027033587
 20
52.6237424784
 10
36.847316355
 20
52.576077139
 10
36.8889142969
 20
52.5253966565
 10
36.9269697286
 20
52.4723408939
 10
36.9614388304
 20
52.4168798874
 10
36.992365422
 20
52.3590436008
 10
37.0193535075
 20
52.2995617892
 10
37.04235435
 20
52.2384134075
 10
37.0614166864
 20
52.1756195008
 10
37.0762907305
 20
52.111972959
 10
37.0868932206
 20
52.0477380787
 10
37.0933074184
 20
51.9826505634
 10
37.0955333242
 20
51.916710413
  0
LINE
  5
4F9
100
AcDbEntity
  8
IMPORT_IGES
100
AcDbLine
 62
7
  6
CONTINUOUS
 10
34.6451804981
 20
44.9850580503
 11
34.6564010056
 21
44.9738374672
  0
LINE
  5
4FA
100
AcDbEntity
  8
IMPORT_IGES
100
AcDbLine
 62
7
  6
CONTINUOUS
 10
27.5242355037
 20
-54.9401454274
 11
27.4884120837
 21
-54.975968846
  0
LWPOLYLINE
  5
4FB
100
AcDbEntity
  8
IMPORT_IGES
100
AcDbPolyline
 62
7
  6
CONTINUOUS
 90
9
 70
0
 10
27.4884120837
 20
-54.9759688474
 10
27.4816230873
 20
-54.9784925756
 10
27.4667255822
 20
-54.9809885555
 10
27.4437195682
 20
-54.9834567871
 10
27.4124722238
 20
-54.9859051739
 10
27.3731163705
 20
-54.9883258124
 10
27.3260504734
 20
-54.9906949918
 10
27.2712003695
 20
-54.9930121971
 10
27.2086402217
 20
-54.9952779432
  0
LWPOLYLINE
  5
4FC
100
AcDbEntity
  8
IMPORT_IGES
100
AcDbPolyline
 62
250
  6
CONTINUOUS
 90
18
 70
0
 10
36.5006713415
 20
52.7863821534
 10
36.5565276014
 20
52.7570955525
 10
36.6106870343
 20
52.7241769669
 10
36.6630391124
 20
52.6876059595
 10
36.7131871579
 20
52.647567781
 10
36.7609301157
 20
52.6041398552
 10
36.8060121255
 20
52.5574607339
 10
36.8482024077
 20
52.5076685209
 10
36.8873234866
 20
52.4548464028
 10
36.9231831379
 20
52.3990828368
 10
36.9554841477
 20
52.3406503198
 10
36.9839232706
 20
52.279945004
 10
37.0083418931
 20
52.2171629819
 10
37.0285528579
 20
52.1526200329
 10
37.0443387661
 20
52.0869548861
 10
37.0556303586
 20
52.0205929256
 10
37.0624277537
 20
51.9537201308
 10
37.064719442
 20
51.8866406667
  0
LWPOLYLINE
  5
4FD
100
AcDbEntity
  8
IMPORT_IGES
100
AcDbPolyline
 62
7
  6
CONTINUOUS
 90
16
 70
0
 10
36.7279640704
 20
52.2682166974
 10
36.690889788
 20
52.3282771882
 10
36.6497334129
 20
52.3854926286
 10
36.6047167345
 20
52.4395912829
 10
36.5560985326
 20
52.4902999121
 10
36.5041175104
 20
52.5374044539
 10
36.4489780946
 20
52.580736913
 10
36.3909346056
 20
52.6200994638
 10
36.3302923075
 20
52.6552873347
 10
36.2673397918
 20
52.6861367688
 10
36.2023733079
 20
52.7125024392
 10
36.1357254695
 20
52.7342490772
 10
36.0677544837
 20
52.7512648429
 10
35.9988060636
 20
52.7634723876
 10
35.929209538
 20
52.7708223157
 10
35.8593064271
 20
52.7732863734
  0
ARC
  5
4FE
100
AcDbEntity
  8
IMPORT_IGES
100
AcDbCircle
 62
7
  6
CONTINUOUS
 10
-24.3704720788
 20
-101.4873964003
 40
72.9111095894
100
AcDbArc
 50
82.1968618287
 51
97.8031358775
  0
ARC
  5
4FF
100
AcDbEntity
  8
IMPORT_IGES
100
AcDbCircle
 62
7
  6
CONTINUOUS
 10
-33.8351353922
 20
-32.4217830421
 40
3.2
100
AcDbArc
 50
97.8031863463
 51
179.0001538084
  0
ARC
  5
500
100
AcDbEntity
  8
IMPORT_IGES
100
AcDbCircle
 62
7
  6
CONTINUOUS
 10
-14.9058087654
 20
-32.4217830421
 40
3.2
100
AcDbArc
 50
0.9998444322
 51
82.1967612074
  0
ARC
  5
501
100
AcDbEntity
  8
IMPORT_IGES
100
AcDbCircle
 62
7
  6
CONTINUOUS
 10
18.5755072306
 20
-27.982984688
 40
10.0418921558
100
AcDbArc
 50
329.63785245
 51
28.3143149954
  0
ARC
  5
502
100
AcDbEntity
  8
IMPORT_IGES
100
AcDbCircle
 62
7
  6
CONTINUOUS
 10
18.5755072306
 20
-27.982984688
 40
10.0
100
AcDbArc
 50
329.63785245
 51
28.3143149948
  0
CIRCLE
  5
503
100
AcDbEntity
  8
IMPORT_IGES
100
AcDbCircle
 62
7
  6
CONTINUOUS
 10
24.1955353951
 20
-28.0834292762
 40
1.8
  0
ARC
  5
504
100
AcDbEntity
  8
IMPORT_IGES
100
AcDbCircle
 62
7
  6
CONTINUOUS
 10
22.9955353951
 20
25.9165707238
 40
5.0
100
AcDbArc
 50
180.0
 51
269.9999999999
  0
ARC
  5
505
100
AcDbEntity
  8
IMPORT_IGES
100
AcDbCircle
 62
7
  6
CONTINUOUS
 10
22.7038762473
 20
30.9246679399
 40
2.8557185039
100
AcDbArc
 50
263.962751231
 51
318.7919210552
  0
ARC
  5
506
100
AcDbEntity
  8
IMPORT_IGES
100
AcDbCircle
 62
7
  6
CONTINUOUS
 10
16.4955353951
 20
28.9165707238
 40
1.5
100
AcDbArc
 50
0.0
 51
89.9999999999
  0
ARC
  5
507
100
AcDbEntity
  8
IMPORT_IGES
100
AcDbCircle
 62
7
  6
CONTINUOUS
 10
22.7028762399
 20
21.4011024333
 40
0.950000005
100
AcDbArc
 50
329.3216586598
 51
336.4400166951
  0
ARC
  5
508
100
AcDbEntity
  8
IMPORT_IGES
100
AcDbCircle
 62
7
  6
CONTINUOUS
 10
19.3028762473
 20
40.5011024243
 40
3.0
100
AcDbArc
 50
89.9999999999
 51
270.0000000001
  0
ARC
  5
509
100
AcDbEntity
  8
IMPORT_IGES
100
AcDbCircle
 62
7
  6
CONTINUOUS
 10
19.3028762473
 20
40.5011024243
 40
2.1
100
AcDbArc
 50
90.0000000001
 51
269.9999999999
  0
CIRCLE
  5
50A
100
AcDbEntity
  8
IMPORT_IGES
100
AcDbCircle
 62
7
  6
CONTINUOUS
 10
17.1955353951
 20
47.4165707238
 40
0.9
  0
ARC
  5
50B
100
AcDbEntity
  8
IMPORT_IGES
100
AcDbCircle
 62
7
  6
CONTINUOUS
 10
22.5955353951
 20
54.2165707238
 40
0.5
100
AcDbArc
 50
90.0001223257
 51
180.0
  0
ARC
  5
50C
100
AcDbEntity
  8
IMPORT_IGES
100
AcDbCircle
 62
7
  6
CONTINUOUS
 10
22.5955353951
 20
53.4165707238
 40
0.5
100
AcDbArc
 50
179.9999999999
 51
270.0054334232
  0
ARC
  5
50D
100
AcDbEntity
  8
IMPORT_IGES
100
AcDbCircle
 62
7
  6
CONTINUOUS
 10
25.3955353951
 20
25.9165707238
 40
5.0
100
AcDbArc
 50
270.0000000001
 51
360.0
  0
ARC
  5
50E
100
AcDbEntity
  8
IMPORT_IGES
100
AcDbCircle
 62
7
  6
CONTINUOUS
 10
24.1955353951
 20
27.9165707238
 40
4.5
100
AcDbArc
 50
180.0
 51
360.0
  0
CIRCLE
  5
50F
100
AcDbEntity
  8
IMPORT_IGES
100
AcDbCircle
 62
7
  6
CONTINUOUS
 10
24.1955353951
 20
27.9165707238
 40
1.8
  0
ARC
  5
510
100
AcDbEntity
  8
IMPORT_IGES
100
AcDbCircle
 62
7
  6
CONTINUOUS
 10
31.8955353951
 20
28.9165707238
 40
1.5
100
AcDbArc
 50
90.0000000001
 51
180.0000000001
  0
ARC
  5
511
100
AcDbEntity
  8
IMPORT_IGES
100
AcDbCircle
 62
7
  6
CONTINUOUS
 10
24.4028762473
 20
40.5011024243
 40
3.0
100
AcDbArc
 50
89.9999999999
 51
270.0000000001
  0
ARC
  5
512
100
AcDbEntity
  8
IMPORT_IGES
100
AcDbCircle
 62
7
  6
CONTINUOUS
 10
24.4028762473
 20
40.5011024243
 40
2.1
100
AcDbArc
 50
192.3736251162
 51
269.9999999998
  0
ARC
  5
513
100
AcDbEntity
  8
IMPORT_IGES
100
AcDbCircle
 62
7
  6
CONTINUOUS
 10
24.4028762473
 20
40.5011024243
 40
2.1
100
AcDbArc
 50
90.0000000002
 51
167.6263748838
  0
ARC
  5
514
100
AcDbEntity
  8
IMPORT_IGES
100
AcDbCircle
 62
7
  6
CONTINUOUS
 10
29.2354423599
 20
40.9618583072
 40
1.8626598403
100
AcDbArc
 50
92.2276646931
 51
103.725747657
  0
ARC
  5
515
100
AcDbEntity
  8
IMPORT_IGES
100
AcDbCircle
 62
7
  6
CONTINUOUS
 10
29.2354423599
 20
40.9618583073
 40
1.7340884116
100
AcDbArc
 50
92.3929243824
 51
104.7668043571
  0
ARC
  5
516
100
AcDbEntity
  8
IMPORT_IGES
100
AcDbCircle
 62
7
  6
CONTINUOUS
 10
29.7674383445
 20
41.3036532033
 40
1.5028097377
100
AcDbArc
 50
59.1150004611
 51
86.5531981145
  0
ARC
  5
517
100
AcDbEntity
  8
IMPORT_IGES
100
AcDbCircle
 62
7
  6
CONTINUOUS
 10
29.7674383445
 20
41.3036532033
 40
1.3742383091
100
AcDbArc
 50
58.6839892196
 51
86.2302750204
  0
CIRCLE
  5
518
100
AcDbEntity
  8
IMPORT_IGES
100
AcDbCircle
 62
7
  6
CONTINUOUS
 10
31.1955353951
 20
47.4165707238
 40
0.9
  0
ARC
  5
519
100
AcDbEntity
  8
IMPORT_IGES
100
AcDbCircle
 62
7
  6
CONTINUOUS
 10
28.6806254821
 20
42.1925716547
 40
0.5258978106
100
AcDbArc
 50
108.8223096423
 51
156.055158144
  0
ARC
  5
51A
100
AcDbEntity
  8
IMPORT_IGES
100
AcDbCircle
 62
7
  6
CONTINUOUS
 10
25.7955353951
 20
54.2165707238
 40
0.5
100
AcDbArc
 50
0.0000000001
 51
89.9998776747
  0
ARC
  5
51B
100
AcDbEntity
  8
IMPORT_IGES
100
AcDbCircle
 62
7
  6
CONTINUOUS
 10
25.7955353951
 20
53.4165707237
 40
0.5
100
AcDbArc
 50
269.9950754729
 51
359.9999999999
  0
ARC
  5
51C
100
AcDbEntity
  8
IMPORT_IGES
100
AcDbCircle
 62
7
  6
CONTINUOUS
 10
30.1705265126
 20
39.0048684086
 40
0.454554913
100
AcDbArc
 50
78.9219323815
 51
185.6300871769
  0
ARC
  5
51D
100
AcDbEntity
  8
IMPORT_IGES
100
AcDbCircle
 62
7
  6
CONTINUOUS
 10
30.1705265126
 20
39.0048684086
 40
0.454554913
100
AcDbArc
 50
202.8423176082
 51
29.2107373284
  0
ARC
  5
51E
100
AcDbEntity
  8
IMPORT_IGES
100
AcDbCircle
 62
7
  6
CONTINUOUS
 10
28.680625482
 20
42.1925716547
 40
0.397326382
100
AcDbArc
 50
115.2797032137
 51
147.5075237834
  0
CIRCLE
  5
51F
100
AcDbEntity
  8
IMPORT_IGES
100
AcDbCircle
 62
7
  6
CONTINUOUS
 10
30.1705265126
 20
39.0048684086
 40
0.2263970945
  0
ARC
  5
520
100
AcDbEntity
  8
IMPORT_IGES
100
AcDbCircle
 62
7
  6
CONTINUOUS
 10
30.6858103973
 20
42.4488125585
 40
0.2061327618
100
AcDbArc
 50
171.9486263994
 51
191.9841409065
  0
ARC
  5
521
100
AcDbEntity
  8
IMPORT_IGES
100
AcDbCircle
 62
7
  6
CONTINUOUS
 10
30.6858103973
 20
42.4488125585
 40
0.2061327618
100
AcDbArc
 50
248.9850675601
 51
135.4724862819
  0
ELLIPSE
  5
522
100
AcDbEntity
  8
IMPORT_IGES
100
AcDbEllipse
 62
7
  6
CONTINUOUS
 10
24.1955353951
 20
50.0088402183
 30
0.0
 11
1.0
 21
0.0
 31
0.0
 40
0.0174550649
 41
-0.0000000372
 42
3.1415926924
  0
ELLIPSE
  5
523
100
AcDbEntity
  8
IMPORT_IGES
100
AcDbEllipse
 62
7
  6
CONTINUOUS
 10
12.2956877231
 20
-54.0832769482
 30
0.0
 11
0.7073221892
 21
0.7073221892
 31
0.0
 40
0.9996954599
 41
2.3563215497
 42
3.9268414499
  0
ELLIPSE
  5
524
100
AcDbEntity
  8
IMPORT_IGES
100
AcDbEllipse
 62
7
  6
CONTINUOUS
 10
34.4231626412
 20
-6.2760581764
 30
0.0
 11
-4.8489280215
 21
-1.2231102437
 31
0.0
 40
0.9998380068
 41
-0.2470505933
 42
0.2470505933
  0
ELLIPSE
  5
525
100
AcDbEntity
  8
IMPORT_IGES
100
AcDbEllipse
 62
7
  6
CONTINUOUS
 10
24.651386712
 20
-19.8569064697
 30
0.0
 11
9.6978560422
 21
2.4462204908
 31
0.0
 40
0.9998380068
 41
-0.2470505937
 42
0.247050593
  0
ELLIPSE
  5
526
100
AcDbEntity
  8
IMPORT_IGES
100
AcDbEllipse
 62
7
  6
CONTINUOUS
 10
24.693278868
 20
-19.8463394485
 30
0.0
 11
9.6978560422
 21
2.4462204908
 31
0.0
 40
0.9998380068
 41
-0.2470505937
 42
0.247050593
  0
ELLIPSE
  5
527
100
AcDbEntity
  8
IMPORT_IGES
100
AcDbEllipse
 62
7
  6
CONTINUOUS
 10
24.693278868
 20
-34.9565248555
 30
0.0
 11
9.6526088458
 21
-2.6191322227
 31
0.0
 40
0.9998364845
 41
-0.2649183952
 42
0.2649183954
  0
ELLIPSE
  5
528
100
AcDbEntity
  8
IMPORT_IGES
100
AcDbEllipse
 62
7
  6
CONTINUOUS
 10
34.4231626412
 20
-48.0274425805
 30
0.0
 11
-4.826304423
 21
1.309566111
 31
0.0
 40
0.9998364845
 41
-0.2649183953
 42
0.2649183953
  0
ELLIPSE
  5
529
100
AcDbEntity
  8
IMPORT_IGES
100
AcDbEllipse
 62
7
  6
CONTINUOUS
 10
24.0153627034
 20
-48.4650151127
 30
0.0
 11
-3.1071240494
 21
3.9899119019
 31
0.0
 40
0.9823017724
 41
0.8708951917
 42
0.9177050555
  0
ELLIPSE
  5
52A
100
AcDbEntity
  8
IMPORT_IGES
100
AcDbEllipse
 62
7
  6
CONTINUOUS
 10
23.9694314294
 20
-48.4525521525
 30
0.0
 11
4.8263044231
 21
-1.3095661107
 31
0.0
 40
0.9998364845
 41
2.8766742582
 42
3.4065110488
  0
ELLIPSE
  5
52B
100
AcDbEntity
  8
IMPORT_IGES
100
AcDbEllipse
 62
7
  6
CONTINUOUS
 10
23.9694314294
 20
-6.3679818226
 30
0.0
 11
4.8489280215
 21
1.2231102436
 31
0.0
 40
0.9998380068
 41
2.8945420603
 42
3.388643247
  0
ELLIPSE
  5
52C
100
AcDbEntity
  8
IMPORT_IGES
100
AcDbEllipse
 62
7
  6
CONTINUOUS
 10
34.3671171962
 20
-6.2901952717
 30
0.0
 11
3.9982127405
 21
-3.0592337487
 31
0.0
 40
0.9822378792
 41
-2.4797197869
 42
-2.316186968
  0
ELLIPSE
  5
52D
100
AcDbEntity
  8
IMPORT_IGES
100
AcDbEllipse
 62
7
  6
CONTINUOUS
 10
24.0243609558
 20
-6.3541262103
 30
0.0
 11
3.1426004976
 21
3.961931242
 31
0.0
 40
0.9820822097
 41
-4.0505161136
 42
-3.9013162377
  0
ELLIPSE
  5
52E
100
AcDbEntity
  8
IMPORT_IGES
100
AcDbEllipse
 62
7
  6
CONTINUOUS
 10
24.0113235852
 20
-6.3574148014
 30
0.0
 11
4.8489280215
 21
1.2231102436
 31
0.0
 40
0.9998380068
 41
3.0437419363
 42
3.388643247
  0
ELLIPSE
  5
52F
100
AcDbEntity
  8
IMPORT_IGES
100
AcDbEllipse
 62
7
  6
CONTINUOUS
 10
34.3812704854
 20
-6.2866251975
 30
0.0
 11
-4.8489280215
 21
-1.2231102437
 31
0.0
 40
0.9998380068
 41
-0.0835177745
 42
0.2470505933
  0
ELLIPSE
  5
530
100
AcDbEntity
  8
IMPORT_IGES
100
AcDbEllipse
 62
7
  6
CONTINUOUS
 10
24.6513867122
 20
-34.9451578669
 30
0.0
 11
9.6526088458
 21
-2.6191322227
 31
0.0
 40
0.9998364845
 41
-0.2649183952
 42
0.2649183954
  0
ELLIPSE
  5
531
100
AcDbEntity
  8
IMPORT_IGES
100
AcDbEllipse
 62
7
  6
CONTINUOUS
 10
34.3812704854
 20
-48.0160755918
 30
0.0
 11
-4.826304423
 21
1.309566111
 31
0.0
 40
0.9998364845
 41
-0.2649183953
 42
0.2649183953
  0
ELLIPSE
  5
532
100
AcDbEntity
  8
IMPORT_IGES
100
AcDbEllipse
 62
7
  6
CONTINUOUS
 10
24.0113235852
 20
-48.4639191411
 30
0.0
 11
4.8263044231
 21
-1.3095661107
 31
0.0
 40
0.9998364845
 41
2.8766742582
 42
3.3597011851
  0
ELLIPSE
  5
533
100
AcDbEntity
  8
IMPORT_IGES
100
AcDbEllipse
 62
7
  6
CONTINUOUS
 10
24.1955353951
 20
52.8275498926
 30
0.0
 11
1.2
 21
-0.0
 31
0.0
 40
0.0174550649
 41
-0.0000358741
 42
0.4115168461
  0
ELLIPSE
  5
534
100
AcDbEntity
  8
IMPORT_IGES
100
AcDbEllipse
 62
7
  6
CONTINUOUS
 10
14.7907883974
 20
-0.3855556028
 30
0.0
 11
-0.0
 21
2.5
 31
0.0
 40
0.0174550649
 41
0.5942755039
 42
1.5707928441
  0
ELLIPSE
  5
535
100
AcDbEntity
  8
IMPORT_IGES
100
AcDbEllipse
 62
7
  6
CONTINUOUS
 10
14.7907883974
 20
-1.7813029496
 30
0.0
 11
-0.0
 21
2.5
 31
0.0
 40
0.0174550649
 41
-4.7123889797
 42
-3.7358681575
  0
ELLIPSE
  5
536
100
AcDbEntity
  8
IMPORT_IGES
100
AcDbEllipse
 62
7
  6
CONTINUOUS
 10
16.1907731646
 20
-1.7813029496
 30
0.0
 11
2.5440184824
 21
-0.0
 31
0.0
 40
0.9826972631
 41
-2.1650718307
 42
-1.588248922
  0
ELLIPSE
  5
537
100
AcDbEntity
  8
IMPORT_IGES
100
AcDbEllipse
 62
7
  6
CONTINUOUS
 10
33.6002823928
 20
-1.7813029496
 30
0.0
 11
0.0
 21
2.5
 31
0.0
 40
0.0174550649
 41
-2.5473171497
 42
-1.5707998095
  0
ELLIPSE
  5
538
100
AcDbEntity
  8
IMPORT_IGES
100
AcDbEllipse
 62
7
  6
CONTINUOUS
 10
32.2002976256
 20
-0.3855556028
 30
0.0
 11
2.5440184824
 21
0.0
 31
0.0
 40
0.9826972631
 41
0.9765208229
 42
1.5533437316
  0
ELLIPSE
  5
539
100
AcDbEntity
  8
IMPORT_IGES
100
AcDbEllipse
 62
7
  6
CONTINUOUS
 10
33.6002823928
 20
-0.3855556028
 30
0.0
 11
0.0
 21
2.5
 31
0.0
 40
0.0174550649
 41
-1.5707935402
 42
-0.5942755039
  0
ELLIPSE
  5
53A
100
AcDbEntity
  8
IMPORT_IGES
100
AcDbEllipse
 62
7
  6
CONTINUOUS
 10
36.7873139925
 20
-1.7813029496
 30
0.0
 11
-0.0
 21
2.5
 31
0.0
 40
0.0174550649
 41
-3.1241604324
 42
-1.5708205779
  0
ELLIPSE
  5
53B
100
AcDbEntity
  8
IMPORT_IGES
100
AcDbEllipse
 62
7
  6
CONTINUOUS
 10
27.5240831873
 20
-54.4402215798
 30
0.0
 11
0.0
 21
0.5
 31
0.0
 40
0.0174550649
 41
-3.1241393613
 42
-2.2062091534
  0
ELLIPSE
  5
53C
100
AcDbEntity
  8
IMPORT_IGES
100
AcDbEllipse
 62
7
  6
CONTINUOUS
 10
20.8669876029
 20
-54.4402215798
 30
0.0
 11
0.0
 21
0.5
 31
0.0
 40
0.0174550649
 41
-4.0769761538
 42
-3.1590459903
  0
ELLIPSE
  5
53D
100
AcDbEntity
  8
IMPORT_IGES
100
AcDbEllipse
 62
7
  6
CONTINUOUS
 10
12.0317748227
 20
-4.3165938996
 30
0.0
 11
0.5
 21
-0.0
 31
0.0
 40
0.0174550649
 41
-3.1098603551
 42
-2.4578104048
  0
ELLIPSE
  5
53E
100
AcDbEntity
  8
IMPORT_IGES
100
AcDbEllipse
 62
7
  6
CONTINUOUS
 10
12.0317748227
 20
2.1497353471
 30
0.0
 11
0.5
 21
0.0
 31
0.0
 40
0.0174550649
 41
2.4578104048
 42
3.1098603555
  0
ENDSEC
  0
SECTION
  2
OBJECTS
  0
DICTIONARY
  5
C
100
AcDbDictionary
280
0
281
1
  3
ACAD_GROUP
350
D
  3
ACAD_MLINESTYLE
350
17
  3
ACAD_LAYOUT
350
1A
  3
ACAD_PLOTSETTINGS
350
19
  3
ACAD_PLOTSTYLENAME
350
E
  0
DICTIONARY
  5
D
102
{ACAD_REACTORS
330
C
102
}
100
AcDbDictionary
280
0
281
1
  0
ACDBDICTIONARYWDFLT
  5
E
102
{ACAD_REACTORS
330
C
102
}
100
AcDbDictionary
281
1
  3
Normal
350
F
100
AcDbDictionaryWithDefault
340
F
  0
DICTIONARY
  5
17
102
{ACAD_REACTORS
330
C
102
}
100
AcDbDictionary
280
0
281
1
  3
Standard
350
18
  0
DICTIONARY
  5
19
102
{ACAD_REACTORS
330
C
102
}
100
AcDbDictionary
281
1
  0
DICTIONARY
  5
1A
102
{ACAD_REACTORS
330
C
102
}
100
AcDbDictionary
281
1
  3
Model
350
53F
  3
Layout1
350
540
  0
ACDBPLACEHOLDER
  5
F
102
{ACAD_REACTORS
330
E
102
}
  0
MLINESTYLE
  5
18
102
{ACAD_REACTORS
330
17
102
}
100
AcDbMlineStyle
  2
STANDARD
 70
0
  3

 62
256
 51
90.0
 52
90.0
 71
2
 49
0.5
 62
256
  6
BYLAYER
 49
-0.5
 62
256
  6
BYLAYER
  0
LAYOUT
  5
53F
102
{ACAD_REACTORS
330
1A
102
}
100
AcDbPlotSettings
  1

  2
none_device
  4
ISO_A4_(297.00_x_210.00_MM)
  6

 40
0.0
 41
0.0
 42
0.0
 43
0.0
 44
297.0
 45
210.0
 46
0.0
 47
0.0
 48
0.0
 49
0.0
140
0.0
141
0.0
142
1.0
143
1.0
 70
1024
 72
1
 73
0
 74
0
  7

 75
0
147
1.0
148
0.0
149
0.0
100
AcDbLayout
  1
Model
 70
0
 71
0
 10
0.0
 20
0.0
 11
297.0
 21
210.0
 12
0.0
 22
0.0
 32
0.0
 14
0.0
 24
0.0
 34
0.0
 15
0.0
 25
0.0
 35
0.0
146
0.0
 13
0.0
 23
0.0
 33
0.0
 16
1.0
 26
0.0
 36
0.0
 17
0.0
 27
1.0
 37
0.0
 76
0
330
28D
345
0
346
0
  0
LAYOUT
  5
540
102
{ACAD_REACTORS
330
1A
102
}
100
AcDbPlotSettings
  1

  2
none_device
  4
ISO_A4_(297.00_x_210.00_MM)
  6

 40
0.0
 41
0.0
 42
0.0
 43
0.0
 44
297.0
 45
210.0
 46
0.0
 47
0.0
 48
0.0
 49
0.0
140
0.0
141
0.0
142
1.0
143
1.0
 70
0
 72
1
 73
0
 74
0
  7

 75
0
147
1.0
148
0.0
149
0.0
100
AcDbLayout
  1
Layout1
 70
0
 71
1
 10
0.0
 20
0.0
 11
297.0
 21
210.0
 12
0.0
 22
0.0
 32
0.0
 14
0.0
 24
0.0
 34
0.0
 15
0.0
 25
0.0
 35
0.0
146
0.0
 13
0.0
 23
0.0
 33
0.0
 16
1.0
 26
0.0
 36
0.0
 17
0.0
 27
1.0
 37
0.0
 76
0
330
28E
345
0
346
0
  0
ENDSEC
  0
EOF
