  0
SECTION
  2
HEADER
  9
$ACADVER
  1
AC1024
  9
$DWGCODEPAGE
  3
ANSI_1252
  9
$EXTMAX
 10
297.0
 20
210.0
 30
0.0
  9
$EXTMIN
 10
0.0
 20
0.0
 30
0.0
  9
$LIMMIN
 10
0.0
 20
0.0
  9
$LIMMAX
 10
297.0
 20
210.0
  9
$VIEWCTR
 10
148.5
 20
105.0
  9
$VIEWSIZE
 40
210.0
  9
$CLAYER
  8
0
  9
$LTSCALE
 40
16.335
  9
$CELTYPE
  6
BYLAYER
  9
$DIMSCALE
 40
1.0
  9
$DIMASZ
 40
3.0
  9
$DIMEXO
 40
0.5
  9
$DIMDLI
 40
11.286
  9
$DIMEXE
 40
1.5
  9
$DIMCEN
 40
2.673
  9
$DIMLFAC
 40
1.0
  9
$DIMBLK
  1
_FILLED
  9
$DIMALT
 70
0
  9
$DIMALTF
 40
0.0393700787
  9
$DIMTXT
 40
3.0
  9
$DIMTOL
 70
1
  9
$DIMLIM
 70
0
  9
$DIMTFAC
 40
1.0
  9
$DIMTP
 40
0.01
  9
$DIMTM
 40
0.01
  9
$DIMGAP
 40
0.625
  9
$DIMDSEP
 70
44
  9
$AUNITS
 70
0
  9
$PDMODE
 70
3
  9
$PDSIZE
 40
3.0
  9
$HANDSEED
  5
35F
  9
$TILEMODE
 70
1
  9
$MEASUREMENT
 70
1
  9
$INSUNITS
 70
4
  0
ENDSEC
  0
SECTION
  2
CLASSES
  0
CLASS
  1
ACDBDICTIONARYWDFLT
  2
AcDbDictionaryWithDefault
  3
AutoCAD 2000
 90
0
 91
1
280
0
281
0
  0
CLASS
  1
ACDBPLACEHOLDER
  2
AcDbPlaceHolder
  3
AutoCAD 2000
 90
0
 91
1
280
0
281
0
  0
CLASS
  1
LAYOUT
  2
AcDbLayout
  3
AutoCAD 2000
 90
0
 91
0
280
0
281
0
  0
ENDSEC
  0
SECTION
  2
TABLES
  0
TABLE
  2
VPORT
  5
8
100
AcDbSymbolTable
 70
2
  0
VPORT
  5
1F4
100
AcDbSymbolTableRecord
100
AcDbViewportTableRecord
  2
*ACTIVE
 70
0
 10
0.0
 20
0.0
 11
1.0
 21
1.0
 12
148.5
 22
105.0
 13
0.0
 23
0.0
 14
1.0
 24
1.0
 15
0.0
 25
0.0
 16
0.0
 26
0.0
 36
1.0
 17
0.0
 27
0.0
 37
0.0
 40
210.0
 41
1.4142857143
 42
50.0
 43
0.0
 44
0.0
 50
0.0
 51
0.0
 71
0
 72
100
 73
1
 74
1
 75
0
 76
0
 77
0
 78
0
  0
ENDTAB
  0
TABLE
  2
LTYPE
  5
5
100
AcDbSymbolTable
 70
6
  0
LTYPE
  5
14
100
AcDbSymbolTableRecord
100
AcDbLinetypeTableRecord
  2
BYBLOCK
 70
0
  3

 72
65
 73
0
 40
0.0
  0
LTYPE
  5
15
100
AcDbSymbolTableRecord
100
AcDbLinetypeTableRecord
  2
BYLAYER
 70
0
  3

 72
65
 73
0
 40
0.0
  0
LTYPE
  5
16
100
AcDbSymbolTableRecord
100
AcDbLinetypeTableRecord
  2
CONTINUOUS
 70
64
  3
Solid line
 72
65
 73
0
 40
0.0
  0
LTYPE
  5
1F5
100
AcDbSymbolTableRecord
100
AcDbLinetypeTableRecord
  2
CENTER
 70
64
  3
____ _ ____ _ ____ _ ____ _ ____ _ ____ _ ____
 72
65
 73
4
 40
0.6
 49
0.375
 74
0
 49
-0.075
 74
0
 49
0.075
 74
0
 49
-0.075
 74
0
  0
LTYPE
  5
1F6
100
AcDbSymbolTableRecord
100
AcDbLinetypeTableRecord
  2
HIDDEN
 70
64
  3
- - - - - - - - - - - - - - - - - - - -
 72
65
 73
2
 40
0.2
 49
0.1
 74
0
 49
-0.1
 74
0
  0
LTYPE
  5
1F7
100
AcDbSymbolTableRecord
100
AcDbLinetypeTableRecord
  2
PHANTOM
 70
64
  3
_____ _ _ _____ _ _ _____ _ _ _____
 72
65
 73
6
 40
0.8
 49
0.45
 74
0
 49
-0.05
 74
0
 49
0.1
 74
0
 49
-0.05
 74
0
 49
0.1
 74
0
 49
-0.05
 74
0
  0
LTYPE
  5
1F8
100
AcDbSymbolTableRecord
100
AcDbLinetypeTableRecord
  2
DOT
 70
64
  3
. . . . . . . . . . . . . . . . . . . .
 72
65
 73
2
 40
0.2
 49
0.1
 74
0
 49
-0.1
 74
0
  0
LTYPE
  5
1F9
100
AcDbSymbolTableRecord
100
AcDbLinetypeTableRecord
  2
DASHED
 70
64
  3
- - - - - - - - - - - - - - - - - - - -
 72
65
 73
2
 40
0.2
 49
0.1
 74
0
 49
-0.1
 74
0
  0
ENDTAB
  0
TABLE
  2
LAYER
  5
2
100
AcDbSymbolTable
 70
36
  0
LAYER
  5
10
100
AcDbSymbolTableRecord
100
AcDbLayerTableRecord
  2
0
 70
0
 62
7
  6
CONTINUOUS
370
-3
390
F
  0
LAYER
  5
1FA
100
AcDbSymbolTableRecord
100
AcDbLayerTableRecord
  2
DEFAULT_1
 70
0
 62
7
  6
CENTER
370
-3
390
F
  0
LAYER
  5
1FB
100
AcDbSymbolTableRecord
100
AcDbLayerTableRecord
  2
DEFAULT_2
 70
0
 62
7
  6
HIDDEN
370
-3
390
F
  0
LAYER
  5
1FC
100
AcDbSymbolTableRecord
100
AcDbLayerTableRecord
  2
DEFAULT_3
 70
0
 62
7
  6
PHANTOM
370
-3
390
F
  0
LAYER
  5
1FD
100
AcDbSymbolTableRecord
100
AcDbLayerTableRecord
  2
ASSI
 70
0
 62
7
  6
CONTINUOUS
370
-3
390
F
  0
LAYER
  5
1FE
100
AcDbSymbolTableRecord
100
AcDbLayerTableRecord
  2
COORDINATE
 70
0
 62
7
  6
CONTINUOUS
370
-3
390
F
  0
LAYER
  5
1FF
100
AcDbSymbolTableRecord
100
AcDbLayerTableRecord
  2
COPY_PUBLISH
 70
0
 62
7
  6
CONTINUOUS
370
-3
390
F
  0
LAYER
  5
200
100
AcDbSymbolTableRecord
100
AcDbLayerTableRecord
  2
COSMETICI
 70
0
 62
7
  6
CONTINUOUS
370
-3
390
F
  0
LAYER
  5
201
100
AcDbSymbolTableRecord
100
AcDbLayerTableRecord
  2
CURVE
 70
0
 62
7
  6
CONTINUOUS
370
-3
390
F
  0
LAYER
  5
202
100
AcDbSymbolTableRecord
100
AcDbLayerTableRecord
  2
DRAFT
 70
0
 62
7
  6
CONTINUOUS
370
-3
390
F
  0
LAYER
  5
203
100
AcDbSymbolTableRecord
100
AcDbLayerTableRecord
  2
IMPORT_IGES
 70
0
 62
7
  6
CONTINUOUS
370
-3
390
F
  0
LAYER
  5
204
100
AcDbSymbolTableRecord
100
AcDbLayerTableRecord
  2
NOTE
 70
0
 62
7
  6
CONTINUOUS
370
-3
390
F
  0
LAYER
  5
205
100
AcDbSymbolTableRecord
100
AcDbLayerTableRecord
  2
PIANI
 70
0
 62
7
  6
CONTINUOUS
370
-3
390
F
  0
LAYER
  5
206
100
AcDbSymbolTableRecord
100
AcDbLayerTableRecord
  2
PUNTI
 70
0
 62
7
  6
CONTINUOUS
370
-3
390
F
  0
LAYER
  5
207
100
AcDbSymbolTableRecord
100
AcDbLayerTableRecord
  2
RACCORDO
 70
0
 62
7
  6
CONTINUOUS
370
-3
390
F
  0
LAYER
  5
208
100
AcDbSymbolTableRecord
100
AcDbLayerTableRecord
  2
SIMBOLI
 70
0
 62
7
  6
CONTINUOUS
370
-3
390
F
  0
LAYER
  5
209
100
AcDbSymbolTableRecord
100
AcDbLayerTableRecord
  2
SMUSSO
 70
0
 62
7
  6
CONTINUOUS
370
-3
390
F
  0
LAYER
  5
20A
100
AcDbSymbolTableRecord
100
AcDbLayerTableRecord
  2
SUPERFICI
 70
0
 62
7
  6
CONTINUOUS
370
-3
390
F
  0
LAYER
  5
20B
100
AcDbSymbolTableRecord
100
AcDbLayerTableRecord
  2
TRASH
 70
0
 62
7
  6
CONTINUOUS
370
-3
390
F
  0
ENDTAB
  0
TABLE
  2
STYLE
  5
3
100
AcDbSymbolTable
 70
1
  0
STYLE
  5
11
100
AcDbSymbolTableRecord
100
AcDbTextStyleTableRecord
  2
STANDARD
 70
0
 40
0.0
 41
0.8
 50
0.0
 71
0
 42
0.2
  3
txt
  4

  0
STYLE
  5
20C
100
AcDbSymbolTableRecord
100
AcDbTextStyleTableRecord
  2
TEXTSTYLE_1
 70
0
 40
0.0
 41
0.8
 50
0.0
 71
0
 42
0.2
  3
gdt
  4

  0
ENDTAB
  0
TABLE
  2
VIEW
  5
6
100
AcDbSymbolTable
 70
0
  0
ENDTAB
  0
TABLE
  2
UCS
  5
7
100
AcDbSymbolTable
 70
0
  0
ENDTAB
  0
TABLE
  2
APPID
  5
9
100
AcDbSymbolTable
 70
1
  0
APPID
  5
20D
100
AcDbSymbolTableRecord
100
AcDbRegAppTableRecord
  2
ACAD
 70
0
  0
ENDTAB
  0
TABLE
  2
BLOCK_RECORD
  5
1
100
AcDbSymbolTable
 70
0
  0
BLOCK_RECORD
  5
20E
100
AcDbSymbolTableRecord
100
AcDbBlockTableRecord
  2
*Model_Space
  0
BLOCK_RECORD
  5
20F
100
AcDbSymbolTableRecord
100
AcDbBlockTableRecord
  2
*Paper_Space
  0
BLOCK_RECORD
  5
210
100
AcDbSymbolTableRecord
100
AcDbBlockTableRecord
  2
_FILLED
  0
ENDTAB
  0
TABLE
  2
DIMSTYLE
  5
A
100
AcDbSymbolTable
 70
1
100
AcDbDimStyleTable
 71
0
  0
DIMSTYLE
105
211
100
AcDbSymbolTableRecord
100
AcDbDimStyleTableRecord
  2
STANDARD
 70
0
  3

  4

 40
1.0
 41
3.0
 42
0.5
 43
0.38
 44
1.5
 45
0.0
 46
0.0
 47
0.01
 48
0.01
140
3.0
141
0.09
142
0.0
143
25.4
144
1.0
145
0.0
146
1.0
147
0.625
 71
1
 72
0
 73
0
 74
0
 75
0
 76
0
 77
1
 78
8
 79
2
170
0
171
1
172
0
173
0
174
0
175
0
176
0
177
0
178
0
270
2
179
2
271
2
272
2
273
2
274
2
275
0
280
0
281
0
282
0
283
1
284
8
285
0
286
0
287
3
288
0
340
11
278
44
341
210
342
210
343
210
344
210
  0
ENDTAB
  0
ENDSEC
  0
SECTION
  2
BLOCKS
  0
BLOCK
  5
20
100
AcDbEntity
  8
0
100
AcDbBlockBegin
  2
*Model_Space
 70
0
 10
0.0
 20
0.0
 30
0.0
  3
*Model_Space
  1

  0
ENDBLK
  5
21
100
AcDbEntity
  8
0
100
AcDbBlockEnd
  0
BLOCK
  5
1C
100
AcDbEntity
  8
0
100
AcDbBlockBegin
  2
*Paper_Space
 70
0
 10
0.0
 20
0.0
 30
0.0
  3
*Paper_Space
  1

  0
ENDBLK
  5
1D
100
AcDbEntity
  8
0
100
AcDbBlockEnd
  0
BLOCK
  5
212
100
AcDbEntity
  8
0
100
AcDbBlockBegin
  2
_FILLED
 70
64
 10
0.0
 20
0.0
  3
_FILLED
  1

  0
SOLID
  5
213
100
AcDbEntity
  8
0
  6
BYBLOCK
 62
0
100
AcDbTrace
 10
0.0
 20
0.0
 11
-1.0
 21
0.3166666667
 12
-1.0
 22
-0.3166666667
 13
-1.0
 23
-0.3166666667
  0
ENDBLK
  5
214
100
AcDbEntity
  8
0
  6
BYBLOCK
 62
0
100
AcDbBlockEnd
  0
ENDSEC
  0
SECTION
  2
ENTITIES
  0
LWPOLYLINE
  5
215
100
AcDbEntity
  8
IMPORT_IGES
100
AcDbPolyline
 62
7
  6
CONTINUOUS
 90
5
 70
0
 10
-85.0291044364
 20
-1.1675638022
 10
-85.0302841222
 20
-1.1494244767
 10
-85.0314392791
 20
-1.1274856474
 10
-85.0325696569
 20
-1.1017107176
 10
-85.0336755059
 20
-1.0721362842
  0
LWPOLYLINE
  5
216
100
AcDbEntity
  8
IMPORT_IGES
100
AcDbPolyline
 62
7
  6
CONTINUOUS
 90
9
 70
0
 10
-85.5611205572
 20
28.8006205746
 10
-85.5623664741
 20
28.8313818279
 10
-85.5636356454
 20
28.8583577687
 10
-85.5649282667
 20
28.8815263396
 10
-85.5662441425
 20
28.9009095979
 10
-85.5675730238
 20
28.9163194154
 10
-85.5689114943
 20
28.9276930827
 10
-85.5702629704
 20
28.9350933091
 10
-85.571627452
 20
28.9385200948
  0
LINE
  5
217
100
AcDbEntity
  8
IMPORT_IGES
100
AcDbLine
 62
7
  6
CONTINUOUS
 10
-85.558727732
 20
28.7284795009
 11
-85.5611205572
 21
28.8006205746
  0
LINE
  5
218
100
AcDbEntity
  8
IMPORT_IGES
100
AcDbLine
 62
7
  6
CONTINUOUS
 10
-85.0611967096
 20
28.8006205746
 11
-85.0588038844
 21
28.7284795009
  0
LINE
  5
219
100
AcDbEntity
  8
IMPORT_IGES
100
AcDbLine
 62
7
  6
CONTINUOUS
 10
-85.0336755059
 20
-1.0721362842
 11
-85.0357803136
 21
-1.002464955
  0
LWPOLYLINE
  5
21A
100
AcDbEntity
  8
IMPORT_IGES
100
AcDbPolyline
 62
250
  6
CONTINUOUS
 90
31
 70
0
 10
-84.9784301292
 20
-38.351403456
 10
-84.9763516446
 20
-38.4298801118
 10
-84.9701696892
 20
-38.508141774
 10
-84.9599011972
 20
-38.5859740166
 10
-84.9455742992
 20
-38.6631635909
 10
-84.9272282457
 20
-38.7394990058
 10
-84.9049133008
 20
-38.8147711068
 10
-84.878690602
 20
-38.8887736576
 10
-84.8486319935
 20
-38.9613039001
 10
-84.814819832
 20
-39.0321631051
 10
-84.7773467568
 20
-39.101157127
 10
-84.7363154379
 20
-39.1680969301
 10
-84.6918382975
 20
-39.2327991025
 10
-84.6440371966
 20
-39.2950863682
 10
-84.5930431033
 20
-39.3547880674
 10
-84.5389957384
 20
-39.4117406205
 10
-84.4820431848
 20
-39.4657879846
 10
-84.4223414852
 20
-39.516782077
 10
-84.3600542193
 20
-39.564583177
 10
-84.2953520468
 20
-39.6090603164
 10
-84.2284122439
 20
-39.6500916342
 10
-84.1594182224
 20
-39.6875647083
 10
-84.0885590179
 20
-39.7213768686
 10
-84.0160287762
 20
-39.7514354761
 10
-83.9420262265
 20
-39.7776581739
 10
-83.8667541268
 20
-39.7999731178
 10
-83.7904187134
 20
-39.8183191704
 10
-83.7132291407
 20
-39.8326460677
 10
-83.6353969001
 20
-39.8429145592
 10
-83.5571352399
 20
-39.8490965143
 10
-83.4786585865
 20
-39.8511749988
  0
LINE
  5
21B
100
AcDbEntity
  8
IMPORT_IGES
100
AcDbLine
 62
7
  6
CONTINUOUS
 10
-85.545917522
 20
-2.5217089543
 11
-85.5496697876
 21
-2.3796400554
  0
LINE
  5
21C
100
AcDbEntity
  8
IMPORT_IGES
100
AcDbLine
 62
7
  6
CONTINUOUS
 10
-85.04974594
 20
-2.3796400554
 11
-85.0459936744
 21
-2.5217089543
  0
LINE
  5
21D
100
AcDbEntity
  8
IMPORT_IGES
100
AcDbLine
 62
7
  6
CONTINUOUS
 10
-85.5564757193
 20
28.6425197474
 11
-85.558727732
 21
28.7284795009
  0
LINE
  5
21E
100
AcDbEntity
  8
IMPORT_IGES
100
AcDbLine
 62
7
  6
CONTINUOUS
 10
-85.0588038844
 20
28.7284795009
 11
-85.0565518718
 21
28.6425197474
  0
LINE
  5
21F
100
AcDbEntity
  8
IMPORT_IGES
100
AcDbLine
 62
7
  6
CONTINUOUS
 10
-85.0357803136
 20
-1.002464955
 11
-85.0377328255
 21
-0.9191772731
  0
LINE
  5
220
100
AcDbEntity
  8
IMPORT_IGES
100
AcDbLine
 62
7
  6
CONTINUOUS
 10
-85.5496697876
 20
-2.3796400554
 11
-85.5548562141
 21
-2.1337774075
  0
LINE
  5
221
100
AcDbEntity
  8
IMPORT_IGES
100
AcDbLine
 62
7
  6
CONTINUOUS
 10
-85.0549323665
 20
-2.1337774075
 11
-85.04974594
 21
-2.3796400554
  0
LINE
  5
222
100
AcDbEntity
  8
IMPORT_IGES
100
AcDbLine
 62
7
  6
CONTINUOUS
 10
-85.5534201183
 20
28.4899101714
 11
-85.5564757193
 21
28.6425197474
  0
LINE
  5
223
100
AcDbEntity
  8
IMPORT_IGES
100
AcDbLine
 62
7
  6
CONTINUOUS
 10
-85.0565518718
 20
28.6425197474
 11
-85.0534962707
 21
28.4899101714
  0
LINE
  5
224
100
AcDbEntity
  8
IMPORT_IGES
100
AcDbLine
 62
7
  6
CONTINUOUS
 10
-85.0377328255
 20
-0.9191772731
 11
-85.0403111536
 21
-0.7714441139
  0
LINE
  5
225
100
AcDbEntity
  8
IMPORT_IGES
100
AcDbLine
 62
7
  6
CONTINUOUS
 10
-85.5548562141
 20
-2.1337774075
 11
-85.5608378415
 21
-1.7504194418
  0
LINE
  5
226
100
AcDbEntity
  8
IMPORT_IGES
100
AcDbLine
 62
7
  6
CONTINUOUS
 10
-85.0609139939
 20
-1.7504194418
 11
-85.0549323665
 21
-2.1337774075
  0
LINE
  5
227
100
AcDbEntity
  8
IMPORT_IGES
100
AcDbLine
 62
7
  6
CONTINUOUS
 10
-85.5508122465
 20
28.3121048103
 11
-85.5534201183
 21
28.4899101714
  0
LINE
  5
228
100
AcDbEntity
  8
IMPORT_IGES
100
AcDbLine
 62
7
  6
CONTINUOUS
 10
-85.0534962707
 20
28.4899101714
 11
-85.0508883989
 21
28.3121048103
  0
LWPOLYLINE
  5
229
100
AcDbEntity
  8
IMPORT_IGES
100
AcDbPolyline
 62
7
  6
CONTINUOUS
 90
9
 70
0
 10
-82.1853001657
 20
0.0000000001
 10
-82.1844986194
 20
-0.0645533871
 10
-82.1825188626
 20
-0.1283647495
 10
-82.1794166377
 20
-0.1914340872
 10
-82.1752281947
 20
-0.2539335957
 10
-82.170135813
 20
-0.3156910794
 10
-82.1644430371
 20
-0.3761899514
 10
-82.1583256438
 20
-0.4353989993
 10
-82.1519603893
 20
-0.4933494355
  0
LINE
  5
22A
100
AcDbEntity
  8
IMPORT_IGES
100
AcDbLine
 62
7
  6
CONTINUOUS
 10
-85.0403111536
 20
-0.7714441139
 11
-85.0424035357
 21
-0.6002942423
  0
LINE
  5
22B
100
AcDbEntity
  8
IMPORT_IGES
100
AcDbLine
 62
7
  6
CONTINUOUS
 10
-85.5608378415
 20
-1.7504194418
 11
-85.5665681224
 21
-1.1981183999
  0
LINE
  5
22C
100
AcDbEntity
  8
IMPORT_IGES
100
AcDbLine
 62
7
  6
CONTINUOUS
 10
-85.0666442748
 20
-1.1981183999
 11
-85.0609139939
 21
-1.7504194418
  0
LINE
  5
22D
100
AcDbEntity
  8
IMPORT_IGES
100
AcDbLine
 62
7
  6
CONTINUOUS
 10
-85.5481372122
 20
28.0431540475
 11
-85.5508122465
 21
28.3121048103
  0
LINE
  5
22E
100
AcDbEntity
  8
IMPORT_IGES
100
AcDbLine
 62
7
  6
CONTINUOUS
 10
-85.0508883989
 20
28.3121048103
 11
-85.0482133646
 21
28.0431540475
  0
LINE
  5
22F
100
AcDbEntity
  8
IMPORT_IGES
100
AcDbLine
 62
7
  6
CONTINUOUS
 10
-85.0424035357
 20
-0.6002942423
 11
-85.0443296314
 21
-0.3446407373
  0
LINE
  5
230
100
AcDbEntity
  8
IMPORT_IGES
100
AcDbLine
 62
7
  6
CONTINUOUS
 10
-85.5665681224
 20
-1.1981183999
 11
-85.5705453985
 21
-0.4623235083
  0
LINE
  5
231
100
AcDbEntity
  8
IMPORT_IGES
100
AcDbLine
 62
7
  6
CONTINUOUS
 10
-85.0706215509
 20
-0.4623235083
 11
-85.0666442748
 21
-1.1981183999
  0
LINE
  5
232
100
AcDbEntity
  8
IMPORT_IGES
100
AcDbLine
 62
7
  6
CONTINUOUS
 10
-85.54623467
 20
27.671409975
 11
-85.5481372122
 21
28.0431540475
  0
LINE
  5
233
100
AcDbEntity
  8
IMPORT_IGES
100
AcDbLine
 62
7
  6
CONTINUOUS
 10
-85.0482133646
 20
28.0431540475
 11
-85.0463108224
 21
27.671409975
  0
LINE
  5
234
100
AcDbEntity
  8
IMPORT_IGES
100
AcDbLine
 62
7
  6
CONTINUOUS
 10
-85.0443296314
 20
-0.3446407373
 11
-85.0452123375
 21
-0.0
  0
LINE
  5
235
100
AcDbEntity
  8
IMPORT_IGES
100
AcDbLine
 62
7
  6
CONTINUOUS
 10
-85.6622414243
 20
-29.0291956753
 11
-85.6622414243
 21
29.0290432892
  0
LINE
  5
236
100
AcDbEntity
  8
IMPORT_IGES
100
AcDbLine
 62
7
  6
CONTINUOUS
 10
-85.54623467
 20
27.671409975
 11
-85.545917522
 21
2.6217089543
  0
LINE
  5
237
100
AcDbEntity
  8
IMPORT_IGES
100
AcDbLine
 62
7
  6
CONTINUOUS
 10
-85.1621652603
 20
-38.5351385871
 11
-85.1621652603
 21
-29.029043266
  0
LINE
  5
238
100
AcDbEntity
  8
IMPORT_IGES
100
AcDbLine
 62
7
  6
CONTINUOUS
 10
-85.1621652603
 20
29.0288908799
 11
-85.1621652603
 21
38.5351385871
  0
LINE
  5
239
100
AcDbEntity
  8
IMPORT_IGES
100
AcDbLine
 62
7
  6
CONTINUOUS
 10
-85.0463108224
 20
27.671409975
 11
-85.0459936744
 21
2.6217089543
  0
LINE
  5
23A
100
AcDbEntity
  8
IMPORT_IGES
100
AcDbLine
 62
7
  6
CONTINUOUS
 10
-84.9823780915
 20
-1.2
 11
-84.9823780915
 21
-4.25
  0
LINE
  5
23B
100
AcDbEntity
  8
IMPORT_IGES
100
AcDbLine
 62
7
  6
CONTINUOUS
 10
-84.9823780915
 20
1.2
 11
-84.9823780915
 21
4.25
  0
LINE
  5
23C
100
AcDbEntity
  8
IMPORT_IGES
100
AcDbLine
 62
250
  6
CONTINUOUS
 10
-84.9784301292
 20
38.351403456
 11
-84.9784301292
 21
4.25
  0
LINE
  5
23D
100
AcDbEntity
  8
IMPORT_IGES
100
AcDbLine
 62
250
  6
CONTINUOUS
 10
-84.9784301292
 20
-4.25
 11
-84.9784301292
 21
-38.351403456
  0
LINE
  5
23E
100
AcDbEntity
  8
IMPORT_IGES
100
AcDbLine
 62
7
  6
CONTINUOUS
 10
-84.1221652603
 20
-1.1368196651
 11
-84.1221652603
 21
-4.25
  0
LINE
  5
23F
100
AcDbEntity
  8
IMPORT_IGES
100
AcDbLine
 62
7
  6
CONTINUOUS
 10
-84.1221652603
 20
1.1368196651
 11
-84.1221652603
 21
4.25
  0
LINE
  5
240
100
AcDbEntity
  8
IMPORT_IGES
100
AcDbLine
 62
7
  6
CONTINUOUS
 10
-83.7908621712
 20
-4.0000812019
 11
-83.7908621712
 21
-1.0624758621
  0
LINE
  5
241
100
AcDbEntity
  8
IMPORT_IGES
100
AcDbLine
 62
7
  6
CONTINUOUS
 10
-83.7908621712
 20
1.0623134584
 11
-83.7908621712
 21
3.9999187981
  0
LINE
  5
242
100
AcDbEntity
  8
IMPORT_IGES
100
AcDbLine
 62
250
  6
CONTINUOUS
 10
-83.4786585865
 20
-39.8511749988
 11
-83.4786585865
 21
-4.25
  0
LINE
  5
243
100
AcDbEntity
  8
IMPORT_IGES
100
AcDbLine
 62
250
  6
CONTINUOUS
 10
-83.4786585865
 20
4.25
 11
-83.4786585865
 21
39.8511749988
  0
LINE
  5
244
100
AcDbEntity
  8
IMPORT_IGES
100
AcDbLine
 62
250
  6
CONTINUOUS
 10
-82.3221652603
 20
4.25
 11
-82.3221652603
 21
3.9999187981
  0
LINE
  5
245
100
AcDbEntity
  8
IMPORT_IGES
100
AcDbLine
 62
250
  6
CONTINUOUS
 10
-82.3221652603
 20
-4.0000812019
 11
-82.3221652603
 21
-4.25
  0
LINE
  5
246
100
AcDbEntity
  8
IMPORT_IGES
100
AcDbLine
 62
7
  6
CONTINUOUS
 10
-82.1221652603
 20
-4.25
 11
-82.1221652603
 21
-4.0000812019
  0
LINE
  5
247
100
AcDbEntity
  8
IMPORT_IGES
100
AcDbLine
 62
7
  6
CONTINUOUS
 10
-82.1221652603
 20
-1.0624758621
 11
-82.1221652603
 21
-0.8477957349
  0
LINE
  5
248
100
AcDbEntity
  8
IMPORT_IGES
100
AcDbLine
 62
7
  6
CONTINUOUS
 10
-82.1221652603
 20
0.8477957349
 11
-82.1221652603
 21
1.0623134584
  0
LINE
  5
249
100
AcDbEntity
  8
IMPORT_IGES
100
AcDbLine
 62
7
  6
CONTINUOUS
 10
-82.1221652603
 20
3.9999187981
 11
-82.1221652603
 21
4.25
  0
LINE
  5
24A
100
AcDbEntity
  8
IMPORT_IGES
100
AcDbLine
 62
7
  6
CONTINUOUS
 10
-81.9978408634
 20
-4.0000812019
 11
-81.9978408634
 21
3.9999187981
  0
LINE
  5
24B
100
AcDbEntity
  8
IMPORT_IGES
100
AcDbLine
 62
7
  6
CONTINUOUS
 10
-85.5705453985
 20
-0.4623235083
 11
-85.5711214537
 21
0.3074602921
  0
LINE
  5
24C
100
AcDbEntity
  8
IMPORT_IGES
100
AcDbLine
 62
7
  6
CONTINUOUS
 10
-85.0711976062
 20
0.3074602921
 11
-85.0706215509
 21
-0.4623235083
  0
LINE
  5
24D
100
AcDbEntity
  8
IMPORT_IGES
100
AcDbLine
 62
7
  6
CONTINUOUS
 10
-85.5467991113
 20
-27.8244242455
 11
-85.545917522
 21
-2.5217089543
  0
LINE
  5
24E
100
AcDbEntity
  8
IMPORT_IGES
100
AcDbLine
 62
7
  6
CONTINUOUS
 10
-85.0459936744
 20
-2.5217089543
 11
-85.0468752637
 21
-27.8244242455
  0
LINE
  5
24F
100
AcDbEntity
  8
IMPORT_IGES
100
AcDbLine
 62
7
  6
CONTINUOUS
 10
-85.0452123375
 20
-0.0
 11
-85.0443296729
 21
0.3446328412
  0
LINE
  5
250
100
AcDbEntity
  8
IMPORT_IGES
100
AcDbLine
 62
7
  6
CONTINUOUS
 10
-85.5711214537
 20
0.3074602921
 11
-85.5682591482
 21
1.0598300364
  0
LINE
  5
251
100
AcDbEntity
  8
IMPORT_IGES
100
AcDbLine
 62
7
  6
CONTINUOUS
 10
-85.0683353006
 20
1.0598300364
 11
-85.0711976062
 21
0.3074602921
  0
LINE
  5
252
100
AcDbEntity
  8
IMPORT_IGES
100
AcDbLine
 62
7
  6
CONTINUOUS
 10
-85.5493574415
 20
-28.1821223097
 11
-85.5467991113
 21
-27.8244242455
  0
LINE
  5
253
100
AcDbEntity
  8
IMPORT_IGES
100
AcDbLine
 62
7
  6
CONTINUOUS
 10
-85.0443296729
 20
0.3446328412
 11
-85.0424036417
 21
0.6002837213
  0
LINE
  5
254
100
AcDbEntity
  8
IMPORT_IGES
100
AcDbLine
 62
7
  6
CONTINUOUS
 10
-85.0468752637
 20
-27.8244242455
 11
-85.0494335939
 21
-28.1821223097
  0
LINE
  5
255
100
AcDbEntity
  8
IMPORT_IGES
100
AcDbLine
 62
7
  6
CONTINUOUS
 10
-85.5682591482
 20
1.0598300364
 11
-85.5633776392
 21
1.6380182073
  0
LINE
  5
256
100
AcDbEntity
  8
IMPORT_IGES
100
AcDbLine
 62
7
  6
CONTINUOUS
 10
-85.0634537916
 20
1.6380182073
 11
-85.0683353006
 21
1.0598300364
  0
LINE
  5
257
100
AcDbEntity
  8
IMPORT_IGES
100
AcDbLine
 62
7
  6
CONTINUOUS
 10
-85.0424036417
 20
0.6002837213
 11
-85.0403113051
 21
0.7714337711
  0
LINE
  5
258
100
AcDbEntity
  8
IMPORT_IGES
100
AcDbLine
 62
7
  6
CONTINUOUS
 10
-85.5525030452
 20
-28.4337447912
 11
-85.5493574415
 21
-28.1821223097
  0
LINE
  5
259
100
AcDbEntity
  8
IMPORT_IGES
100
AcDbLine
 62
7
  6
CONTINUOUS
 10
-85.0494335939
 20
-28.1821223097
 11
-85.0525791976
 21
-28.4337447912
  0
LINE
  5
25A
100
AcDbEntity
  8
IMPORT_IGES
100
AcDbLine
 62
7
  6
CONTINUOUS
 10
-85.5633776392
 20
1.6380182073
 11
-85.5579891494
 21
2.0495399702
  0
LINE
  5
25B
100
AcDbEntity
  8
IMPORT_IGES
100
AcDbLine
 62
7
  6
CONTINUOUS
 10
-85.0580653018
 20
2.0495399702
 11
-85.0634537916
 21
1.6380182073
  0
LINE
  5
25C
100
AcDbEntity
  8
IMPORT_IGES
100
AcDbLine
 62
7
  6
CONTINUOUS
 10
-85.5579891494
 20
2.0495399702
 11
-85.5531861303
 21
2.3201100943
  0
LINE
  5
25D
100
AcDbEntity
  8
IMPORT_IGES
100
AcDbLine
 62
7
  6
CONTINUOUS
 10
-85.0532622827
 20
2.3201100943
 11
-85.0580653018
 21
2.0495399702
  0
LINE
  5
25E
100
AcDbEntity
  8
IMPORT_IGES
100
AcDbLine
 62
7
  6
CONTINUOUS
 10
-85.0403113051
 20
0.7714337711
 11
-85.037733006
 21
0.9191685924
  0
LWPOLYLINE
  5
25F
100
AcDbEntity
  8
IMPORT_IGES
100
AcDbPolyline
 62
7
  6
CONTINUOUS
 90
6
 70
0
 10
-82.1221652603
 20
0.8477957349
 10
-82.1230538259
 20
0.8031502988
 10
-82.1255211982
 20
0.7564646842
 10
-82.1292813356
 20
0.7077388912
 10
-82.1340759942
 20
0.656847873
 10
-82.1396458476
 20
0.6039166764
  0
LINE
  5
260
100
AcDbEntity
  8
IMPORT_IGES
100
AcDbLine
 62
7
  6
CONTINUOUS
 10
-85.5554166202
 20
-28.5950739421
 11
-85.5525030452
 21
-28.4337447912
  0
LINE
  5
261
100
AcDbEntity
  8
IMPORT_IGES
100
AcDbLine
 62
7
  6
CONTINUOUS
 10
-85.0525791976
 20
-28.4337447912
 11
-85.0554927726
 21
-28.5950739421
  0
LINE
  5
262
100
AcDbEntity
  8
IMPORT_IGES
100
AcDbLine
 62
7
  6
CONTINUOUS
 10
-85.5575843854
 20
-28.6873877536
 11
-85.5554166202
 21
-28.5950739421
  0
LINE
  5
263
100
AcDbEntity
  8
IMPORT_IGES
100
AcDbLine
 62
7
  6
CONTINUOUS
 10
-85.0554927726
 20
-28.5950739421
 11
-85.0576605378
 21
-28.6873877536
  0
LINE
  5
264
100
AcDbEntity
  8
IMPORT_IGES
100
AcDbLine
 62
7
  6
CONTINUOUS
 10
-85.037733006
 20
0.9191685924
 11
-85.0357804995
 21
1.0024579564
  0
LWPOLYLINE
  5
265
100
AcDbEntity
  8
IMPORT_IGES
100
AcDbPolyline
 62
7
  6
CONTINUOUS
 90
3
 70
0
 10
-85.5531861303
 20
2.3201100943
 10
-85.5478235286
 20
2.5528373298
 10
-85.545917522
 20
2.6217089543
  0
LWPOLYLINE
  5
266
100
AcDbEntity
  8
IMPORT_IGES
100
AcDbPolyline
 62
7
  6
CONTINUOUS
 90
3
 70
0
 10
-85.0459936744
 20
2.6217089543
 10
-85.047899681
 20
2.5528373298
 10
-85.0532622827
 20
2.3201100943
  0
LWPOLYLINE
  5
267
100
AcDbEntity
  8
IMPORT_IGES
100
AcDbPolyline
 62
7
  6
CONTINUOUS
 90
11
 70
0
 10
-85.0576605378
 20
-28.6873877536
 10
-85.0599868691
 20
-28.7665450085
 10
-85.0611996346
 20
-28.8008009135
 10
-85.0624452944
 20
-28.8315253714
 10
-85.0637141822
 20
-28.8584642118
 10
-85.0650064951
 20
-28.8815903021
 10
-85.0663220361
 20
-28.9009307748
 10
-85.0676505476
 20
-28.9163128572
 10
-85.0689886106
 20
-28.9276789583
 10
-85.0703396441
 20
-28.935086669
 10
-85.0717036482
 20
-28.9385359894
  0
LWPOLYLINE
  5
268
100
AcDbEntity
  8
IMPORT_IGES
100
AcDbPolyline
 62
7
  6
CONTINUOUS
 90
10
 70
0
 10
-85.0357804995
 20
1.0024579564
 10
-85.0336756835
 20
1.0721311558
 10
-85.0325698251
 20
1.1017065665
 10
-85.0314394341
 20
1.1274824125
 10
-85.03028426
 20
1.149422098
 10
-85.0291045534
 20
1.167562219
 10
-85.0279120458
 20
1.1817094065
 10
-85.026710648
 20
1.1917992044
 10
-85.0254964493
 20
1.1978960689
 10
-85.0242694498
 20
1.2
  0
LWPOLYLINE
  5
269
100
AcDbEntity
  8
IMPORT_IGES
100
AcDbPolyline
 62
7
  6
CONTINUOUS
 90
8
 70
0
 10
-82.1584068241
 20
0.4351009766
 10
-82.1645264222
 20
0.3759166504
 10
-82.1702155993
 20
0.3154672767
 10
-82.1752986104
 20
0.2537758284
 10
-82.1794738375
 20
0.1913341883
 10
-82.1825600054
 20
0.1283063173
 10
-82.1845205411
 20
0.0645282546
 10
-82.1853001657
 20
0.0000000001
  0
LINE
  5
26A
100
AcDbEntity
  8
IMPORT_IGES
100
AcDbLine
 62
7
  6
CONTINUOUS
 10
-82.1396458476
 20
0.6039166764
 11
-82.1584068241
 21
0.4351009766
  0
LWPOLYLINE
  5
26B
100
AcDbEntity
  8
IMPORT_IGES
100
AcDbPolyline
 62
7
  6
CONTINUOUS
 90
7
 70
0
 10
-82.1519603893
 20
-0.4933494355
 10
-82.1395963177
 20
-0.6041860178
 10
-82.1340416124
 20
-0.6570721638
 10
-82.1292605283
 20
-0.7079126213
 10
-82.125511166
 20
-0.7565860144
 10
-82.1230511152
 20
-0.8032137189
 10
-82.1221652603
 20
-0.8477957349
  0
LINE
  5
26C
100
AcDbEntity
  8
IMPORT_IGES
100
AcDbLine
 62
7
  6
CONTINUOUS
 10
-80.4978473294
 20
3.9999187981
 11
-80.4978473294
 21
-4.0000812019
  0
LINE
  5
26D
100
AcDbEntity
  8
IMPORT_IGES
100
AcDbLine
 62
7
  6
CONTINUOUS
 10
-80.210991309
 20
3.9999187981
 11
-80.210991309
 21
1.1535704572
  0
LINE
  5
26E
100
AcDbEntity
  8
IMPORT_IGES
100
AcDbLine
 62
7
  6
CONTINUOUS
 10
-80.210991309
 20
-1.153732861
 11
-80.210991309
 21
-4.0000812019
  0
LINE
  5
26F
100
AcDbEntity
  8
IMPORT_IGES
100
AcDbLine
 62
7
  6
CONTINUOUS
 10
-77.0022414243
 20
-4.25
 11
-77.0022414243
 21
4.25
  0
LWPOLYLINE
  5
270
100
AcDbEntity
  8
IMPORT_IGES
100
AcDbPolyline
 62
7
  6
CONTINUOUS
 90
11
 70
0
 10
-85.5716232671
 20
-28.9385222823
 10
-85.5702611424
 20
-28.935079054
 10
-85.5689115184
 20
-28.9276759123
 10
-85.5675743952
 20
-28.9163128572
 10
-85.5662461969
 20
-28.9009317902
 10
-85.5649304993
 20
-28.8815908097
 10
-85.5636380298
 20
-28.8584642118
 10
-85.562369142
 20
-28.8315253714
 10
-85.5611234822
 20
-28.8008009135
 10
-85.5599107167
 20
-28.7665450085
 10
-85.5575843854
 20
-28.6873877536
  0
LWPOLYLINE
  5
271
100
AcDbEntity
  8
IMPORT_IGES
100
AcDbPolyline
 62
7
  6
CONTINUOUS
 90
5
 70
0
 10
-85.0242694498
 20
-1.2
 10
-85.025496415
 20
-1.197896231
 10
-85.0267105828
 20
-1.1917996794
 10
-85.0279119531
 20
-1.1817103452
 10
-85.0291044364
 20
-1.1675638022
  0
LINE
  5
272
100
AcDbEntity
  8
IMPORT_IGES
100
AcDbLine
 62
7
  6
CONTINUOUS
 10
-67.3916128833
 20
-7.0428021464
 11
-67.3916128833
 21
-4.2255481469
  0
LINE
  5
273
100
AcDbEntity
  8
IMPORT_IGES
100
AcDbLine
 62
7
  6
CONTINUOUS
 10
-65.4170873724
 20
-4.2255481469
 11
-65.4170873724
 21
-7.0428021464
  0
LWPOLYLINE
  5
274
100
AcDbEntity
  8
IMPORT_IGES
100
AcDbPolyline
 62
7
  6
CONTINUOUS
 90
9
 70
0
 10
-85.0717036052
 20
28.9385200955
 10
-85.0703391232
 20
28.9350933095
 10
-85.0689876469
 20
28.9276930828
 10
-85.0676491762
 20
28.9163194154
 10
-85.0663202948
 20
28.9009095978
 10
-85.0650044191
 20
28.8815263395
 10
-85.0637117978
 20
28.8583577687
 10
-85.0624426265
 20
28.8313818279
 10
-85.0611967096
 20
28.8006205746
  0
LINE
  5
275
100
AcDbEntity
  8
IMPORT_IGES
100
AcDbLine
 62
7
  6
CONTINUOUS
 10
-85.6622414243
 20
-29.0291956753
 11
-85.5716232671
 21
-28.9385222823
  0
LINE
  5
276
100
AcDbEntity
  8
IMPORT_IGES
100
AcDbLine
 62
7
  6
CONTINUOUS
 10
-85.0717036482
 20
-28.9385359894
 11
-85.1621652603
 21
-29.029043266
  0
LWPOLYLINE
  5
277
100
AcDbEntity
  8
IMPORT_IGES
100
AcDbPolyline
 62
250
  6
CONTINUOUS
 90
31
 70
0
 10
83.4459742996
 20
-39.8511749988
 10
83.5244509553
 20
-39.8490965142
 10
83.6027126176
 20
-39.8429145587
 10
83.6805448601
 20
-39.8326460668
 10
83.7577344344
 20
-39.8183191687
 10
83.8340698493
 20
-39.7999731153
 10
83.9093419503
 20
-39.7776581704
 10
83.9833445011
 20
-39.7514354716
 10
84.0558747436
 20
-39.721376863
 10
84.1267339486
 20
-39.6875647016
 10
84.1957279705
 20
-39.6500916264
 10
84.2626677736
 20
-39.6090603075
 10
84.3273699461
 20
-39.5645831671
 10
84.3896572118
 20
-39.5167820662
 10
84.4493589109
 20
-39.4657879729
 10
84.506311464
 20
-39.411740608
 10
84.5603588282
 20
-39.3547880544
 10
84.6113529206
 20
-39.2950863548
 10
84.6591540205
 20
-39.2327990889
 10
84.7036311599
 20
-39.1680969164
 10
84.7446624778
 20
-39.1011571134
 10
84.7821355518
 20
-39.032163092
 10
84.8159477121
 20
-38.9613038875
 10
84.8460063196
 20
-38.8887736458
 10
84.8722290174
 20
-38.8147710961
 10
84.8945439613
 20
-38.7394989964
 10
84.9128900139
 20
-38.663163583
 10
84.9272169113
 20
-38.5859740103
 10
84.9374854027
 20
-38.5081417697
 10
84.9436673578
 20
-38.4298801095
 10
84.9457458423
 20
-38.351403456
  0
LINE
  5
278
100
AcDbEntity
  8
IMPORT_IGES
100
AcDbLine
 62
7
  6
CONTINUOUS
 10
-83.6623937175
 20
-40.0349101299
 11
83.6297094306
 21
-40.0349101299
  0
LINE
  5
279
100
AcDbEntity
  8
IMPORT_IGES
100
AcDbLine
 62
250
  6
CONTINUOUS
 10
-83.4786585865
 20
-39.8511749988
 11
83.4459742996
 21
-39.8511749988
  0
LINE
  5
27A
100
AcDbEntity
  8
IMPORT_IGES
100
AcDbLine
 62
7
  6
CONTINUOUS
 10
85.1054665351
 20
-38.7997003818
 11
85.1118292553
 21
-38.7997003818
  0
LINE
  5
27B
100
AcDbEntity
  8
IMPORT_IGES
100
AcDbLine
 62
250
  6
CONTINUOUS
 10
84.9457458423
 20
-38.351403456
 11
-84.9784301292
 21
-38.351403456
  0
LINE
  5
27C
100
AcDbEntity
  8
IMPORT_IGES
100
AcDbLine
 62
7
  6
CONTINUOUS
 10
-12.0363421434
 20
-38.0
 11
2.9636578566
 21
-38.0
  0
LINE
  5
27D
100
AcDbEntity
  8
IMPORT_IGES
100
AcDbLine
 62
7
  6
CONTINUOUS
 10
82.4636578566
 20
-37.4996191799
 11
78.1945708435
 21
-37.4996191799
  0
LINE
  5
27E
100
AcDbEntity
  8
IMPORT_IGES
100
AcDbLine
 62
7
  6
CONTINUOUS
 10
78.1945708435
 20
-37.3704516994
 11
82.465403363
 21
-37.3704516994
  0
LINE
  5
27F
100
AcDbEntity
  8
IMPORT_IGES
100
AcDbLine
 62
7
  6
CONTINUOUS
 10
2.9636578566
 20
-37.0
 11
-12.0363421434
 21
-37.0
  0
LINE
  5
280
100
AcDbEntity
  8
IMPORT_IGES
100
AcDbLine
 62
7
  6
CONTINUOUS
 10
-85.1621652603
 20
29.0288908799
 11
-85.0717036052
 21
28.9385200955
  0
LINE
  5
281
100
AcDbEntity
  8
IMPORT_IGES
100
AcDbLine
 62
7
  6
CONTINUOUS
 10
-85.6622414243
 20
29.0290432892
 11
-85.5716274987
 21
28.9383741304
  0
LINE
  5
282
100
AcDbEntity
  8
IMPORT_IGES
100
AcDbLine
 62
250
  6
CONTINUOUS
 10
-85.1621652603
 20
-38.5351385871
 11
-84.9784301292
 21
-38.351403456
  0
LINE
  5
283
100
AcDbEntity
  8
IMPORT_IGES
100
AcDbLine
 62
250
  6
CONTINUOUS
 10
-83.4786585865
 20
-39.8511749988
 11
-83.6623937175
 21
-40.0349101299
  0
LINE
  5
284
100
AcDbEntity
  8
IMPORT_IGES
100
AcDbLine
 62
7
  6
CONTINUOUS
 10
78.1945708435
 20
-36.0000812019
 11
82.4636578566
 21
-36.0000812019
  0
LINE
  5
285
100
AcDbEntity
  8
IMPORT_IGES
100
AcDbLine
 62
7
  6
CONTINUOUS
 10
79.6945708435
 20
-35.4996191799
 11
81.6945708435
 21
-35.4996191799
  0
LINE
  5
286
100
AcDbEntity
  8
IMPORT_IGES
100
AcDbLine
 62
7
  6
CONTINUOUS
 10
-75.1619401655
 20
-35.0
 11
-73.6619401655
 21
-35.0
  0
LINE
  5
287
100
AcDbEntity
  8
IMPORT_IGES
100
AcDbLine
 62
7
  6
CONTINUOUS
 10
-11.5363421434
 20
-35.0
 11
2.4636578566
 21
-35.0
  0
LINE
  5
288
100
AcDbEntity
  8
IMPORT_IGES
100
AcDbLine
 62
7
  6
CONTINUOUS
 10
58.2292558786
 20
-35.0
 11
59.7292558786
 21
-35.0
  0
LINE
  5
289
100
AcDbEntity
  8
IMPORT_IGES
100
AcDbLine
 62
7
  6
CONTINUOUS
 10
-75.1619401655
 20
-34.0
 11
-73.6619401655
 21
-34.0
  0
LINE
  5
28A
100
AcDbEntity
  8
IMPORT_IGES
100
AcDbLine
 62
7
  6
CONTINUOUS
 10
58.2292558786
 20
-34.0
 11
59.7292558786
 21
-34.0
  0
LINE
  5
28B
100
AcDbEntity
  8
IMPORT_IGES
100
AcDbLine
 62
7
  6
CONTINUOUS
 10
78.1945708435
 20
-33.4996191799
 11
82.4636578566
 21
-33.4996191799
  0
LINE
  5
28C
100
AcDbEntity
  8
IMPORT_IGES
100
AcDbLine
 62
250
  6
CONTINUOUS
 10
-84.9784301292
 20
38.351403456
 11
-85.1621652603
 21
38.5351385871
  0
LINE
  5
28D
100
AcDbEntity
  8
IMPORT_IGES
100
AcDbLine
 62
250
  6
CONTINUOUS
 10
-83.6623937175
 20
40.0349101299
 11
-83.4786585865
 21
39.8511749988
  0
LINE
  5
28E
100
AcDbEntity
  8
IMPORT_IGES
100
AcDbLine
 62
7
  6
CONTINUOUS
 10
-85.6622414243
 20
-29.0291956753
 11
-85.1621652603
 21
-29.029043266
  0
LINE
  5
28F
100
AcDbEntity
  8
IMPORT_IGES
100
AcDbLine
 62
7
  6
CONTINUOUS
 10
59.7292558786
 20
-30.0
 11
58.2292558786
 21
-30.0
  0
LINE
  5
290
100
AcDbEntity
  8
IMPORT_IGES
100
AcDbLine
 62
7
  6
CONTINUOUS
 10
-73.6619401655
 20
-30.0
 11
-75.1619401655
 21
-30.0
  0
LINE
  5
291
100
AcDbEntity
  8
IMPORT_IGES
100
AcDbLine
 62
7
  6
CONTINUOUS
 10
59.7292558786
 20
-29.0
 11
58.2292558786
 21
-29.0
  0
LINE
  5
292
100
AcDbEntity
  8
IMPORT_IGES
100
AcDbLine
 62
7
  6
CONTINUOUS
 10
-73.6619401655
 20
-29.0
 11
-75.1619401655
 21
-29.0
  0
LINE
  5
293
100
AcDbEntity
  8
IMPORT_IGES
100
AcDbLine
 62
7
  6
CONTINUOUS
 10
85.6295571374
 20
-28.9473663371
 11
85.6622414243
 21
-28.9473663371
  0
LINE
  5
294
100
AcDbEntity
  8
IMPORT_IGES
100
AcDbLine
 62
250
  6
CONTINUOUS
 10
-85.5716274987
 20
-28.9385265165
 11
-85.0717036511
 21
-28.9385265165
  0
LINE
  5
295
100
AcDbEntity
  8
IMPORT_IGES
100
AcDbLine
 62
7
  6
CONTINUOUS
 10
85.0390193642
 20
-28.9385265165
 11
85.5389432118
 21
-28.9385265165
  0
LINE
  5
296
100
AcDbEntity
  8
IMPORT_IGES
100
AcDbLine
 62
7
  6
CONTINUOUS
 10
4.9636578566
 20
-27.75
 11
2.9636578566
 21
-27.75
  0
LINE
  5
297
100
AcDbEntity
  8
IMPORT_IGES
100
AcDbLine
 62
7
  6
CONTINUOUS
 10
-12.0363421434
 20
-27.75
 11
-14.0363421434
 21
-27.75
  0
LINE
  5
298
100
AcDbEntity
  8
IMPORT_IGES
100
AcDbLine
 62
250
  6
CONTINUOUS
 10
85.5132332351
 20
-27.4387549737
 11
85.0133093875
 21
-27.4387549737
  0
LINE
  5
299
100
AcDbEntity
  8
IMPORT_IGES
100
AcDbLine
 62
250
  6
CONTINUOUS
 10
-85.0459936744
 20
-27.4387549737
 11
-85.545917522
 21
-27.4387549737
  0
LINE
  5
29A
100
AcDbEntity
  8
IMPORT_IGES
100
AcDbLine
 62
7
  6
CONTINUOUS
 10
-14.0363421434
 20
-26.25
 11
-12.0363421434
 21
-26.25
  0
LINE
  5
29B
100
AcDbEntity
  8
IMPORT_IGES
100
AcDbLine
 62
7
  6
CONTINUOUS
 10
2.9636578566
 20
-26.25
 11
4.9636578566
 21
-26.25
  0
LINE
  5
29C
100
AcDbEntity
  8
IMPORT_IGES
100
AcDbLine
 62
7
  6
CONTINUOUS
 10
3.0182944711
 20
-25.3315063762
 11
4.7682869275
 21
-25.3315063762
  0
LINE
  5
29D
100
AcDbEntity
  8
IMPORT_IGES
100
AcDbLine
 62
7
  6
CONTINUOUS
 10
3.0623033228
 20
-25.265182181
 11
4.8122957792
 21
-25.265182181
  0
LINE
  5
29E
100
AcDbEntity
  8
IMPORT_IGES
100
AcDbLine
 62
7
  6
CONTINUOUS
 10
85.6295571374
 20
-29.0291956753
 11
85.1294809734
 21
-29.029043266
  0
LINE
  5
29F
100
AcDbEntity
  8
IMPORT_IGES
100
AcDbLine
 62
7
  6
CONTINUOUS
 10
4.8122957792
 20
-23.8978305714
 11
3.0623033228
 21
-23.8978305714
  0
LINE
  5
2A0
100
AcDbEntity
  8
IMPORT_IGES
100
AcDbLine
 62
7
  6
CONTINUOUS
 10
4.7682869275
 20
-23.8315063762
 11
3.0182944711
 21
-23.8315063762
  0
LINE
  5
2A1
100
AcDbEntity
  8
IMPORT_IGES
100
AcDbLine
 62
7
  6
CONTINUOUS
 10
4.9636578566
 20
-22.1478305714
 11
4.8122957792
 21
-22.1478305714
  0
LINE
  5
2A2
100
AcDbEntity
  8
IMPORT_IGES
100
AcDbLine
 62
7
  6
CONTINUOUS
 10
4.9636578566
 20
-22.0815063762
 11
4.7682869275
 21
-22.0815063762
  0
LINE
  5
2A3
100
AcDbEntity
  8
IMPORT_IGES
100
AcDbLine
 62
7
  6
CONTINUOUS
 10
2.4636578566
 20
-19.0
 11
-11.5363421434
 21
-19.0
  0
LINE
  5
2A4
100
AcDbEntity
  8
IMPORT_IGES
100
AcDbLine
 62
7
  6
CONTINUOUS
 10
-15.0363421434
 20
-19.0
 11
-15.0363421434
 21
-35.0
  0
LINE
  5
2A5
100
AcDbEntity
  8
IMPORT_IGES
100
AcDbLine
 62
7
  6
CONTINUOUS
 10
-14.0363421434
 20
-35.0
 11
-14.0363421434
 21
-19.0
  0
LINE
  5
2A6
100
AcDbEntity
  8
IMPORT_IGES
100
AcDbLine
 62
7
  6
CONTINUOUS
 10
-12.0363421434
 20
-19.5
 11
-12.0363421434
 21
-34.5
  0
LINE
  5
2A7
100
AcDbEntity
  8
IMPORT_IGES
100
AcDbLine
 62
7
  6
CONTINUOUS
 10
-12.0363421434
 20
-17.0
 11
2.9636578566
 21
-17.0
  0
LINE
  5
2A8
100
AcDbEntity
  8
IMPORT_IGES
100
AcDbLine
 62
7
  6
CONTINUOUS
 10
2.9636578566
 20
-16.0
 11
-12.0363421434
 21
-16.0
  0
LINE
  5
2A9
100
AcDbEntity
  8
IMPORT_IGES
100
AcDbLine
 62
7
  6
CONTINUOUS
 10
-10.0363421434
 20
-37.0
 11
-10.0363421434
 21
-35.0
  0
LINE
  5
2AA
100
AcDbEntity
  8
IMPORT_IGES
100
AcDbLine
 62
7
  6
CONTINUOUS
 10
-8.5363421434
 20
-35.0
 11
-8.5363421434
 21
-37.0
  0
LINE
  5
2AB
100
AcDbEntity
  8
IMPORT_IGES
100
AcDbLine
 62
7
  6
CONTINUOUS
 10
-65.4170873724
 20
-7.0428021464
 11
-67.3916128833
 21
-7.0428021464
  0
LINE
  5
2AC
100
AcDbEntity
  8
IMPORT_IGES
100
AcDbLine
 62
7
  6
CONTINUOUS
 10
-61.420508224
 20
-6.925098209
 11
-63.4214398662
 21
-6.925098209
  0
LINE
  5
2AD
100
AcDbEntity
  8
IMPORT_IGES
100
AcDbLine
 62
7
  6
CONTINUOUS
 10
-69.3872603895
 20
-6.925098209
 11
-71.3881920317
 21
-6.925098209
  0
LINE
  5
2AE
100
AcDbEntity
  8
IMPORT_IGES
100
AcDbLine
 62
7
  6
CONTINUOUS
 10
3.0182944711
 20
-23.8315063762
 11
3.0623033228
 21
-23.8978305714
  0
LINE
  5
2AF
100
AcDbEntity
  8
IMPORT_IGES
100
AcDbLine
 62
7
  6
CONTINUOUS
 10
4.7682869275
 20
-23.8315063762
 11
4.8122957792
 21
-23.8978305714
  0
LINE
  5
2B0
100
AcDbEntity
  8
IMPORT_IGES
100
AcDbLine
 62
7
  6
CONTINUOUS
 10
4.7682869275
 20
-22.0815063762
 11
4.8122957792
 21
-22.1478305714
  0
LINE
  5
2B1
100
AcDbEntity
  8
IMPORT_IGES
100
AcDbLine
 62
7
  6
CONTINUOUS
 10
-5.2863421434
 20
-19.0
 11
-5.2863421434
 21
-17.0
  0
LINE
  5
2B2
100
AcDbEntity
  8
IMPORT_IGES
100
AcDbLine
 62
7
  6
CONTINUOUS
 10
-3.7863421434
 20
-17.0
 11
-3.7863421434
 21
-19.0
  0
LINE
  5
2B3
100
AcDbEntity
  8
IMPORT_IGES
100
AcDbLine
 62
7
  6
CONTINUOUS
 10
-0.5363421434
 20
-37.0
 11
-0.5363421434
 21
-35.0
  0
LINE
  5
2B4
100
AcDbEntity
  8
IMPORT_IGES
100
AcDbLine
 62
7
  6
CONTINUOUS
 10
-84.9823780915
 20
-4.25
 11
-77.0022414243
 21
-4.25
  0
LINE
  5
2B5
100
AcDbEntity
  8
IMPORT_IGES
100
AcDbLine
 62
7
  6
CONTINUOUS
 10
-80.210991309
 20
-4.0000812019
 11
-80.4928655096
 21
-4.0000812019
  0
LINE
  5
2B6
100
AcDbEntity
  8
IMPORT_IGES
100
AcDbLine
 62
7
  6
CONTINUOUS
 10
-80.4978473294
 20
-4.0000812019
 11
-83.7908621712
 21
-4.0000812019
  0
LINE
  5
2B7
100
AcDbEntity
  8
IMPORT_IGES
100
AcDbLine
 62
7
  6
CONTINUOUS
 10
-85.545917522
 20
-2.5217089543
 11
-85.0459936744
 21
-2.5217089543
  0
LINE
  5
2B8
100
AcDbEntity
  8
IMPORT_IGES
100
AcDbLine
 62
7
  6
CONTINUOUS
 10
-84.1221652603
 20
-1.2
 11
-85.0242694498
 21
-1.2
  0
LINE
  5
2B9
100
AcDbEntity
  8
IMPORT_IGES
100
AcDbLine
 62
7
  6
CONTINUOUS
 10
-83.7908621712
 20
-1.0624758621
 11
-81.9978408634
 21
-1.0624758621
  0
LINE
  5
2BA
100
AcDbEntity
  8
IMPORT_IGES
100
AcDbLine
 62
7
  6
CONTINUOUS
 10
-80.4601722111
 20
-1.142554205
 11
-80.210991309
 21
-1.153732861
  0
LINE
  5
2BB
100
AcDbEntity
  8
IMPORT_IGES
100
AcDbLine
 62
7
  6
CONTINUOUS
 10
-82.1221652603
 20
-1.0540890838
 11
-81.9978408634
 21
-1.0606238648
  0
LINE
  5
2BC
100
AcDbEntity
  8
IMPORT_IGES
100
AcDbLine
 62
7
  6
CONTINUOUS
 10
0.9636578566
 20
-35.0
 11
0.9636578566
 21
-37.0
  0
LINE
  5
2BD
100
AcDbEntity
  8
IMPORT_IGES
100
AcDbLine
 62
7
  6
CONTINUOUS
 10
2.9636578566
 20
-34.5
 11
2.9636578566
 21
-19.5
  0
LINE
  5
2BE
100
AcDbEntity
  8
IMPORT_IGES
100
AcDbLine
 62
7
  6
CONTINUOUS
 10
3.0182944711
 20
-23.8315063762
 11
3.0182944711
 21
-25.3315063762
  0
LINE
  5
2BF
100
AcDbEntity
  8
IMPORT_IGES
100
AcDbLine
 62
7
  6
CONTINUOUS
 10
3.0623033228
 20
-23.8978305714
 11
3.0623033228
 21
-25.265182181
  0
LINE
  5
2C0
100
AcDbEntity
  8
IMPORT_IGES
100
AcDbLine
 62
7
  6
CONTINUOUS
 10
4.7682869275
 20
-22.0815063762
 11
4.7682869275
 21
-23.8315063762
  0
LINE
  5
2C1
100
AcDbEntity
  8
IMPORT_IGES
100
AcDbLine
 62
7
  6
CONTINUOUS
 10
4.7682869275
 20
-25.3315063762
 11
4.7682869275
 21
-26.25
  0
LINE
  5
2C2
100
AcDbEntity
  8
IMPORT_IGES
100
AcDbLine
 62
7
  6
CONTINUOUS
 10
4.8122957792
 20
-22.1478305714
 11
4.8122957792
 21
-23.8978305714
  0
LINE
  5
2C3
100
AcDbEntity
  8
IMPORT_IGES
100
AcDbLine
 62
7
  6
CONTINUOUS
 10
4.8122957792
 20
-25.265182181
 11
4.8122957792
 21
-26.25
  0
LINE
  5
2C4
100
AcDbEntity
  8
IMPORT_IGES
100
AcDbLine
 62
7
  6
CONTINUOUS
 10
4.9636578566
 20
-19.0
 11
4.9636578566
 21
-35.0
  0
LINE
  5
2C5
100
AcDbEntity
  8
IMPORT_IGES
100
AcDbLine
 62
7
  6
CONTINUOUS
 10
5.9636578566
 20
-35.0
 11
5.9636578566
 21
-19.0
  0
LINE
  5
2C6
100
AcDbEntity
  8
IMPORT_IGES
100
AcDbLine
 62
7
  6
CONTINUOUS
 10
-82.1221652603
 20
1.05392668
 11
-81.9978408634
 21
1.0604614611
  0
LINE
  5
2C7
100
AcDbEntity
  8
IMPORT_IGES
100
AcDbLine
 62
7
  6
CONTINUOUS
 10
-80.210991309
 20
1.1535704572
 11
-80.4601722111
 21
1.1423918012
  0
LINE
  5
2C8
100
AcDbEntity
  8
IMPORT_IGES
100
AcDbLine
 62
7
  6
CONTINUOUS
 10
-81.9978408634
 20
1.0623134584
 11
-83.7908621712
 21
1.0623134584
  0
LINE
  5
2C9
100
AcDbEntity
  8
IMPORT_IGES
100
AcDbLine
 62
7
  6
CONTINUOUS
 10
-84.1221652603
 20
1.2
 11
-85.0242694498
 21
1.2
  0
LINE
  5
2CA
100
AcDbEntity
  8
IMPORT_IGES
100
AcDbLine
 62
7
  6
CONTINUOUS
 10
-61.420508224
 20
2.1752744603
 11
-63.4214398662
 21
2.1752744603
  0
LINE
  5
2CB
100
AcDbEntity
  8
IMPORT_IGES
100
AcDbLine
 62
7
  6
CONTINUOUS
 10
-69.3872603895
 20
2.1752744603
 11
-71.3881920317
 21
2.1752744603
  0
LINE
  5
2CC
100
AcDbEntity
  8
IMPORT_IGES
100
AcDbLine
 62
7
  6
CONTINUOUS
 10
-85.0459936744
 20
2.6217089543
 11
-85.545917522
 21
2.6217089543
  0
LINE
  5
2CD
100
AcDbEntity
  8
IMPORT_IGES
100
AcDbLine
 62
7
  6
CONTINUOUS
 10
-83.7908621712
 20
3.9999187981
 11
-80.4978473294
 21
3.9999187981
  0
LINE
  5
2CE
100
AcDbEntity
  8
IMPORT_IGES
100
AcDbLine
 62
7
  6
CONTINUOUS
 10
-80.4928655096
 20
3.9999187981
 11
-80.210991309
 21
3.9999187981
  0
LINE
  5
2CF
100
AcDbEntity
  8
IMPORT_IGES
100
AcDbLine
 62
7
  6
CONTINUOUS
 10
-77.0022414243
 20
4.25
 11
-84.9823780915
 21
4.25
  0
LINE
  5
2D0
100
AcDbEntity
  8
IMPORT_IGES
100
AcDbLine
 62
7
  6
CONTINUOUS
 10
3.0182944711
 20
-25.3315063762
 11
3.0623033228
 21
-25.265182181
  0
LINE
  5
2D1
100
AcDbEntity
  8
IMPORT_IGES
100
AcDbLine
 62
7
  6
CONTINUOUS
 10
4.7682869275
 20
-25.3315063762
 11
4.8122957792
 21
-25.265182181
  0
LINE
  5
2D2
100
AcDbEntity
  8
IMPORT_IGES
100
AcDbLine
 62
7
  6
CONTINUOUS
 10
-51.6619401655
 20
24.6709123734
 11
-64.7900755038
 21
24.6709123734
  0
LINE
  5
2D3
100
AcDbEntity
  8
IMPORT_IGES
100
AcDbLine
 62
250
  6
CONTINUOUS
 10
83.4459742996
 20
39.8511749988
 11
83.6297094306
 21
40.0349101299
  0
LINE
  5
2D4
100
AcDbEntity
  8
IMPORT_IGES
100
AcDbLine
 62
7
  6
CONTINUOUS
 10
85.1294809734
 20
29.0288908799
 11
85.6295571374
 21
29.0290432892
  0
LINE
  5
2D5
100
AcDbEntity
  8
IMPORT_IGES
100
AcDbLine
 62
7
  6
CONTINUOUS
 10
-68.44829194
 20
26.2638946015
 11
-48.0038766807
 21
26.2638946015
  0
LINE
  5
2D6
100
AcDbEntity
  8
IMPORT_IGES
100
AcDbLine
 62
7
  6
CONTINUOUS
 10
-68.4563437241
 20
26.2726221339
 11
-47.9956847193
 21
26.2726221339
  0
LINE
  5
2D7
100
AcDbEntity
  8
IMPORT_IGES
100
AcDbLine
 62
250
  6
CONTINUOUS
 10
-85.545917522
 20
27.438618215
 11
-85.0459936744
 21
27.438618215
  0
LINE
  5
2D8
100
AcDbEntity
  8
IMPORT_IGES
100
AcDbLine
 62
250
  6
CONTINUOUS
 10
85.0133093875
 20
27.438618215
 11
85.5132332351
 21
27.438618215
  0
LINE
  5
2D9
100
AcDbEntity
  8
IMPORT_IGES
100
AcDbLine
 62
250
  6
CONTINUOUS
 10
85.0390193642
 20
28.9383741304
 11
85.5389432118
 21
28.9383741304
  0
LINE
  5
2DA
100
AcDbEntity
  8
IMPORT_IGES
100
AcDbLine
 62
7
  6
CONTINUOUS
 10
-85.0717036511
 20
28.9383741304
 11
-85.5716274987
 21
28.9383741304
  0
LINE
  5
2DB
100
AcDbEntity
  8
IMPORT_IGES
100
AcDbLine
 62
7
  6
CONTINUOUS
 10
85.6295571374
 20
28.9472039333
 11
85.6622414243
 21
28.9472039333
  0
LINE
  5
2DC
100
AcDbEntity
  8
IMPORT_IGES
100
AcDbLine
 62
7
  6
CONTINUOUS
 10
59.7292558786
 20
29.0
 11
58.2292558786
 21
29.0
  0
LINE
  5
2DD
100
AcDbEntity
  8
IMPORT_IGES
100
AcDbLine
 62
7
  6
CONTINUOUS
 10
-7.9663421434
 20
29.0
 11
-9.4663421434
 21
29.0
  0
LINE
  5
2DE
100
AcDbEntity
  8
IMPORT_IGES
100
AcDbLine
 62
7
  6
CONTINUOUS
 10
-73.6619401655
 20
29.0
 11
-75.1619401655
 21
29.0
  0
LINE
  5
2DF
100
AcDbEntity
  8
IMPORT_IGES
100
AcDbLine
 62
7
  6
CONTINUOUS
 10
59.7292558786
 20
30.0
 11
58.2292558786
 21
30.0
  0
LINE
  5
2E0
100
AcDbEntity
  8
IMPORT_IGES
100
AcDbLine
 62
7
  6
CONTINUOUS
 10
-7.9663421434
 20
30.0
 11
-9.4663421434
 21
30.0
  0
LINE
  5
2E1
100
AcDbEntity
  8
IMPORT_IGES
100
AcDbLine
 62
7
  6
CONTINUOUS
 10
-73.6619401655
 20
30.0
 11
-75.1619401655
 21
30.0
  0
LINE
  5
2E2
100
AcDbEntity
  8
IMPORT_IGES
100
AcDbLine
 62
7
  6
CONTINUOUS
 10
-85.1621652603
 20
29.0288908799
 11
-85.6622414243
 21
29.0290432892
  0
LINE
  5
2E3
100
AcDbEntity
  8
IMPORT_IGES
100
AcDbLine
 62
250
  6
CONTINUOUS
 10
83.6297094306
 20
-40.0349101299
 11
83.4459742996
 21
-39.8511749988
  0
LINE
  5
2E4
100
AcDbEntity
  8
IMPORT_IGES
100
AcDbLine
 62
250
  6
CONTINUOUS
 10
85.1294809734
 20
38.5351385871
 11
84.9457458423
 21
38.351403456
  0
LINE
  5
2E5
100
AcDbEntity
  8
IMPORT_IGES
100
AcDbLine
 62
7
  6
CONTINUOUS
 10
82.4636578566
 20
33.4996191799
 11
78.1945708435
 21
33.4996191799
  0
LINE
  5
2E6
100
AcDbEntity
  8
IMPORT_IGES
100
AcDbLine
 62
7
  6
CONTINUOUS
 10
-75.1619401655
 20
34.0
 11
-73.6619401655
 21
34.0
  0
LINE
  5
2E7
100
AcDbEntity
  8
IMPORT_IGES
100
AcDbLine
 62
7
  6
CONTINUOUS
 10
-9.4663421434
 20
34.0
 11
-7.9663421434
 21
34.0
  0
LINE
  5
2E8
100
AcDbEntity
  8
IMPORT_IGES
100
AcDbLine
 62
7
  6
CONTINUOUS
 10
58.2292558786
 20
34.0
 11
59.7292558786
 21
34.0
  0
LINE
  5
2E9
100
AcDbEntity
  8
IMPORT_IGES
100
AcDbLine
 62
7
  6
CONTINUOUS
 10
-64.7900755038
 20
34.6709123734
 11
-51.6619401655
 21
34.6709123734
  0
LINE
  5
2EA
100
AcDbEntity
  8
IMPORT_IGES
100
AcDbLine
 62
7
  6
CONTINUOUS
 10
-75.1619401655
 20
35.0
 11
-73.6619401655
 21
35.0
  0
LINE
  5
2EB
100
AcDbEntity
  8
IMPORT_IGES
100
AcDbLine
 62
7
  6
CONTINUOUS
 10
-9.4663421434
 20
35.0
 11
-7.9663421434
 21
35.0
  0
LINE
  5
2EC
100
AcDbEntity
  8
IMPORT_IGES
100
AcDbLine
 62
7
  6
CONTINUOUS
 10
58.2292558786
 20
35.0
 11
59.7292558786
 21
35.0
  0
LINE
  5
2ED
100
AcDbEntity
  8
IMPORT_IGES
100
AcDbLine
 62
7
  6
CONTINUOUS
 10
81.6945708435
 20
35.4996191799
 11
79.6945708435
 21
35.4996191799
  0
LINE
  5
2EE
100
AcDbEntity
  8
IMPORT_IGES
100
AcDbLine
 62
7
  6
CONTINUOUS
 10
82.4636578566
 20
35.9999187981
 11
78.1945708435
 21
35.9999187981
  0
LINE
  5
2EF
100
AcDbEntity
  8
IMPORT_IGES
100
AcDbLine
 62
7
  6
CONTINUOUS
 10
82.465403363
 20
37.3704516994
 11
78.1945708435
 21
37.3704516994
  0
LINE
  5
2F0
100
AcDbEntity
  8
IMPORT_IGES
100
AcDbLine
 62
7
  6
CONTINUOUS
 10
78.1945708435
 20
37.4996191799
 11
82.4636578566
 21
37.4996191799
  0
LINE
  5
2F1
100
AcDbEntity
  8
IMPORT_IGES
100
AcDbLine
 62
250
  6
CONTINUOUS
 10
-84.9784301292
 20
38.351403456
 11
84.9457458423
 21
38.351403456
  0
LINE
  5
2F2
100
AcDbEntity
  8
IMPORT_IGES
100
AcDbLine
 62
250
  6
CONTINUOUS
 10
84.9457458423
 20
-38.351403456
 11
85.1294809734
 21
-38.5351385871
  0
LINE
  5
2F3
100
AcDbEntity
  8
IMPORT_IGES
100
AcDbLine
 62
7
  6
CONTINUOUS
 10
85.1294809734
 20
29.0288908799
 11
85.0390193642
 21
28.9383741304
  0
LINE
  5
2F4
100
AcDbEntity
  8
IMPORT_IGES
100
AcDbLine
 62
7
  6
CONTINUOUS
 10
85.5389432118
 20
28.9383741304
 11
85.6295571374
 21
29.0290432892
  0
LWPOLYLINE
  5
2F5
100
AcDbEntity
  8
IMPORT_IGES
100
AcDbPolyline
 62
250
  6
CONTINUOUS
 90
31
 70
0
 10
-83.4786585865
 20
39.8511749988
 10
-83.5571352422
 20
39.8490965142
 10
-83.6353969045
 20
39.8429145587
 10
-83.713229147
 20
39.8326460668
 10
-83.7904187213
 20
39.8183191687
 10
-83.8667541362
 20
39.7999731153
 10
-83.9420262372
 20
39.7776581704
 10
-84.016028788
 20
39.7514354716
 10
-84.0885590305
 20
39.721376863
 10
-84.1594182355
 20
39.6875647016
 10
-84.2284122574
 20
39.6500916264
 10
-84.2953520605
 20
39.6090603075
 10
-84.360054233
 20
39.5645831671
 10
-84.4223414987
 20
39.5167820662
 10
-84.4820431978
 20
39.4657879729
 10
-84.5389957509
 20
39.411740608
 10
-84.5930431151
 20
39.3547880544
 10
-84.6440372075
 20
39.2950863548
 10
-84.6918383074
 20
39.2327990889
 10
-84.7363154468
 20
39.1680969164
 10
-84.7773467647
 20
39.1011571134
 10
-84.8148198387
 20
39.0321630919
 10
-84.848631999
 20
38.9613038875
 10
-84.8786906065
 20
38.8887736458
 10
-84.9049133043
 20
38.8147710961
 10
-84.9272282482
 20
38.7394989964
 10
-84.9455743008
 20
38.663163583
 10
-84.9599011982
 20
38.5859740103
 10
-84.9701696896
 20
38.5081417697
 10
-84.9763516447
 20
38.4298801095
 10
-84.9784301292
 20
38.351403456
  0
LINE
  5
2F6
100
AcDbEntity
  8
IMPORT_IGES
100
AcDbLine
 62
250
  6
CONTINUOUS
 10
83.4459742996
 20
39.8511749988
 11
-83.4786585865
 21
39.8511749988
  0
LINE
  5
2F7
100
AcDbEntity
  8
IMPORT_IGES
100
AcDbLine
 62
7
  6
CONTINUOUS
 10
83.6297094306
 20
40.0349101299
 11
-83.6623937175
 21
40.0349101299
  0
LINE
  5
2F8
100
AcDbEntity
  8
IMPORT_IGES
100
AcDbLine
 62
7
  6
CONTINUOUS
 10
85.1294809734
 20
-29.029043266
 11
85.0390193183
 21
-28.9386724843
  0
LINE
  5
2F9
100
AcDbEntity
  8
IMPORT_IGES
100
AcDbLine
 62
7
  6
CONTINUOUS
 10
85.5389431651
 20
-28.9386724835
 11
85.6295571374
 21
-29.0291956753
  0
LWPOLYLINE
  5
2FA
100
AcDbEntity
  8
IMPORT_IGES
100
AcDbPolyline
 62
7
  6
CONTINUOUS
 90
11
 70
0
 10
85.5389389803
 20
28.9383698963
 10
85.5375768556
 20
28.9349266679
 10
85.5362272316
 20
28.9275235262
 10
85.5348901083
 20
28.9161604711
 10
85.53356191
 20
28.9007794042
 10
85.5322462124
 20
28.8814384239
 10
85.5309537429
 20
28.8583118262
 10
85.5296848551
 20
28.831372986
 10
85.5284391953
 20
28.8006485283
 10
85.5272264299
 20
28.7663926234
 10
85.5249000985
 20
28.6872353689
  0
LWPOLYLINE
  5
2FB
100
AcDbEntity
  8
IMPORT_IGES
100
AcDbPolyline
 62
7
  6
CONTINUOUS
 90
9
 70
0
 10
85.0390193183
 20
-28.9386724843
 10
85.0376548363
 20
-28.935245699
 10
85.03630336
 20
-28.9278454727
 10
85.0349648893
 20
-28.9164718053
 10
85.0336360079
 20
-28.9010619874
 10
85.0323201322
 20
-28.8816787285
 10
85.0310275109
 20
-28.8585101571
 10
85.0297583396
 20
-28.8315342158
 10
85.0285124227
 20
-28.800772962
  0
LINE
  5
2FC
100
AcDbEntity
  8
IMPORT_IGES
100
AcDbLine
 62
7
  6
CONTINUOUS
 10
78.1945708435
 20
-37.4996191799
 11
78.1945708435
 21
-33.4996191799
  0
LINE
  5
2FD
100
AcDbEntity
  8
IMPORT_IGES
100
AcDbLine
 62
7
  6
CONTINUOUS
 10
78.1945708435
 20
33.4996191799
 11
78.1945708435
 21
37.4996191799
  0
LINE
  5
2FE
100
AcDbEntity
  8
IMPORT_IGES
100
AcDbLine
 62
7
  6
CONTINUOUS
 10
79.6945708435
 20
35.9999187981
 11
79.6945708435
 21
35.4996191799
  0
LINE
  5
2FF
100
AcDbEntity
  8
IMPORT_IGES
100
AcDbLine
 62
7
  6
CONTINUOUS
 10
79.6945708435
 20
-36.0000812019
 11
79.6945708435
 21
-35.4996191799
  0
LINE
  5
300
100
AcDbEntity
  8
IMPORT_IGES
100
AcDbLine
 62
7
  6
CONTINUOUS
 10
81.6945708435
 20
35.9999187981
 11
81.6945708435
 21
35.4996191799
  0
LINE
  5
301
100
AcDbEntity
  8
IMPORT_IGES
100
AcDbLine
 62
7
  6
CONTINUOUS
 10
81.6945708435
 20
-36.0000812019
 11
81.6945708435
 21
-35.4996191799
  0
LINE
  5
302
100
AcDbEntity
  8
IMPORT_IGES
100
AcDbLine
 62
250
  6
CONTINUOUS
 10
82.4122351153
 20
-36.0000812019
 11
82.4122351153
 21
-37.3704516994
  0
LINE
  5
303
100
AcDbEntity
  8
IMPORT_IGES
100
AcDbLine
 62
250
  6
CONTINUOUS
 10
82.4122351153
 20
35.9999187981
 11
82.4122351153
 21
37.3704516994
  0
LINE
  5
304
100
AcDbEntity
  8
IMPORT_IGES
100
AcDbLine
 62
7
  6
CONTINUOUS
 10
82.4636578566
 20
37.4996191799
 11
82.4636578566
 21
33.4996191799
  0
LINE
  5
305
100
AcDbEntity
  8
IMPORT_IGES
100
AcDbLine
 62
7
  6
CONTINUOUS
 10
82.4636578566
 20
-33.4996191799
 11
82.4636578566
 21
-37.4996191799
  0
LINE
  5
306
100
AcDbEntity
  8
IMPORT_IGES
100
AcDbLine
 62
7
  6
CONTINUOUS
 10
85.1113695355
 20
-38.8000500518
 11
85.1118292553
 21
-38.7997003818
  0
LWPOLYLINE
  5
307
100
AcDbEntity
  8
IMPORT_IGES
100
AcDbPolyline
 62
7
  6
CONTINUOUS
 90
9
 70
0
 10
85.5284362703
 20
-28.800772962
 10
85.5296821871
 20
-28.8315342158
 10
85.5309513584
 20
-28.8585101571
 10
85.5322439798
 20
-28.8816787285
 10
85.5335598556
 20
-28.9010619875
 10
85.5348887369
 20
-28.9164718053
 10
85.5362272074
 20
-28.9278454725
 10
85.5375786835
 20
-28.9352456986
 10
85.5389431651
 20
-28.9386724835
  0
LINE
  5
308
100
AcDbEntity
  8
IMPORT_IGES
100
AcDbLine
 62
7
  6
CONTINUOUS
 10
85.0285124227
 20
-28.800772962
 11
85.0261195975
 21
-28.7286318873
  0
LINE
  5
309
100
AcDbEntity
  8
IMPORT_IGES
100
AcDbLine
 62
7
  6
CONTINUOUS
 10
85.5260434451
 20
-28.7286318874
 11
85.5284362703
 21
-28.800772962
  0
LWPOLYLINE
  5
30A
100
AcDbEntity
  8
IMPORT_IGES
100
AcDbPolyline
 62
250
  6
CONTINUOUS
 90
31
 70
0
 10
84.9457458423
 20
38.351403456
 10
84.9436673577
 20
38.4298801118
 10
84.9374854023
 20
38.5081417741
 10
84.9272169103
 20
38.5859740166
 10
84.9128900122
 20
38.6631635909
 10
84.8945439588
 20
38.7394990058
 10
84.8722290139
 20
38.8147711068
 10
84.8460063151
 20
38.8887736576
 10
84.8159477065
 20
38.9613039001
 10
84.7821355451
 20
39.0321631051
 10
84.7446624699
 20
39.101157127
 10
84.703631151
 20
39.1680969301
 10
84.6591540106
 20
39.2327991026
 10
84.6113529097
 20
39.2950863682
 10
84.5603588164
 20
39.3547880674
 10
84.5063114515
 20
39.4117406205
 10
84.4493588979
 20
39.4657879846
 10
84.3896571983
 20
39.516782077
 10
84.3273699324
 20
39.564583177
 10
84.2626677599
 20
39.6090603164
 10
84.195727957
 20
39.6500916342
 10
84.1267339355
 20
39.6875647083
 10
84.055874731
 20
39.7213768686
 10
83.9833444893
 20
39.7514354761
 10
83.9093419396
 20
39.7776581739
 10
83.8340698399
 20
39.7999731178
 10
83.7577344265
 20
39.8183191704
 10
83.6805448538
 20
39.8326460677
 10
83.6027126132
 20
39.8429145592
 10
83.524450953
 20
39.8490965143
 10
83.4459742996
 20
39.8511749988
  0
LINE
  5
30B
100
AcDbEntity
  8
IMPORT_IGES
100
AcDbLine
 62
7
  6
CONTINUOUS
 10
85.0261195975
 20
-28.7286318873
 11
85.0238675848
 21
-28.642672133
  0
LINE
  5
30C
100
AcDbEntity
  8
IMPORT_IGES
100
AcDbLine
 62
7
  6
CONTINUOUS
 10
85.5237914324
 20
-28.642672133
 11
85.5260434451
 21
-28.7286318874
  0
LINE
  5
30D
100
AcDbEntity
  8
IMPORT_IGES
100
AcDbLine
 62
7
  6
CONTINUOUS
 10
85.0238675848
 20
-28.642672133
 11
85.0208119838
 21
-28.4900625558
  0
LINE
  5
30E
100
AcDbEntity
  8
IMPORT_IGES
100
AcDbLine
 62
7
  6
CONTINUOUS
 10
85.5207358314
 20
-28.4900625558
 11
85.5237914324
 21
-28.642672133
  0
LINE
  5
30F
100
AcDbEntity
  8
IMPORT_IGES
100
AcDbLine
 62
7
  6
CONTINUOUS
 10
85.0208119838
 20
-28.4900625558
 11
85.018204112
 21
-28.3122571936
  0
LINE
  5
310
100
AcDbEntity
  8
IMPORT_IGES
100
AcDbLine
 62
7
  6
CONTINUOUS
 10
85.5181279595
 20
-28.3122571936
 11
85.5207358314
 21
-28.4900625558
  0
LINE
  5
311
100
AcDbEntity
  8
IMPORT_IGES
100
AcDbLine
 62
7
  6
CONTINUOUS
 10
85.018204112
 20
-28.3122571936
 11
85.0155290777
 21
-28.0433064295
  0
LINE
  5
312
100
AcDbEntity
  8
IMPORT_IGES
100
AcDbLine
 62
7
  6
CONTINUOUS
 10
85.5154529253
 20
-28.0433064295
 11
85.5181279595
 21
-28.3122571936
  0
LINE
  5
313
100
AcDbEntity
  8
IMPORT_IGES
100
AcDbLine
 62
7
  6
CONTINUOUS
 10
85.0155290777
 20
-28.0433064295
 11
85.0136265355
 21
-27.6715623556
  0
LINE
  5
314
100
AcDbEntity
  8
IMPORT_IGES
100
AcDbLine
 62
7
  6
CONTINUOUS
 10
85.5135503831
 20
-27.6715623556
 11
85.5154529253
 21
-28.0433064295
  0
LINE
  5
315
100
AcDbEntity
  8
IMPORT_IGES
100
AcDbLine
 62
250
  6
CONTINUOUS
 10
83.4459742996
 20
39.8511749988
 11
83.4459742996
 21
-39.8511749988
  0
LINE
  5
316
100
AcDbEntity
  8
IMPORT_IGES
100
AcDbLine
 62
250
  6
CONTINUOUS
 10
84.9457458423
 20
-38.351403456
 11
84.9457458423
 21
38.351403456
  0
LINE
  5
317
100
AcDbEntity
  8
IMPORT_IGES
100
AcDbLine
 62
7
  6
CONTINUOUS
 10
85.0136265355
 20
-27.6715623556
 11
85.0133093875
 21
27.4357180463
  0
LINE
  5
318
100
AcDbEntity
  8
IMPORT_IGES
100
AcDbLine
 62
7
  6
CONTINUOUS
 10
85.1294809734
 20
38.5351385871
 11
85.1294809734
 21
29.0288908799
  0
LINE
  5
319
100
AcDbEntity
  8
IMPORT_IGES
100
AcDbLine
 62
7
  6
CONTINUOUS
 10
85.1294809734
 20
-29.029043266
 11
85.1294809734
 21
-38.5351385871
  0
LINE
  5
31A
100
AcDbEntity
  8
IMPORT_IGES
100
AcDbLine
 62
7
  6
CONTINUOUS
 10
85.1536528464
 20
38.4477820606
 11
85.1536528464
 21
29.0288908799
  0
LINE
  5
31B
100
AcDbEntity
  8
IMPORT_IGES
100
AcDbLine
 62
7
  6
CONTINUOUS
 10
85.1536528464
 20
-29.029043266
 11
85.1536528464
 21
-38.4479444644
  0
LINE
  5
31C
100
AcDbEntity
  8
IMPORT_IGES
100
AcDbLine
 62
7
  6
CONTINUOUS
 10
85.5135503831
 20
-27.6715623556
 11
85.5132332351
 21
27.438618215
  0
LINE
  5
31D
100
AcDbEntity
  8
IMPORT_IGES
100
AcDbLine
 62
7
  6
CONTINUOUS
 10
85.6295571374
 20
-29.0291956753
 11
85.6295571374
 21
29.0290432892
  0
LINE
  5
31E
100
AcDbEntity
  8
IMPORT_IGES
100
AcDbLine
 62
7
  6
CONTINUOUS
 10
85.6622414243
 20
28.9472039333
 11
85.6622414243
 21
-28.9473663371
  0
LINE
  5
31F
100
AcDbEntity
  8
IMPORT_IGES
100
AcDbLine
 62
7
  6
CONTINUOUS
 10
85.0133093875
 20
27.4357180463
 11
85.0141909769
 21
27.8242718655
  0
LINE
  5
320
100
AcDbEntity
  8
IMPORT_IGES
100
AcDbLine
 62
7
  6
CONTINUOUS
 10
85.5141148245
 20
27.8242718655
 11
85.5132332351
 21
27.4357180464
  0
LINE
  5
321
100
AcDbEntity
  8
IMPORT_IGES
100
AcDbLine
 62
7
  6
CONTINUOUS
 10
85.0141909769
 20
27.8242718655
 11
85.0167493071
 21
28.1819699269
  0
LINE
  5
322
100
AcDbEntity
  8
IMPORT_IGES
100
AcDbLine
 62
7
  6
CONTINUOUS
 10
85.5166731547
 20
28.1819699269
 11
85.5141148245
 21
27.8242718655
  0
LINE
  5
323
100
AcDbEntity
  8
IMPORT_IGES
100
AcDbLine
 62
7
  6
CONTINUOUS
 10
85.0167493071
 20
28.1819699269
 11
85.0198949108
 21
28.4335924075
  0
LINE
  5
324
100
AcDbEntity
  8
IMPORT_IGES
100
AcDbLine
 62
7
  6
CONTINUOUS
 10
85.5198187584
 20
28.4335924075
 11
85.5166731547
 21
28.1819699269
  0
LINE
  5
325
100
AcDbEntity
  8
IMPORT_IGES
100
AcDbLine
 62
7
  6
CONTINUOUS
 10
85.0198949108
 20
28.4335924075
 11
85.0228084858
 21
28.5949215578
  0
LINE
  5
326
100
AcDbEntity
  8
IMPORT_IGES
100
AcDbLine
 62
7
  6
CONTINUOUS
 10
85.5227323333
 20
28.5949215578
 11
85.5198187584
 21
28.4335924075
  0
LINE
  5
327
100
AcDbEntity
  8
IMPORT_IGES
100
AcDbLine
 62
7
  6
CONTINUOUS
 10
85.0228084858
 20
28.5949215578
 11
85.024976251
 21
28.6872353689
  0
LINE
  5
328
100
AcDbEntity
  8
IMPORT_IGES
100
AcDbLine
 62
7
  6
CONTINUOUS
 10
85.5249000985
 20
28.6872353689
 11
85.5227323333
 21
28.5949215578
  0
LWPOLYLINE
  5
329
100
AcDbEntity
  8
IMPORT_IGES
100
AcDbPolyline
 62
7
  6
CONTINUOUS
 90
11
 70
0
 10
85.024976251
 20
28.6872353689
 10
85.0273025823
 20
28.7663926234
 10
85.0285153477
 20
28.8006485283
 10
85.0297610075
 20
28.831372986
 10
85.0310298953
 20
28.8583118262
 10
85.0323222083
 20
28.8814379163
 10
85.0336377492
 20
28.9007783889
 10
85.0349662607
 20
28.9161604711
 10
85.0363043237
 20
28.9275265721
 10
85.0376553572
 20
28.9349342828
 10
85.0390193613
 20
28.9383836031
  0
ARC
  5
32A
100
AcDbEntity
  8
IMPORT_IGES
100
AcDbCircle
 62
7
  6
CONTINUOUS
 10
-66.4043501279
 20
-7.0428021464
 40
4.9852316235
100
AcDbArc
 50
1.3529091699
 51
178.6470908301
  0
ARC
  5
32B
100
AcDbEntity
  8
IMPORT_IGES
100
AcDbCircle
 62
7
  6
CONTINUOUS
 10
-75.1619401655
 20
-32.0
 40
3.0
100
AcDbArc
 50
90.0
 51
270.0
  0
ARC
  5
32C
100
AcDbEntity
  8
IMPORT_IGES
100
AcDbCircle
 62
7
  6
CONTINUOUS
 10
-73.6619401655
 20
-32.0
 40
3.0
100
AcDbArc
 50
270.0
 51
90.0
  0
ARC
  5
32D
100
AcDbEntity
  8
IMPORT_IGES
100
AcDbCircle
 62
7
  6
CONTINUOUS
 10
-12.0363421434
 20
-19.0
 40
3.0
100
AcDbArc
 50
90.0
 51
180.0
  0
ARC
  5
32E
100
AcDbEntity
  8
IMPORT_IGES
100
AcDbCircle
 62
7
  6
CONTINUOUS
 10
-12.0363421434
 20
-35.0
 40
3.0
100
AcDbArc
 50
180.0
 51
270.0
  0
ARC
  5
32F
100
AcDbEntity
  8
IMPORT_IGES
100
AcDbCircle
 62
7
  6
CONTINUOUS
 10
-66.4043501279
 20
-7.0428021464
 40
2.9852316235
100
AcDbArc
 50
109.3122170335
 51
177.7403135493
  0
ARC
  5
330
100
AcDbEntity
  8
IMPORT_IGES
100
AcDbCircle
 62
7
  6
CONTINUOUS
 10
-66.4043501279
 20
-7.0428021464
 40
2.9852316235
100
AcDbArc
 50
2.2596864507
 51
70.6877829665
  0
ARC
  5
331
100
AcDbEntity
  8
IMPORT_IGES
100
AcDbCircle
 62
7
  6
CONTINUOUS
 10
-73.6619401655
 20
-32.0
 40
2.0
100
AcDbArc
 50
270.0
 51
90.0
  0
ARC
  5
332
100
AcDbEntity
  8
IMPORT_IGES
100
AcDbCircle
 62
7
  6
CONTINUOUS
 10
-75.1619401655
 20
-32.0
 40
2.0
100
AcDbArc
 50
90.0
 51
270.0
  0
ARC
  5
333
100
AcDbEntity
  8
IMPORT_IGES
100
AcDbCircle
 62
7
  6
CONTINUOUS
 10
-12.0363421434
 20
-35.0
 40
2.0
100
AcDbArc
 50
180.0
 51
270.0
  0
ARC
  5
334
100
AcDbEntity
  8
IMPORT_IGES
100
AcDbCircle
 62
7
  6
CONTINUOUS
 10
-12.0363421434
 20
-19.0
 40
2.0
100
AcDbArc
 50
90.0
 51
180.0
  0
ARC
  5
335
100
AcDbEntity
  8
IMPORT_IGES
100
AcDbCircle
 62
7
  6
CONTINUOUS
 10
-11.5363421434
 20
-19.5
 40
0.5
100
AcDbArc
 50
90.0
 51
180.0
  0
ARC
  5
336
100
AcDbEntity
  8
IMPORT_IGES
100
AcDbCircle
 62
7
  6
CONTINUOUS
 10
-11.5363421434
 20
-34.5
 40
0.5
100
AcDbArc
 50
180.0
 51
270.0
  0
ARC
  5
337
100
AcDbEntity
  8
IMPORT_IGES
100
AcDbCircle
 62
7
  6
CONTINUOUS
 10
-51.6619401655
 20
29.6709123734
 40
5.0
100
AcDbArc
 50
270.0
 51
90.0
  0
ARC
  5
338
100
AcDbEntity
  8
IMPORT_IGES
100
AcDbCircle
 62
7
  6
CONTINUOUS
 10
-64.7900755038
 20
29.6709123734
 40
5.0
100
AcDbArc
 50
90.0
 51
270.0
  0
ARC
  5
339
100
AcDbEntity
  8
IMPORT_IGES
100
AcDbCircle
 62
7
  6
CONTINUOUS
 10
-66.4043501279
 20
2.0575705229
 40
4.9852316235
100
AcDbArc
 50
1.3529091699
 51
178.6470908301
  0
ARC
  5
33A
100
AcDbEntity
  8
IMPORT_IGES
100
AcDbCircle
 62
7
  6
CONTINUOUS
 10
-73.6619401655
 20
32.0
 40
3.0
100
AcDbArc
 50
270.0
 51
90.0
  0
ARC
  5
33B
100
AcDbEntity
  8
IMPORT_IGES
100
AcDbCircle
 62
7
  6
CONTINUOUS
 10
-75.1619401655
 20
32.0
 40
3.0
100
AcDbArc
 50
90.0
 51
270.0
  0
ARC
  5
33C
100
AcDbEntity
  8
IMPORT_IGES
100
AcDbCircle
 62
7
  6
CONTINUOUS
 10
-9.4663421434
 20
32.0
 40
3.0
100
AcDbArc
 50
90.0
 51
270.0
  0
ARC
  5
33D
100
AcDbEntity
  8
IMPORT_IGES
100
AcDbCircle
 62
7
  6
CONTINUOUS
 10
-7.9663421434
 20
32.0
 40
3.0
100
AcDbArc
 50
270.0
 51
90.0
  0
ARC
  5
33E
100
AcDbEntity
  8
IMPORT_IGES
100
AcDbCircle
 62
7
  6
CONTINUOUS
 10
-66.4043501279
 20
2.0575705229
 40
2.9852316235
100
AcDbArc
 50
2.2596864507
 51
177.7403135493
  0
ARC
  5
33F
100
AcDbEntity
  8
IMPORT_IGES
100
AcDbCircle
 62
7
  6
CONTINUOUS
 10
-75.1619401655
 20
32.0
 40
2.0
100
AcDbArc
 50
90.0
 51
270.0
  0
ARC
  5
340
100
AcDbEntity
  8
IMPORT_IGES
100
AcDbCircle
 62
7
  6
CONTINUOUS
 10
-73.6619401655
 20
32.0
 40
2.0
100
AcDbArc
 50
270.0
 51
90.0
  0
ARC
  5
341
100
AcDbEntity
  8
IMPORT_IGES
100
AcDbCircle
 62
7
  6
CONTINUOUS
 10
-7.9663421434
 20
32.0
 40
2.0
100
AcDbArc
 50
270.0
 51
90.0
  0
ARC
  5
342
100
AcDbEntity
  8
IMPORT_IGES
100
AcDbCircle
 62
7
  6
CONTINUOUS
 10
-9.4663421434
 20
32.0
 40
2.0
100
AcDbArc
 50
90.0
 51
270.0
  0
ARC
  5
343
100
AcDbEntity
  8
IMPORT_IGES
100
AcDbCircle
 62
7
  6
CONTINUOUS
 10
58.2292558786
 20
-32.0
 40
3.0
100
AcDbArc
 50
90.0
 51
270.0
  0
ARC
  5
344
100
AcDbEntity
  8
IMPORT_IGES
100
AcDbCircle
 62
7
  6
CONTINUOUS
 10
59.7292558786
 20
-32.0
 40
3.0
100
AcDbArc
 50
270.0
 51
90.0
  0
CIRCLE
  5
345
100
AcDbEntity
  8
IMPORT_IGES
100
AcDbCircle
 62
7
  6
CONTINUOUS
 10
-4.5363421434
 20
-32.0
 40
3.0
  0
ARC
  5
346
100
AcDbEntity
  8
IMPORT_IGES
100
AcDbCircle
 62
7
  6
CONTINUOUS
 10
2.9636578566
 20
-35.0
 40
3.0
100
AcDbArc
 50
270.0
 51
360.0
  0
ARC
  5
347
100
AcDbEntity
  8
IMPORT_IGES
100
AcDbCircle
 62
7
  6
CONTINUOUS
 10
2.9636578566
 20
-19.0
 40
3.0
100
AcDbArc
 50
0.0
 51
90.0
  0
ARC
  5
348
100
AcDbEntity
  8
IMPORT_IGES
100
AcDbCircle
 62
7
  6
CONTINUOUS
 10
59.7292558786
 20
-32.0
 40
2.0
100
AcDbArc
 50
270.0
 51
90.0
  0
ARC
  5
349
100
AcDbEntity
  8
IMPORT_IGES
100
AcDbCircle
 62
7
  6
CONTINUOUS
 10
58.2292558786
 20
-32.0
 40
2.0
100
AcDbArc
 50
90.0
 51
270.0
  0
CIRCLE
  5
34A
100
AcDbEntity
  8
IMPORT_IGES
100
AcDbCircle
 62
7
  6
CONTINUOUS
 10
-4.5363421434
 20
-32.0
 40
2.0
  0
ARC
  5
34B
100
AcDbEntity
  8
IMPORT_IGES
100
AcDbCircle
 62
7
  6
CONTINUOUS
 10
2.9636578566
 20
-19.0
 40
2.0
100
AcDbArc
 50
0.0
 51
90.0
  0
ARC
  5
34C
100
AcDbEntity
  8
IMPORT_IGES
100
AcDbCircle
 62
7
  6
CONTINUOUS
 10
2.9636578566
 20
-35.0
 40
2.0
100
AcDbArc
 50
270.0
 51
360.0
  0
ARC
  5
34D
100
AcDbEntity
  8
IMPORT_IGES
100
AcDbCircle
 62
7
  6
CONTINUOUS
 10
2.4636578566
 20
-34.5
 40
0.5
100
AcDbArc
 50
270.0
 51
360.0
  0
ARC
  5
34E
100
AcDbEntity
  8
IMPORT_IGES
100
AcDbCircle
 62
7
  6
CONTINUOUS
 10
2.4636578566
 20
-19.5
 40
0.5
100
AcDbArc
 50
0.0
 51
90.0
  0
ARC
  5
34F
100
AcDbEntity
  8
IMPORT_IGES
100
AcDbCircle
 62
7
  6
CONTINUOUS
 10
59.7292558786
 20
32.0
 40
3.0
100
AcDbArc
 50
270.0
 51
90.0
  0
ARC
  5
350
100
AcDbEntity
  8
IMPORT_IGES
100
AcDbCircle
 62
7
  6
CONTINUOUS
 10
58.2292558786
 20
32.0
 40
3.0
100
AcDbArc
 50
90.0
 51
270.0
  0
ARC
  5
351
100
AcDbEntity
  8
IMPORT_IGES
100
AcDbCircle
 62
7
  6
CONTINUOUS
 10
58.2292558786
 20
32.0
 40
2.0
100
AcDbArc
 50
90.0
 51
270.0
  0
ARC
  5
352
100
AcDbEntity
  8
IMPORT_IGES
100
AcDbCircle
 62
7
  6
CONTINUOUS
 10
59.7292558786
 20
32.0
 40
2.0
100
AcDbArc
 50
270.0
 51
90.0
  0
ELLIPSE
  5
353
100
AcDbEntity
  8
IMPORT_IGES
100
AcDbEllipse
 62
7
  6
CONTINUOUS
 10
83.6530505076
 20
-38.4470302872
 30
0.0
 11
-0.7621602914
 21
1.293023562
 31
0.0
 40
0.9993623148
 41
-2.4029797606
 42
-2.340600642
  0
ELLIPSE
  5
354
100
AcDbEntity
  8
IMPORT_IGES
100
AcDbEllipse
 62
7
  6
CONTINUOUS
 10
83.6534308212
 20
38.4473251113
 30
0.0
 11
1.053447304
 21
1.0684616036
 31
0.0
 40
0.9996954294
 41
-0.7923215972
 42
-0.4907091699
  0
ELLIPSE
  5
355
100
AcDbEntity
  8
IMPORT_IGES
100
AcDbEllipse
 62
7
  6
CONTINUOUS
 10
83.6534308212
 20
-38.447487515
 30
0.0
 11
-1.0534473041
 21
1.0684616035
 31
0.0
 40
0.9996954294
 41
-2.5859513144
 42
-2.3492710564
  0
ELLIPSE
  5
356
100
AcDbEntity
  8
IMPORT_IGES
100
AcDbEllipse
 62
7
  6
CONTINUOUS
 10
-80.4601509
 20
-0.0000812019
 30
0.0
 11
0.0
 21
1.1424734811
 31
0.0
 40
0.02039119
 41
6.2841000885
 42
9.4238631795
  0
ELLIPSE
  5
357
100
AcDbEntity
  8
IMPORT_IGES
100
AcDbEllipse
 62
7
  6
CONTINUOUS
 10
-83.6619367682
 20
-38.5346816378
 30
0.0
 11
1.0609832838
 21
1.0609832838
 31
0.0
 40
0.9996954599
 41
2.3563467834
 42
3.9268385237
  0
ELLIPSE
  5
358
100
AcDbEntity
  8
IMPORT_IGES
100
AcDbEllipse
 62
7
  6
CONTINUOUS
 10
83.6292524813
 20
38.5346816378
 30
0.0
 11
1.0609832838
 21
1.0609832838
 31
0.0
 40
0.9996954599
 41
-0.7852458702
 42
0.7852458702
  0
ELLIPSE
  5
359
100
AcDbEntity
  8
IMPORT_IGES
100
AcDbEllipse
 62
7
  6
CONTINUOUS
 10
83.6292524813
 20
-38.5346816378
 30
0.0
 11
1.0609832838
 21
-1.0609832838
 31
0.0
 40
0.9996954599
 41
-0.7852458702
 42
0.7852458702
  0
ELLIPSE
  5
35A
100
AcDbEntity
  8
IMPORT_IGES
100
AcDbEllipse
 62
7
  6
CONTINUOUS
 10
-83.6619367682
 20
38.5346816378
 30
0.0
 11
1.0609832838
 21
-1.0609832838
 31
0.0
 40
0.9996954599
 41
2.3563467834
 42
3.9268385237
  0
ELLIPSE
  5
35B
100
AcDbEntity
  8
IMPORT_IGES
100
AcDbEllipse
 62
7
  6
CONTINUOUS
 10
-62.1056671359
 20
-0.0
 30
0.0
 11
68.7584261983
 21
0.0
 31
0.0
 40
0.0174524064
 41
-1.8967376902
 42
-1.891632615
  0
ELLIPSE
  5
35C
100
AcDbEntity
  8
IMPORT_IGES
100
AcDbEllipse
 62
7
  6
CONTINUOUS
 10
-62.1056671359
 20
-0.0
 30
0.0
 11
68.7584261983
 21
0.0
 31
0.0
 40
0.0174524064
 41
1.891632615
 42
1.8967376902
  0
ENDSEC
  0
SECTION
  2
OBJECTS
  0
DICTIONARY
  5
C
100
AcDbDictionary
280
0
281
1
  3
ACAD_GROUP
350
D
  3
ACAD_MLINESTYLE
350
17
  3
ACAD_LAYOUT
350
1A
  3
ACAD_PLOTSETTINGS
350
19
  3
ACAD_PLOTSTYLENAME
350
E
  0
DICTIONARY
  5
D
102
{ACAD_REACTORS
330
C
102
}
100
AcDbDictionary
280
0
281
1
  0
ACDBDICTIONARYWDFLT
  5
E
102
{ACAD_REACTORS
330
C
102
}
100
AcDbDictionary
281
1
  3
Normal
350
F
100
AcDbDictionaryWithDefault
340
F
  0
DICTIONARY
  5
17
102
{ACAD_REACTORS
330
C
102
}
100
AcDbDictionary
280
0
281
1
  3
Standard
350
18
  0
DICTIONARY
  5
19
102
{ACAD_REACTORS
330
C
102
}
100
AcDbDictionary
281
1
  0
DICTIONARY
  5
1A
102
{ACAD_REACTORS
330
C
102
}
100
AcDbDictionary
281
1
  3
Model
350
35D
  3
Layout1
350
35E
  0
ACDBPLACEHOLDER
  5
F
102
{ACAD_REACTORS
330
E
102
}
  0
MLINESTYLE
  5
18
102
{ACAD_REACTORS
330
17
102
}
100
AcDbMlineStyle
  2
STANDARD
 70
0
  3

 62
256
 51
90.0
 52
90.0
 71
2
 49
0.5
 62
256
  6
BYLAYER
 49
-0.5
 62
256
  6
BYLAYER
  0
LAYOUT
  5
35D
102
{ACAD_REACTORS
330
1A
102
}
100
AcDbPlotSettings
  1

  2
none_device
  4
ISO_A4_(297.00_x_210.00_MM)
  6

 40
0.0
 41
0.0
 42
0.0
 43
0.0
 44
297.0
 45
210.0
 46
0.0
 47
0.0
 48
0.0
 49
0.0
140
0.0
141
0.0
142
1.0
143
1.0
 70
1024
 72
1
 73
0
 74
0
  7

 75
0
147
1.0
148
0.0
149
0.0
100
AcDbLayout
  1
Model
 70
0
 71
0
 10
0.0
 20
0.0
 11
297.0
 21
210.0
 12
0.0
 22
0.0
 32
0.0
 14
0.0
 24
0.0
 34
0.0
 15
0.0
 25
0.0
 35
0.0
146
0.0
 13
0.0
 23
0.0
 33
0.0
 16
1.0
 26
0.0
 36
0.0
 17
0.0
 27
1.0
 37
0.0
 76
0
330
20E
345
0
346
0
  0
LAYOUT
  5
35E
102
{ACAD_REACTORS
330
1A
102
}
100
AcDbPlotSettings
  1

  2
none_device
  4
ISO_A4_(297.00_x_210.00_MM)
  6

 40
0.0
 41
0.0
 42
0.0
 43
0.0
 44
297.0
 45
210.0
 46
0.0
 47
0.0
 48
0.0
 49
0.0
140
0.0
141
0.0
142
1.0
143
1.0
 70
0
 72
1
 73
0
 74
0
  7

 75
0
147
1.0
148
0.0
149
0.0
100
AcDbLayout
  1
Layout1
 70
0
 71
1
 10
0.0
 20
0.0
 11
297.0
 21
210.0
 12
0.0
 22
0.0
 32
0.0
 14
0.0
 24
0.0
 34
0.0
 15
0.0
 25
0.0
 35
0.0
146
0.0
 13
0.0
 23
0.0
 33
0.0
 16
1.0
 26
0.0
 36
0.0
 17
0.0
 27
1.0
 37
0.0
 76
0
330
20F
345
0
346
0
  0
ENDSEC
  0
EOF
