  0
SECTION
  2
HEADER
  9
$ACADVER
  1
AC1024
  9
$DWGCODEPAGE
  3
ANSI_1252
  9
$EXTMAX
 10
297.0
 20
210.0
 30
0.0
  9
$EXTMIN
 10
0.0
 20
0.0
 30
0.0
  9
$LIMMIN
 10
0.0
 20
0.0
  9
$LIMMAX
 10
297.0
 20
210.0
  9
$VIEWCTR
 10
148.5
 20
105.0
  9
$VIEWSIZE
 40
210.0
  9
$CLAYER
  8
0
  9
$LTSCALE
 40
16.335
  9
$CELTYPE
  6
BYLAYER
  9
$DIMSCALE
 40
1.0
  9
$DIMASZ
 40
3.0
  9
$DIMEXO
 40
0.5
  9
$DIMDLI
 40
11.286
  9
$DIMEXE
 40
1.5
  9
$DIMCEN
 40
2.673
  9
$DIMLFAC
 40
1.0
  9
$DIMBLK
  1
_FILLED
  9
$DIMALT
 70
0
  9
$DIMALTF
 40
0.0393700787
  9
$DIMTXT
 40
3.0
  9
$DIMTOL
 70
1
  9
$DIMLIM
 70
0
  9
$DIMTFAC
 40
1.0
  9
$DIMTP
 40
0.01
  9
$DIMTM
 40
0.01
  9
$DIMGAP
 40
0.625
  9
$DIMDSEP
 70
44
  9
$AUNITS
 70
0
  9
$PDMODE
 70
3
  9
$PDSIZE
 40
3.0
  9
$HANDSEED
  5
314
  9
$TILEMODE
 70
1
  9
$MEASUREMENT
 70
1
  9
$INSUNITS
 70
4
  0
ENDSEC
  0
SECTION
  2
CLASSES
  0
CLASS
  1
ACDBDICTIONARYWDFLT
  2
AcDbDictionaryWithDefault
  3
AutoCAD 2000
 90
0
 91
1
280
0
281
0
  0
CLASS
  1
ACDBPLACEHOLDER
  2
AcDbPlaceHolder
  3
AutoCAD 2000
 90
0
 91
1
280
0
281
0
  0
CLASS
  1
LAYOUT
  2
AcDbLayout
  3
AutoCAD 2000
 90
0
 91
0
280
0
281
0
  0
ENDSEC
  0
SECTION
  2
TABLES
  0
TABLE
  2
VPORT
  5
8
100
AcDbSymbolTable
 70
2
  0
VPORT
  5
1F4
100
AcDbSymbolTableRecord
100
AcDbViewportTableRecord
  2
*ACTIVE
 70
0
 10
0.0
 20
0.0
 11
1.0
 21
1.0
 12
148.5
 22
105.0
 13
0.0
 23
0.0
 14
1.0
 24
1.0
 15
0.0
 25
0.0
 16
0.0
 26
0.0
 36
1.0
 17
0.0
 27
0.0
 37
0.0
 40
210.0
 41
1.4142857143
 42
50.0
 43
0.0
 44
0.0
 50
0.0
 51
0.0
 71
0
 72
100
 73
1
 74
1
 75
0
 76
0
 77
0
 78
0
  0
ENDTAB
  0
TABLE
  2
LTYPE
  5
5
100
AcDbSymbolTable
 70
6
  0
LTYPE
  5
14
100
AcDbSymbolTableRecord
100
AcDbLinetypeTableRecord
  2
BYBLOCK
 70
0
  3

 72
65
 73
0
 40
0.0
  0
LTYPE
  5
15
100
AcDbSymbolTableRecord
100
AcDbLinetypeTableRecord
  2
BYLAYER
 70
0
  3

 72
65
 73
0
 40
0.0
  0
LTYPE
  5
16
100
AcDbSymbolTableRecord
100
AcDbLinetypeTableRecord
  2
CONTINUOUS
 70
64
  3
Solid line
 72
65
 73
0
 40
0.0
  0
LTYPE
  5
1F5
100
AcDbSymbolTableRecord
100
AcDbLinetypeTableRecord
  2
CENTER
 70
64
  3
____ _ ____ _ ____ _ ____ _ ____ _ ____ _ ____
 72
65
 73
4
 40
0.6
 49
0.375
 74
0
 49
-0.075
 74
0
 49
0.075
 74
0
 49
-0.075
 74
0
  0
LTYPE
  5
1F6
100
AcDbSymbolTableRecord
100
AcDbLinetypeTableRecord
  2
HIDDEN
 70
64
  3
- - - - - - - - - - - - - - - - - - - -
 72
65
 73
2
 40
0.2
 49
0.1
 74
0
 49
-0.1
 74
0
  0
LTYPE
  5
1F7
100
AcDbSymbolTableRecord
100
AcDbLinetypeTableRecord
  2
PHANTOM
 70
64
  3
_____ _ _ _____ _ _ _____ _ _ _____
 72
65
 73
6
 40
0.8
 49
0.45
 74
0
 49
-0.05
 74
0
 49
0.1
 74
0
 49
-0.05
 74
0
 49
0.1
 74
0
 49
-0.05
 74
0
  0
LTYPE
  5
1F8
100
AcDbSymbolTableRecord
100
AcDbLinetypeTableRecord
  2
DOT
 70
64
  3
. . . . . . . . . . . . . . . . . . . .
 72
65
 73
2
 40
0.2
 49
0.1
 74
0
 49
-0.1
 74
0
  0
LTYPE
  5
1F9
100
AcDbSymbolTableRecord
100
AcDbLinetypeTableRecord
  2
DASHED
 70
64
  3
- - - - - - - - - - - - - - - - - - - -
 72
65
 73
2
 40
0.2
 49
0.1
 74
0
 49
-0.1
 74
0
  0
ENDTAB
  0
TABLE
  2
LAYER
  5
2
100
AcDbSymbolTable
 70
36
  0
LAYER
  5
10
100
AcDbSymbolTableRecord
100
AcDbLayerTableRecord
  2
0
 70
0
 62
7
  6
CONTINUOUS
370
-3
390
F
  0
LAYER
  5
1FA
100
AcDbSymbolTableRecord
100
AcDbLayerTableRecord
  2
DEFAULT_1
 70
0
 62
7
  6
CENTER
370
-3
390
F
  0
LAYER
  5
1FB
100
AcDbSymbolTableRecord
100
AcDbLayerTableRecord
  2
DEFAULT_2
 70
0
 62
7
  6
HIDDEN
370
-3
390
F
  0
LAYER
  5
1FC
100
AcDbSymbolTableRecord
100
AcDbLayerTableRecord
  2
DEFAULT_3
 70
0
 62
7
  6
PHANTOM
370
-3
390
F
  0
LAYER
  5
1FD
100
AcDbSymbolTableRecord
100
AcDbLayerTableRecord
  2
ASSI
 70
0
 62
7
  6
CONTINUOUS
370
-3
390
F
  0
LAYER
  5
1FE
100
AcDbSymbolTableRecord
100
AcDbLayerTableRecord
  2
COORDINATE
 70
0
 62
7
  6
CONTINUOUS
370
-3
390
F
  0
LAYER
  5
1FF
100
AcDbSymbolTableRecord
100
AcDbLayerTableRecord
  2
COPY_PUBLISH
 70
0
 62
7
  6
CONTINUOUS
370
-3
390
F
  0
LAYER
  5
200
100
AcDbSymbolTableRecord
100
AcDbLayerTableRecord
  2
COSMETICI
 70
0
 62
7
  6
CONTINUOUS
370
-3
390
F
  0
LAYER
  5
201
100
AcDbSymbolTableRecord
100
AcDbLayerTableRecord
  2
CURVE
 70
0
 62
7
  6
CONTINUOUS
370
-3
390
F
  0
LAYER
  5
202
100
AcDbSymbolTableRecord
100
AcDbLayerTableRecord
  2
DRAFT
 70
0
 62
7
  6
CONTINUOUS
370
-3
390
F
  0
LAYER
  5
203
100
AcDbSymbolTableRecord
100
AcDbLayerTableRecord
  2
IMPORT_IGES
 70
0
 62
7
  6
CONTINUOUS
370
-3
390
F
  0
LAYER
  5
204
100
AcDbSymbolTableRecord
100
AcDbLayerTableRecord
  2
NOTE
 70
0
 62
7
  6
CONTINUOUS
370
-3
390
F
  0
LAYER
  5
205
100
AcDbSymbolTableRecord
100
AcDbLayerTableRecord
  2
PIANI
 70
0
 62
7
  6
CONTINUOUS
370
-3
390
F
  0
LAYER
  5
206
100
AcDbSymbolTableRecord
100
AcDbLayerTableRecord
  2
PUNTI
 70
0
 62
7
  6
CONTINUOUS
370
-3
390
F
  0
LAYER
  5
207
100
AcDbSymbolTableRecord
100
AcDbLayerTableRecord
  2
RACCORDO
 70
0
 62
7
  6
CONTINUOUS
370
-3
390
F
  0
LAYER
  5
208
100
AcDbSymbolTableRecord
100
AcDbLayerTableRecord
  2
SIMBOLI
 70
0
 62
7
  6
CONTINUOUS
370
-3
390
F
  0
LAYER
  5
209
100
AcDbSymbolTableRecord
100
AcDbLayerTableRecord
  2
SMUSSO
 70
0
 62
7
  6
CONTINUOUS
370
-3
390
F
  0
LAYER
  5
20A
100
AcDbSymbolTableRecord
100
AcDbLayerTableRecord
  2
SUPERFICI
 70
0
 62
7
  6
CONTINUOUS
370
-3
390
F
  0
LAYER
  5
20B
100
AcDbSymbolTableRecord
100
AcDbLayerTableRecord
  2
TRASH
 70
0
 62
7
  6
CONTINUOUS
370
-3
390
F
  0
ENDTAB
  0
TABLE
  2
STYLE
  5
3
100
AcDbSymbolTable
 70
1
  0
STYLE
  5
11
100
AcDbSymbolTableRecord
100
AcDbTextStyleTableRecord
  2
STANDARD
 70
0
 40
0.0
 41
0.8
 50
0.0
 71
0
 42
0.2
  3
txt
  4

  0
STYLE
  5
20C
100
AcDbSymbolTableRecord
100
AcDbTextStyleTableRecord
  2
TEXTSTYLE_1
 70
0
 40
0.0
 41
0.8
 50
0.0
 71
0
 42
0.2
  3
gdt
  4

  0
ENDTAB
  0
TABLE
  2
VIEW
  5
6
100
AcDbSymbolTable
 70
0
  0
ENDTAB
  0
TABLE
  2
UCS
  5
7
100
AcDbSymbolTable
 70
0
  0
ENDTAB
  0
TABLE
  2
APPID
  5
9
100
AcDbSymbolTable
 70
1
  0
APPID
  5
20D
100
AcDbSymbolTableRecord
100
AcDbRegAppTableRecord
  2
ACAD
 70
0
  0
ENDTAB
  0
TABLE
  2
BLOCK_RECORD
  5
1
100
AcDbSymbolTable
 70
0
  0
BLOCK_RECORD
  5
20E
100
AcDbSymbolTableRecord
100
AcDbBlockTableRecord
  2
*Model_Space
  0
BLOCK_RECORD
  5
20F
100
AcDbSymbolTableRecord
100
AcDbBlockTableRecord
  2
*Paper_Space
  0
BLOCK_RECORD
  5
210
100
AcDbSymbolTableRecord
100
AcDbBlockTableRecord
  2
_FILLED
  0
ENDTAB
  0
TABLE
  2
DIMSTYLE
  5
A
100
AcDbSymbolTable
 70
1
100
AcDbDimStyleTable
 71
0
  0
DIMSTYLE
105
211
100
AcDbSymbolTableRecord
100
AcDbDimStyleTableRecord
  2
STANDARD
 70
0
  3

  4

 40
1.0
 41
3.0
 42
0.5
 43
0.38
 44
1.5
 45
0.0
 46
0.0
 47
0.01
 48
0.01
140
3.0
141
0.09
142
0.0
143
25.4
144
1.0
145
0.0
146
1.0
147
0.625
 71
1
 72
0
 73
0
 74
0
 75
0
 76
0
 77
1
 78
8
 79
2
170
0
171
1
172
0
173
0
174
0
175
0
176
0
177
0
178
0
270
2
179
2
271
2
272
2
273
2
274
2
275
0
280
0
281
0
282
0
283
1
284
8
285
0
286
0
287
3
288
0
340
11
278
44
341
210
342
210
343
210
344
210
  0
ENDTAB
  0
ENDSEC
  0
SECTION
  2
BLOCKS
  0
BLOCK
  5
20
100
AcDbEntity
  8
0
100
AcDbBlockBegin
  2
*Model_Space
 70
0
 10
0.0
 20
0.0
 30
0.0
  3
*Model_Space
  1

  0
ENDBLK
  5
21
100
AcDbEntity
  8
0
100
AcDbBlockEnd
  0
BLOCK
  5
1C
100
AcDbEntity
  8
0
100
AcDbBlockBegin
  2
*Paper_Space
 70
0
 10
0.0
 20
0.0
 30
0.0
  3
*Paper_Space
  1

  0
ENDBLK
  5
1D
100
AcDbEntity
  8
0
100
AcDbBlockEnd
  0
BLOCK
  5
212
100
AcDbEntity
  8
0
100
AcDbBlockBegin
  2
_FILLED
 70
64
 10
0.0
 20
0.0
  3
_FILLED
  1

  0
SOLID
  5
213
100
AcDbEntity
  8
0
  6
BYBLOCK
 62
0
100
AcDbTrace
 10
0.0
 20
0.0
 11
-1.0
 21
0.3166666667
 12
-1.0
 22
-0.3166666667
 13
-1.0
 23
-0.3166666667
  0
ENDBLK
  5
214
100
AcDbEntity
  8
0
  6
BYBLOCK
 62
0
100
AcDbBlockEnd
  0
ENDSEC
  0
SECTION
  2
ENTITIES
  0
LWPOLYLINE
  5
215
100
AcDbEntity
  8
IMPORT_IGES
100
AcDbPolyline
 62
250
  6
CONTINUOUS
 90
28
 70
0
 10
-62.3511749988
 20
-38.351403456
 10
-62.3486120546
 20
-38.4385904561
 10
-62.3409850013
 20
-38.5254825723
 10
-62.3283196338
 20
-38.6117859032
 10
-62.3106587883
 20
-38.6972085401
 10
-62.2880621978
 20
-38.7814615504
 10
-62.2606062914
 20
-38.864259955
 10
-62.2283839329
 20
-38.9453236989
 10
-62.191504109
 20
-39.0243785931
 10
-62.1500915616
 20
-39.1011572392
 10
-62.1042863631
 20
-39.175399942
 10
-62.0542434426
 20
-39.2468555852
 10
-62.0001320654
 20
-39.3152824757
 10
-61.9421352557
 20
-39.3804491684
 10
-61.8804491805
 20
-39.4421352443
 10
-61.8152824883
 20
-39.5001320548
 10
-61.7468555981
 20
-39.554243433
 10
-61.675399955
 20
-39.6042863546
 10
-61.601157252
 20
-39.6500915542
 10
-61.5243786055
 20
-39.6915041027
 10
-61.4453237106
 20
-39.7283839279
 10
-61.3642599658
 20
-39.7606062874
 10
-61.2814616527
 20
-39.7880621672
 10
-61.1972087365
 20
-39.8106587417
 10
-61.1117859097
 20
-39.8283196327
 10
-61.0254820006
 20
-39.8409850683
 10
-60.9385890106
 20
-39.8486121393
 10
-60.8514008455
 20
-39.8511749996
  0
LINE
  5
216
100
AcDbEntity
  8
IMPORT_IGES
100
AcDbLine
 62
7
  6
CONTINUOUS
 10
-63.0349101299
 20
-29.0349101299
 11
-63.0349101299
 21
29.0349101299
  0
LINE
  5
217
100
AcDbEntity
  8
IMPORT_IGES
100
AcDbLine
 62
7
  6
CONTINUOUS
 10
-62.9127246754
 20
27.4386944084
 11
-62.9127246754
 21
-27.4386944084
  0
LINE
  5
218
100
AcDbEntity
  8
IMPORT_IGES
100
AcDbLine
 62
7
  6
CONTINUOUS
 10
-62.5349101299
 20
-38.5351385164
 11
-62.5349101299
 21
-29.0349101299
  0
LINE
  5
219
100
AcDbEntity
  8
IMPORT_IGES
100
AcDbLine
 62
7
  6
CONTINUOUS
 10
-62.5349101299
 20
29.0349101299
 11
-62.5349101299
 21
38.5351385178
  0
LINE
  5
21A
100
AcDbEntity
  8
IMPORT_IGES
100
AcDbLine
 62
7
  6
CONTINUOUS
 10
-62.4127246754
 20
27.4386944305
 11
-62.4127246754
 21
-27.4386883439
  0
LINE
  5
21B
100
AcDbEntity
  8
IMPORT_IGES
100
AcDbLine
 62
250
  6
CONTINUOUS
 10
-62.3511749988
 20
38.3514034561
 11
-62.3511749988
 21
-38.3514034559
  0
LINE
  5
21C
100
AcDbEntity
  8
IMPORT_IGES
100
AcDbLine
 62
250
  6
CONTINUOUS
 10
-60.8514034561
 20
-39.8511749988
 11
-60.8514034561
 21
39.8511749988
  0
LINE
  5
21D
100
AcDbEntity
  8
IMPORT_IGES
100
AcDbLine
 62
7
  6
CONTINUOUS
 10
-42.84
 20
26.2000000001
 11
-42.84
 21
23.1999999999
  0
LINE
  5
21E
100
AcDbEntity
  8
IMPORT_IGES
100
AcDbLine
 62
7
  6
CONTINUOUS
 10
-42.0
 20
23.1999999999
 11
-42.0
 21
26.2000000001
  0
LINE
  5
21F
100
AcDbEntity
  8
IMPORT_IGES
100
AcDbLine
 62
7
  6
CONTINUOUS
 10
-40.5
 20
26.2000000001
 11
-40.5
 21
23.1999999999
  0
LWPOLYLINE
  5
220
100
AcDbEntity
  8
IMPORT_IGES
100
AcDbPolyline
 62
250
  6
CONTINUOUS
 90
28
 70
0
 10
60.8514001986
 20
-39.8511749998
 10
60.9385873981
 20
-39.8486122336
 10
61.0254797082
 20
-39.8409853369
 10
61.1117832262
 20
-39.8283201066
 10
61.1972060405
 20
-39.8106593813
 10
61.2814592187
 20
-39.7880628964
 10
61.3642577845
 20
-39.7606070819
 10
61.4453216814
 20
-39.7283848036
 10
61.5243767206
 20
-39.6915050497
 10
61.6011555078
 20
-39.6500925615
 10
61.6753983478
 20
-39.6042874119
 10
61.7468541231
 20
-39.5542445313
 10
61.815281143
 20
-39.5001331838
 10
61.8804479612
 20
-39.4421363946
 10
61.9421341588
 20
-39.3804503309
 10
62.0001310895
 20
-39.3152836386
 10
62.0542425856
 20
-39.2468567362
 10
62.1042856214
 20
-39.1754010696
 10
62.1500909322
 20
-39.101158329
 10
62.1915035871
 20
-39.0243796317
 10
62.2283835127
 20
-38.9453246726
 10
62.260605967
 20
-38.8642608455
 10
62.2880619614
 20
-38.7814623394
 10
62.3106586293
 20
-38.6972092102
 10
62.3283195401
 20
-38.6117864341
 10
62.3409849578
 20
-38.5254829437
 10
62.3486120433
 20
-38.43859065
 10
62.3511749988
 20
-38.351403456
  0
LINE
  5
221
100
AcDbEntity
  8
IMPORT_IGES
100
AcDbLine
 62
7
  6
CONTINUOUS
 10
61.0351353064
 20
-40.0349101299
 11
-61.0351359552
 21
-40.0349101299
  0
LINE
  5
222
100
AcDbEntity
  8
IMPORT_IGES
100
AcDbLine
 62
250
  6
CONTINUOUS
 10
-60.8514008447
 20
-39.8511749988
 11
60.8514001975
 21
-39.8511749988
  0
LINE
  5
223
100
AcDbEntity
  8
IMPORT_IGES
100
AcDbLine
 62
7
  6
CONTINUOUS
 10
-35.75
 20
29.2
 11
-35.75
 21
27.7
  0
LINE
  5
224
100
AcDbEntity
  8
IMPORT_IGES
100
AcDbLine
 62
7
  6
CONTINUOUS
 10
-35.75
 20
21.7
 11
-35.75
 21
20.2
  0
LINE
  5
225
100
AcDbEntity
  8
IMPORT_IGES
100
AcDbLine
 62
7
  6
CONTINUOUS
 10
-34.25
 20
20.2
 11
-34.25
 21
21.7
  0
LINE
  5
226
100
AcDbEntity
  8
IMPORT_IGES
100
AcDbLine
 62
7
  6
CONTINUOUS
 10
-34.25
 20
27.7
 11
-34.25
 21
29.2
  0
LWPOLYLINE
  5
227
100
AcDbEntity
  8
IMPORT_IGES
100
AcDbPolyline
 62
7
  6
CONTINUOUS
 90
9
 70
0
 10
-2.9999824237
 20
39.9268513455
 10
-2.9975195924
 20
39.9279879717
 10
-2.9909143999
 20
39.9291115587
 10
-2.9801668462
 20
39.9302221064
 10
-2.9651645216
 20
39.9313238363
 10
-2.9460198357
 20
39.9324125269
 10
-2.9230700179
 20
39.9334755142
 10
-2.8963342369
 20
39.9345130454
 10
-2.8657933238
 20
39.9355248733
  0
LWPOLYLINE
  5
228
100
AcDbEntity
  8
IMPORT_IGES
100
AcDbPolyline
 62
7
  6
CONTINUOUS
 90
9
 70
0
 10
2.9999824237
 20
39.9268513457
 10
2.9975195924
 20
39.9257147195
 10
2.9909143999
 20
39.9245911325
 10
2.9801668462
 20
39.9234805848
 10
2.9651645216
 20
39.9223788549
 10
2.9460198357
 20
39.9212901643
 10
2.9230700179
 20
39.920227177
 10
2.8963342369
 20
39.9191896458
 10
2.8657933238
 20
39.9181778179
  0
LINE
  5
229
100
AcDbEntity
  8
IMPORT_IGES
100
AcDbLine
 62
250
  6
CONTINUOUS
 10
62.3511749988
 20
-38.351403456
 11
-62.3511749988
 21
-38.3514034561
  0
LINE
  5
22A
100
AcDbEntity
  8
IMPORT_IGES
100
AcDbLine
 62
7
  6
CONTINUOUS
 10
31.9999999999
 20
-36.5
 11
50.0000000001
 21
-36.5
  0
LINE
  5
22B
100
AcDbEntity
  8
IMPORT_IGES
100
AcDbLine
 62
7
  6
CONTINUOUS
 10
50.0000000001
 20
-35.5
 11
31.9999999999
 21
-35.5
  0
LINE
  5
22C
100
AcDbEntity
  8
IMPORT_IGES
100
AcDbLine
 62
7
  6
CONTINUOUS
 10
45.0
 20
-35.2639758034
 11
46.0
 21
-35.2639758034
  0
LINE
  5
22D
100
AcDbEntity
  8
IMPORT_IGES
100
AcDbLine
 62
7
  6
CONTINUOUS
 10
32.4999999999
 20
-33.5
 11
49.5000000001
 21
-33.5
  0
LINE
  5
22E
100
AcDbEntity
  8
IMPORT_IGES
100
AcDbLine
 62
7
  6
CONTINUOUS
 10
52.0
 20
-31.5
 11
50.0
 21
-31.5
  0
LINE
  5
22F
100
AcDbEntity
  8
IMPORT_IGES
100
AcDbLine
 62
7
  6
CONTINUOUS
 10
50.0
 20
-30.0
 11
52.0
 21
-30.0
  0
LINE
  5
230
100
AcDbEntity
  8
IMPORT_IGES
100
AcDbLine
 62
7
  6
CONTINUOUS
 10
-25.75
 20
29.2
 11
-25.75
 21
27.7
  0
LINE
  5
231
100
AcDbEntity
  8
IMPORT_IGES
100
AcDbLine
 62
7
  6
CONTINUOUS
 10
-25.75
 20
21.7
 11
-25.75
 21
20.2
  0
LINE
  5
232
100
AcDbEntity
  8
IMPORT_IGES
100
AcDbLine
 62
7
  6
CONTINUOUS
 10
-24.25
 20
20.2
 11
-24.25
 21
21.7
  0
LINE
  5
233
100
AcDbEntity
  8
IMPORT_IGES
100
AcDbLine
 62
7
  6
CONTINUOUS
 10
-24.25
 20
27.7
 11
-24.25
 21
29.2
  0
LINE
  5
234
100
AcDbEntity
  8
IMPORT_IGES
100
AcDbLine
 62
7
  6
CONTINUOUS
 10
62.5349101299
 20
-29.0349101299
 11
63.0349101299
 21
-29.0349101299
  0
LINE
  5
235
100
AcDbEntity
  8
IMPORT_IGES
100
AcDbLine
 62
7
  6
CONTINUOUS
 10
-62.5349101299
 20
-29.0349101299
 11
-63.0349101299
 21
-29.0349101299
  0
LINE
  5
236
100
AcDbEntity
  8
IMPORT_IGES
100
AcDbLine
 62
250
  6
CONTINUOUS
 10
-62.9384505964
 20
-28.9384505964
 11
-62.4384505963
 21
-28.9384505964
  0
LINE
  5
237
100
AcDbEntity
  8
IMPORT_IGES
100
AcDbLine
 62
250
  6
CONTINUOUS
 10
62.4384505963
 20
-28.9384505964
 11
62.9384505964
 21
-28.9384505964
  0
LINE
  5
238
100
AcDbEntity
  8
IMPORT_IGES
100
AcDbLine
 62
250
  6
CONTINUOUS
 10
62.9127246754
 20
-27.4386944084
 11
62.4127246754
 21
-27.4386944084
  0
LINE
  5
239
100
AcDbEntity
  8
IMPORT_IGES
100
AcDbLine
 62
250
  6
CONTINUOUS
 10
-62.4127246754
 20
-27.4386944084
 11
-62.9127246754
 21
-27.4386944084
  0
LINE
  5
23A
100
AcDbEntity
  8
IMPORT_IGES
100
AcDbLine
 62
7
  6
CONTINUOUS
 10
30.0
 20
-26.7640519674
 11
32.0
 21
-26.7640519674
  0
LINE
  5
23B
100
AcDbEntity
  8
IMPORT_IGES
100
AcDbLine
 62
7
  6
CONTINUOUS
 10
45.1523957359
 20
-26.7640519674
 11
48.8475743462
 21
-26.7640519674
  0
LINE
  5
23C
100
AcDbEntity
  8
IMPORT_IGES
100
AcDbLine
 62
7
  6
CONTINUOUS
 10
50.0
 20
-26.7640519674
 11
52.0
 21
-26.7640519674
  0
LINE
  5
23D
100
AcDbEntity
  8
IMPORT_IGES
100
AcDbLine
 62
7
  6
CONTINUOUS
 10
30.0
 20
-26.7553244349
 11
32.0
 21
-26.7553244349
  0
LINE
  5
23E
100
AcDbEntity
  8
IMPORT_IGES
100
AcDbLine
 62
7
  6
CONTINUOUS
 10
45.1489391413
 20
-26.7553244349
 11
48.8510442307
 21
-26.7553244349
  0
LINE
  5
23F
100
AcDbEntity
  8
IMPORT_IGES
100
AcDbLine
 62
7
  6
CONTINUOUS
 10
50.0
 20
-26.7553244349
 11
52.0
 21
-26.7553244349
  0
LINE
  5
240
100
AcDbEntity
  8
IMPORT_IGES
100
AcDbLine
 62
7
  6
CONTINUOUS
 10
32.0
 20
-26.75
 11
30.0
 21
-26.75
  0
LINE
  5
241
100
AcDbEntity
  8
IMPORT_IGES
100
AcDbLine
 62
7
  6
CONTINUOUS
 10
30.0
 20
-25.25
 11
32.0
 21
-25.25
  0
LINE
  5
242
100
AcDbEntity
  8
IMPORT_IGES
100
AcDbLine
 62
7
  6
CONTINUOUS
 10
-63.0349101299
 20
-29.0349101299
 11
-62.9384505964
 21
-28.9384505964
  0
LINE
  5
243
100
AcDbEntity
  8
IMPORT_IGES
100
AcDbLine
 62
7
  6
CONTINUOUS
 10
-62.4384505964
 20
-28.9384505964
 11
-62.5349101299
 21
-29.0349101299
  0
LINE
  5
244
100
AcDbEntity
  8
IMPORT_IGES
100
AcDbLine
 62
7
  6
CONTINUOUS
 10
52.0
 20
-22.0
 11
50.0
 21
-22.0
  0
LINE
  5
245
100
AcDbEntity
  8
IMPORT_IGES
100
AcDbLine
 62
7
  6
CONTINUOUS
 10
50.0
 20
-20.5
 11
52.0
 21
-20.5
  0
LINE
  5
246
100
AcDbEntity
  8
IMPORT_IGES
100
AcDbLine
 62
7
  6
CONTINUOUS
 10
-62.9384503235
 20
28.9384503235
 11
-63.0349101299
 21
29.0349101299
  0
LINE
  5
247
100
AcDbEntity
  8
IMPORT_IGES
100
AcDbLine
 62
7
  6
CONTINUOUS
 10
-62.5349101299
 20
29.0349101299
 11
-62.4384503235
 21
28.9384503235
  0
LINE
  5
248
100
AcDbEntity
  8
IMPORT_IGES
100
AcDbLine
 62
7
  6
CONTINUOUS
 10
-15.75
 20
29.2
 11
-15.75
 21
27.7
  0
LINE
  5
249
100
AcDbEntity
  8
IMPORT_IGES
100
AcDbLine
 62
7
  6
CONTINUOUS
 10
-15.75
 20
21.7
 11
-15.75
 21
20.2
  0
LINE
  5
24A
100
AcDbEntity
  8
IMPORT_IGES
100
AcDbLine
 62
250
  6
CONTINUOUS
 10
-62.5349101299
 20
-38.5351385871
 11
-62.3511749988
 21
-38.3514034559
  0
LINE
  5
24B
100
AcDbEntity
  8
IMPORT_IGES
100
AcDbLine
 62
250
  6
CONTINUOUS
 10
-60.8514008447
 20
-39.8511749988
 11
-61.0351359758
 21
-40.0349101299
  0
LINE
  5
24C
100
AcDbEntity
  8
IMPORT_IGES
100
AcDbLine
 62
7
  6
CONTINUOUS
 10
49.5000000001
 20
-18.5
 11
32.4999999999
 21
-18.5
  0
LINE
  5
24D
100
AcDbEntity
  8
IMPORT_IGES
100
AcDbLine
 62
7
  6
CONTINUOUS
 10
31.9999999999
 20
-16.5
 11
50.0000000001
 21
-16.5
  0
LINE
  5
24E
100
AcDbEntity
  8
IMPORT_IGES
100
AcDbLine
 62
7
  6
CONTINUOUS
 10
50.0000000001
 20
-15.5
 11
31.9999999999
 21
-15.5
  0
LINE
  5
24F
100
AcDbEntity
  8
IMPORT_IGES
100
AcDbLine
 62
250
  6
CONTINUOUS
 10
-62.3511749988
 20
38.3514034561
 11
-62.5349101299
 21
38.5351385872
  0
LINE
  5
250
100
AcDbEntity
  8
IMPORT_IGES
100
AcDbLine
 62
250
  6
CONTINUOUS
 10
-61.0351359761
 20
40.0349101299
 11
-60.8514008449
 21
39.8511749988
  0
LINE
  5
251
100
AcDbEntity
  8
IMPORT_IGES
100
AcDbLine
 62
7
  6
CONTINUOUS
 10
-14.25
 20
20.2
 11
-14.25
 21
21.7
  0
LINE
  5
252
100
AcDbEntity
  8
IMPORT_IGES
100
AcDbLine
 62
7
  6
CONTINUOUS
 10
-14.25
 20
27.7
 11
-14.25
 21
29.2
  0
LINE
  5
253
100
AcDbEntity
  8
IMPORT_IGES
100
AcDbLine
 62
7
  6
CONTINUOUS
 10
-5.75
 20
29.2
 11
-5.75
 21
27.7
  0
LINE
  5
254
100
AcDbEntity
  8
IMPORT_IGES
100
AcDbLine
 62
7
  6
CONTINUOUS
 10
-5.75
 20
21.7
 11
-5.75
 21
20.2
  0
LINE
  5
255
100
AcDbEntity
  8
IMPORT_IGES
100
AcDbLine
 62
7
  6
CONTINUOUS
 10
-4.25
 20
20.2
 11
-4.25
 21
21.7
  0
LINE
  5
256
100
AcDbEntity
  8
IMPORT_IGES
100
AcDbLine
 62
7
  6
CONTINUOUS
 10
-4.25
 20
27.7
 11
-4.25
 21
29.2
  0
LINE
  5
257
100
AcDbEntity
  8
IMPORT_IGES
100
AcDbLine
 62
250
  6
CONTINUOUS
 10
-2.0
 20
39.9093962807
 11
-2.0
 21
39.9443064106
  0
LINE
  5
258
100
AcDbEntity
  8
IMPORT_IGES
100
AcDbLine
 62
7
  6
CONTINUOUS
 10
-37.0
 20
-3.0
 11
-41.0
 21
-3.0
  0
LINE
  5
259
100
AcDbEntity
  8
IMPORT_IGES
100
AcDbLine
 62
7
  6
CONTINUOUS
 10
-51.0
 20
-3.0
 11
-55.0
 21
-3.0
  0
LINE
  5
25A
100
AcDbEntity
  8
IMPORT_IGES
100
AcDbLine
 62
7
  6
CONTINUOUS
 10
-55.0
 20
-2.0
 11
-51.0
 21
-2.0
  0
LINE
  5
25B
100
AcDbEntity
  8
IMPORT_IGES
100
AcDbLine
 62
7
  6
CONTINUOUS
 10
-41.0
 20
-2.0
 11
-37.0
 21
-2.0
  0
LINE
  5
25C
100
AcDbEntity
  8
IMPORT_IGES
100
AcDbLine
 62
250
  6
CONTINUOUS
 10
2.0
 20
39.9443064106
 11
2.0
 21
39.9093962807
  0
LINE
  5
25D
100
AcDbEntity
  8
IMPORT_IGES
100
AcDbLine
 62
7
  6
CONTINUOUS
 10
4.25
 20
29.2
 11
4.25
 21
27.7
  0
LINE
  5
25E
100
AcDbEntity
  8
IMPORT_IGES
100
AcDbLine
 62
7
  6
CONTINUOUS
 10
4.25
 20
21.7
 11
4.25
 21
20.2
  0
LINE
  5
25F
100
AcDbEntity
  8
IMPORT_IGES
100
AcDbLine
 62
7
  6
CONTINUOUS
 10
-37.0
 20
2.0
 11
-41.0
 21
2.0
  0
LINE
  5
260
100
AcDbEntity
  8
IMPORT_IGES
100
AcDbLine
 62
7
  6
CONTINUOUS
 10
-51.0
 20
2.0
 11
-55.0
 21
2.0
  0
LINE
  5
261
100
AcDbEntity
  8
IMPORT_IGES
100
AcDbLine
 62
7
  6
CONTINUOUS
 10
-55.0
 20
3.0
 11
-51.0
 21
3.0
  0
LINE
  5
262
100
AcDbEntity
  8
IMPORT_IGES
100
AcDbLine
 62
7
  6
CONTINUOUS
 10
-41.0
 20
3.0
 11
-37.0
 21
3.0
  0
LINE
  5
263
100
AcDbEntity
  8
IMPORT_IGES
100
AcDbLine
 62
7
  6
CONTINUOUS
 10
5.75
 20
20.2
 11
5.75
 21
21.7
  0
LINE
  5
264
100
AcDbEntity
  8
IMPORT_IGES
100
AcDbLine
 62
7
  6
CONTINUOUS
 10
5.75
 20
27.7
 11
5.75
 21
29.2
  0
LINE
  5
265
100
AcDbEntity
  8
IMPORT_IGES
100
AcDbLine
 62
7
  6
CONTINUOUS
 10
14.25
 20
29.2
 11
14.25
 21
27.7
  0
LINE
  5
266
100
AcDbEntity
  8
IMPORT_IGES
100
AcDbLine
 62
7
  6
CONTINUOUS
 10
14.25
 20
21.7
 11
14.25
 21
20.2
  0
LINE
  5
267
100
AcDbEntity
  8
IMPORT_IGES
100
AcDbLine
 62
250
  6
CONTINUOUS
 10
60.8514001972
 20
39.8511749988
 11
61.0351353284
 21
40.0349101299
  0
LINE
  5
268
100
AcDbEntity
  8
IMPORT_IGES
100
AcDbLine
 62
250
  6
CONTINUOUS
 10
61.0351353287
 20
-40.0349101299
 11
60.8514001975
 21
-39.8511749988
  0
LINE
  5
269
100
AcDbEntity
  8
IMPORT_IGES
100
AcDbLine
 62
7
  6
CONTINUOUS
 10
15.75
 20
20.2
 11
15.75
 21
21.7
  0
LINE
  5
26A
100
AcDbEntity
  8
IMPORT_IGES
100
AcDbLine
 62
7
  6
CONTINUOUS
 10
15.75
 20
27.7
 11
15.75
 21
29.2
  0
LINE
  5
26B
100
AcDbEntity
  8
IMPORT_IGES
100
AcDbLine
 62
250
  6
CONTINUOUS
 10
62.5349101299
 20
38.5351385871
 11
62.3511749988
 21
38.351403456
  0
LINE
  5
26C
100
AcDbEntity
  8
IMPORT_IGES
100
AcDbLine
 62
7
  6
CONTINUOUS
 10
-39.0000000001
 20
19.36
 11
39.0000000001
 21
19.36
  0
LINE
  5
26D
100
AcDbEntity
  8
IMPORT_IGES
100
AcDbLine
 62
7
  6
CONTINUOUS
 10
39.0000000001
 20
20.2
 11
-39.0000000001
 21
20.2
  0
LINE
  5
26E
100
AcDbEntity
  8
IMPORT_IGES
100
AcDbLine
 62
250
  6
CONTINUOUS
 10
62.3511749988
 20
-38.3514034561
 11
62.5349101299
 21
-38.5351385872
  0
LINE
  5
26F
100
AcDbEntity
  8
IMPORT_IGES
100
AcDbLine
 62
7
  6
CONTINUOUS
 10
24.25
 20
29.2
 11
24.25
 21
27.7
  0
LINE
  5
270
100
AcDbEntity
  8
IMPORT_IGES
100
AcDbLine
 62
7
  6
CONTINUOUS
 10
24.25
 20
21.7
 11
24.25
 21
20.2
  0
LINE
  5
271
100
AcDbEntity
  8
IMPORT_IGES
100
AcDbLine
 62
7
  6
CONTINUOUS
 10
62.5349101299
 20
29.0349101299
 11
62.4384505964
 21
28.9384505964
  0
LINE
  5
272
100
AcDbEntity
  8
IMPORT_IGES
100
AcDbLine
 62
7
  6
CONTINUOUS
 10
63.0349101299
 20
29.0349101299
 11
62.9384503235
 21
28.9384503235
  0
LINE
  5
273
100
AcDbEntity
  8
IMPORT_IGES
100
AcDbLine
 62
7
  6
CONTINUOUS
 10
-39.0000000001
 20
21.7
 11
-35.75
 21
21.7
  0
LINE
  5
274
100
AcDbEntity
  8
IMPORT_IGES
100
AcDbLine
 62
7
  6
CONTINUOUS
 10
-34.25
 20
21.7
 11
-25.75
 21
21.7
  0
LINE
  5
275
100
AcDbEntity
  8
IMPORT_IGES
100
AcDbLine
 62
7
  6
CONTINUOUS
 10
-24.25
 20
21.7
 11
-15.75
 21
21.7
  0
LINE
  5
276
100
AcDbEntity
  8
IMPORT_IGES
100
AcDbLine
 62
7
  6
CONTINUOUS
 10
-14.25
 20
21.7
 11
-5.75
 21
21.7
  0
LINE
  5
277
100
AcDbEntity
  8
IMPORT_IGES
100
AcDbLine
 62
7
  6
CONTINUOUS
 10
-4.25
 20
21.7
 11
4.25
 21
21.7
  0
LINE
  5
278
100
AcDbEntity
  8
IMPORT_IGES
100
AcDbLine
 62
7
  6
CONTINUOUS
 10
5.75
 20
21.7
 11
14.25
 21
21.7
  0
LINE
  5
279
100
AcDbEntity
  8
IMPORT_IGES
100
AcDbLine
 62
7
  6
CONTINUOUS
 10
15.75
 20
21.7
 11
24.25
 21
21.7
  0
LINE
  5
27A
100
AcDbEntity
  8
IMPORT_IGES
100
AcDbLine
 62
7
  6
CONTINUOUS
 10
25.75
 20
21.7
 11
34.25
 21
21.7
  0
LINE
  5
27B
100
AcDbEntity
  8
IMPORT_IGES
100
AcDbLine
 62
7
  6
CONTINUOUS
 10
35.75
 20
21.7
 11
39.0000000001
 21
21.7
  0
LINE
  5
27C
100
AcDbEntity
  8
IMPORT_IGES
100
AcDbLine
 62
7
  6
CONTINUOUS
 10
62.4384505963
 20
-28.9384505964
 11
62.5349101299
 21
-29.0349101299
  0
LINE
  5
27D
100
AcDbEntity
  8
IMPORT_IGES
100
AcDbLine
 62
7
  6
CONTINUOUS
 10
63.0349101299
 20
-29.0349101299
 11
62.9384505964
 21
-28.9384505964
  0
LINE
  5
27E
100
AcDbEntity
  8
IMPORT_IGES
100
AcDbLine
 62
7
  6
CONTINUOUS
 10
25.75
 20
20.2
 11
25.75
 21
21.7
  0
LINE
  5
27F
100
AcDbEntity
  8
IMPORT_IGES
100
AcDbLine
 62
7
  6
CONTINUOUS
 10
25.75
 20
27.7
 11
25.75
 21
29.2
  0
LINE
  5
280
100
AcDbEntity
  8
IMPORT_IGES
100
AcDbLine
 62
7
  6
CONTINUOUS
 10
29.0
 20
-18.4999999999
 11
29.0
 21
-33.5000000001
  0
LINE
  5
281
100
AcDbEntity
  8
IMPORT_IGES
100
AcDbLine
 62
7
  6
CONTINUOUS
 10
30.0
 20
-33.5000000001
 11
30.0
 21
-18.4999999999
  0
LINE
  5
282
100
AcDbEntity
  8
IMPORT_IGES
100
AcDbLine
 62
7
  6
CONTINUOUS
 10
-41.9471014942
 20
26.7553244349
 11
-40.3927238282
 21
26.7553244349
  0
LINE
  5
283
100
AcDbEntity
  8
IMPORT_IGES
100
AcDbLine
 62
7
  6
CONTINUOUS
 10
40.3927238528
 20
26.7553244349
 11
41.9471014942
 21
26.7553244349
  0
LINE
  5
284
100
AcDbEntity
  8
IMPORT_IGES
100
AcDbLine
 62
7
  6
CONTINUOUS
 10
-41.9454780492
 20
26.7640519674
 11
-40.3892506184
 21
26.7640519674
  0
LINE
  5
285
100
AcDbEntity
  8
IMPORT_IGES
100
AcDbLine
 62
7
  6
CONTINUOUS
 10
40.3892507258
 20
26.7640519674
 11
41.9454780492
 21
26.7640519674
  0
LINE
  5
286
100
AcDbEntity
  8
IMPORT_IGES
100
AcDbLine
 62
250
  6
CONTINUOUS
 10
-62.9127246754
 20
27.4386944084
 11
-62.4127246754
 21
27.4386944084
  0
LINE
  5
287
100
AcDbEntity
  8
IMPORT_IGES
100
AcDbLine
 62
250
  6
CONTINUOUS
 10
62.4127246754
 20
27.4386944084
 11
62.9127246754
 21
27.4386944084
  0
LINE
  5
288
100
AcDbEntity
  8
IMPORT_IGES
100
AcDbLine
 62
7
  6
CONTINUOUS
 10
39.0000000001
 20
27.7
 11
35.75
 21
27.7
  0
LINE
  5
289
100
AcDbEntity
  8
IMPORT_IGES
100
AcDbLine
 62
7
  6
CONTINUOUS
 10
34.25
 20
27.7
 11
25.75
 21
27.7
  0
LINE
  5
28A
100
AcDbEntity
  8
IMPORT_IGES
100
AcDbLine
 62
7
  6
CONTINUOUS
 10
24.25
 20
27.7
 11
15.75
 21
27.7
  0
LINE
  5
28B
100
AcDbEntity
  8
IMPORT_IGES
100
AcDbLine
 62
7
  6
CONTINUOUS
 10
14.25
 20
27.7
 11
5.75
 21
27.7
  0
LINE
  5
28C
100
AcDbEntity
  8
IMPORT_IGES
100
AcDbLine
 62
7
  6
CONTINUOUS
 10
4.25
 20
27.7
 11
-4.25
 21
27.7
  0
LINE
  5
28D
100
AcDbEntity
  8
IMPORT_IGES
100
AcDbLine
 62
7
  6
CONTINUOUS
 10
-5.75
 20
27.7
 11
-14.25
 21
27.7
  0
LINE
  5
28E
100
AcDbEntity
  8
IMPORT_IGES
100
AcDbLine
 62
7
  6
CONTINUOUS
 10
-15.75
 20
27.7
 11
-24.25
 21
27.7
  0
LINE
  5
28F
100
AcDbEntity
  8
IMPORT_IGES
100
AcDbLine
 62
7
  6
CONTINUOUS
 10
-25.75
 20
27.7
 11
-34.25
 21
27.7
  0
LINE
  5
290
100
AcDbEntity
  8
IMPORT_IGES
100
AcDbLine
 62
7
  6
CONTINUOUS
 10
-35.75
 20
27.7
 11
-39.0000000001
 21
27.7
  0
LINE
  5
291
100
AcDbEntity
  8
IMPORT_IGES
100
AcDbLine
 62
250
  6
CONTINUOUS
 10
62.9384505964
 20
28.9384505964
 11
62.4384505964
 21
28.9384505964
  0
LINE
  5
292
100
AcDbEntity
  8
IMPORT_IGES
100
AcDbLine
 62
250
  6
CONTINUOUS
 10
-62.4384505964
 20
28.9384505964
 11
-62.9384505963
 21
28.9384505964
  0
LINE
  5
293
100
AcDbEntity
  8
IMPORT_IGES
100
AcDbLine
 62
7
  6
CONTINUOUS
 10
62.5349101299
 20
29.0349101299
 11
63.0349101299
 21
29.0349101299
  0
LINE
  5
294
100
AcDbEntity
  8
IMPORT_IGES
100
AcDbLine
 62
7
  6
CONTINUOUS
 10
-62.5349101299
 20
29.0349101299
 11
-63.0349101299
 21
29.0349101299
  0
LINE
  5
295
100
AcDbEntity
  8
IMPORT_IGES
100
AcDbLine
 62
7
  6
CONTINUOUS
 10
-39.0000000001
 20
29.2
 11
39.0000000001
 21
29.2
  0
LINE
  5
296
100
AcDbEntity
  8
IMPORT_IGES
100
AcDbLine
 62
7
  6
CONTINUOUS
 10
-39.0
 20
30.04
 11
39.0
 21
30.04
  0
LINE
  5
297
100
AcDbEntity
  8
IMPORT_IGES
100
AcDbLine
 62
7
  6
CONTINUOUS
 10
32.0
 20
-33.0
 11
32.0
 21
-19.0
  0
LINE
  5
298
100
AcDbEntity
  8
IMPORT_IGES
100
AcDbLine
 62
7
  6
CONTINUOUS
 10
34.25
 20
29.2
 11
34.25
 21
27.7
  0
LINE
  5
299
100
AcDbEntity
  8
IMPORT_IGES
100
AcDbLine
 62
7
  6
CONTINUOUS
 10
34.25
 20
21.7
 11
34.25
 21
20.2
  0
LINE
  5
29A
100
AcDbEntity
  8
IMPORT_IGES
100
AcDbLine
 62
7
  6
CONTINUOUS
 10
35.75
 20
20.2
 11
35.75
 21
21.7
  0
LINE
  5
29B
100
AcDbEntity
  8
IMPORT_IGES
100
AcDbLine
 62
7
  6
CONTINUOUS
 10
35.75
 20
27.7
 11
35.75
 21
29.2
  0
LINE
  5
29C
100
AcDbEntity
  8
IMPORT_IGES
100
AcDbLine
 62
7
  6
CONTINUOUS
 10
40.25
 20
-35.5
 11
40.25
 21
-33.5
  0
LINE
  5
29D
100
AcDbEntity
  8
IMPORT_IGES
100
AcDbLine
 62
7
  6
CONTINUOUS
 10
40.25
 20
-18.5
 11
40.25
 21
-16.5
  0
LINE
  5
29E
100
AcDbEntity
  8
IMPORT_IGES
100
AcDbLine
 62
7
  6
CONTINUOUS
 10
2.8657933238
 20
39.9181778179
 11
2.7940646281
 21
39.9162705915
  0
LINE
  5
29F
100
AcDbEntity
  8
IMPORT_IGES
100
AcDbLine
 62
7
  6
CONTINUOUS
 10
-2.8657933238
 20
39.9355248733
 11
-2.794064628
 21
39.9374320998
  0
LINE
  5
2A0
100
AcDbEntity
  8
IMPORT_IGES
100
AcDbLine
 62
7
  6
CONTINUOUS
 10
2.7940646281
 20
39.9162705915
 11
2.7086552991
 21
39.9145349969
  0
LINE
  5
2A1
100
AcDbEntity
  8
IMPORT_IGES
100
AcDbLine
 62
7
  6
CONTINUOUS
 10
-2.794064628
 20
39.9374320998
 11
-2.7086552991
 21
39.9391676943
  0
LINE
  5
2A2
100
AcDbEntity
  8
IMPORT_IGES
100
AcDbLine
 62
7
  6
CONTINUOUS
 10
2.7086552991
 20
39.9145349969
 11
2.558279726
 21
39.9123617192
  0
LINE
  5
2A3
100
AcDbEntity
  8
IMPORT_IGES
100
AcDbLine
 62
7
  6
CONTINUOUS
 10
-2.7086552991
 20
39.9391676943
 11
-2.5582797259
 21
39.9413409721
  0
LINE
  5
2A4
100
AcDbEntity
  8
IMPORT_IGES
100
AcDbLine
 62
7
  6
CONTINUOUS
 10
2.558279726
 20
39.9123617192
 11
2.3266546495
 21
39.9103634839
  0
LINE
  5
2A5
100
AcDbEntity
  8
IMPORT_IGES
100
AcDbLine
 62
7
  6
CONTINUOUS
 10
-2.5582797259
 20
39.9413409721
 11
-2.3266546495
 21
39.9433392073
  0
LINE
  5
2A6
100
AcDbEntity
  8
IMPORT_IGES
100
AcDbLine
 62
7
  6
CONTINUOUS
 10
2.3266546495
 20
39.9103634839
 11
2.0681238507
 21
39.9094486635
  0
LINE
  5
2A7
100
AcDbEntity
  8
IMPORT_IGES
100
AcDbLine
 62
7
  6
CONTINUOUS
 10
-2.3266546495
 20
39.9433392073
 11
-2.0681238507
 21
39.9442540278
  0
LINE
  5
2A8
100
AcDbEntity
  8
IMPORT_IGES
100
AcDbLine
 62
250
  6
CONTINUOUS
 10
-62.3511749988
 20
38.351403456
 11
62.3511749988
 21
38.351403456
  0
LINE
  5
2A9
100
AcDbEntity
  8
IMPORT_IGES
100
AcDbLine
 62
250
  6
CONTINUOUS
 10
60.8514001972
 20
39.8511749988
 11
-60.8514008449
 21
39.8511749988
  0
LINE
  5
2AA
100
AcDbEntity
  8
IMPORT_IGES
100
AcDbLine
 62
7
  6
CONTINUOUS
 10
-61.0351359582
 20
40.0349101299
 11
61.0351353081
 21
40.0349101299
  0
LINE
  5
2AB
100
AcDbEntity
  8
IMPORT_IGES
100
AcDbLine
 62
7
  6
CONTINUOUS
 10
2.0681238507
 20
39.9094486635
 11
-2.0685837694
 21
39.9094496396
  0
LINE
  5
2AC
100
AcDbEntity
  8
IMPORT_IGES
100
AcDbLine
 62
7
  6
CONTINUOUS
 10
-2.0681238507
 20
39.9442540278
 11
2.0685837694
 21
39.9442530517
  0
LINE
  5
2AD
100
AcDbEntity
  8
IMPORT_IGES
100
AcDbLine
 62
7
  6
CONTINUOUS
 10
-2.0685837694
 20
39.9094496396
 11
-2.3288161603
 21
39.9103787215
  0
LINE
  5
2AE
100
AcDbEntity
  8
IMPORT_IGES
100
AcDbLine
 62
7
  6
CONTINUOUS
 10
2.0685837694
 20
39.9442530517
 11
2.3288161603
 21
39.9433239697
  0
LINE
  5
2AF
100
AcDbEntity
  8
IMPORT_IGES
100
AcDbLine
 62
7
  6
CONTINUOUS
 10
-2.3288161603
 20
39.9103787215
 11
-2.5615593426
 21
39.9124024744
  0
LINE
  5
2B0
100
AcDbEntity
  8
IMPORT_IGES
100
AcDbLine
 62
7
  6
CONTINUOUS
 10
2.3288161603
 20
39.9433239697
 11
2.5615593426
 21
39.9413002168
  0
LINE
  5
2B1
100
AcDbEntity
  8
IMPORT_IGES
100
AcDbLine
 62
7
  6
CONTINUOUS
 10
-2.5615593426
 20
39.9124024744
 11
-2.7119098118
 21
39.9145929019
  0
LINE
  5
2B2
100
AcDbEntity
  8
IMPORT_IGES
100
AcDbLine
 62
7
  6
CONTINUOUS
 10
2.5615593426
 20
39.9413002168
 11
2.7119098118
 21
39.9391097893
  0
LINE
  5
2B3
100
AcDbEntity
  8
IMPORT_IGES
100
AcDbLine
 62
7
  6
CONTINUOUS
 10
-2.7119098118
 20
39.9145929019
 11
-2.7969335108
 21
39.9163357355
  0
LINE
  5
2B4
100
AcDbEntity
  8
IMPORT_IGES
100
AcDbLine
 62
7
  6
CONTINUOUS
 10
2.7119098118
 20
39.9391097893
 11
2.7969335107
 21
39.9373669557
  0
LWPOLYLINE
  5
2B5
100
AcDbEntity
  8
IMPORT_IGES
100
AcDbPolyline
 62
7
  6
CONTINUOUS
 90
10
 70
0
 10
-2.7969335108
 20
39.9163357355
 10
-2.8680765082
 20
39.9182444696
 10
-2.8982595459
 20
39.9192546473
 10
-2.924637893
 20
39.920288725
 10
-2.9472269088
 20
39.9213464655
 10
-2.9660112342
 20
39.9224281059
 10
-2.9807073047
 20
39.9235207079
 10
-2.9912205991
 20
39.9246199588
 10
-2.9976456388
 20
39.9257301713
 10
-2.9999824237
 20
39.9268513455
  0
LWPOLYLINE
  5
2B6
100
AcDbEntity
  8
IMPORT_IGES
100
AcDbPolyline
 62
7
  6
CONTINUOUS
 90
10
 70
0
 10
2.7969335107
 20
39.9373669557
 10
2.8680765082
 20
39.9354582217
 10
2.8982595459
 20
39.9344480439
 10
2.924637893
 20
39.9334139663
 10
2.9472269088
 20
39.9323562258
 10
2.9660112342
 20
39.9312745854
 10
2.9807073047
 20
39.9301819833
 10
2.9912205991
 20
39.9290827324
 10
2.9976456388
 20
39.9279725199
 10
2.9999824237
 20
39.9268513457
  0
LINE
  5
2B7
100
AcDbEntity
  8
IMPORT_IGES
100
AcDbLine
 62
7
  6
CONTINUOUS
 10
40.5
 20
23.1999999999
 11
40.5
 21
26.2000000001
  0
LINE
  5
2B8
100
AcDbEntity
  8
IMPORT_IGES
100
AcDbLine
 62
7
  6
CONTINUOUS
 10
41.0
 20
-2.0
 11
41.0
 21
2.0
  0
LINE
  5
2B9
100
AcDbEntity
  8
IMPORT_IGES
100
AcDbLine
 62
7
  6
CONTINUOUS
 10
41.75
 20
-16.5
 11
41.75
 21
-18.5
  0
LINE
  5
2BA
100
AcDbEntity
  8
IMPORT_IGES
100
AcDbLine
 62
7
  6
CONTINUOUS
 10
41.75
 20
-33.5
 11
41.75
 21
-35.5
  0
LINE
  5
2BB
100
AcDbEntity
  8
IMPORT_IGES
100
AcDbLine
 62
7
  6
CONTINUOUS
 10
42.0
 20
26.2000000001
 11
42.0
 21
23.1999999999
  0
LINE
  5
2BC
100
AcDbEntity
  8
IMPORT_IGES
100
AcDbLine
 62
7
  6
CONTINUOUS
 10
42.0
 20
2.0
 11
42.0
 21
-2.0
  0
LINE
  5
2BD
100
AcDbEntity
  8
IMPORT_IGES
100
AcDbLine
 62
7
  6
CONTINUOUS
 10
42.84
 20
23.1999999999
 11
42.84
 21
26.2000000001
  0
LINE
  5
2BE
100
AcDbEntity
  8
IMPORT_IGES
100
AcDbLine
 62
7
  6
CONTINUOUS
 10
45.0
 20
-35.5
 11
45.0
 21
-35.2639758032
  0
LWPOLYLINE
  5
2BF
100
AcDbEntity
  8
IMPORT_IGES
100
AcDbPolyline
 62
250
  6
CONTINUOUS
 90
28
 70
0
 10
-60.8514008457
 20
39.8511749996
 10
-60.9385880202
 20
39.8486121972
 10
-61.0254803034
 20
39.8409852672
 10
-61.1117837927
 20
39.8283200065
 10
-61.197206577
 20
39.810659254
 10
-61.2814597239
 20
39.7880627451
 10
-61.3642582575
 20
39.7606069096
 10
-61.4453221216
 20
39.7283846136
 10
-61.5243771276
 20
39.6915048452
 10
-61.6011558815
 20
39.6500923457
 10
-61.6753986883
 20
39.6042871879
 10
-61.7468544307
 20
39.5542443022
 10
-61.8152814184
 20
39.5001329526
 10
-61.8804482054
 20
39.4421361643
 10
-61.9421343727
 20
39.3804501043
 10
-62.0001312744
 20
39.3152834182
 10
-62.0542427431
 20
39.2468565247
 10
-62.1042857531
 20
39.1754008693
 10
-62.1500910401
 20
39.1011581421
 10
-62.1915036732
 20
39.0243794603
 10
-62.2283835792
 20
38.9453245185
 10
-62.2606060163
 20
38.8642607104
 10
-62.2880619958
 20
38.7814622246
 10
-62.3106586514
 20
38.6972091169
 10
-62.3283195526
 20
38.6117863633
 10
-62.3409849634
 20
38.525482896
 10
-62.3486120447
 20
38.4385906261
 10
-62.3511749988
 20
38.351403456
  0
LINE
  5
2C0
100
AcDbEntity
  8
IMPORT_IGES
100
AcDbLine
 62
7
  6
CONTINUOUS
 10
46.0
 20
-35.2639758034
 11
46.0
 21
-35.5
  0
LINE
  5
2C1
100
AcDbEntity
  8
IMPORT_IGES
100
AcDbLine
 62
7
  6
CONTINUOUS
 10
46.0
 20
-2.0
 11
46.0
 21
2.0
  0
LINE
  5
2C2
100
AcDbEntity
  8
IMPORT_IGES
100
AcDbLine
 62
7
  6
CONTINUOUS
 10
47.0
 20
2.0
 11
47.0
 21
-2.0
  0
LINE
  5
2C3
100
AcDbEntity
  8
IMPORT_IGES
100
AcDbLine
 62
7
  6
CONTINUOUS
 10
50.0
 20
-19.0
 11
50.0
 21
-33.0
  0
LINE
  5
2C4
100
AcDbEntity
  8
IMPORT_IGES
100
AcDbLine
 62
7
  6
CONTINUOUS
 10
50.0
 20
-2.0
 11
50.0
 21
2.0
  0
LINE
  5
2C5
100
AcDbEntity
  8
IMPORT_IGES
100
AcDbLine
 62
7
  6
CONTINUOUS
 10
51.0
 20
2.0
 11
51.0
 21
-2.0
  0
LINE
  5
2C6
100
AcDbEntity
  8
IMPORT_IGES
100
AcDbLine
 62
7
  6
CONTINUOUS
 10
52.0
 20
-18.4999999999
 11
52.0
 21
-33.5000000001
  0
LINE
  5
2C7
100
AcDbEntity
  8
IMPORT_IGES
100
AcDbLine
 62
7
  6
CONTINUOUS
 10
53.0
 20
-33.5000000001
 11
53.0
 21
-18.4999999999
  0
LINE
  5
2C8
100
AcDbEntity
  8
IMPORT_IGES
100
AcDbLine
 62
7
  6
CONTINUOUS
 10
55.0
 20
-2.0
 11
55.0
 21
2.0
  0
LINE
  5
2C9
100
AcDbEntity
  8
IMPORT_IGES
100
AcDbLine
 62
7
  6
CONTINUOUS
 10
56.0
 20
2.0
 11
56.0
 21
-2.0
  0
LWPOLYLINE
  5
2CA
100
AcDbEntity
  8
IMPORT_IGES
100
AcDbPolyline
 62
250
  6
CONTINUOUS
 90
28
 70
0
 10
62.3511749988
 20
38.351403456
 10
62.3486120546
 20
38.4385904561
 10
62.3409850013
 20
38.5254825723
 10
62.3283196338
 20
38.6117859032
 10
62.3106587883
 20
38.6972085402
 10
62.2880621978
 20
38.7814615504
 10
62.2606062914
 20
38.864259955
 10
62.2283839329
 20
38.9453236989
 10
62.191504109
 20
39.0243785931
 10
62.1500915616
 20
39.1011572392
 10
62.1042863631
 20
39.1753999421
 10
62.0542434426
 20
39.2468555852
 10
62.0001320654
 20
39.3152824758
 10
61.9421352557
 20
39.3804491684
 10
61.8804491805
 20
39.4421352443
 10
61.8152824883
 20
39.5001320548
 10
61.7468555981
 20
39.554243433
 10
61.675399955
 20
39.6042863546
 10
61.601157252
 20
39.6500915542
 10
61.5243786055
 20
39.6915041027
 10
61.4453237106
 20
39.7283839279
 10
61.3642599658
 20
39.7606062874
 10
61.2814616756
 20
39.7880621603
 10
61.1972087831
 20
39.8106587306
 10
61.1117859097
 20
39.8283196327
 10
61.0254818577
 20
39.8409850851
 10
60.9385886517
 20
39.8486121603
 10
60.8514001983
 20
39.8511749998
  0
LINE
  5
2CB
100
AcDbEntity
  8
IMPORT_IGES
100
AcDbLine
 62
250
  6
CONTINUOUS
 10
60.8514034561
 20
39.8511749988
 11
60.851403456
 21
-39.8511749988
  0
LINE
  5
2CC
100
AcDbEntity
  8
IMPORT_IGES
100
AcDbLine
 62
250
  6
CONTINUOUS
 10
62.3511749988
 20
-38.3514034561
 11
62.3511749988
 21
38.351403456
  0
LINE
  5
2CD
100
AcDbEntity
  8
IMPORT_IGES
100
AcDbLine
 62
7
  6
CONTINUOUS
 10
62.4127246754
 20
27.4386944084
 11
62.4127246754
 21
-27.4386944084
  0
LINE
  5
2CE
100
AcDbEntity
  8
IMPORT_IGES
100
AcDbLine
 62
7
  6
CONTINUOUS
 10
62.5349101299
 20
38.5351385042
 11
62.5349101299
 21
29.0349101299
  0
LINE
  5
2CF
100
AcDbEntity
  8
IMPORT_IGES
100
AcDbLine
 62
7
  6
CONTINUOUS
 10
62.5349101299
 20
-29.0349101299
 11
62.5349101299
 21
-38.5351385006
  0
LINE
  5
2D0
100
AcDbEntity
  8
IMPORT_IGES
100
AcDbLine
 62
7
  6
CONTINUOUS
 10
62.9127246754
 20
27.4386944305
 11
62.9127246754
 21
-27.4386883439
  0
LINE
  5
2D1
100
AcDbEntity
  8
IMPORT_IGES
100
AcDbLine
 62
7
  6
CONTINUOUS
 10
63.0349101299
 20
29.0349101299
 11
63.0349101299
 21
-29.0349101299
  0
CIRCLE
  5
2D2
100
AcDbEntity
  8
IMPORT_IGES
100
AcDbCircle
 62
7
  6
CONTINUOUS
 10
-57.0
 20
-33.0
 40
2.0
  0
CIRCLE
  5
2D3
100
AcDbEntity
  8
IMPORT_IGES
100
AcDbCircle
 62
250
  6
CONTINUOUS
 10
-57.0
 20
-33.0
 40
1.0
  0
ARC
  5
2D4
100
AcDbEntity
  8
IMPORT_IGES
100
AcDbCircle
 62
7
  6
CONTINUOUS
 10
-39.0
 20
23.2
 40
3.84
100
AcDbArc
 50
180.0000000021
 51
269.9999999978
  0
ARC
  5
2D5
100
AcDbEntity
  8
IMPORT_IGES
100
AcDbCircle
 62
7
  6
CONTINUOUS
 10
-39.0
 20
26.2
 40
3.84
100
AcDbArc
 50
90.0000000021
 51
179.9999999979
  0
ARC
  5
2D6
100
AcDbEntity
  8
IMPORT_IGES
100
AcDbCircle
 62
7
  6
CONTINUOUS
 10
-41.0
 20
-0.0
 40
3.0
100
AcDbArc
 50
90.0
 51
270.0
  0
ARC
  5
2D7
100
AcDbEntity
  8
IMPORT_IGES
100
AcDbCircle
 62
7
  6
CONTINUOUS
 10
-37.0
 20
-0.0
 40
3.0
100
AcDbArc
 50
270.0
 51
90.0
  0
ARC
  5
2D8
100
AcDbEntity
  8
IMPORT_IGES
100
AcDbCircle
 62
7
  6
CONTINUOUS
 10
-55.0
 20
-0.0
 40
3.0
100
AcDbArc
 50
90.0
 51
270.0
  0
ARC
  5
2D9
100
AcDbEntity
  8
IMPORT_IGES
100
AcDbCircle
 62
7
  6
CONTINUOUS
 10
-51.0
 20
-0.0
 40
3.0
100
AcDbArc
 50
270.0
 51
90.0
  0
ARC
  5
2DA
100
AcDbEntity
  8
IMPORT_IGES
100
AcDbCircle
 62
7
  6
CONTINUOUS
 10
-39.0
 20
23.2
 40
3.0
100
AcDbArc
 50
180.0000000022
 51
269.9999999976
  0
ARC
  5
2DB
100
AcDbEntity
  8
IMPORT_IGES
100
AcDbCircle
 62
7
  6
CONTINUOUS
 10
-39.0
 20
26.2
 40
3.0
100
AcDbArc
 50
90.0000000026
 51
179.9999999976
  0
ARC
  5
2DC
100
AcDbEntity
  8
IMPORT_IGES
100
AcDbCircle
 62
7
  6
CONTINUOUS
 10
-37.0
 20
-0.0
 40
2.0
100
AcDbArc
 50
270.0
 51
90.0000000003
  0
ARC
  5
2DD
100
AcDbEntity
  8
IMPORT_IGES
100
AcDbCircle
 62
7
  6
CONTINUOUS
 10
-41.0
 20
-0.0
 40
2.0
100
AcDbArc
 50
90.0
 51
269.9999999997
  0
ARC
  5
2DE
100
AcDbEntity
  8
IMPORT_IGES
100
AcDbCircle
 62
7
  6
CONTINUOUS
 10
-51.0
 20
-0.0
 40
2.0
100
AcDbArc
 50
270.0
 51
90.0000000003
  0
ARC
  5
2DF
100
AcDbEntity
  8
IMPORT_IGES
100
AcDbCircle
 62
7
  6
CONTINUOUS
 10
-55.0
 20
-0.0
 40
2.0
100
AcDbArc
 50
90.0
 51
269.9999999997
  0
CIRCLE
  5
2E0
100
AcDbEntity
  8
IMPORT_IGES
100
AcDbCircle
 62
7
  6
CONTINUOUS
 10
-57.0
 20
33.0
 40
2.0
  0
ARC
  5
2E1
100
AcDbEntity
  8
IMPORT_IGES
100
AcDbCircle
 62
7
  6
CONTINUOUS
 10
-39.0
 20
26.2
 40
1.5
100
AcDbArc
 50
90.0000000044
 51
179.9999999953
  0
ARC
  5
2E2
100
AcDbEntity
  8
IMPORT_IGES
100
AcDbCircle
 62
7
  6
CONTINUOUS
 10
-39.0
 20
23.2
 40
1.5
100
AcDbArc
 50
180.0000000044
 51
269.9999999953
  0
CIRCLE
  5
2E3
100
AcDbEntity
  8
IMPORT_IGES
100
AcDbCircle
 62
250
  6
CONTINUOUS
 10
-57.0
 20
33.0
 40
1.0
  0
ARC
  5
2E4
100
AcDbEntity
  8
IMPORT_IGES
100
AcDbCircle
 62
7
  6
CONTINUOUS
 10
44.0
 20
-2.0
 40
3.0
100
AcDbArc
 50
180.0000000024
 51
359.9999999976
  0
ARC
  5
2E5
100
AcDbEntity
  8
IMPORT_IGES
100
AcDbCircle
 62
7
  6
CONTINUOUS
 10
53.0
 20
-2.0
 40
3.0
100
AcDbArc
 50
180.0000000024
 51
359.9999999976
  0
CIRCLE
  5
2E6
100
AcDbEntity
  8
IMPORT_IGES
100
AcDbCircle
 62
7
  6
CONTINUOUS
 10
47.0
 20
-26.0
 40
3.0
  0
ARC
  5
2E7
100
AcDbEntity
  8
IMPORT_IGES
100
AcDbCircle
 62
7
  6
CONTINUOUS
 10
50.0
 20
-33.5
 40
3.0
100
AcDbArc
 50
270.0000000024
 51
359.9999999974
  0
ARC
  5
2E8
100
AcDbEntity
  8
IMPORT_IGES
100
AcDbCircle
 62
7
  6
CONTINUOUS
 10
50.0
 20
-18.5
 40
3.0
100
AcDbArc
 50
0.0000000024
 51
89.9999999974
  0
ARC
  5
2E9
100
AcDbEntity
  8
IMPORT_IGES
100
AcDbCircle
 62
7
  6
CONTINUOUS
 10
32.0
 20
-18.5
 40
3.0
100
AcDbArc
 50
90.0000000024
 51
179.999999998
  0
ARC
  5
2EA
100
AcDbEntity
  8
IMPORT_IGES
100
AcDbCircle
 62
7
  6
CONTINUOUS
 10
32.0
 20
-33.5
 40
3.0
100
AcDbArc
 50
180.0000000024
 51
269.9999999978
  0
ARC
  5
2EB
100
AcDbEntity
  8
IMPORT_IGES
100
AcDbCircle
 62
7
  6
CONTINUOUS
 10
44.0
 20
-2.0
 40
2.0
100
AcDbArc
 50
180.0000000033
 51
359.9999999967
  0
ARC
  5
2EC
100
AcDbEntity
  8
IMPORT_IGES
100
AcDbCircle
 62
7
  6
CONTINUOUS
 10
53.0
 20
-2.0
 40
2.0
100
AcDbArc
 50
180.0000000033
 51
359.9999999967
  0
CIRCLE
  5
2ED
100
AcDbEntity
  8
IMPORT_IGES
100
AcDbCircle
 62
7
  6
CONTINUOUS
 10
47.0
 20
-26.0
 40
2.0
  0
ARC
  5
2EE
100
AcDbEntity
  8
IMPORT_IGES
100
AcDbCircle
 62
7
  6
CONTINUOUS
 10
32.0
 20
-18.5
 40
2.0
100
AcDbArc
 50
90.000000003
 51
179.9999999967
  0
ARC
  5
2EF
100
AcDbEntity
  8
IMPORT_IGES
100
AcDbCircle
 62
7
  6
CONTINUOUS
 10
50.0
 20
-18.5
 40
2.0
100
AcDbArc
 50
0.000000003
 51
89.9999999967
  0
ARC
  5
2F0
100
AcDbEntity
  8
IMPORT_IGES
100
AcDbCircle
 62
7
  6
CONTINUOUS
 10
50.0
 20
-33.5
 40
2.0
100
AcDbArc
 50
270.0000000036
 51
359.9999999967
  0
ARC
  5
2F1
100
AcDbEntity
  8
IMPORT_IGES
100
AcDbCircle
 62
7
  6
CONTINUOUS
 10
32.0
 20
-33.5
 40
2.0
100
AcDbArc
 50
180.0000000036
 51
269.9999999967
  0
CIRCLE
  5
2F2
100
AcDbEntity
  8
IMPORT_IGES
100
AcDbCircle
 62
7
  6
CONTINUOUS
 10
57.0
 20
-33.0
 40
2.0
  0
CIRCLE
  5
2F3
100
AcDbEntity
  8
IMPORT_IGES
100
AcDbCircle
 62
250
  6
CONTINUOUS
 10
57.0
 20
-33.0
 40
1.0
  0
ARC
  5
2F4
100
AcDbEntity
  8
IMPORT_IGES
100
AcDbCircle
 62
7
  6
CONTINUOUS
 10
49.5
 20
-19.0
 40
0.5
100
AcDbArc
 50
0.0000000078
 51
89.9999999899
  0
ARC
  5
2F5
100
AcDbEntity
  8
IMPORT_IGES
100
AcDbCircle
 62
7
  6
CONTINUOUS
 10
32.5
 20
-19.0
 40
0.5
100
AcDbArc
 50
90.000000009
 51
179.9999999899
  0
ARC
  5
2F6
100
AcDbEntity
  8
IMPORT_IGES
100
AcDbCircle
 62
7
  6
CONTINUOUS
 10
32.5
 20
-33.0
 40
0.5
100
AcDbArc
 50
180.0000000124
 51
269.9999999899
  0
ARC
  5
2F7
100
AcDbEntity
  8
IMPORT_IGES
100
AcDbCircle
 62
7
  6
CONTINUOUS
 10
49.5
 20
-33.0
 40
0.5
100
AcDbArc
 50
270.0000000101
 51
359.9999999899
  0
ARC
  5
2F8
100
AcDbEntity
  8
IMPORT_IGES
100
AcDbCircle
 62
7
  6
CONTINUOUS
 10
39.0
 20
23.2
 40
3.84
100
AcDbArc
 50
270.0000000021
 51
359.9999999981
  0
ARC
  5
2F9
100
AcDbEntity
  8
IMPORT_IGES
100
AcDbCircle
 62
7
  6
CONTINUOUS
 10
39.0
 20
26.2
 40
3.84
100
AcDbArc
 50
0.0000000022
 51
89.9999999979
  0
ARC
  5
2FA
100
AcDbEntity
  8
IMPORT_IGES
100
AcDbCircle
 62
7
  6
CONTINUOUS
 10
44.0
 20
2.0
 40
3.0
100
AcDbArc
 50
0.0000000026
 51
179.9999999976
  0
ARC
  5
2FB
100
AcDbEntity
  8
IMPORT_IGES
100
AcDbCircle
 62
7
  6
CONTINUOUS
 10
53.0
 20
2.0
 40
3.0
100
AcDbArc
 50
0.0000000026
 51
179.9999999976
  0
ARC
  5
2FC
100
AcDbEntity
  8
IMPORT_IGES
100
AcDbCircle
 62
7
  6
CONTINUOUS
 10
39.0
 20
26.2
 40
3.0
100
AcDbArc
 50
0.0000000026
 51
89.9999999976
  0
ARC
  5
2FD
100
AcDbEntity
  8
IMPORT_IGES
100
AcDbCircle
 62
7
  6
CONTINUOUS
 10
39.0
 20
23.2
 40
3.0
100
AcDbArc
 50
270.0000000026
 51
359.9999999976
  0
ARC
  5
2FE
100
AcDbEntity
  8
IMPORT_IGES
100
AcDbCircle
 62
7
  6
CONTINUOUS
 10
44.0
 20
2.0
 40
2.0
100
AcDbArc
 50
0.0000000033
 51
179.9999999964
  0
ARC
  5
2FF
100
AcDbEntity
  8
IMPORT_IGES
100
AcDbCircle
 62
7
  6
CONTINUOUS
 10
53.0
 20
2.0
 40
2.0
100
AcDbArc
 50
0.0000000033
 51
179.9999999964
  0
CIRCLE
  5
300
100
AcDbEntity
  8
IMPORT_IGES
100
AcDbCircle
 62
7
  6
CONTINUOUS
 10
57.0
 20
33.0
 40
2.0
  0
ARC
  5
301
100
AcDbEntity
  8
IMPORT_IGES
100
AcDbCircle
 62
7
  6
CONTINUOUS
 10
39.0
 20
23.2
 40
1.5
100
AcDbArc
 50
270.0000000044
 51
359.999999996
  0
ARC
  5
302
100
AcDbEntity
  8
IMPORT_IGES
100
AcDbCircle
 62
7
  6
CONTINUOUS
 10
39.0
 20
26.2
 40
1.5
100
AcDbArc
 50
0.0000000044
 51
89.9999999953
  0
CIRCLE
  5
303
100
AcDbEntity
  8
IMPORT_IGES
100
AcDbCircle
 62
250
  6
CONTINUOUS
 10
57.0
 20
33.0
 40
1.0
  0
ELLIPSE
  5
304
100
AcDbEntity
  8
IMPORT_IGES
100
AcDbEllipse
 62
7
  6
CONTINUOUS
 10
61.0346816378
 20
38.5346816378
 30
0.0
 11
-1.0609832838
 21
-1.0609832838
 31
0.0
 40
0.9996954599
 41
2.3563467282
 42
3.9268407094
  0
ELLIPSE
  5
305
100
AcDbEntity
  8
IMPORT_IGES
100
AcDbEllipse
 62
7
  6
CONTINUOUS
 10
-61.0346816378
 20
38.5346816378
 30
0.0
 11
-1.0609832838
 21
1.0609832838
 31
0.0
 40
0.9996954599
 41
-0.7852476225
 42
0.7852459164
  0
ELLIPSE
  5
306
100
AcDbEntity
  8
IMPORT_IGES
100
AcDbEllipse
 62
7
  6
CONTINUOUS
 10
-61.0346816378
 20
-38.5346816378
 30
0.0
 11
1.0609832838
 21
1.0609832838
 31
0.0
 40
0.9996954599
 41
2.3563467363
 42
3.9268402781
  0
ELLIPSE
  5
307
100
AcDbEntity
  8
IMPORT_IGES
100
AcDbEllipse
 62
7
  6
CONTINUOUS
 10
61.0346816378
 20
-38.5346816378
 30
0.0
 11
1.0609832838
 21
-1.0609832838
 31
0.0
 40
0.9996954599
 41
-0.785248057
 42
0.7852459278
  0
ELLIPSE
  5
308
100
AcDbEntity
  8
IMPORT_IGES
100
AcDbEllipse
 62
7
  6
CONTINUOUS
 10
-62.4389072728
 20
27.4386787807
 30
0.0
 11
-0.0
 21
1.5
 31
0.0
 40
0.0174550649
 41
-1.5707858936
 42
-0.0174532888
  0
ELLIPSE
  5
309
100
AcDbEntity
  8
IMPORT_IGES
100
AcDbEllipse
 62
7
  6
CONTINUOUS
 10
-62.9389072728
 20
-27.4386787807
 30
0.0
 11
0.0
 21
1.5
 31
0.0
 40
0.0174550649
 41
-3.124149789
 42
-1.5708027213
  0
ELLIPSE
  5
30A
100
AcDbEntity
  8
IMPORT_IGES
100
AcDbEllipse
 62
7
  6
CONTINUOUS
 10
-45.0
 20
39.9301797403
 30
0.0
 11
2.1
 21
-0.0
 31
0.0
 40
0.0174550649
 41
0.0
 42
6.2831853072
  0
ELLIPSE
  5
30B
100
AcDbEntity
  8
IMPORT_IGES
100
AcDbEllipse
 62
7
  6
CONTINUOUS
 10
45.0
 20
39.9301797403
 30
0.0
 11
2.1
 21
0.0
 31
0.0
 40
0.0174550649
 41
0.0
 42
6.2831853072
  0
ELLIPSE
  5
30C
100
AcDbEntity
  8
IMPORT_IGES
100
AcDbEllipse
 62
7
  6
CONTINUOUS
 10
-62.4389072728
 20
-27.4386787807
 30
0.0
 11
-0.0
 21
1.5
 31
0.0
 40
0.0174550649
 41
-3.1241497886
 42
-1.5708027023
  0
ELLIPSE
  5
30D
100
AcDbEntity
  8
IMPORT_IGES
100
AcDbEllipse
 62
7
  6
CONTINUOUS
 10
-62.9389072728
 20
27.4386787807
 30
0.0
 11
-0.0
 21
1.5
 31
0.0
 40
0.0174550649
 41
-1.5707859043
 42
-0.0174532892
  0
ELLIPSE
  5
30E
100
AcDbEntity
  8
IMPORT_IGES
100
AcDbEllipse
 62
7
  6
CONTINUOUS
 10
62.4389072728
 20
27.4386787807
 30
0.0
 11
-0.0
 21
1.5
 31
0.0
 40
0.0174550649
 41
0.0174532887
 42
1.5707859043
  0
ELLIPSE
  5
30F
100
AcDbEntity
  8
IMPORT_IGES
100
AcDbEllipse
 62
7
  6
CONTINUOUS
 10
62.9389072728
 20
27.4386787807
 30
0.0
 11
-0.0
 21
1.5
 31
0.0
 40
0.0174550649
 41
0.0174532888
 42
1.5707858936
  0
ELLIPSE
  5
310
100
AcDbEntity
  8
IMPORT_IGES
100
AcDbEllipse
 62
7
  6
CONTINUOUS
 10
62.9389072728
 20
-27.4386787807
 30
0.0
 11
0.0
 21
1.5
 31
0.0
 40
0.0174550649
 41
-4.7123826049
 42
-3.1590355182
  0
ELLIPSE
  5
311
100
AcDbEntity
  8
IMPORT_IGES
100
AcDbEllipse
 62
7
  6
CONTINUOUS
 10
62.4389072728
 20
-27.4386787807
 30
0.0
 11
-0.0
 21
1.5
 31
0.0
 40
0.0174550649
 41
-4.7123825859
 42
-3.1590355186
  0
ENDSEC
  0
SECTION
  2
OBJECTS
  0
DICTIONARY
  5
C
100
AcDbDictionary
280
0
281
1
  3
ACAD_GROUP
350
D
  3
ACAD_MLINESTYLE
350
17
  3
ACAD_LAYOUT
350
1A
  3
ACAD_PLOTSETTINGS
350
19
  3
ACAD_PLOTSTYLENAME
350
E
  0
DICTIONARY
  5
D
102
{ACAD_REACTORS
330
C
102
}
100
AcDbDictionary
280
0
281
1
  0
ACDBDICTIONARYWDFLT
  5
E
102
{ACAD_REACTORS
330
C
102
}
100
AcDbDictionary
281
1
  3
Normal
350
F
100
AcDbDictionaryWithDefault
340
F
  0
DICTIONARY
  5
17
102
{ACAD_REACTORS
330
C
102
}
100
AcDbDictionary
280
0
281
1
  3
Standard
350
18
  0
DICTIONARY
  5
19
102
{ACAD_REACTORS
330
C
102
}
100
AcDbDictionary
281
1
  0
DICTIONARY
  5
1A
102
{ACAD_REACTORS
330
C
102
}
100
AcDbDictionary
281
1
  3
Model
350
312
  3
Layout1
350
313
  0
ACDBPLACEHOLDER
  5
F
102
{ACAD_REACTORS
330
E
102
}
  0
MLINESTYLE
  5
18
102
{ACAD_REACTORS
330
17
102
}
100
AcDbMlineStyle
  2
STANDARD
 70
0
  3

 62
256
 51
90.0
 52
90.0
 71
2
 49
0.5
 62
256
  6
BYLAYER
 49
-0.5
 62
256
  6
BYLAYER
  0
LAYOUT
  5
312
102
{ACAD_REACTORS
330
1A
102
}
100
AcDbPlotSettings
  1

  2
none_device
  4
ISO_A4_(297.00_x_210.00_MM)
  6

 40
0.0
 41
0.0
 42
0.0
 43
0.0
 44
297.0
 45
210.0
 46
0.0
 47
0.0
 48
0.0
 49
0.0
140
0.0
141
0.0
142
1.0
143
1.0
 70
1024
 72
1
 73
0
 74
0
  7

 75
0
147
1.0
148
0.0
149
0.0
100
AcDbLayout
  1
Model
 70
0
 71
0
 10
0.0
 20
0.0
 11
297.0
 21
210.0
 12
0.0
 22
0.0
 32
0.0
 14
0.0
 24
0.0
 34
0.0
 15
0.0
 25
0.0
 35
0.0
146
0.0
 13
0.0
 23
0.0
 33
0.0
 16
1.0
 26
0.0
 36
0.0
 17
0.0
 27
1.0
 37
0.0
 76
0
330
20E
345
0
346
0
  0
LAYOUT
  5
313
102
{ACAD_REACTORS
330
1A
102
}
100
AcDbPlotSettings
  1

  2
none_device
  4
ISO_A4_(297.00_x_210.00_MM)
  6

 40
0.0
 41
0.0
 42
0.0
 43
0.0
 44
297.0
 45
210.0
 46
0.0
 47
0.0
 48
0.0
 49
0.0
140
0.0
141
0.0
142
1.0
143
1.0
 70
0
 72
1
 73
0
 74
0
  7

 75
0
147
1.0
148
0.0
149
0.0
100
AcDbLayout
  1
Layout1
 70
0
 71
1
 10
0.0
 20
0.0
 11
297.0
 21
210.0
 12
0.0
 22
0.0
 32
0.0
 14
0.0
 24
0.0
 34
0.0
 15
0.0
 25
0.0
 35
0.0
146
0.0
 13
0.0
 23
0.0
 33
0.0
 16
1.0
 26
0.0
 36
0.0
 17
0.0
 27
1.0
 37
0.0
 76
0
330
20F
345
0
346
0
  0
ENDSEC
  0
EOF
