  0
SECTION
  2
HEADER
  9
$ACADVER
  1
AC1024
  9
$DWGCODEPAGE
  3
ANSI_1252
  9
$EXTMAX
 10
297.0
 20
210.0
 30
0.0
  9
$EXTMIN
 10
0.0
 20
0.0
 30
0.0
  9
$LIMMIN
 10
0.0
 20
0.0
  9
$LIMMAX
 10
297.0
 20
210.0
  9
$VIEWCTR
 10
148.5
 20
105.0
  9
$VIEWSIZE
 40
210.0
  9
$CLAYER
  8
0
  9
$LTSCALE
 40
16.335
  9
$CELTYPE
  6
BYLAYER
  9
$DIMSCALE
 40
1.0
  9
$DIMASZ
 40
3.0
  9
$DIMEXO
 40
0.5
  9
$DIMDLI
 40
11.286
  9
$DIMEXE
 40
1.5
  9
$DIMCEN
 40
2.673
  9
$DIMLFAC
 40
1.0
  9
$DIMBLK
  1
_FILLED
  9
$DIMALT
 70
0
  9
$DIMALTF
 40
0.0393700787
  9
$DIMTXT
 40
3.0
  9
$DIMTOL
 70
1
  9
$DIMLIM
 70
0
  9
$DIMTFAC
 40
1.0
  9
$DIMTP
 40
0.01
  9
$DIMTM
 40
0.01
  9
$DIMGAP
 40
0.625
  9
$DIMDSEP
 70
44
  9
$AUNITS
 70
0
  9
$PDMODE
 70
3
  9
$PDSIZE
 40
3.0
  9
$HANDSEED
  5
591
  9
$TILEMODE
 70
1
  9
$MEASUREMENT
 70
1
  9
$INSUNITS
 70
4
  0
ENDSEC
  0
SECTION
  2
CLASSES
  0
CLASS
  1
ACDBDICTIONARYWDFLT
  2
AcDbDictionaryWithDefault
  3
AutoCAD 2000
 90
0
 91
1
280
0
281
0
  0
CLASS
  1
ACDBPLACEHOLDER
  2
AcDbPlaceHolder
  3
AutoCAD 2000
 90
0
 91
1
280
0
281
0
  0
CLASS
  1
LAYOUT
  2
AcDbLayout
  3
AutoCAD 2000
 90
0
 91
0
280
0
281
0
  0
ENDSEC
  0
SECTION
  2
TABLES
  0
TABLE
  2
VPORT
  5
8
100
AcDbSymbolTable
 70
2
  0
VPORT
  5
1F4
100
AcDbSymbolTableRecord
100
AcDbViewportTableRecord
  2
*ACTIVE
 70
0
 10
0.0
 20
0.0
 11
1.0
 21
1.0
 12
148.5
 22
105.0
 13
0.0
 23
0.0
 14
1.0
 24
1.0
 15
0.0
 25
0.0
 16
0.0
 26
0.0
 36
1.0
 17
0.0
 27
0.0
 37
0.0
 40
210.0
 41
1.4142857143
 42
50.0
 43
0.0
 44
0.0
 50
0.0
 51
0.0
 71
0
 72
100
 73
1
 74
1
 75
0
 76
0
 77
0
 78
0
  0
ENDTAB
  0
TABLE
  2
LTYPE
  5
5
100
AcDbSymbolTable
 70
6
  0
LTYPE
  5
14
100
AcDbSymbolTableRecord
100
AcDbLinetypeTableRecord
  2
BYBLOCK
 70
0
  3

 72
65
 73
0
 40
0.0
  0
LTYPE
  5
15
100
AcDbSymbolTableRecord
100
AcDbLinetypeTableRecord
  2
BYLAYER
 70
0
  3

 72
65
 73
0
 40
0.0
  0
LTYPE
  5
16
100
AcDbSymbolTableRecord
100
AcDbLinetypeTableRecord
  2
CONTINUOUS
 70
64
  3
Solid line
 72
65
 73
0
 40
0.0
  0
LTYPE
  5
1F5
100
AcDbSymbolTableRecord
100
AcDbLinetypeTableRecord
  2
CENTER
 70
64
  3
____ _ ____ _ ____ _ ____ _ ____ _ ____ _ ____
 72
65
 73
4
 40
0.6
 49
0.375
 74
0
 49
-0.075
 74
0
 49
0.075
 74
0
 49
-0.075
 74
0
  0
LTYPE
  5
1F6
100
AcDbSymbolTableRecord
100
AcDbLinetypeTableRecord
  2
HIDDEN
 70
64
  3
- - - - - - - - - - - - - - - - - - - -
 72
65
 73
2
 40
0.2
 49
0.1
 74
0
 49
-0.1
 74
0
  0
LTYPE
  5
1F7
100
AcDbSymbolTableRecord
100
AcDbLinetypeTableRecord
  2
PHANTOM
 70
64
  3
_____ _ _ _____ _ _ _____ _ _ _____
 72
65
 73
6
 40
0.8
 49
0.45
 74
0
 49
-0.05
 74
0
 49
0.1
 74
0
 49
-0.05
 74
0
 49
0.1
 74
0
 49
-0.05
 74
0
  0
LTYPE
  5
1F8
100
AcDbSymbolTableRecord
100
AcDbLinetypeTableRecord
  2
DOT
 70
64
  3
. . . . . . . . . . . . . . . . . . . .
 72
65
 73
2
 40
0.2
 49
0.1
 74
0
 49
-0.1
 74
0
  0
LTYPE
  5
1F9
100
AcDbSymbolTableRecord
100
AcDbLinetypeTableRecord
  2
DASHED
 70
64
  3
- - - - - - - - - - - - - - - - - - - -
 72
65
 73
2
 40
0.2
 49
0.1
 74
0
 49
-0.1
 74
0
  0
ENDTAB
  0
TABLE
  2
LAYER
  5
2
100
AcDbSymbolTable
 70
36
  0
LAYER
  5
10
100
AcDbSymbolTableRecord
100
AcDbLayerTableRecord
  2
0
 70
0
 62
7
  6
CONTINUOUS
370
-3
390
F
  0
LAYER
  5
1FA
100
AcDbSymbolTableRecord
100
AcDbLayerTableRecord
  2
DEFAULT_1
 70
0
 62
7
  6
CENTER
370
-3
390
F
  0
LAYER
  5
1FB
100
AcDbSymbolTableRecord
100
AcDbLayerTableRecord
  2
DEFAULT_2
 70
0
 62
7
  6
HIDDEN
370
-3
390
F
  0
LAYER
  5
1FC
100
AcDbSymbolTableRecord
100
AcDbLayerTableRecord
  2
DEFAULT_3
 70
0
 62
7
  6
PHANTOM
370
-3
390
F
  0
LAYER
  5
1FD
100
AcDbSymbolTableRecord
100
AcDbLayerTableRecord
  2
03810-03820_IN360_NEXUS4G_ASM_1
 70
0
 62
7
  6
CONTINUOUS
370
-3
390
F
  0
LAYER
  5
1FE
100
AcDbSymbolTableRecord
100
AcDbLayerTableRecord
  2
693010020611_1_1
 70
0
 62
7
  6
CONTINUOUS
370
-3
390
F
  0
LAYER
  5
1FF
100
AcDbSymbolTableRecord
100
AcDbLayerTableRecord
  2
693010020611_CAP_1_1
 70
0
 62
7
  6
CONTINUOUS
370
-3
390
F
  0
LAYER
  5
200
100
AcDbSymbolTableRecord
100
AcDbLayerTableRecord
  2
693010020611_PIN2_1_1
 70
0
 62
7
  6
CONTINUOUS
370
-3
390
F
  0
LAYER
  5
201
100
AcDbSymbolTableRecord
100
AcDbLayerTableRecord
  2
693010020611_PIN2_1_1_1
 70
0
 62
7
  6
CONTINUOUS
370
-3
390
F
  0
LAYER
  5
202
100
AcDbSymbolTableRecord
100
AcDbLayerTableRecord
  2
693010020611_PIN2_1_1_2
 70
0
 62
7
  6
CONTINUOUS
370
-3
390
F
  0
LAYER
  5
203
100
AcDbSymbolTableRecord
100
AcDbLayerTableRecord
  2
693010020611_PIN2_1_1_3
 70
0
 62
7
  6
CONTINUOUS
370
-3
390
F
  0
LAYER
  5
204
100
AcDbSymbolTableRecord
100
AcDbLayerTableRecord
  2
693010020611_PIN2_1_1_4
 70
0
 62
7
  6
CONTINUOUS
370
-3
390
F
  0
LAYER
  5
205
100
AcDbSymbolTableRecord
100
AcDbLayerTableRecord
  2
693010020611_PIN2_1_1_5
 70
0
 62
7
  6
CONTINUOUS
370
-3
390
F
  0
LAYER
  5
206
100
AcDbSymbolTableRecord
100
AcDbLayerTableRecord
  2
ASSEM1_ASM_1_1
 70
0
 62
7
  6
CONTINUOUS
370
-3
390
F
  0
LAYER
  5
207
100
AcDbSymbolTableRecord
100
AcDbLayerTableRecord
  2
ASSI
 70
0
 62
7
  6
CONTINUOUS
370
-3
390
F
  0
LAYER
  5
208
100
AcDbSymbolTableRecord
100
AcDbLayerTableRecord
  2
ATTACCO-ANTENNA-NEXUS_2
 70
0
 62
7
  6
CONTINUOUS
370
-3
390
F
  0
LAYER
  5
209
100
AcDbSymbolTableRecord
100
AcDbLayerTableRecord
  2
ATTACCO-ANTENNA-NEXUS_OA_3_2
 70
0
 62
7
  6
CONTINUOUS
370
-3
390
F
  0
LAYER
  5
20A
100
AcDbSymbolTableRecord
100
AcDbLayerTableRecord
  2
B3B-PH-K-S_OA_6_1
 70
0
 62
7
  6
CONTINUOUS
370
-3
390
F
  0
LAYER
  5
20B
100
AcDbSymbolTableRecord
100
AcDbLayerTableRecord
  2
BASE-29-01-2020
 70
0
 62
7
  6
CONTINUOUS
370
-3
390
F
  0
LAYER
  5
20C
100
AcDbSymbolTableRecord
100
AcDbLayerTableRecord
  2
BOARD
 70
0
 62
7
  6
CONTINUOUS
370
-3
390
F
  0
LAYER
  5
20D
100
AcDbSymbolTableRecord
100
AcDbLayerTableRecord
  2
COLOR2
 70
0
 62
7
  6
CONTINUOUS
370
-3
390
F
  0
LAYER
  5
20E
100
AcDbSymbolTableRecord
100
AcDbLayerTableRecord
  2
COLOR38
 70
0
 62
7
  6
CONTINUOUS
370
-3
390
F
  0
LAYER
  5
20F
100
AcDbSymbolTableRecord
100
AcDbLayerTableRecord
  2
COLOR50
 70
0
 62
7
  6
CONTINUOUS
370
-3
390
F
  0
LAYER
  5
210
100
AcDbSymbolTableRecord
100
AcDbLayerTableRecord
  2
COLOR63
 70
0
 62
7
  6
CONTINUOUS
370
-3
390
F
  0
LAYER
  5
211
100
AcDbSymbolTableRecord
100
AcDbLayerTableRecord
  2
COLOR64
 70
0
 62
7
  6
CONTINUOUS
370
-3
390
F
  0
LAYER
  5
212
100
AcDbSymbolTableRecord
100
AcDbLayerTableRecord
  2
COLOR65
 70
0
 62
7
  6
CONTINUOUS
370
-3
390
F
  0
LAYER
  5
213
100
AcDbSymbolTableRecord
100
AcDbLayerTableRecord
  2
COLOR66
 70
0
 62
7
  6
CONTINUOUS
370
-3
390
F
  0
LAYER
  5
214
100
AcDbSymbolTableRecord
100
AcDbLayerTableRecord
  2
CONNETTORE-5X2P1_5_1
 70
0
 62
7
  6
CONTINUOUS
370
-3
390
F
  0
LAYER
  5
215
100
AcDbSymbolTableRecord
100
AcDbLayerTableRecord
  2
COORDINATE
 70
0
 62
7
  6
CONTINUOUS
370
-3
390
F
  0
LAYER
  5
216
100
AcDbSymbolTableRecord
100
AcDbLayerTableRecord
  2
COPERCHIO-29-01-2020
 70
0
 62
7
  6
CONTINUOUS
370
-3
390
F
  0
LAYER
  5
217
100
AcDbSymbolTableRecord
100
AcDbLayerTableRecord
  2
COPY_PUBLISH
 70
0
 62
7
  6
CONTINUOUS
370
-3
390
F
  0
LAYER
  5
218
100
AcDbSymbolTableRecord
100
AcDbLayerTableRecord
  2
COSMETICI
 70
0
 62
7
  6
CONTINUOUS
370
-3
390
F
  0
LAYER
  5
219
100
AcDbSymbolTableRecord
100
AcDbLayerTableRecord
  2
CURVE
 70
0
 62
7
  6
CONTINUOUS
370
-3
390
F
  0
LAYER
  5
21A
100
AcDbSymbolTableRecord
100
AcDbLayerTableRecord
  2
DRAFT
 70
0
 62
7
  6
CONTINUOUS
370
-3
390
F
  0
LAYER
  5
21B
100
AcDbSymbolTableRecord
100
AcDbLayerTableRecord
  2
IMPORT_IGES
 70
0
 62
7
  6
CONTINUOUS
370
-3
390
F
  0
LAYER
  5
21C
100
AcDbSymbolTableRecord
100
AcDbLayerTableRecord
  2
IN-199-R0_OA_1_ASM_1
 70
0
 62
7
  6
CONTINUOUS
370
-3
390
F
  0
LAYER
  5
21D
100
AcDbSymbolTableRecord
100
AcDbLayerTableRecord
  2
IN360-R0_0_VIMAR_2_1
 70
0
 62
7
  6
CONTINUOUS
370
-3
390
F
  0
LAYER
  5
21E
100
AcDbSymbolTableRecord
100
AcDbLayerTableRecord
  2
IN360-R0_0_VIMAR_2_1_1
 70
0
 62
7
  6
CONTINUOUS
370
-3
390
F
  0
LAYER
  5
21F
100
AcDbSymbolTableRecord
100
AcDbLayerTableRecord
  2
INTFCLR_1027
 70
0
 62
7
  6
CONTINUOUS
370
-3
390
F
  0
LAYER
  5
220
100
AcDbSymbolTableRecord
100
AcDbLayerTableRecord
  2
INTFCLR_13
 70
0
 62
7
  6
CONTINUOUS
370
-3
390
F
  0
LAYER
  5
221
100
AcDbSymbolTableRecord
100
AcDbLayerTableRecord
  2
INTFCLR_1497
 70
0
 62
7
  6
CONTINUOUS
370
-3
390
F
  0
LAYER
  5
222
100
AcDbSymbolTableRecord
100
AcDbLayerTableRecord
  2
INTFCLR_1497_1
 70
0
 62
7
  6
CONTINUOUS
370
-3
390
F
  0
LAYER
  5
223
100
AcDbSymbolTableRecord
100
AcDbLayerTableRecord
  2
INTFCLR_1497_2
 70
0
 62
7
  6
CONTINUOUS
370
-3
390
F
  0
LAYER
  5
224
100
AcDbSymbolTableRecord
100
AcDbLayerTableRecord
  2
INTFCLR_1497_3
 70
0
 62
7
  6
CONTINUOUS
370
-3
390
F
  0
LAYER
  5
225
100
AcDbSymbolTableRecord
100
AcDbLayerTableRecord
  2
INTFCLR_1497_4
 70
0
 62
7
  6
CONTINUOUS
370
-3
390
F
  0
LAYER
  5
226
100
AcDbSymbolTableRecord
100
AcDbLayerTableRecord
  2
INTFCLR_15
 70
0
 62
7
  6
CONTINUOUS
370
-3
390
F
  0
LAYER
  5
227
100
AcDbSymbolTableRecord
100
AcDbLayerTableRecord
  2
INTFCLR_16
 70
0
 62
7
  6
CONTINUOUS
370
-3
390
F
  0
LAYER
  5
228
100
AcDbSymbolTableRecord
100
AcDbLayerTableRecord
  2
INTFCLR_16_1
 70
0
 62
7
  6
CONTINUOUS
370
-3
390
F
  0
LAYER
  5
229
100
AcDbSymbolTableRecord
100
AcDbLayerTableRecord
  2
INTFCLR_16_10
 70
0
 62
7
  6
CONTINUOUS
370
-3
390
F
  0
LAYER
  5
22A
100
AcDbSymbolTableRecord
100
AcDbLayerTableRecord
  2
INTFCLR_16_11
 70
0
 62
7
  6
CONTINUOUS
370
-3
390
F
  0
LAYER
  5
22B
100
AcDbSymbolTableRecord
100
AcDbLayerTableRecord
  2
INTFCLR_16_12
 70
0
 62
7
  6
CONTINUOUS
370
-3
390
F
  0
LAYER
  5
22C
100
AcDbSymbolTableRecord
100
AcDbLayerTableRecord
  2
INTFCLR_16_13
 70
0
 62
7
  6
CONTINUOUS
370
-3
390
F
  0
LAYER
  5
22D
100
AcDbSymbolTableRecord
100
AcDbLayerTableRecord
  2
INTFCLR_16_14
 70
0
 62
7
  6
CONTINUOUS
370
-3
390
F
  0
LAYER
  5
22E
100
AcDbSymbolTableRecord
100
AcDbLayerTableRecord
  2
INTFCLR_16_15
 70
0
 62
7
  6
CONTINUOUS
370
-3
390
F
  0
LAYER
  5
22F
100
AcDbSymbolTableRecord
100
AcDbLayerTableRecord
  2
INTFCLR_16_16
 70
0
 62
7
  6
CONTINUOUS
370
-3
390
F
  0
LAYER
  5
230
100
AcDbSymbolTableRecord
100
AcDbLayerTableRecord
  2
INTFCLR_16_2
 70
0
 62
7
  6
CONTINUOUS
370
-3
390
F
  0
LAYER
  5
231
100
AcDbSymbolTableRecord
100
AcDbLayerTableRecord
  2
INTFCLR_16_3
 70
0
 62
7
  6
CONTINUOUS
370
-3
390
F
  0
LAYER
  5
232
100
AcDbSymbolTableRecord
100
AcDbLayerTableRecord
  2
INTFCLR_16_4
 70
0
 62
7
  6
CONTINUOUS
370
-3
390
F
  0
LAYER
  5
233
100
AcDbSymbolTableRecord
100
AcDbLayerTableRecord
  2
INTFCLR_16_5
 70
0
 62
7
  6
CONTINUOUS
370
-3
390
F
  0
LAYER
  5
234
100
AcDbSymbolTableRecord
100
AcDbLayerTableRecord
  2
INTFCLR_16_6
 70
0
 62
7
  6
CONTINUOUS
370
-3
390
F
  0
LAYER
  5
235
100
AcDbSymbolTableRecord
100
AcDbLayerTableRecord
  2
INTFCLR_16_7
 70
0
 62
7
  6
CONTINUOUS
370
-3
390
F
  0
LAYER
  5
236
100
AcDbSymbolTableRecord
100
AcDbLayerTableRecord
  2
INTFCLR_16_8
 70
0
 62
7
  6
CONTINUOUS
370
-3
390
F
  0
LAYER
  5
237
100
AcDbSymbolTableRecord
100
AcDbLayerTableRecord
  2
INTFCLR_16_9
 70
0
 62
7
  6
CONTINUOUS
370
-3
390
F
  0
LAYER
  5
238
100
AcDbSymbolTableRecord
100
AcDbLayerTableRecord
  2
INTFCLR_4371
 70
0
 62
7
  6
CONTINUOUS
370
-3
390
F
  0
LAYER
  5
239
100
AcDbSymbolTableRecord
100
AcDbLayerTableRecord
  2
INTFCLR_5106
 70
0
 62
7
  6
CONTINUOUS
370
-3
390
F
  0
LAYER
  5
23A
100
AcDbSymbolTableRecord
100
AcDbLayerTableRecord
  2
INTFCLR_5106_1
 70
0
 62
7
  6
CONTINUOUS
370
-3
390
F
  0
LAYER
  5
23B
100
AcDbSymbolTableRecord
100
AcDbLayerTableRecord
  2
INTFCLR_5106_10
 70
0
 62
7
  6
CONTINUOUS
370
-3
390
F
  0
LAYER
  5
23C
100
AcDbSymbolTableRecord
100
AcDbLayerTableRecord
  2
INTFCLR_5106_11
 70
0
 62
7
  6
CONTINUOUS
370
-3
390
F
  0
LAYER
  5
23D
100
AcDbSymbolTableRecord
100
AcDbLayerTableRecord
  2
INTFCLR_5106_2
 70
0
 62
7
  6
CONTINUOUS
370
-3
390
F
  0
LAYER
  5
23E
100
AcDbSymbolTableRecord
100
AcDbLayerTableRecord
  2
INTFCLR_5106_3
 70
0
 62
7
  6
CONTINUOUS
370
-3
390
F
  0
LAYER
  5
23F
100
AcDbSymbolTableRecord
100
AcDbLayerTableRecord
  2
INTFCLR_5106_4
 70
0
 62
7
  6
CONTINUOUS
370
-3
390
F
  0
LAYER
  5
240
100
AcDbSymbolTableRecord
100
AcDbLayerTableRecord
  2
INTFCLR_5106_5
 70
0
 62
7
  6
CONTINUOUS
370
-3
390
F
  0
LAYER
  5
241
100
AcDbSymbolTableRecord
100
AcDbLayerTableRecord
  2
INTFCLR_5106_6
 70
0
 62
7
  6
CONTINUOUS
370
-3
390
F
  0
LAYER
  5
242
100
AcDbSymbolTableRecord
100
AcDbLayerTableRecord
  2
INTFCLR_5106_7
 70
0
 62
7
  6
CONTINUOUS
370
-3
390
F
  0
LAYER
  5
243
100
AcDbSymbolTableRecord
100
AcDbLayerTableRecord
  2
INTFCLR_5106_8
 70
0
 62
7
  6
CONTINUOUS
370
-3
390
F
  0
LAYER
  5
244
100
AcDbSymbolTableRecord
100
AcDbLayerTableRecord
  2
INTFCLR_5106_9
 70
0
 62
7
  6
CONTINUOUS
370
-3
390
F
  0
LAYER
  5
245
100
AcDbSymbolTableRecord
100
AcDbLayerTableRecord
  2
INTFCLR_9
 70
0
 62
7
  6
CONTINUOUS
370
-3
390
F
  0
LAYER
  5
246
100
AcDbSymbolTableRecord
100
AcDbLayerTableRecord
  2
INTF_GREEN
 70
0
 62
7
  6
CONTINUOUS
370
-3
390
F
  0
LAYER
  5
247
100
AcDbSymbolTableRecord
100
AcDbLayerTableRecord
  2
INTF_YELLOW
 70
0
 62
7
  6
CONTINUOUS
370
-3
390
F
  0
LAYER
  5
248
100
AcDbSymbolTableRecord
100
AcDbLayerTableRecord
  2
LEXAN_FOR_UNPROTECTED_MODULE_NE
 70
0
 62
7
  6
CONTINUOUS
370
-3
390
F
  0
LAYER
  5
249
100
AcDbSymbolTableRecord
100
AcDbLayerTableRecord
  2
LIVELLO_1
 70
0
 62
7
  6
CONTINUOUS
370
-3
390
F
  0
LAYER
  5
24A
100
AcDbSymbolTableRecord
100
AcDbLayerTableRecord
  2
MICROSWITCH_0
 70
0
 62
7
  6
CONTINUOUS
370
-3
390
F
  0
LAYER
  5
24B
100
AcDbSymbolTableRecord
100
AcDbLayerTableRecord
  2
MICROSWLEVAPLASTICA_1
 70
0
 62
7
  6
CONTINUOUS
370
-3
390
F
  0
LAYER
  5
24C
100
AcDbSymbolTableRecord
100
AcDbLayerTableRecord
  2
MICROSWLEVAPLASTICA_1_1
 70
0
 62
7
  6
CONTINUOUS
370
-3
390
F
  0
LAYER
  5
24D
100
AcDbSymbolTableRecord
100
AcDbLayerTableRecord
  2
MOLLA-COMPENSAZIONE-PRIME-PICC
 70
0
 62
7
  6
CONTINUOUS
370
-3
390
F
  0
LAYER
  5
24E
100
AcDbSymbolTableRecord
100
AcDbLayerTableRecord
  2
MOLLA_SPINTA_COMPRESSA
 70
0
 62
7
  6
CONTINUOUS
370
-3
390
F
  0
LAYER
  5
24F
100
AcDbSymbolTableRecord
100
AcDbLayerTableRecord
  2
MORSETTIERA14_3MM2VIE_1
 70
0
 62
7
  6
CONTINUOUS
370
-3
390
F
  0
LAYER
  5
250
100
AcDbSymbolTableRecord
100
AcDbLayerTableRecord
  2
MORSETTIERA14_3MM2VIE_1_1
 70
0
 62
7
  6
CONTINUOUS
370
-3
390
F
  0
LAYER
  5
251
100
AcDbSymbolTableRecord
100
AcDbLayerTableRecord
  2
MP_COCSPWV03DPHKSW01_1_1
 70
0
 62
7
  6
CONTINUOUS
370
-3
390
F
  0
LAYER
  5
252
100
AcDbSymbolTableRecord
100
AcDbLayerTableRecord
  2
MP_COMCSSIMS25418B00_ASM_1_1
 70
0
 62
7
  6
CONTINUOUS
370
-3
390
F
  0
LAYER
  5
253
100
AcDbSymbolTableRecord
100
AcDbLayerTableRecord
  2
MP_CORFPHSMAF0000100_1_1
 70
0
 62
7
  6
CONTINUOUS
370
-3
390
F
  0
LAYER
  5
254
100
AcDbSymbolTableRecord
100
AcDbLayerTableRecord
  2
MP_COTBVSM02D1014G00_ASM_1_1
 70
0
 62
7
  6
CONTINUOUS
370
-3
390
F
  0
LAYER
  5
255
100
AcDbSymbolTableRecord
100
AcDbLayerTableRecord
  2
MP_COTBVSM02D1014G00_ASM_1_1_1
 70
0
 62
7
  6
CONTINUOUS
370
-3
390
F
  0
LAYER
  5
256
100
AcDbSymbolTableRecord
100
AcDbLayerTableRecord
  2
MP_PACKAGE_DILES0805_ASM_1_1
 70
0
 62
7
  6
CONTINUOUS
370
-3
390
F
  0
LAYER
  5
257
100
AcDbSymbolTableRecord
100
AcDbLayerTableRecord
  2
MP_PACKAGE_DILES0805_ASM_1_1_1
 70
0
 62
7
  6
CONTINUOUS
370
-3
390
F
  0
LAYER
  5
258
100
AcDbSymbolTableRecord
100
AcDbLayerTableRecord
  2
MP_PACKAGE_DILES0805_ASM_1_1_2
 70
0
 62
7
  6
CONTINUOUS
370
-3
390
F
  0
LAYER
  5
259
100
AcDbSymbolTableRecord
100
AcDbLayerTableRecord
  2
MP_PACKAGE_DILES0805_ASM_1_1_3
 70
0
 62
7
  6
CONTINUOUS
370
-3
390
F
  0
LAYER
  5
25A
100
AcDbSymbolTableRecord
100
AcDbLayerTableRecord
  2
MP_SWPUSH06030250000_1_1
 70
0
 62
7
  6
CONTINUOUS
370
-3
390
F
  0
LAYER
  5
25B
100
AcDbSymbolTableRecord
100
AcDbLayerTableRecord
  2
MP_SWPUSH06030250000_1_1_1
 70
0
 62
7
  6
CONTINUOUS
370
-3
390
F
  0
LAYER
  5
25C
100
AcDbSymbolTableRecord
100
AcDbLayerTableRecord
  2
MSBR-1
 70
0
 62
7
  6
CONTINUOUS
370
-3
390
F
  0
LAYER
  5
25D
100
AcDbSymbolTableRecord
100
AcDbLayerTableRecord
  2
NEXUS-3G_ASM_2
 70
0
 62
7
  6
CONTINUOUS
370
-3
390
F
  0
LAYER
  5
25E
100
AcDbSymbolTableRecord
100
AcDbLayerTableRecord
  2
NONE
 70
0
 62
7
  6
CONTINUOUS
370
-3
390
F
  0
LAYER
  5
25F
100
AcDbSymbolTableRecord
100
AcDbLayerTableRecord
  2
NONE-1712_1_1
 70
0
 62
7
  6
CONTINUOUS
370
-3
390
F
  0
LAYER
  5
260
100
AcDbSymbolTableRecord
100
AcDbLayerTableRecord
  2
NONE-1712_1_1_1
 70
0
 62
7
  6
CONTINUOUS
370
-3
390
F
  0
LAYER
  5
261
100
AcDbSymbolTableRecord
100
AcDbLayerTableRecord
  2
NONE-1712_1_1_2
 70
0
 62
7
  6
CONTINUOUS
370
-3
390
F
  0
LAYER
  5
262
100
AcDbSymbolTableRecord
100
AcDbLayerTableRecord
  2
NONE-1712_1_1_3
 70
0
 62
7
  6
CONTINUOUS
370
-3
390
F
  0
LAYER
  5
263
100
AcDbSymbolTableRecord
100
AcDbLayerTableRecord
  2
NONE-1793_1_1
 70
0
 62
7
  6
CONTINUOUS
370
-3
390
F
  0
LAYER
  5
264
100
AcDbSymbolTableRecord
100
AcDbLayerTableRecord
  2
NONE-1793_1_1_1
 70
0
 62
7
  6
CONTINUOUS
370
-3
390
F
  0
LAYER
  5
265
100
AcDbSymbolTableRecord
100
AcDbLayerTableRecord
  2
NONE-1793_1_1_2
 70
0
 62
7
  6
CONTINUOUS
370
-3
390
F
  0
LAYER
  5
266
100
AcDbSymbolTableRecord
100
AcDbLayerTableRecord
  2
NONE-1793_1_1_3
 70
0
 62
7
  6
CONTINUOUS
370
-3
390
F
  0
LAYER
  5
267
100
AcDbSymbolTableRecord
100
AcDbLayerTableRecord
  2
NONE-1858_1_1
 70
0
 62
7
  6
CONTINUOUS
370
-3
390
F
  0
LAYER
  5
268
100
AcDbSymbolTableRecord
100
AcDbLayerTableRecord
  2
NONE-1858_1_1_1
 70
0
 62
7
  6
CONTINUOUS
370
-3
390
F
  0
LAYER
  5
269
100
AcDbSymbolTableRecord
100
AcDbLayerTableRecord
  2
NONE-1858_1_1_2
 70
0
 62
7
  6
CONTINUOUS
370
-3
390
F
  0
LAYER
  5
26A
100
AcDbSymbolTableRecord
100
AcDbLayerTableRecord
  2
NONE-1858_1_1_3
 70
0
 62
7
  6
CONTINUOUS
370
-3
390
F
  0
LAYER
  5
26B
100
AcDbSymbolTableRecord
100
AcDbLayerTableRecord
  2
NONE-2252_1_1
 70
0
 62
7
  6
CONTINUOUS
370
-3
390
F
  0
LAYER
  5
26C
100
AcDbSymbolTableRecord
100
AcDbLayerTableRecord
  2
NONE-2252_1_1_1
 70
0
 62
7
  6
CONTINUOUS
370
-3
390
F
  0
LAYER
  5
26D
100
AcDbSymbolTableRecord
100
AcDbLayerTableRecord
  2
NONE-2252_1_1_2
 70
0
 62
7
  6
CONTINUOUS
370
-3
390
F
  0
LAYER
  5
26E
100
AcDbSymbolTableRecord
100
AcDbLayerTableRecord
  2
NONE-2252_1_1_3
 70
0
 62
7
  6
CONTINUOUS
370
-3
390
F
  0
LAYER
  5
26F
100
AcDbSymbolTableRecord
100
AcDbLayerTableRecord
  2
NONE-2272_1_1
 70
0
 62
7
  6
CONTINUOUS
370
-3
390
F
  0
LAYER
  5
270
100
AcDbSymbolTableRecord
100
AcDbLayerTableRecord
  2
NONE-2272_1_1_1
 70
0
 62
7
  6
CONTINUOUS
370
-3
390
F
  0
LAYER
  5
271
100
AcDbSymbolTableRecord
100
AcDbLayerTableRecord
  2
NONE-2272_1_1_2
 70
0
 62
7
  6
CONTINUOUS
370
-3
390
F
  0
LAYER
  5
272
100
AcDbSymbolTableRecord
100
AcDbLayerTableRecord
  2
NONE-2272_1_1_3
 70
0
 62
7
  6
CONTINUOUS
370
-3
390
F
  0
LAYER
  5
273
100
AcDbSymbolTableRecord
100
AcDbLayerTableRecord
  2
NONE_1
 70
0
 62
7
  6
CONTINUOUS
370
-3
390
F
  0
LAYER
  5
274
100
AcDbSymbolTableRecord
100
AcDbLayerTableRecord
  2
NONE_10
 70
0
 62
7
  6
CONTINUOUS
370
-3
390
F
  0
LAYER
  5
275
100
AcDbSymbolTableRecord
100
AcDbLayerTableRecord
  2
NONE_11
 70
0
 62
7
  6
CONTINUOUS
370
-3
390
F
  0
LAYER
  5
276
100
AcDbSymbolTableRecord
100
AcDbLayerTableRecord
  2
NONE_12
 70
0
 62
7
  6
CONTINUOUS
370
-3
390
F
  0
LAYER
  5
277
100
AcDbSymbolTableRecord
100
AcDbLayerTableRecord
  2
NONE_13
 70
0
 62
7
  6
CONTINUOUS
370
-3
390
F
  0
LAYER
  5
278
100
AcDbSymbolTableRecord
100
AcDbLayerTableRecord
  2
NONE_14
 70
0
 62
7
  6
CONTINUOUS
370
-3
390
F
  0
LAYER
  5
279
100
AcDbSymbolTableRecord
100
AcDbLayerTableRecord
  2
NONE_15
 70
0
 62
7
  6
CONTINUOUS
370
-3
390
F
  0
LAYER
  5
27A
100
AcDbSymbolTableRecord
100
AcDbLayerTableRecord
  2
NONE_16
 70
0
 62
7
  6
CONTINUOUS
370
-3
390
F
  0
LAYER
  5
27B
100
AcDbSymbolTableRecord
100
AcDbLayerTableRecord
  2
NONE_17
 70
0
 62
7
  6
CONTINUOUS
370
-3
390
F
  0
LAYER
  5
27C
100
AcDbSymbolTableRecord
100
AcDbLayerTableRecord
  2
NONE_18
 70
0
 62
7
  6
CONTINUOUS
370
-3
390
F
  0
LAYER
  5
27D
100
AcDbSymbolTableRecord
100
AcDbLayerTableRecord
  2
NONE_19
 70
0
 62
7
  6
CONTINUOUS
370
-3
390
F
  0
LAYER
  5
27E
100
AcDbSymbolTableRecord
100
AcDbLayerTableRecord
  2
NONE_2
 70
0
 62
7
  6
CONTINUOUS
370
-3
390
F
  0
LAYER
  5
27F
100
AcDbSymbolTableRecord
100
AcDbLayerTableRecord
  2
NONE_3
 70
0
 62
7
  6
CONTINUOUS
370
-3
390
F
  0
LAYER
  5
280
100
AcDbSymbolTableRecord
100
AcDbLayerTableRecord
  2
NONE_4
 70
0
 62
7
  6
CONTINUOUS
370
-3
390
F
  0
LAYER
  5
281
100
AcDbSymbolTableRecord
100
AcDbLayerTableRecord
  2
NONE_5
 70
0
 62
7
  6
CONTINUOUS
370
-3
390
F
  0
LAYER
  5
282
100
AcDbSymbolTableRecord
100
AcDbLayerTableRecord
  2
NONE_6
 70
0
 62
7
  6
CONTINUOUS
370
-3
390
F
  0
LAYER
  5
283
100
AcDbSymbolTableRecord
100
AcDbLayerTableRecord
  2
NONE_7
 70
0
 62
7
  6
CONTINUOUS
370
-3
390
F
  0
LAYER
  5
284
100
AcDbSymbolTableRecord
100
AcDbLayerTableRecord
  2
NONE_8
 70
0
 62
7
  6
CONTINUOUS
370
-3
390
F
  0
LAYER
  5
285
100
AcDbSymbolTableRecord
100
AcDbLayerTableRecord
  2
NONE_9
 70
0
 62
7
  6
CONTINUOUS
370
-3
390
F
  0
LAYER
  5
286
100
AcDbSymbolTableRecord
100
AcDbLayerTableRecord
  2
NOTE
 70
0
 62
7
  6
CONTINUOUS
370
-3
390
F
  0
LAYER
  5
287
100
AcDbSymbolTableRecord
100
AcDbLayerTableRecord
  2
PCB_IN199-R0_OA_2_1
 70
0
 62
7
  6
CONTINUOUS
370
-3
390
F
  0
LAYER
  5
288
100
AcDbSymbolTableRecord
100
AcDbLayerTableRecord
  2
PIANI
 70
0
 62
7
  6
CONTINUOUS
370
-3
390
F
  0
LAYER
  5
289
100
AcDbSymbolTableRecord
100
AcDbLayerTableRecord
  2
PLASTIC_BASE_FOR_UNPROTECTED_MO
 70
0
 62
7
  6
CONTINUOUS
370
-3
390
F
  0
LAYER
  5
28A
100
AcDbSymbolTableRecord
100
AcDbLayerTableRecord
  2
PLASTIC_COVER_FOR_UNPROTECTED_M
 70
0
 62
7
  6
CONTINUOUS
370
-3
390
F
  0
LAYER
  5
28B
100
AcDbSymbolTableRecord
100
AcDbLayerTableRecord
  2
PULSANTE_OA_4_1
 70
0
 62
7
  6
CONTINUOUS
370
-3
390
F
  0
LAYER
  5
28C
100
AcDbSymbolTableRecord
100
AcDbLayerTableRecord
  2
PULSANTE_OA_5_1
 70
0
 62
7
  6
CONTINUOUS
370
-3
390
F
  0
LAYER
  5
28D
100
AcDbSymbolTableRecord
100
AcDbLayerTableRecord
  2
PUNTI
 70
0
 62
7
  6
CONTINUOUS
370
-3
390
F
  0
LAYER
  5
28E
100
AcDbSymbolTableRecord
100
AcDbLayerTableRecord
  2
RACCORDO
 70
0
 62
7
  6
CONTINUOUS
370
-3
390
F
  0
LAYER
  5
28F
100
AcDbSymbolTableRecord
100
AcDbLayerTableRecord
  2
SIMBOLI
 70
0
 62
7
  6
CONTINUOUS
370
-3
390
F
  0
LAYER
  5
290
100
AcDbSymbolTableRecord
100
AcDbLayerTableRecord
  2
SIMCARD_SOKET_1_1
 70
0
 62
7
  6
CONTINUOUS
370
-3
390
F
  0
LAYER
  5
291
100
AcDbSymbolTableRecord
100
AcDbLayerTableRecord
  2
SIMCARD_SOKET_2_1
 70
0
 62
7
  6
CONTINUOUS
370
-3
390
F
  0
LAYER
  5
292
100
AcDbSymbolTableRecord
100
AcDbLayerTableRecord
  2
SIMCARD_SOKET_ASM_1
 70
0
 62
7
  6
CONTINUOUS
370
-3
390
F
  0
LAYER
  5
293
100
AcDbSymbolTableRecord
100
AcDbLayerTableRecord
  2
SMUSSO
 70
0
 62
7
  6
CONTINUOUS
370
-3
390
F
  0
LAYER
  5
294
100
AcDbSymbolTableRecord
100
AcDbLayerTableRecord
  2
SPINTA_0
 70
0
 62
7
  6
CONTINUOUS
370
-3
390
F
  0
LAYER
  5
295
100
AcDbSymbolTableRecord
100
AcDbLayerTableRecord
  2
STRIP3_1
 70
0
 62
7
  6
CONTINUOUS
370
-3
390
F
  0
LAYER
  5
296
100
AcDbSymbolTableRecord
100
AcDbLayerTableRecord
  2
SUPERFICI
 70
0
 62
7
  6
CONTINUOUS
370
-3
390
F
  0
LAYER
  5
297
100
AcDbSymbolTableRecord
100
AcDbLayerTableRecord
  2
SW3DPS-LED_SMD0805_ASM_1_1
 70
0
 62
7
  6
CONTINUOUS
370
-3
390
F
  0
LAYER
  5
298
100
AcDbSymbolTableRecord
100
AcDbLayerTableRecord
  2
SW3DPS-LED_SMD0805_ASM_1_1_1
 70
0
 62
7
  6
CONTINUOUS
370
-3
390
F
  0
LAYER
  5
299
100
AcDbSymbolTableRecord
100
AcDbLayerTableRecord
  2
SW3DPS-LED_SMD0805_ASM_1_1_2
 70
0
 62
7
  6
CONTINUOUS
370
-3
390
F
  0
LAYER
  5
29A
100
AcDbSymbolTableRecord
100
AcDbLayerTableRecord
  2
SW3DPS-LED_SMD0805_ASM_1_1_3
 70
0
 62
7
  6
CONTINUOUS
370
-3
390
F
  0
LAYER
  5
29B
100
AcDbSymbolTableRecord
100
AcDbLayerTableRecord
  2
SWITCH-CTS-2235S_1
 70
0
 62
7
  6
CONTINUOUS
370
-3
390
F
  0
LAYER
  5
29C
100
AcDbSymbolTableRecord
100
AcDbLayerTableRecord
  2
TER-KF128-1-SOLID1_1_1
 70
0
 62
7
  6
CONTINUOUS
370
-3
390
F
  0
LAYER
  5
29D
100
AcDbSymbolTableRecord
100
AcDbLayerTableRecord
  2
TER-KF128-1-SOLID1_1_1_1
 70
0
 62
7
  6
CONTINUOUS
370
-3
390
F
  0
LAYER
  5
29E
100
AcDbSymbolTableRecord
100
AcDbLayerTableRecord
  2
TER-KF128-1-SOLID2_1_1
 70
0
 62
7
  6
CONTINUOUS
370
-3
390
F
  0
LAYER
  5
29F
100
AcDbSymbolTableRecord
100
AcDbLayerTableRecord
  2
TER-KF128-1-SOLID2_1_1_1
 70
0
 62
7
  6
CONTINUOUS
370
-3
390
F
  0
LAYER
  5
2A0
100
AcDbSymbolTableRecord
100
AcDbLayerTableRecord
  2
TER-KF128-1-SOLID3_1_1
 70
0
 62
7
  6
CONTINUOUS
370
-3
390
F
  0
LAYER
  5
2A1
100
AcDbSymbolTableRecord
100
AcDbLayerTableRecord
  2
TER-KF128-1-SOLID3_1_1_1
 70
0
 62
7
  6
CONTINUOUS
370
-3
390
F
  0
LAYER
  5
2A2
100
AcDbSymbolTableRecord
100
AcDbLayerTableRecord
  2
TER-KF128-1-SOLID4_1_1
 70
0
 62
7
  6
CONTINUOUS
370
-3
390
F
  0
LAYER
  5
2A3
100
AcDbSymbolTableRecord
100
AcDbLayerTableRecord
  2
TER-KF128-1-SOLID4_1_1_1
 70
0
 62
7
  6
CONTINUOUS
370
-3
390
F
  0
LAYER
  5
2A4
100
AcDbSymbolTableRecord
100
AcDbLayerTableRecord
  2
TER-KF128-1-SOLID5_1_1
 70
0
 62
7
  6
CONTINUOUS
370
-3
390
F
  0
LAYER
  5
2A5
100
AcDbSymbolTableRecord
100
AcDbLayerTableRecord
  2
TER-KF128-1-SOLID5_1_1_1
 70
0
 62
7
  6
CONTINUOUS
370
-3
390
F
  0
LAYER
  5
2A6
100
AcDbSymbolTableRecord
100
AcDbLayerTableRecord
  2
TER-KF128-1-SOLID6_1_1
 70
0
 62
7
  6
CONTINUOUS
370
-3
390
F
  0
LAYER
  5
2A7
100
AcDbSymbolTableRecord
100
AcDbLayerTableRecord
  2
TER-KF128-1-SOLID6_1_1_1
 70
0
 62
7
  6
CONTINUOUS
370
-3
390
F
  0
LAYER
  5
2A8
100
AcDbSymbolTableRecord
100
AcDbLayerTableRecord
  2
TER-KF128-2-SOLID1_1_1
 70
0
 62
7
  6
CONTINUOUS
370
-3
390
F
  0
LAYER
  5
2A9
100
AcDbSymbolTableRecord
100
AcDbLayerTableRecord
  2
TER-KF128-2-SOLID1_1_1_1
 70
0
 62
7
  6
CONTINUOUS
370
-3
390
F
  0
LAYER
  5
2AA
100
AcDbSymbolTableRecord
100
AcDbLayerTableRecord
  2
TER-KF128-2-SOLID2_1_1
 70
0
 62
7
  6
CONTINUOUS
370
-3
390
F
  0
LAYER
  5
2AB
100
AcDbSymbolTableRecord
100
AcDbLayerTableRecord
  2
TER-KF128-2-SOLID2_1_1_1
 70
0
 62
7
  6
CONTINUOUS
370
-3
390
F
  0
LAYER
  5
2AC
100
AcDbSymbolTableRecord
100
AcDbLayerTableRecord
  2
TER-KF128-2-SOLID3_1_1
 70
0
 62
7
  6
CONTINUOUS
370
-3
390
F
  0
LAYER
  5
2AD
100
AcDbSymbolTableRecord
100
AcDbLayerTableRecord
  2
TER-KF128-2-SOLID3_1_1_1
 70
0
 62
7
  6
CONTINUOUS
370
-3
390
F
  0
LAYER
  5
2AE
100
AcDbSymbolTableRecord
100
AcDbLayerTableRecord
  2
TER-KF128-2-SOLID4_1_1
 70
0
 62
7
  6
CONTINUOUS
370
-3
390
F
  0
LAYER
  5
2AF
100
AcDbSymbolTableRecord
100
AcDbLayerTableRecord
  2
TER-KF128-2-SOLID4_1_1_1
 70
0
 62
7
  6
CONTINUOUS
370
-3
390
F
  0
LAYER
  5
2B0
100
AcDbSymbolTableRecord
100
AcDbLayerTableRecord
  2
TER-KF128-2-SOLID5_1_1
 70
0
 62
7
  6
CONTINUOUS
370
-3
390
F
  0
LAYER
  5
2B1
100
AcDbSymbolTableRecord
100
AcDbLayerTableRecord
  2
TER-KF128-2-SOLID5_1_1_1
 70
0
 62
7
  6
CONTINUOUS
370
-3
390
F
  0
LAYER
  5
2B2
100
AcDbSymbolTableRecord
100
AcDbLayerTableRecord
  2
TER-KF128-2-SOLID6_1_1
 70
0
 62
7
  6
CONTINUOUS
370
-3
390
F
  0
LAYER
  5
2B3
100
AcDbSymbolTableRecord
100
AcDbLayerTableRecord
  2
TER-KF128-2-SOLID6_1_1_1
 70
0
 62
7
  6
CONTINUOUS
370
-3
390
F
  0
LAYER
  5
2B4
100
AcDbSymbolTableRecord
100
AcDbLayerTableRecord
  2
TOP_SILK
 70
0
 62
7
  6
CONTINUOUS
370
-3
390
F
  0
LAYER
  5
2B5
100
AcDbSymbolTableRecord
100
AcDbLayerTableRecord
  2
TRASH
 70
0
 62
7
  6
CONTINUOUS
370
-3
390
F
  0
LAYER
  5
2B6
100
AcDbSymbolTableRecord
100
AcDbLayerTableRecord
  2
TUBETTI_IN_SILICONE_OA_8_1
 70
0
 62
7
  6
CONTINUOUS
370
-3
390
F
  0
LAYER
  5
2B7
100
AcDbSymbolTableRecord
100
AcDbLayerTableRecord
  2
USER_LIBRARY-TER-KF128-2P_ASM_1
 70
0
 62
7
  6
CONTINUOUS
370
-3
390
F
  0
LAYER
  5
2B8
100
AcDbSymbolTableRecord
100
AcDbLayerTableRecord
  2
USER_LIBRARY-TER-KF128-2P_ASM_2
 70
0
 62
7
  6
CONTINUOUS
370
-3
390
F
  0
LAYER
  5
2B9
100
AcDbSymbolTableRecord
100
AcDbLayerTableRecord
  2
WHITE
 70
0
 62
7
  6
CONTINUOUS
370
-3
390
F
  0
LAYER
  5
2BA
100
AcDbSymbolTableRecord
100
AcDbLayerTableRecord
  2
_1357_1
 70
0
 62
7
  6
CONTINUOUS
370
-3
390
F
  0
LAYER
  5
2BB
100
AcDbSymbolTableRecord
100
AcDbLayerTableRecord
  2
_1379_1
 70
0
 62
7
  6
CONTINUOUS
370
-3
390
F
  0
LAYER
  5
2BC
100
AcDbSymbolTableRecord
100
AcDbLayerTableRecord
  2
_1549
 70
0
 62
7
  6
CONTINUOUS
370
-3
390
F
  0
LAYER
  5
2BD
100
AcDbSymbolTableRecord
100
AcDbLayerTableRecord
  2
_1734_1
 70
0
 62
7
  6
CONTINUOUS
370
-3
390
F
  0
LAYER
  5
2BE
100
AcDbSymbolTableRecord
100
AcDbLayerTableRecord
  2
_1933
 70
0
 62
7
  6
CONTINUOUS
370
-3
390
F
  0
LAYER
  5
2BF
100
AcDbSymbolTableRecord
100
AcDbLayerTableRecord
  2
_19_1
 70
0
 62
7
  6
CONTINUOUS
370
-3
390
F
  0
LAYER
  5
2C0
100
AcDbSymbolTableRecord
100
AcDbLayerTableRecord
  2
_240_1
 70
0
 62
7
  6
CONTINUOUS
370
-3
390
F
  0
LAYER
  5
2C1
100
AcDbSymbolTableRecord
100
AcDbLayerTableRecord
  2
_2599_1
 70
0
 62
7
  6
CONTINUOUS
370
-3
390
F
  0
LAYER
  5
2C2
100
AcDbSymbolTableRecord
100
AcDbLayerTableRecord
  2
_2652_1
 70
0
 62
7
  6
CONTINUOUS
370
-3
390
F
  0
LAYER
  5
2C3
100
AcDbSymbolTableRecord
100
AcDbLayerTableRecord
  2
_3370
 70
0
 62
7
  6
CONTINUOUS
370
-3
390
F
  0
LAYER
  5
2C4
100
AcDbSymbolTableRecord
100
AcDbLayerTableRecord
  2
_3942
 70
0
 62
7
  6
CONTINUOUS
370
-3
390
F
  0
LAYER
  5
2C5
100
AcDbSymbolTableRecord
100
AcDbLayerTableRecord
  2
_418
 70
0
 62
7
  6
CONTINUOUS
370
-3
390
F
  0
LAYER
  5
2C6
100
AcDbSymbolTableRecord
100
AcDbLayerTableRecord
  2
_4454_1
 70
0
 62
7
  6
CONTINUOUS
370
-3
390
F
  0
LAYER
  5
2C7
100
AcDbSymbolTableRecord
100
AcDbLayerTableRecord
  2
_4683
 70
0
 62
7
  6
CONTINUOUS
370
-3
390
F
  0
LAYER
  5
2C8
100
AcDbSymbolTableRecord
100
AcDbLayerTableRecord
  2
_5538
 70
0
 62
7
  6
CONTINUOUS
370
-3
390
F
  0
LAYER
  5
2C9
100
AcDbSymbolTableRecord
100
AcDbLayerTableRecord
  2
_5822_1
 70
0
 62
7
  6
CONTINUOUS
370
-3
390
F
  0
LAYER
  5
2CA
100
AcDbSymbolTableRecord
100
AcDbLayerTableRecord
  2
_5907_1
 70
0
 62
7
  6
CONTINUOUS
370
-3
390
F
  0
LAYER
  5
2CB
100
AcDbSymbolTableRecord
100
AcDbLayerTableRecord
  2
_7912
 70
0
 62
7
  6
CONTINUOUS
370
-3
390
F
  0
LAYER
  5
2CC
100
AcDbSymbolTableRecord
100
AcDbLayerTableRecord
  2
_794
 70
0
 62
7
  6
CONTINUOUS
370
-3
390
F
  0
LAYER
  5
2CD
100
AcDbSymbolTableRecord
100
AcDbLayerTableRecord
  2
_9635
 70
0
 62
7
  6
CONTINUOUS
370
-3
390
F
  0
LAYER
  5
2CE
100
AcDbSymbolTableRecord
100
AcDbLayerTableRecord
  2
_ASM0001_ASM
 70
0
 62
7
  6
CONTINUOUS
370
-3
390
F
  0
LAYER
  5
2CF
100
AcDbSymbolTableRecord
100
AcDbLayerTableRecord
  2
___SHELL
 70
0
 62
7
  6
CONTINUOUS
370
-3
390
F
  0
ENDTAB
  0
TABLE
  2
STYLE
  5
3
100
AcDbSymbolTable
 70
1
  0
STYLE
  5
11
100
AcDbSymbolTableRecord
100
AcDbTextStyleTableRecord
  2
STANDARD
 70
0
 40
0.0
 41
0.8
 50
0.0
 71
0
 42
0.2
  3
txt
  4

  0
STYLE
  5
2D0
100
AcDbSymbolTableRecord
100
AcDbTextStyleTableRecord
  2
TEXTSTYLE_1
 70
0
 40
0.0
 41
0.8
 50
0.0
 71
0
 42
0.2
  3
gdt
  4

  0
ENDTAB
  0
TABLE
  2
VIEW
  5
6
100
AcDbSymbolTable
 70
0
  0
ENDTAB
  0
TABLE
  2
UCS
  5
7
100
AcDbSymbolTable
 70
0
  0
ENDTAB
  0
TABLE
  2
APPID
  5
9
100
AcDbSymbolTable
 70
1
  0
APPID
  5
2D1
100
AcDbSymbolTableRecord
100
AcDbRegAppTableRecord
  2
ACAD
 70
0
  0
ENDTAB
  0
TABLE
  2
BLOCK_RECORD
  5
1
100
AcDbSymbolTable
 70
0
  0
BLOCK_RECORD
  5
2D2
100
AcDbSymbolTableRecord
100
AcDbBlockTableRecord
  2
*Model_Space
  0
BLOCK_RECORD
  5
2D3
100
AcDbSymbolTableRecord
100
AcDbBlockTableRecord
  2
*Paper_Space
  0
BLOCK_RECORD
  5
2D4
100
AcDbSymbolTableRecord
100
AcDbBlockTableRecord
  2
_FILLED
  0
ENDTAB
  0
TABLE
  2
DIMSTYLE
  5
A
100
AcDbSymbolTable
 70
1
100
AcDbDimStyleTable
 71
0
  0
DIMSTYLE
105
2D5
100
AcDbSymbolTableRecord
100
AcDbDimStyleTableRecord
  2
STANDARD
 70
0
  3

  4

 40
1.0
 41
3.0
 42
0.5
 43
0.38
 44
1.5
 45
0.0
 46
0.0
 47
0.01
 48
0.01
140
3.0
141
0.09
142
0.0
143
25.4
144
1.0
145
0.0
146
1.0
147
0.625
 71
1
 72
0
 73
0
 74
0
 75
0
 76
0
 77
1
 78
8
 79
2
170
0
171
1
172
0
173
0
174
0
175
0
176
0
177
0
178
0
270
2
179
2
271
2
272
2
273
2
274
2
275
0
280
0
281
0
282
0
283
1
284
8
285
0
286
0
287
3
288
0
340
11
278
44
341
2D4
342
2D4
343
2D4
344
2D4
  0
ENDTAB
  0
ENDSEC
  0
SECTION
  2
BLOCKS
  0
BLOCK
  5
20
100
AcDbEntity
  8
0
100
AcDbBlockBegin
  2
*Model_Space
 70
0
 10
0.0
 20
0.0
 30
0.0
  3
*Model_Space
  1

  0
ENDBLK
  5
21
100
AcDbEntity
  8
0
100
AcDbBlockEnd
  0
BLOCK
  5
1C
100
AcDbEntity
  8
0
100
AcDbBlockBegin
  2
*Paper_Space
 70
0
 10
0.0
 20
0.0
 30
0.0
  3
*Paper_Space
  1

  0
ENDBLK
  5
1D
100
AcDbEntity
  8
0
100
AcDbBlockEnd
  0
BLOCK
  5
2D6
100
AcDbEntity
  8
0
100
AcDbBlockBegin
  2
_FILLED
 70
64
 10
0.0
 20
0.0
  3
_FILLED
  1

  0
SOLID
  5
2D7
100
AcDbEntity
  8
0
  6
BYBLOCK
 62
0
100
AcDbTrace
 10
0.0
 20
0.0
 11
-1.0
 21
0.3166666667
 12
-1.0
 22
-0.3166666667
 13
-1.0
 23
-0.3166666667
  0
ENDBLK
  5
2D8
100
AcDbEntity
  8
0
  6
BYBLOCK
 62
0
100
AcDbBlockEnd
  0
ENDSEC
  0
SECTION
  2
ENTITIES
  0
LWPOLYLINE
  5
2D9
100
AcDbEntity
  8
IMPORT_IGES
100
AcDbPolyline
 62
7
  6
CONTINUOUS
 90
7
 70
0
 10
-50.3096450395
 20
-2.2697434581
 10
-50.3079651848
 20
-2.3141000628
 10
-50.3063041002
 20
-2.3510829353
 10
-50.3046762938
 20
-2.3805770123
 10
-50.3030866017
 20
-2.4024761236
 10
-50.3015301878
 20
-2.41670115
 10
-50.3000070522
 20
-2.423192866
  0
LINE
  5
2DA
100
AcDbEntity
  8
IMPORT_IGES
100
AcDbLine
 62
7
  6
CONTINUOUS
 10
-50.2490918481
 20
-1.5028010077
 11
-50.2419419142
 21
-1.6941270271
  0
LINE
  5
2DB
100
AcDbEntity
  8
IMPORT_IGES
100
AcDbLine
 62
7
  6
CONTINUOUS
 10
-50.2560105301
 20
-1.2898425489
 11
-50.2490918481
 21
-1.5028010077
  0
LINE
  5
2DC
100
AcDbEntity
  8
IMPORT_IGES
100
AcDbLine
 62
7
  6
CONTINUOUS
 10
-50.3130601425
 20
-2.1593704739
 11
-50.3096450395
 21
-2.2697434581
  0
LINE
  5
2DD
100
AcDbEntity
  8
IMPORT_IGES
100
AcDbLine
 62
7
  6
CONTINUOUS
 10
-50.3866446186
 20
2.9312912322
 11
-50.383144612
 21
2.8044354249
  0
LINE
  5
2DE
100
AcDbEntity
  8
IMPORT_IGES
100
AcDbLine
 62
7
  6
CONTINUOUS
 10
-50.2651820924
 20
-0.9584485209
 11
-50.2560105301
 21
-1.2898425489
  0
LINE
  5
2DF
100
AcDbEntity
  8
IMPORT_IGES
100
AcDbLine
 62
7
  6
CONTINUOUS
 10
-50.3362909737
 20
1.915379138
 11
-50.2651820924
 21
-0.9584485209
  0
LINE
  5
2E0
100
AcDbEntity
  8
IMPORT_IGES
100
AcDbLine
 62
7
  6
CONTINUOUS
 10
-50.3182444612
 20
-1.9431416306
 11
-50.3130601425
 21
-2.1593704739
  0
LINE
  5
2E1
100
AcDbEntity
  8
IMPORT_IGES
100
AcDbLine
 62
7
  6
CONTINUOUS
 10
-50.383144612
 20
2.8044354249
 11
-50.3779191423
 21
2.5653765338
  0
LINE
  5
2E2
100
AcDbEntity
  8
IMPORT_IGES
100
AcDbLine
 62
7
  6
CONTINUOUS
 10
-50.325096219
 20
-1.5638769548
 11
-50.3182444612
 21
-1.9431416306
  0
LINE
  5
2E3
100
AcDbEntity
  8
IMPORT_IGES
100
AcDbLine
 62
7
  6
CONTINUOUS
 10
-50.3779191423
 20
2.5653765338
 11
-50.3711571913
 21
2.1634452747
  0
LWPOLYLINE
  5
2E4
100
AcDbEntity
  8
IMPORT_IGES
100
AcDbPolyline
 62
7
  6
CONTINUOUS
 90
3
 70
0
 10
-50.3711571913
 20
2.1634452747
 10
-50.3378381939
 20
-0.576895527
 10
-50.325096219
 20
-1.5638769548
  0
LINE
  5
2E5
100
AcDbEntity
  8
IMPORT_IGES
100
AcDbLine
 62
7
  6
CONTINUOUS
 10
-50.4
 20
3.15
 11
-50.4
 21
-2.25
  0
LINE
  5
2E6
100
AcDbEntity
  8
IMPORT_IGES
100
AcDbLine
 62
7
  6
CONTINUOUS
 10
-43.5428932188
 20
-33.2071067812
 11
-45.3
 21
-31.45
  0
LWPOLYLINE
  5
2E7
100
AcDbEntity
  8
IMPORT_IGES
100
AcDbPolyline
 62
7
  6
CONTINUOUS
 90
4
 70
0
 10
-49.589158823
 20
-2.4493526422
 10
-49.5858289502
 20
-2.4854545147
 10
-49.5825653605
 20
-2.5136373535
 10
-49.5793789842
 20
-2.5338193754
  0
LWPOLYLINE
  5
2E8
100
AcDbEntity
  8
IMPORT_IGES
100
AcDbPolyline
 62
7
  6
CONTINUOUS
 90
4
 70
0
 10
-49.810841177
 20
3.3493526422
 10
-49.8141710498
 20
3.3854545147
 10
-49.8174346395
 20
3.4136373535
 10
-49.8206210158
 20
3.4338193754
  0
LWPOLYLINE
  5
2E9
100
AcDbEntity
  8
IMPORT_IGES
100
AcDbPolyline
 62
7
  6
CONTINUOUS
 90
4
 70
0
 10
-49.189158823
 20
-2.4493526422
 10
-49.1858289502
 20
-2.4854545147
 10
-49.1825653605
 20
-2.5136373535
 10
-49.1793789842
 20
-2.5338193754
  0
LWPOLYLINE
  5
2EA
100
AcDbEntity
  8
IMPORT_IGES
100
AcDbPolyline
 62
7
  6
CONTINUOUS
 90
4
 70
0
 10
-49.410841177
 20
3.3493526422
 10
-49.4141710498
 20
3.3854545147
 10
-49.4174346395
 20
3.4136373535
 10
-49.4206210158
 20
3.4338193754
  0
LWPOLYLINE
  5
2EB
100
AcDbEntity
  8
IMPORT_IGES
100
AcDbPolyline
 62
7
  6
CONTINUOUS
 90
4
 70
0
 10
-48.789158823
 20
-2.4493526422
 10
-48.7858289502
 20
-2.4854545147
 10
-48.7825653605
 20
-2.5136373535
 10
-48.7793789842
 20
-2.5338193754
  0
LWPOLYLINE
  5
2EC
100
AcDbEntity
  8
IMPORT_IGES
100
AcDbPolyline
 62
7
  6
CONTINUOUS
 90
4
 70
0
 10
-49.010841177
 20
3.3493526422
 10
-49.0141710498
 20
3.3854545147
 10
-49.0174346395
 20
3.4136373535
 10
-49.0206210158
 20
3.4338193754
  0
LWPOLYLINE
  5
2ED
100
AcDbEntity
  8
IMPORT_IGES
100
AcDbPolyline
 62
7
  6
CONTINUOUS
 90
4
 70
0
 10
-48.389158823
 20
-2.4493526422
 10
-48.3858289502
 20
-2.4854545147
 10
-48.3825653605
 20
-2.5136373535
 10
-48.3793789842
 20
-2.5338193754
  0
LWPOLYLINE
  5
2EE
100
AcDbEntity
  8
IMPORT_IGES
100
AcDbPolyline
 62
7
  6
CONTINUOUS
 90
4
 70
0
 10
-48.610841177
 20
3.3493526422
 10
-48.6141710498
 20
3.3854545147
 10
-48.6174346395
 20
3.4136373535
 10
-48.6206210158
 20
3.4338193754
  0
LWPOLYLINE
  5
2EF
100
AcDbEntity
  8
IMPORT_IGES
100
AcDbPolyline
 62
7
  6
CONTINUOUS
 90
4
 70
0
 10
-47.989158823
 20
-2.4493526422
 10
-47.9858289502
 20
-2.4854545147
 10
-47.9825653605
 20
-2.5136373535
 10
-47.9793789842
 20
-2.5338193754
  0
LWPOLYLINE
  5
2F0
100
AcDbEntity
  8
IMPORT_IGES
100
AcDbPolyline
 62
7
  6
CONTINUOUS
 90
4
 70
0
 10
-48.210841177
 20
3.3493526422
 10
-48.2141710498
 20
3.3854545147
 10
-48.2174346395
 20
3.4136373535
 10
-48.2206210158
 20
3.4338193754
  0
LWPOLYLINE
  5
2F1
100
AcDbEntity
  8
IMPORT_IGES
100
AcDbPolyline
 62
7
  6
CONTINUOUS
 90
4
 70
0
 10
-47.589158823
 20
-2.4493526422
 10
-47.5858289502
 20
-2.4854545147
 10
-47.5825653605
 20
-2.5136373535
 10
-47.5793789842
 20
-2.5338193754
  0
LWPOLYLINE
  5
2F2
100
AcDbEntity
  8
IMPORT_IGES
100
AcDbPolyline
 62
7
  6
CONTINUOUS
 90
4
 70
0
 10
-47.810841177
 20
3.3493526422
 10
-47.8141710498
 20
3.3854545147
 10
-47.8174346395
 20
3.4136373535
 10
-47.8206210158
 20
3.4338193754
  0
LWPOLYLINE
  5
2F3
100
AcDbEntity
  8
IMPORT_IGES
100
AcDbPolyline
 62
7
  6
CONTINUOUS
 90
4
 70
0
 10
-47.189158823
 20
-2.4493526422
 10
-47.1858289502
 20
-2.4854545147
 10
-47.1825653605
 20
-2.5136373535
 10
-47.1793789842
 20
-2.5338193754
  0
LWPOLYLINE
  5
2F4
100
AcDbEntity
  8
IMPORT_IGES
100
AcDbPolyline
 62
7
  6
CONTINUOUS
 90
4
 70
0
 10
-47.410841177
 20
3.3493526422
 10
-47.4141710498
 20
3.3854545147
 10
-47.4174346395
 20
3.4136373535
 10
-47.4206210158
 20
3.4338193754
  0
LWPOLYLINE
  5
2F5
100
AcDbEntity
  8
IMPORT_IGES
100
AcDbPolyline
 62
7
  6
CONTINUOUS
 90
4
 70
0
 10
-46.789158823
 20
-2.4493526422
 10
-46.7858289502
 20
-2.4854545147
 10
-46.7825653605
 20
-2.5136373535
 10
-46.7793789842
 20
-2.5338193754
  0
LWPOLYLINE
  5
2F6
100
AcDbEntity
  8
IMPORT_IGES
100
AcDbPolyline
 62
7
  6
CONTINUOUS
 90
4
 70
0
 10
-47.010841177
 20
3.3493526422
 10
-47.0141710498
 20
3.3854545147
 10
-47.0174346395
 20
3.4136373535
 10
-47.0206210158
 20
3.4338193754
  0
LWPOLYLINE
  5
2F7
100
AcDbEntity
  8
IMPORT_IGES
100
AcDbPolyline
 62
7
  6
CONTINUOUS
 90
4
 70
0
 10
-50.2108006988
 20
3.3488311471
 10
-50.2141255701
 20
3.3850092418
 10
-50.2173902082
 20
3.4133211569
 10
-50.220585836
 20
3.4336532907
  0
LWPOLYLINE
  5
2F8
100
AcDbEntity
  8
IMPORT_IGES
100
AcDbPolyline
 62
7
  6
CONTINUOUS
 90
4
 70
0
 10
-46.3891993012
 20
-2.4488311471
 10
-46.3858744299
 20
-2.4850092418
 10
-46.3826097918
 20
-2.5133211569
 10
-46.379414164
 20
-2.5336532907
  0
LWPOLYLINE
  5
2F9
100
AcDbEntity
  8
IMPORT_IGES
100
AcDbPolyline
 62
7
  6
CONTINUOUS
 90
14
 70
0
 10
-47.4195616583
 20
-2.1167209134
 10
-47.4181180532
 20
-2.1346513749
 10
-47.4166735747
 20
-2.1513887319
 10
-47.4152351111
 20
-2.1668619003
 10
-47.4138054411
 20
-2.1810533372
 10
-47.4123855521
 20
-2.1939462426
 10
-47.4109796468
 20
-2.205495326
 10
-47.4095908703
 20
-2.2156878022
 10
-47.4082203178
 20
-2.224544203
 10
-47.4068689382
 20
-2.2320763746
 10
-47.4055338501
 20
-2.2382936003
 10
-47.4042129816
 20
-2.2431868107
 10
-47.4029065941
 20
-2.2467507292
 10
-47.4022490811
 20
-2.2480543244
  0
LWPOLYLINE
  5
2FA
100
AcDbEntity
  8
IMPORT_IGES
100
AcDbPolyline
 62
7
  6
CONTINUOUS
 90
14
 70
0
 10
-48.2196751141
 20
-2.1152586366
 10
-48.2182409961
 20
-2.1331997122
 10
-48.2168061131
 20
-2.1499679777
 10
-48.2153740643
 20
-2.1654993928
 10
-48.2139483806
 20
-2.1797486103
 10
-48.212530457
 20
-2.1927118686
 10
-48.2111232239
 20
-2.2043725327
 10
-48.209732906
 20
-2.2146947128
 10
-48.2083633955
 20
-2.2236711849
 10
-48.2070149465
 20
-2.2313188375
 10
-48.2056856189
 20
-2.2376486226
 10
-48.2043700279
 20
-2.2426708742
 10
-48.2030655697
 20
-2.2463844623
 10
-48.202248603
 20
-2.2480534961
  0
LWPOLYLINE
  5
2FB
100
AcDbEntity
  8
IMPORT_IGES
100
AcDbPolyline
 62
7
  6
CONTINUOUS
 90
14
 70
0
 10
-48.6199186595
 20
-2.112089952
 10
-48.6184675417
 20
-2.1304349593
 10
-48.6170205155
 20
-2.147530999
 10
-48.615578078
 20
-2.163356524
 10
-48.6141423348
 20
-2.1778794929
 10
-48.6127154064
 20
-2.1910893637
 10
-48.611297638
 20
-2.2029935398
 10
-48.609893233
 20
-2.2135665398
 10
-48.60851003
 20
-2.2227676093
 10
-48.6071513293
 20
-2.2305997608
 10
-48.6058156204
 20
-2.2370838013
 10
-48.6045006104
 20
-2.2422297125
 10
-48.6032027971
 20
-2.2460564702
 10
-48.6022494525
 20
-2.2480549679
  0
LWPOLYLINE
  5
2FC
100
AcDbEntity
  8
IMPORT_IGES
100
AcDbPolyline
 62
7
  6
CONTINUOUS
 90
14
 70
0
 10
-49.8200705536
 20
-2.1101084564
 10
-49.8186387567
 20
-2.1283375552
 10
-49.8172132825
 20
-2.1453247285
 10
-49.8157901074
 20
-2.1611058013
 10
-49.8143699647
 20
-2.1756554885
 10
-49.8129554979
 20
-2.1889478032
 10
-49.8115458485
 20
-2.2009937246
 10
-49.8101394372
 20
-2.2117994335
 10
-49.8087429504
 20
-2.2213037478
 10
-49.8073677459
 20
-2.2294348853
 10
-49.8060144284
 20
-2.2361978574
 10
-49.8046793117
 20
-2.241603699
 10
-49.8033663198
 20
-2.245642457
 10
-49.8022488985
 20
-2.248054008
  0
LWPOLYLINE
  5
2FD
100
AcDbEntity
  8
IMPORT_IGES
100
AcDbPolyline
 62
7
  6
CONTINUOUS
 90
14
 70
0
 10
-49.0200643681
 20
-2.1101828297
 10
-49.0186444491
 20
-2.1282589167
 10
-49.0172297475
 20
-2.1451256398
 10
-49.015815677
 20
-2.1608243306
 10
-49.014401898
 20
-2.1753377751
 10
-49.0129921681
 20
-2.1886204108
 10
-49.0115882788
 20
-2.2006539703
 10
-49.0101896481
 20
-2.2114391018
 10
-49.008801752
 20
-2.2209306271
 10
-49.0074352192
 20
-2.2290655648
 10
-49.0060922271
 20
-2.2358439936
 10
-49.0047678218
 20
-2.2412862011
 10
-49.0034612902
 20
-2.2453947497
 10
-49.0022492139
 20
-2.2480545545
  0
LWPOLYLINE
  5
2FE
100
AcDbEntity
  8
IMPORT_IGES
100
AcDbPolyline
 62
7
  6
CONTINUOUS
 90
14
 70
0
 10
-47.0200606863
 20
-2.1102505946
 10
-47.0185920502
 20
-2.1289341708
 10
-47.0171307844
 20
-2.1462981323
 10
-47.0156783363
 20
-2.1623168654
 10
-47.0142356883
 20
-2.176982739
 10
-47.0128012246
 20
-2.1903323153
 10
-47.0113767602
 20
-2.2023616294
 10
-47.0099651016
 20
-2.2130545918
 10
-47.0085665419
 20
-2.2224146474
 10
-47.0071796323
 20
-2.2304479753
 10
-47.0058087985
 20
-2.2371128034
 10
-47.0044598252
 20
-2.2423683088
 10
-47.0031287744
 20
-2.2462355631
 10
-47.0022491815
 20
-2.2480544983
  0
LWPOLYLINE
  5
2FF
100
AcDbEntity
  8
IMPORT_IGES
100
AcDbPolyline
 62
7
  6
CONTINUOUS
 90
14
 70
0
 10
-50.2202239931
 20
-2.1080854595
 10
-50.2187842454
 20
-2.1265392565
 10
-50.2173495539
 20
-2.143751806
 10
-50.2159202232
 20
-2.1597101825
 10
-50.2144968562
 20
-2.1744005356
 10
-50.2130820406
 20
-2.187805447
 10
-50.2116772419
 20
-2.1999220872
 10
-50.2102820594
 20
-2.2107599872
 10
-50.208896308
 20
-2.2203201544
 10
-50.2075250859
 20
-2.2285666266
 10
-50.2061746448
 20
-2.2354630283
 10
-50.2048413179
 20
-2.2410170932
 10
-50.2035212668
 20
-2.2452338782
 10
-50.2022490603
 20
-2.2480542884
  0
LWPOLYLINE
  5
300
100
AcDbEntity
  8
IMPORT_IGES
100
AcDbPolyline
 62
7
  6
CONTINUOUS
 90
14
 70
0
 10
-47.820238572
 20
-2.1079052975
 10
-47.8187800713
 20
-2.1266029341
 10
-47.8173270191
 20
-2.1440042164
 10
-47.8158815314
 20
-2.1600913581
 10
-47.8144466234
 20
-2.1748522121
 10
-47.8130255673
 20
-2.1882838927
 10
-47.8116190401
 20
-2.200387894
 10
-47.8102267478
 20
-2.2111680425
 10
-47.808850651
 20
-2.2206190218
 10
-47.8074931328
 20
-2.2287459927
 10
-47.80615346
 20
-2.2355610103
 10
-47.8048263552
 20
-2.2410714652
 10
-47.8035099382
 20
-2.2452635402
 10
-47.8022488009
 20
-2.248053839
  0
LWPOLYLINE
  5
301
100
AcDbEntity
  8
IMPORT_IGES
100
AcDbPolyline
 62
7
  6
CONTINUOUS
 90
15
 70
0
 10
-46.6206474362
 20
-2.1024492307
 10
-46.6192017396
 20
-2.1213237123
 10
-46.6177631586
 20
-2.1389258044
 10
-46.6163323392
 20
-2.1552371328
 10
-46.6149107566
 20
-2.1702434331
 10
-46.6135002909
 20
-2.1839493521
 10
-46.6121033331
 20
-2.1963595881
 10
-46.6107215182
 20
-2.2074716384
 10
-46.6093560056
 20
-2.2172853987
 10
-46.608008247
 20
-2.2258033062
 10
-46.6066806494
 20
-2.2330263194
 10
-46.605372442
 20
-2.2389577861
 10
-46.6040801684
 20
-2.2436066963
 10
-46.6027992748
 20
-2.2469854467
 10
-46.6022488963
 20
-2.2480540043
  0
LWPOLYLINE
  5
302
100
AcDbEntity
  8
IMPORT_IGES
100
AcDbPolyline
 62
7
  6
CONTINUOUS
 90
15
 70
0
 10
-49.4207514954
 20
-2.1009919908
 10
-49.4192596863
 20
-2.1205415215
 10
-49.4177731082
 20
-2.1387769498
 10
-49.4162971439
 20
-2.1556177439
 10
-49.4148345315
 20
-2.1710325479
 10
-49.4133853848
 20
-2.1850428802
 10
-49.4119512135
 20
-2.1976623677
 10
-49.4105336758
 20
-2.2089008305
 10
-49.4091354109
 20
-2.2187609919
 10
-49.4077594111
 20
-2.2272461975
 10
-49.4064074373
 20
-2.2343649541
 10
-49.405076389
 20
-2.240132434
 10
-49.4037617797
 20
-2.244563957
 10
-49.4024591494
 20
-2.2476747582
 10
-49.402249335
 20
-2.2480547643
  0
LWPOLYLINE
  5
303
100
AcDbEntity
  8
IMPORT_IGES
100
AcDbPolyline
 62
7
  6
CONTINUOUS
 90
15
 70
0
 10
-46.2208476137
 20
-2.099669896
 10
-46.2193621184
 20
-2.1192223864
 10
-46.2178882611
 20
-2.1373952436
 10
-46.2164251059
 20
-2.1542040878
 10
-46.2149729979
 20
-2.1696365491
 10
-46.2135338445
 20
-2.1836855662
 10
-46.212109055
 20
-2.1963706199
 10
-46.2107003754
 20
-2.2077042301
 10
-46.2093078059
 20
-2.2176843233
 10
-46.2079301484
 20
-2.2263080726
 10
-46.2065684638
 20
-2.2335787723
 10
-46.2052233903
 20
-2.2395108068
 10
-46.2038931488
 20
-2.2441152745
 10
-46.2025778157
 20
-2.2473961107
 10
-46.2012792445
 20
-2.2493554863
  0
LINE
  5
304
100
AcDbEntity
  8
IMPORT_IGES
100
AcDbLine
 62
7
  6
CONTINUOUS
 10
-48.7805702158
 20
3.0183987129
 11
-48.7777516917
 21
2.9801784775
  0
LINE
  5
305
100
AcDbEntity
  8
IMPORT_IGES
100
AcDbLine
 62
7
  6
CONTINUOUS
 10
-48.3803963712
 20
3.016170234
 11
-48.3775657225
 21
2.977504617
  0
LINE
  5
306
100
AcDbEntity
  8
IMPORT_IGES
100
AcDbLine
 62
7
  6
CONTINUOUS
 10
-47.4224340826
 20
-2.0775116247
 11
-47.4195616583
 21
-2.1167209134
  0
LINE
  5
307
100
AcDbEntity
  8
IMPORT_IGES
100
AcDbLine
 62
7
  6
CONTINUOUS
 10
-48.2225487942
 20
-2.0758451838
 11
-48.2196751141
 21
-2.1152586366
  0
LINE
  5
308
100
AcDbEntity
  8
IMPORT_IGES
100
AcDbLine
 62
7
  6
CONTINUOUS
 10
-47.1801387091
 20
3.0128332711
 11
-47.1772972512
 21
2.9736061602
  0
LINE
  5
309
100
AcDbEntity
  8
IMPORT_IGES
100
AcDbLine
 62
7
  6
CONTINUOUS
 10
-47.5801605357
 20
3.0131144136
 11
-47.5772579284
 21
2.9730303335
  0
LINE
  5
30A
100
AcDbEntity
  8
IMPORT_IGES
100
AcDbLine
 62
7
  6
CONTINUOUS
 10
-46.7800845908
 20
3.0121325249
 11
-46.7772276479
 21
2.9725907056
  0
LINE
  5
30B
100
AcDbEntity
  8
IMPORT_IGES
100
AcDbLine
 62
7
  6
CONTINUOUS
 10
-48.6228353202
 20
-2.0716688969
 11
-48.6199186595
 21
-2.112089952
  0
LINE
  5
30C
100
AcDbEntity
  8
IMPORT_IGES
100
AcDbLine
 62
7
  6
CONTINUOUS
 10
-47.9801049057
 20
3.012398395
 11
-47.9771885632
 21
2.9720186888
  0
LINE
  5
30D
100
AcDbEntity
  8
IMPORT_IGES
100
AcDbLine
 62
7
  6
CONTINUOUS
 10
-49.8229523662
 20
-2.069950961
 11
-49.8200705536
 21
-2.1101084564
  0
LINE
  5
30E
100
AcDbEntity
  8
IMPORT_IGES
100
AcDbLine
 62
7
  6
CONTINUOUS
 10
-49.9799200815
 20
3.0099758843
 11
-49.9770530646
 21
2.9700254011
  0
LINE
  5
30F
100
AcDbEntity
  8
IMPORT_IGES
100
AcDbLine
 62
7
  6
CONTINUOUS
 10
-49.0229187317
 20
-2.0704430919
 11
-49.0200643681
 21
-2.1101828297
  0
LINE
  5
310
100
AcDbEntity
  8
IMPORT_IGES
100
AcDbLine
 62
7
  6
CONTINUOUS
 10
-47.0230252963
 20
-2.0688636986
 11
-47.0200606863
 21
-2.1102505946
  0
LINE
  5
311
100
AcDbEntity
  8
IMPORT_IGES
100
AcDbLine
 62
7
  6
CONTINUOUS
 10
-50.2231101594
 20
-2.0676202515
 11
-50.2202239931
 21
-2.1080854595
  0
LINE
  5
312
100
AcDbEntity
  8
IMPORT_IGES
100
AcDbLine
 62
7
  6
CONTINUOUS
 10
-47.8231719648
 20
-2.0667032393
 11
-47.820238572
 21
-2.1079052975
  0
LINE
  5
313
100
AcDbEntity
  8
IMPORT_IGES
100
AcDbLine
 62
7
  6
CONTINUOUS
 10
-46.3796490027
 20
3.00639772
 11
-46.3767494942
 21
2.9655369478
  0
LINE
  5
314
100
AcDbEntity
  8
IMPORT_IGES
100
AcDbLine
 62
7
  6
CONTINUOUS
 10
-49.5796501625
 20
3.0064137616
 11
-49.5767386078
 21
2.9653746535
  0
LINE
  5
315
100
AcDbEntity
  8
IMPORT_IGES
100
AcDbLine
 62
7
  6
CONTINUOUS
 10
-49.1794750302
 20
3.004074181
 11
-49.1766000762
 21
2.9633035299
  0
LINE
  5
316
100
AcDbEntity
  8
IMPORT_IGES
100
AcDbLine
 62
7
  6
CONTINUOUS
 10
-50.3794253439
 20
3.003336386
 11
-50.376536053
 21
2.9622558866
  0
LINE
  5
317
100
AcDbEntity
  8
IMPORT_IGES
100
AcDbLine
 62
7
  6
CONTINUOUS
 10
-46.6235590411
 20
-2.0609183687
 11
-46.6206474362
 21
-2.1024492307
  0
LINE
  5
318
100
AcDbEntity
  8
IMPORT_IGES
100
AcDbLine
 62
7
  6
CONTINUOUS
 10
-49.4237458172
 20
-2.0580715041
 11
-49.4207514954
 21
-2.1009919908
  0
LINE
  5
319
100
AcDbEntity
  8
IMPORT_IGES
100
AcDbLine
 62
7
  6
CONTINUOUS
 10
-46.2238509377
 20
-2.0564307476
 11
-46.2208476137
 21
-2.099669896
  0
LINE
  5
31A
100
AcDbEntity
  8
IMPORT_IGES
100
AcDbLine
 62
7
  6
CONTINUOUS
 10
-48.7777516917
 20
2.9801784775
 11
-48.7749226797
 21
2.9374409547
  0
LINE
  5
31B
100
AcDbEntity
  8
IMPORT_IGES
100
AcDbLine
 62
7
  6
CONTINUOUS
 10
-48.3775657225
 20
2.977504617
 11
-48.3747183759
 21
2.9341891499
  0
LINE
  5
31C
100
AcDbEntity
  8
IMPORT_IGES
100
AcDbLine
 62
7
  6
CONTINUOUS
 10
-47.4253047365
 20
-2.0338166413
 11
-47.4224340826
 21
-2.0775116247
  0
LINE
  5
31D
100
AcDbEntity
  8
IMPORT_IGES
100
AcDbLine
 62
7
  6
CONTINUOUS
 10
-48.225437235
 20
-2.031692235
 11
-48.2225487942
 21
-2.0758451838
  0
LINE
  5
31E
100
AcDbEntity
  8
IMPORT_IGES
100
AcDbLine
 62
7
  6
CONTINUOUS
 10
-47.1772972512
 20
2.9736061602
 11
-47.1744145713
 21
2.9293077017
  0
LINE
  5
31F
100
AcDbEntity
  8
IMPORT_IGES
100
AcDbLine
 62
7
  6
CONTINUOUS
 10
-47.5772579284
 20
2.9730303335
 11
-47.5743498987
 21
2.928266798
  0
LINE
  5
320
100
AcDbEntity
  8
IMPORT_IGES
100
AcDbLine
 62
7
  6
CONTINUOUS
 10
-46.7772276479
 20
2.9725907056
 11
-46.7743415494
 21
2.9281283123
  0
LINE
  5
321
100
AcDbEntity
  8
IMPORT_IGES
100
AcDbLine
 62
7
  6
CONTINUOUS
 10
-48.62576413
 20
-2.0264184856
 11
-48.6228353202
 21
-2.0716688969
  0
LINE
  5
322
100
AcDbEntity
  8
IMPORT_IGES
100
AcDbLine
 62
7
  6
CONTINUOUS
 10
-47.9771885632
 20
2.9720186888
 11
-47.9742346486
 21
2.9263877638
  0
LINE
  5
323
100
AcDbEntity
  8
IMPORT_IGES
100
AcDbLine
 62
7
  6
CONTINUOUS
 10
-49.8258473933
 20
-2.0250619541
 11
-49.8229523662
 21
-2.069950961
  0
LINE
  5
324
100
AcDbEntity
  8
IMPORT_IGES
100
AcDbLine
 62
7
  6
CONTINUOUS
 10
-49.9770530646
 20
2.9700254011
 11
-49.9741635556
 21
2.9252386946
  0
LINE
  5
325
100
AcDbEntity
  8
IMPORT_IGES
100
AcDbLine
 62
7
  6
CONTINUOUS
 10
-49.0257863872
 20
-2.0260535454
 11
-49.0229187317
 21
-2.0704430919
  0
LINE
  5
326
100
AcDbEntity
  8
IMPORT_IGES
100
AcDbLine
 62
7
  6
CONTINUOUS
 10
-50.2259893426
 20
-2.0227466161
 11
-50.2231101594
 21
-2.0676202515
  0
LINE
  5
327
100
AcDbEntity
  8
IMPORT_IGES
100
AcDbLine
 62
7
  6
CONTINUOUS
 10
-47.0260176174
 20
-2.0222348679
 11
-47.0230252963
 21
-2.0688636986
  0
LINE
  5
328
100
AcDbEntity
  8
IMPORT_IGES
100
AcDbLine
 62
7
  6
CONTINUOUS
 10
-47.8261249867
 20
-2.0205592895
 11
-47.8231719648
 21
-2.0667032393
  0
LINE
  5
329
100
AcDbEntity
  8
IMPORT_IGES
100
AcDbLine
 62
7
  6
CONTINUOUS
 10
-49.5767386078
 20
2.9653746535
 11
-49.5738069576
 21
2.9194008668
  0
LINE
  5
32A
100
AcDbEntity
  8
IMPORT_IGES
100
AcDbLine
 62
7
  6
CONTINUOUS
 10
-46.3767494942
 20
2.9655369478
 11
-46.3738188313
 21
2.9195959145
  0
LINE
  5
32B
100
AcDbEntity
  8
IMPORT_IGES
100
AcDbLine
 62
7
  6
CONTINUOUS
 10
-49.1766000762
 20
2.9633035299
 11
-49.1737138497
 21
2.9178672055
  0
LINE
  5
32C
100
AcDbEntity
  8
IMPORT_IGES
100
AcDbLine
 62
7
  6
CONTINUOUS
 10
-50.376536053
 20
2.9622558866
 11
-50.373633854
 21
2.9164623037
  0
LINE
  5
32D
100
AcDbEntity
  8
IMPORT_IGES
100
AcDbLine
 62
7
  6
CONTINUOUS
 10
-46.62649107
 20
-2.0144494156
 11
-46.6235590411
 21
-2.0609183687
  0
LINE
  5
32E
100
AcDbEntity
  8
IMPORT_IGES
100
AcDbLine
 62
7
  6
CONTINUOUS
 10
-49.4267329699
 20
-2.0104475621
 11
-49.4237458172
 21
-2.0580715041
  0
LINE
  5
32F
100
AcDbEntity
  8
IMPORT_IGES
100
AcDbLine
 62
7
  6
CONTINUOUS
 10
-46.2268839164
 20
-2.0078289991
 11
-46.2238509377
 21
-2.0564307476
  0
LINE
  5
330
100
AcDbEntity
  8
IMPORT_IGES
100
AcDbLine
 62
7
  6
CONTINUOUS
 10
-48.7749226797
 20
2.9374409547
 11
-48.7720653264
 21
2.8899146621
  0
LINE
  5
331
100
AcDbEntity
  8
IMPORT_IGES
100
AcDbLine
 62
7
  6
CONTINUOUS
 10
-48.3747183759
 20
2.9341891499
 11
-48.3718380726
 21
2.8859495826
  0
LINE
  5
332
100
AcDbEntity
  8
IMPORT_IGES
100
AcDbLine
 62
7
  6
CONTINUOUS
 10
-47.4281767222
 20
-1.9856892657
 11
-47.4253047365
 21
-2.0338166413
  0
LINE
  5
333
100
AcDbEntity
  8
IMPORT_IGES
100
AcDbLine
 62
7
  6
CONTINUOUS
 10
-48.2283468793
 20
-1.9826980285
 11
-48.225437235
 21
-2.031692235
  0
LINE
  5
334
100
AcDbEntity
  8
IMPORT_IGES
100
AcDbLine
 62
7
  6
CONTINUOUS
 10
-47.1744145713
 20
2.9293077017
 11
-47.1715095193
 21
2.8801645797
  0
LINE
  5
335
100
AcDbEntity
  8
IMPORT_IGES
100
AcDbLine
 62
7
  6
CONTINUOUS
 10
-47.5743498987
 20
2.928266798
 11
-47.5714456928
 21
2.8790334509
  0
LINE
  5
336
100
AcDbEntity
  8
IMPORT_IGES
100
AcDbLine
 62
7
  6
CONTINUOUS
 10
-46.7743415494
 20
2.9281283123
 11
-46.7714368281
 21
2.8788772515
  0
LINE
  5
337
100
AcDbEntity
  8
IMPORT_IGES
100
AcDbLine
 62
7
  6
CONTINUOUS
 10
-49.0286610796
 20
-1.9771419036
 11
-49.0257863872
 21
-2.0260535454
  0
LINE
  5
338
100
AcDbEntity
  8
IMPORT_IGES
100
AcDbLine
 62
7
  6
CONTINUOUS
 10
-48.6286970239
 20
-1.976503258
 11
-48.62576413
 21
-2.0264184856
  0
LINE
  5
339
100
AcDbEntity
  8
IMPORT_IGES
100
AcDbLine
 62
7
  6
CONTINUOUS
 10
-49.8287490796
 20
-1.9755762142
 11
-49.8258473933
 21
-2.0250619541
  0
LINE
  5
33A
100
AcDbEntity
  8
IMPORT_IGES
100
AcDbLine
 62
7
  6
CONTINUOUS
 10
-49.9741635556
 20
2.9252386946
 11
-49.9712501378
 21
2.8755614405
  0
LINE
  5
33B
100
AcDbEntity
  8
IMPORT_IGES
100
AcDbLine
 62
7
  6
CONTINUOUS
 10
-47.9742346486
 20
2.9263877638
 11
-47.9712486823
 21
2.8755167689
  0
LINE
  5
33C
100
AcDbEntity
  8
IMPORT_IGES
100
AcDbLine
 62
7
  6
CONTINUOUS
 10
-50.2288694531
 20
-1.9734240314
 11
-50.2259893426
 21
-2.0227466161
  0
LINE
  5
33D
100
AcDbEntity
  8
IMPORT_IGES
100
AcDbLine
 62
7
  6
CONTINUOUS
 10
-47.0290260192
 20
-1.9705995975
 11
-47.0260176174
 21
-2.0222348679
  0
LINE
  5
33E
100
AcDbEntity
  8
IMPORT_IGES
100
AcDbLine
 62
7
  6
CONTINUOUS
 10
-49.5738069576
 20
2.9194008668
 11
-49.5708679755
 21
2.8687024295
  0
LINE
  5
33F
100
AcDbEntity
  8
IMPORT_IGES
100
AcDbLine
 62
7
  6
CONTINUOUS
 10
-49.1737138497
 20
2.9178672055
 11
-49.1708091119
 21
2.8676484247
  0
LINE
  5
340
100
AcDbEntity
  8
IMPORT_IGES
100
AcDbLine
 62
7
  6
CONTINUOUS
 10
-47.8290843727
 20
-1.969562914
 11
-47.8261249867
 21
-2.0205592895
  0
LINE
  5
341
100
AcDbEntity
  8
IMPORT_IGES
100
AcDbLine
 62
7
  6
CONTINUOUS
 10
-46.3738188313
 20
2.9195959145
 11
-46.3708714637
 21
2.8687695177
  0
LINE
  5
342
100
AcDbEntity
  8
IMPORT_IGES
100
AcDbLine
 62
7
  6
CONTINUOUS
 10
-50.373633854
 20
2.9164623037
 11
-50.3707249448
 21
2.8660730525
  0
LINE
  5
343
100
AcDbEntity
  8
IMPORT_IGES
100
AcDbLine
 62
7
  6
CONTINUOUS
 10
-46.6294369056
 20
-1.9631826676
 11
-46.62649107
 21
-2.0144494156
  0
LINE
  5
344
100
AcDbEntity
  8
IMPORT_IGES
100
AcDbLine
 62
7
  6
CONTINUOUS
 10
-49.4297020885
 20
-1.9584061032
 11
-49.4267329699
 21
-2.0104475621
  0
LINE
  5
345
100
AcDbEntity
  8
IMPORT_IGES
100
AcDbLine
 62
7
  6
CONTINUOUS
 10
-46.2299329402
 20
-1.9540422912
 11
-46.2268839164
 21
-2.0078289991
  0
LINE
  5
346
100
AcDbEntity
  8
IMPORT_IGES
100
AcDbLine
 62
7
  6
CONTINUOUS
 10
-48.7720653264
 20
2.8899146621
 11
-48.7691826773
 21
2.837568118
  0
LINE
  5
347
100
AcDbEntity
  8
IMPORT_IGES
100
AcDbLine
 62
7
  6
CONTINUOUS
 10
-48.3718380726
 20
2.8859495826
 11
-48.368944478
 21
2.833049651
  0
LINE
  5
348
100
AcDbEntity
  8
IMPORT_IGES
100
AcDbLine
 62
7
  6
CONTINUOUS
 10
-47.4310660818
 20
-1.9328450363
 11
-47.4281767222
 21
-1.9856892657
  0
LINE
  5
349
100
AcDbEntity
  8
IMPORT_IGES
100
AcDbLine
 62
7
  6
CONTINUOUS
 10
-48.2312731176
 20
-1.9288883854
 11
-48.2283468793
 21
-1.9826980285
  0
LINE
  5
34A
100
AcDbEntity
  8
IMPORT_IGES
100
AcDbLine
 62
7
  6
CONTINUOUS
 10
-47.1715095193
 20
2.8801645797
 11
-47.1685925505
 21
2.826308291
  0
LINE
  5
34B
100
AcDbEntity
  8
IMPORT_IGES
100
AcDbLine
 62
7
  6
CONTINUOUS
 10
-46.7714368281
 20
2.8788772515
 11
-46.7685039617
 21
2.8246056553
  0
LINE
  5
34C
100
AcDbEntity
  8
IMPORT_IGES
100
AcDbLine
 62
7
  6
CONTINUOUS
 10
-47.9712486823
 20
2.8755167689
 11
-47.9682375205
 21
2.8195052626
  0
LINE
  5
34D
100
AcDbEntity
  8
IMPORT_IGES
100
AcDbLine
 62
7
  6
CONTINUOUS
 10
-47.0320255269
 20
-1.9143252534
 11
-47.0290260192
 21
-1.9705995975
  0
LWPOLYLINE
  5
34E
100
AcDbEntity
  8
IMPORT_IGES
100
AcDbPolyline
 62
7
  6
CONTINUOUS
 90
5
 70
0
 10
-50.1971885274
 20
3.128071684
 10
-50.2006185777
 20
3.1943079415
 10
-50.2040472026
 20
3.2533295207
 10
-50.2074419257
 20
3.3048979334
 10
-50.2108006988
 20
3.3488311471
  0
LWPOLYLINE
  5
34F
100
AcDbEntity
  8
IMPORT_IGES
100
AcDbPolyline
 62
7
  6
CONTINUOUS
 90
5
 70
0
 10
-49.6027804432
 20
-2.2286022246
 10
-49.5993491642
 20
-2.294859429
 10
-49.59591893
 20
-2.3539107892
 10
-49.5925221878
 20
-2.4054649275
 10
-49.589158823
 20
-2.4493526422
  0
LWPOLYLINE
  5
350
100
AcDbEntity
  8
IMPORT_IGES
100
AcDbPolyline
 62
7
  6
CONTINUOUS
 90
5
 70
0
 10
-49.7972195568
 20
3.1286022246
 10
-49.8006508358
 20
3.194859429
 10
-49.80408107
 20
3.2539107892
 10
-49.8074778122
 20
3.3054649275
 10
-49.810841177
 20
3.3493526422
  0
LWPOLYLINE
  5
351
100
AcDbEntity
  8
IMPORT_IGES
100
AcDbPolyline
 62
7
  6
CONTINUOUS
 90
5
 70
0
 10
-49.2027804432
 20
-2.2286022246
 10
-49.1993491642
 20
-2.294859429
 10
-49.19591893
 20
-2.3539107892
 10
-49.1925221878
 20
-2.4054649275
 10
-49.189158823
 20
-2.4493526422
  0
LWPOLYLINE
  5
352
100
AcDbEntity
  8
IMPORT_IGES
100
AcDbPolyline
 62
7
  6
CONTINUOUS
 90
5
 70
0
 10
-49.3972195568
 20
3.1286022246
 10
-49.4006508358
 20
3.194859429
 10
-49.40408107
 20
3.2539107892
 10
-49.4074778122
 20
3.3054649275
 10
-49.410841177
 20
3.3493526422
  0
LWPOLYLINE
  5
353
100
AcDbEntity
  8
IMPORT_IGES
100
AcDbPolyline
 62
7
  6
CONTINUOUS
 90
5
 70
0
 10
-48.8027804432
 20
-2.2286022246
 10
-48.7993491642
 20
-2.294859429
 10
-48.79591893
 20
-2.3539107892
 10
-48.7925221878
 20
-2.4054649275
 10
-48.789158823
 20
-2.4493526422
  0
LWPOLYLINE
  5
354
100
AcDbEntity
  8
IMPORT_IGES
100
AcDbPolyline
 62
7
  6
CONTINUOUS
 90
5
 70
0
 10
-48.9972195568
 20
3.1286022246
 10
-49.0006508358
 20
3.194859429
 10
-49.00408107
 20
3.2539107892
 10
-49.0074778122
 20
3.3054649275
 10
-49.010841177
 20
3.3493526422
  0
LWPOLYLINE
  5
355
100
AcDbEntity
  8
IMPORT_IGES
100
AcDbPolyline
 62
7
  6
CONTINUOUS
 90
5
 70
0
 10
-48.4027804432
 20
-2.2286022246
 10
-48.3993491642
 20
-2.294859429
 10
-48.39591893
 20
-2.3539107892
 10
-48.3925221878
 20
-2.4054649275
 10
-48.389158823
 20
-2.4493526422
  0
LWPOLYLINE
  5
356
100
AcDbEntity
  8
IMPORT_IGES
100
AcDbPolyline
 62
7
  6
CONTINUOUS
 90
5
 70
0
 10
-48.5972195568
 20
3.1286022246
 10
-48.6006508358
 20
3.194859429
 10
-48.60408107
 20
3.2539107892
 10
-48.6074778122
 20
3.3054649275
 10
-48.610841177
 20
3.3493526422
  0
LWPOLYLINE
  5
357
100
AcDbEntity
  8
IMPORT_IGES
100
AcDbPolyline
 62
7
  6
CONTINUOUS
 90
5
 70
0
 10
-48.0027804432
 20
-2.2286022246
 10
-47.9993491642
 20
-2.294859429
 10
-47.99591893
 20
-2.3539107892
 10
-47.9925221878
 20
-2.4054649275
 10
-47.989158823
 20
-2.4493526422
  0
LWPOLYLINE
  5
358
100
AcDbEntity
  8
IMPORT_IGES
100
AcDbPolyline
 62
7
  6
CONTINUOUS
 90
5
 70
0
 10
-48.1972195568
 20
3.1286022246
 10
-48.2006508358
 20
3.194859429
 10
-48.20408107
 20
3.2539107892
 10
-48.2074778122
 20
3.3054649275
 10
-48.210841177
 20
3.3493526422
  0
LWPOLYLINE
  5
359
100
AcDbEntity
  8
IMPORT_IGES
100
AcDbPolyline
 62
7
  6
CONTINUOUS
 90
5
 70
0
 10
-47.6027804432
 20
-2.2286022246
 10
-47.5993491642
 20
-2.294859429
 10
-47.59591893
 20
-2.3539107892
 10
-47.5925221878
 20
-2.4054649275
 10
-47.589158823
 20
-2.4493526422
  0
LWPOLYLINE
  5
35A
100
AcDbEntity
  8
IMPORT_IGES
100
AcDbPolyline
 62
7
  6
CONTINUOUS
 90
5
 70
0
 10
-47.7972195568
 20
3.1286022246
 10
-47.8006508358
 20
3.194859429
 10
-47.80408107
 20
3.2539107892
 10
-47.8074778122
 20
3.3054649275
 10
-47.810841177
 20
3.3493526422
  0
LWPOLYLINE
  5
35B
100
AcDbEntity
  8
IMPORT_IGES
100
AcDbPolyline
 62
7
  6
CONTINUOUS
 90
5
 70
0
 10
-47.2027804432
 20
-2.2286022246
 10
-47.1993491642
 20
-2.294859429
 10
-47.19591893
 20
-2.3539107892
 10
-47.1925221878
 20
-2.4054649275
 10
-47.189158823
 20
-2.4493526422
  0
LWPOLYLINE
  5
35C
100
AcDbEntity
  8
IMPORT_IGES
100
AcDbPolyline
 62
7
  6
CONTINUOUS
 90
5
 70
0
 10
-47.3972195568
 20
3.1286022246
 10
-47.4006508358
 20
3.194859429
 10
-47.40408107
 20
3.2539107892
 10
-47.4074778122
 20
3.3054649275
 10
-47.410841177
 20
3.3493526422
  0
LWPOLYLINE
  5
35D
100
AcDbEntity
  8
IMPORT_IGES
100
AcDbPolyline
 62
7
  6
CONTINUOUS
 90
5
 70
0
 10
-46.8027804432
 20
-2.2286022246
 10
-46.7993491642
 20
-2.294859429
 10
-46.79591893
 20
-2.3539107892
 10
-46.7925221878
 20
-2.4054649275
 10
-46.789158823
 20
-2.4493526422
  0
LWPOLYLINE
  5
35E
100
AcDbEntity
  8
IMPORT_IGES
100
AcDbPolyline
 62
7
  6
CONTINUOUS
 90
5
 70
0
 10
-46.9972195568
 20
3.1286022246
 10
-47.0006508358
 20
3.194859429
 10
-47.00408107
 20
3.2539107892
 10
-47.0074778122
 20
3.3054649275
 10
-47.010841177
 20
3.3493526422
  0
LWPOLYLINE
  5
35F
100
AcDbEntity
  8
IMPORT_IGES
100
AcDbPolyline
 62
7
  6
CONTINUOUS
 90
5
 70
0
 10
-46.4028114726
 20
-2.228071684
 10
-46.3993814223
 20
-2.2943079415
 10
-46.3959527974
 20
-2.3533295207
 10
-46.3925580743
 20
-2.4048979334
 10
-46.3891993012
 20
-2.4488311471
  0
LINE
  5
360
100
AcDbEntity
  8
IMPORT_IGES
100
AcDbLine
 62
7
  6
CONTINUOUS
 10
-49.0329698003
 20
-1.8956025936
 11
-49.0286610796
 21
-1.9771419036
  0
LINE
  5
361
100
AcDbEntity
  8
IMPORT_IGES
100
AcDbLine
 62
7
  6
CONTINUOUS
 10
-47.5714456928
 20
2.8790334509
 11
-47.5670991358
 21
2.7969804408
  0
LWPOLYLINE
  5
362
100
AcDbEntity
  8
IMPORT_IGES
100
AcDbPolyline
 62
7
  6
CONTINUOUS
 90
6
 70
0
 10
-50.0034286894
 20
-2.2155863736
 10
-49.9999295679
 20
-2.2845698946
 10
-49.9964455811
 20
-2.3459782729
 10
-49.9929863819
 20
-2.399594847
 10
-49.9895391124
 20
-2.4452556481
 10
-49.9861166304
 20
-2.4828168219
  0
LINE
  5
363
100
AcDbEntity
  8
IMPORT_IGES
100
AcDbLine
 62
7
  6
CONTINUOUS
 10
-49.8331061524
 20
-1.8928520454
 11
-49.8287490796
 21
-1.9755762142
  0
LINE
  5
364
100
AcDbEntity
  8
IMPORT_IGES
100
AcDbLine
 62
7
  6
CONTINUOUS
 10
-48.6330845664
 20
-1.8932928795
 11
-48.6286970239
 21
-1.976503258
  0
LWPOLYLINE
  5
365
100
AcDbEntity
  8
IMPORT_IGES
100
AcDbPolyline
 62
7
  6
CONTINUOUS
 90
6
 70
0
 10
-46.5965713106
 20
3.1155863736
 10
-46.6000704321
 20
3.1845698947
 10
-46.6035544189
 20
3.2459782729
 10
-46.6070136181
 20
3.299594847
 10
-46.6104608876
 20
3.3452556481
 10
-46.6138833696
 20
3.3828168219
  0
LINE
  5
366
100
AcDbEntity
  8
IMPORT_IGES
100
AcDbLine
 62
7
  6
CONTINUOUS
 10
-50.2332062894
 20
-1.8908354179
 11
-50.2288694531
 21
-1.9734240314
  0
LINE
  5
367
100
AcDbEntity
  8
IMPORT_IGES
100
AcDbLine
 62
7
  6
CONTINUOUS
 10
-49.9712501378
 20
2.8755614405
 11
-49.9668478093
 21
2.7919341102
  0
LINE
  5
368
100
AcDbEntity
  8
IMPORT_IGES
100
AcDbLine
 62
7
  6
CONTINUOUS
 10
-47.8335265895
 20
-1.8842509992
 11
-47.8290843727
 21
-1.969562914
  0
LINE
  5
369
100
AcDbEntity
  8
IMPORT_IGES
100
AcDbLine
 62
7
  6
CONTINUOUS
 10
-49.5708679755
 20
2.8687024295
 11
-49.566489829
 21
2.7846745748
  0
LINE
  5
36A
100
AcDbEntity
  8
IMPORT_IGES
100
AcDbLine
 62
7
  6
CONTINUOUS
 10
-49.1708091119
 20
2.8676484247
 11
-49.1664335083
 21
2.7835307978
  0
LINE
  5
36B
100
AcDbEntity
  8
IMPORT_IGES
100
AcDbLine
 62
7
  6
CONTINUOUS
 10
-46.3708714637
 20
2.8687695177
 11
-46.3664360499
 21
2.7835832786
  0
LINE
  5
36C
100
AcDbEntity
  8
IMPORT_IGES
100
AcDbLine
 62
7
  6
CONTINUOUS
 10
-50.3707249448
 20
2.8660730525
 11
-50.3663428105
 21
2.7816808983
  0
LINE
  5
36D
100
AcDbEntity
  8
IMPORT_IGES
100
AcDbLine
 62
7
  6
CONTINUOUS
 10
-46.6338571139
 20
-1.877589407
 11
-46.6294369056
 21
-1.9631826676
  0
LINE
  5
36E
100
AcDbEntity
  8
IMPORT_IGES
100
AcDbLine
 62
7
  6
CONTINUOUS
 10
-49.4341222515
 20
-1.8721113619
 11
-49.4297020885
 21
-1.9584061032
  0
LINE
  5
36F
100
AcDbEntity
  8
IMPORT_IGES
100
AcDbLine
 62
7
  6
CONTINUOUS
 10
-46.2344953201
 20
-1.8643945054
 11
-46.2299329402
 21
-1.9540422912
  0
LINE
  5
370
100
AcDbEntity
  8
IMPORT_IGES
100
AcDbLine
 62
7
  6
CONTINUOUS
 10
-48.7691826773
 20
2.837568118
 11
-48.7648548868
 21
2.7506650637
  0
LINE
  5
371
100
AcDbEntity
  8
IMPORT_IGES
100
AcDbLine
 62
7
  6
CONTINUOUS
 10
-48.368944478
 20
2.833049651
 11
-48.3645906119
 21
2.7450468492
  0
LINE
  5
372
100
AcDbEntity
  8
IMPORT_IGES
100
AcDbLine
 62
7
  6
CONTINUOUS
 10
-47.4353872295
 20
-1.8455155016
 11
-47.4310660818
 21
-1.9328450363
  0
LINE
  5
373
100
AcDbEntity
  8
IMPORT_IGES
100
AcDbLine
 62
7
  6
CONTINUOUS
 10
-48.2356640765
 20
-1.8395886291
 11
-48.2312731176
 21
-1.9288883854
  0
LINE
  5
374
100
AcDbEntity
  8
IMPORT_IGES
100
AcDbLine
 62
7
  6
CONTINUOUS
 10
-47.1685925505
 20
2.826308291
 11
-47.1642138802
 21
2.7369444605
  0
LINE
  5
375
100
AcDbEntity
  8
IMPORT_IGES
100
AcDbLine
 62
7
  6
CONTINUOUS
 10
-46.7685039617
 20
2.8246056553
 11
-46.7640627662
 21
2.7336939733
  0
LINE
  5
376
100
AcDbEntity
  8
IMPORT_IGES
100
AcDbLine
 62
7
  6
CONTINUOUS
 10
-47.9682375205
 20
2.8195052626
 11
-47.9637168447
 21
2.7261854504
  0
LINE
  5
377
100
AcDbEntity
  8
IMPORT_IGES
100
AcDbLine
 62
7
  6
CONTINUOUS
 10
-47.0364700121
 20
-1.8220802799
 11
-47.0320255269
 21
-1.9143252534
  0
LINE
  5
378
100
AcDbEntity
  8
IMPORT_IGES
100
AcDbLine
 62
7
  6
CONTINUOUS
 10
-49.0373305823
 20
-1.8029904099
 11
-49.0329698003
 21
-1.8956025936
  0
LINE
  5
379
100
AcDbEntity
  8
IMPORT_IGES
100
AcDbLine
 62
7
  6
CONTINUOUS
 10
-47.5670991358
 20
2.7969804408
 11
-47.5627239278
 21
2.7042215268
  0
LINE
  5
37A
100
AcDbEntity
  8
IMPORT_IGES
100
AcDbLine
 62
7
  6
CONTINUOUS
 10
-49.8374920267
 20
-1.7993761801
 11
-49.8331061524
 21
-1.8928520454
  0
LINE
  5
37B
100
AcDbEntity
  8
IMPORT_IGES
100
AcDbLine
 62
7
  6
CONTINUOUS
 10
-49.9668478093
 20
2.7919341102
 11
-49.9624303271
 21
2.6976290462
  0
LINE
  5
37C
100
AcDbEntity
  8
IMPORT_IGES
100
AcDbLine
 62
7
  6
CONTINUOUS
 10
-48.6374511971
 20
-1.8002932666
 11
-48.6330845664
 21
-1.8932928795
  0
LINE
  5
37D
100
AcDbEntity
  8
IMPORT_IGES
100
AcDbLine
 62
7
  6
CONTINUOUS
 10
-50.2375778236
 20
-1.7974443453
 11
-50.2332062894
 21
-1.8908354179
  0
LINE
  5
37E
100
AcDbEntity
  8
IMPORT_IGES
100
AcDbLine
 62
7
  6
CONTINUOUS
 10
-49.566489829
 20
2.7846745748
 11
-49.5621195086
 21
2.6906001546
  0
LINE
  5
37F
100
AcDbEntity
  8
IMPORT_IGES
100
AcDbLine
 62
7
  6
CONTINUOUS
 10
-50.3663428105
 20
2.7816808983
 11
-50.3619868254
 21
2.6876214701
  0
LINE
  5
380
100
AcDbEntity
  8
IMPORT_IGES
100
AcDbLine
 62
7
  6
CONTINUOUS
 10
-49.1664335083
 20
2.7835307978
 11
-49.1620584119
 21
2.6892137469
  0
LINE
  5
381
100
AcDbEntity
  8
IMPORT_IGES
100
AcDbLine
 62
7
  6
CONTINUOUS
 10
-47.837957007
 20
-1.7888967018
 11
-47.8335265895
 21
-1.8842509992
  0
LINE
  5
382
100
AcDbEntity
  8
IMPORT_IGES
100
AcDbLine
 62
7
  6
CONTINUOUS
 10
-46.3664360499
 20
2.7835832786
 11
-46.3620126423
 21
2.6881790402
  0
LINE
  5
383
100
AcDbEntity
  8
IMPORT_IGES
100
AcDbLine
 62
7
  6
CONTINUOUS
 10
-46.6382487278
 20
-1.7822190508
 11
-46.6338571139
 21
-1.877589407
  0
LINE
  5
384
100
AcDbEntity
  8
IMPORT_IGES
100
AcDbLine
 62
7
  6
CONTINUOUS
 10
-49.4385260711
 20
-1.7758457582
 11
-49.4341222515
 21
-1.8721113619
  0
LINE
  5
385
100
AcDbEntity
  8
IMPORT_IGES
100
AcDbLine
 62
7
  6
CONTINUOUS
 10
-46.2389941685
 20
-1.7650401686
 11
-46.2344953201
 21
-1.8643945054
  0
LINE
  5
386
100
AcDbEntity
  8
IMPORT_IGES
100
AcDbLine
 62
7
  6
CONTINUOUS
 10
-48.7648548868
 20
2.7506650637
 11
-48.7604644958
 21
2.6523363554
  0
LINE
  5
387
100
AcDbEntity
  8
IMPORT_IGES
100
AcDbLine
 62
7
  6
CONTINUOUS
 10
-50.1903541087
 20
2.97549381
 11
-50.1971885274
 21
3.128071684
  0
LINE
  5
388
100
AcDbEntity
  8
IMPORT_IGES
100
AcDbLine
 62
7
  6
CONTINUOUS
 10
-49.6096152371
 20
-2.0761472679
 11
-49.6027804432
 21
-2.2286022246
  0
LINE
  5
389
100
AcDbEntity
  8
IMPORT_IGES
100
AcDbLine
 62
7
  6
CONTINUOUS
 10
-49.7903847629
 20
2.9761472679
 11
-49.7972195568
 21
3.1286022246
  0
LINE
  5
38A
100
AcDbEntity
  8
IMPORT_IGES
100
AcDbLine
 62
7
  6
CONTINUOUS
 10
-49.2096152371
 20
-2.0761472679
 11
-49.2027804432
 21
-2.2286022246
  0
LINE
  5
38B
100
AcDbEntity
  8
IMPORT_IGES
100
AcDbLine
 62
7
  6
CONTINUOUS
 10
-49.3903847629
 20
2.9761472679
 11
-49.3972195568
 21
3.1286022246
  0
LINE
  5
38C
100
AcDbEntity
  8
IMPORT_IGES
100
AcDbLine
 62
7
  6
CONTINUOUS
 10
-48.8096152371
 20
-2.0761472679
 11
-48.8027804432
 21
-2.2286022246
  0
LINE
  5
38D
100
AcDbEntity
  8
IMPORT_IGES
100
AcDbLine
 62
7
  6
CONTINUOUS
 10
-48.9903847629
 20
2.9761472679
 11
-48.9972195568
 21
3.1286022246
  0
LINE
  5
38E
100
AcDbEntity
  8
IMPORT_IGES
100
AcDbLine
 62
7
  6
CONTINUOUS
 10
-48.4096152371
 20
-2.0761472679
 11
-48.4027804432
 21
-2.2286022246
  0
LINE
  5
38F
100
AcDbEntity
  8
IMPORT_IGES
100
AcDbLine
 62
7
  6
CONTINUOUS
 10
-48.5903847629
 20
2.9761472679
 11
-48.5972195568
 21
3.1286022246
  0
LINE
  5
390
100
AcDbEntity
  8
IMPORT_IGES
100
AcDbLine
 62
7
  6
CONTINUOUS
 10
-48.3645906119
 20
2.7450468492
 11
-48.3602277264
 21
2.6467565968
  0
LINE
  5
391
100
AcDbEntity
  8
IMPORT_IGES
100
AcDbLine
 62
7
  6
CONTINUOUS
 10
-48.0096152371
 20
-2.0761472679
 11
-48.0027804432
 21
-2.2286022246
  0
LINE
  5
392
100
AcDbEntity
  8
IMPORT_IGES
100
AcDbLine
 62
7
  6
CONTINUOUS
 10
-48.1903847629
 20
2.9761472679
 11
-48.1972195568
 21
3.1286022246
  0
LINE
  5
393
100
AcDbEntity
  8
IMPORT_IGES
100
AcDbLine
 62
7
  6
CONTINUOUS
 10
-47.6096152371
 20
-2.0761472679
 11
-47.6027804432
 21
-2.2286022246
  0
LINE
  5
394
100
AcDbEntity
  8
IMPORT_IGES
100
AcDbLine
 62
7
  6
CONTINUOUS
 10
-47.7903847629
 20
2.9761472679
 11
-47.7972195568
 21
3.1286022246
  0
LINE
  5
395
100
AcDbEntity
  8
IMPORT_IGES
100
AcDbLine
 62
7
  6
CONTINUOUS
 10
-47.2096152371
 20
-2.0761472679
 11
-47.2027804432
 21
-2.2286022246
  0
LINE
  5
396
100
AcDbEntity
  8
IMPORT_IGES
100
AcDbLine
 62
7
  6
CONTINUOUS
 10
-47.3903847629
 20
2.9761472679
 11
-47.3972195568
 21
3.1286022246
  0
LINE
  5
397
100
AcDbEntity
  8
IMPORT_IGES
100
AcDbLine
 62
7
  6
CONTINUOUS
 10
-46.8096152371
 20
-2.0761472679
 11
-46.8027804432
 21
-2.2286022246
  0
LINE
  5
398
100
AcDbEntity
  8
IMPORT_IGES
100
AcDbLine
 62
7
  6
CONTINUOUS
 10
-46.9903847629
 20
2.9761472679
 11
-46.9972195568
 21
3.1286022246
  0
LINE
  5
399
100
AcDbEntity
  8
IMPORT_IGES
100
AcDbLine
 62
7
  6
CONTINUOUS
 10
-46.4096458913
 20
-2.07549381
 11
-46.4028114726
 21
-2.228071684
  0
LINE
  5
39A
100
AcDbEntity
  8
IMPORT_IGES
100
AcDbLine
 62
7
  6
CONTINUOUS
 10
-50.0568369227
 20
-2.2192008656
 11
-50.0637265465
 21
-2.0634714631
  0
LINE
  5
39B
100
AcDbEntity
  8
IMPORT_IGES
100
AcDbLine
 62
7
  6
CONTINUOUS
 10
-50.0104913576
 20
-2.0559998781
 11
-50.0034286894
 21
-2.2155863736
  0
LINE
  5
39C
100
AcDbEntity
  8
IMPORT_IGES
100
AcDbLine
 62
7
  6
CONTINUOUS
 10
-49.6568370962
 20
-2.219058742
 11
-49.6637285309
 21
-2.0633412435
  0
LINE
  5
39D
100
AcDbEntity
  8
IMPORT_IGES
100
AcDbLine
 62
7
  6
CONTINUOUS
 10
-49.7431629038
 20
3.119058742
 11
-49.7362714691
 21
2.9633412435
  0
LINE
  5
39E
100
AcDbEntity
  8
IMPORT_IGES
100
AcDbLine
 62
7
  6
CONTINUOUS
 10
-49.2568370962
 20
-2.219058742
 11
-49.2637285309
 21
-2.0633412435
  0
LINE
  5
39F
100
AcDbEntity
  8
IMPORT_IGES
100
AcDbLine
 62
7
  6
CONTINUOUS
 10
-49.3431629038
 20
3.119058742
 11
-49.3362714691
 21
2.9633412435
  0
LINE
  5
3A0
100
AcDbEntity
  8
IMPORT_IGES
100
AcDbLine
 62
7
  6
CONTINUOUS
 10
-48.8568370962
 20
-2.219058742
 11
-48.8637285309
 21
-2.0633412435
  0
LINE
  5
3A1
100
AcDbEntity
  8
IMPORT_IGES
100
AcDbLine
 62
7
  6
CONTINUOUS
 10
-48.9431629038
 20
3.119058742
 11
-48.9362714691
 21
2.9633412435
  0
LINE
  5
3A2
100
AcDbEntity
  8
IMPORT_IGES
100
AcDbLine
 62
7
  6
CONTINUOUS
 10
-48.4568370962
 20
-2.219058742
 11
-48.4637285309
 21
-2.0633412435
  0
LINE
  5
3A3
100
AcDbEntity
  8
IMPORT_IGES
100
AcDbLine
 62
7
  6
CONTINUOUS
 10
-48.5431629038
 20
3.119058742
 11
-48.5362714691
 21
2.9633412435
  0
LINE
  5
3A4
100
AcDbEntity
  8
IMPORT_IGES
100
AcDbLine
 62
7
  6
CONTINUOUS
 10
-48.0568370962
 20
-2.219058742
 11
-48.0637285309
 21
-2.0633412435
  0
LINE
  5
3A5
100
AcDbEntity
  8
IMPORT_IGES
100
AcDbLine
 62
7
  6
CONTINUOUS
 10
-48.1431629038
 20
3.119058742
 11
-48.1362714691
 21
2.9633412435
  0
LINE
  5
3A6
100
AcDbEntity
  8
IMPORT_IGES
100
AcDbLine
 62
7
  6
CONTINUOUS
 10
-47.6568370962
 20
-2.219058742
 11
-47.6637285309
 21
-2.0633412435
  0
LINE
  5
3A7
100
AcDbEntity
  8
IMPORT_IGES
100
AcDbLine
 62
7
  6
CONTINUOUS
 10
-47.7431629038
 20
3.119058742
 11
-47.7362714691
 21
2.9633412435
  0
LINE
  5
3A8
100
AcDbEntity
  8
IMPORT_IGES
100
AcDbLine
 62
7
  6
CONTINUOUS
 10
-47.2568370962
 20
-2.219058742
 11
-47.2637285309
 21
-2.0633412435
  0
LINE
  5
3A9
100
AcDbEntity
  8
IMPORT_IGES
100
AcDbLine
 62
7
  6
CONTINUOUS
 10
-47.3431629038
 20
3.119058742
 11
-47.3362714691
 21
2.9633412435
  0
LINE
  5
3AA
100
AcDbEntity
  8
IMPORT_IGES
100
AcDbLine
 62
7
  6
CONTINUOUS
 10
-46.8568370962
 20
-2.219058742
 11
-46.8637285309
 21
-2.0633412435
  0
LINE
  5
3AB
100
AcDbEntity
  8
IMPORT_IGES
100
AcDbLine
 62
7
  6
CONTINUOUS
 10
-46.9431629038
 20
3.119058742
 11
-46.9362714691
 21
2.9633412435
  0
LINE
  5
3AC
100
AcDbEntity
  8
IMPORT_IGES
100
AcDbLine
 62
7
  6
CONTINUOUS
 10
-46.5895086424
 20
2.9559998782
 11
-46.5965713106
 21
3.1155863736
  0
LINE
  5
3AD
100
AcDbEntity
  8
IMPORT_IGES
100
AcDbLine
 62
7
  6
CONTINUOUS
 10
-46.5431630773
 20
3.1192008656
 11
-46.5362734535
 21
2.9634714631
  0
LINE
  5
3AE
100
AcDbEntity
  8
IMPORT_IGES
100
AcDbLine
 62
7
  6
CONTINUOUS
 10
-46.7640627662
 20
2.7336939733
 11
-46.7596028007
 21
2.631846706
  0
LINE
  5
3AF
100
AcDbEntity
  8
IMPORT_IGES
100
AcDbLine
 62
7
  6
CONTINUOUS
 10
-47.4411465921
 20
-1.7137111797
 11
-47.4353872295
 21
-1.8455155016
  0
LINE
  5
3B0
100
AcDbEntity
  8
IMPORT_IGES
100
AcDbLine
 62
7
  6
CONTINUOUS
 10
-48.2415045048
 20
-1.7049382063
 11
-48.2356640765
 21
-1.8395886291
  0
LINE
  5
3B1
100
AcDbEntity
  8
IMPORT_IGES
100
AcDbLine
 62
7
  6
CONTINUOUS
 10
-47.1642138802
 20
2.7369444605
 11
-47.1584210349
 21
2.6030970471
  0
LINE
  5
3B2
100
AcDbEntity
  8
IMPORT_IGES
100
AcDbLine
 62
7
  6
CONTINUOUS
 10
-50.2419419142
 20
-1.6941270271
 11
-50.2375778236
 21
-1.7974443453
  0
LINE
  5
3B3
100
AcDbEntity
  8
IMPORT_IGES
100
AcDbLine
 62
7
  6
CONTINUOUS
 10
-50.1419997768
 20
3.0941295534
 11
-50.134987157
 21
2.9296980419
  0
LINE
  5
3B4
100
AcDbEntity
  8
IMPORT_IGES
100
AcDbLine
 62
7
  6
CONTINUOUS
 10
-46.4580002233
 20
-2.1941295532
 11
-46.465012843
 21
-2.0296980417
  0
LINE
  5
3B5
100
AcDbEntity
  8
IMPORT_IGES
100
AcDbLine
 62
7
  6
CONTINUOUS
 10
-47.9637168447
 20
2.7261854504
 11
-47.9577114657
 21
2.5854807373
  0
LINE
  5
3B6
100
AcDbEntity
  8
IMPORT_IGES
100
AcDbLine
 62
7
  6
CONTINUOUS
 10
-47.042281615
 20
-1.6856678935
 11
-47.0364700121
 21
-1.8220802799
  0
LINE
  5
3B7
100
AcDbEntity
  8
IMPORT_IGES
100
AcDbLine
 62
7
  6
CONTINUOUS
 10
-49.0431994166
 20
-1.6624835359
 11
-49.0373305823
 21
-1.8029904099
  0
LINE
  5
3B8
100
AcDbEntity
  8
IMPORT_IGES
100
AcDbLine
 62
7
  6
CONTINUOUS
 10
-48.6431856415
 20
-1.6628416556
 11
-48.6374511971
 21
-1.8002932666
  0
LINE
  5
3B9
100
AcDbEntity
  8
IMPORT_IGES
100
AcDbLine
 62
7
  6
CONTINUOUS
 10
-47.5627239278
 20
2.7042215268
 11
-47.5568950731
 21
2.564872237
  0
LINE
  5
3BA
100
AcDbEntity
  8
IMPORT_IGES
100
AcDbLine
 62
7
  6
CONTINUOUS
 10
-49.8433275039
 20
-1.6592604231
 11
-49.8374920267
 21
-1.7993761801
  0
LINE
  5
3BB
100
AcDbEntity
  8
IMPORT_IGES
100
AcDbLine
 62
7
  6
CONTINUOUS
 10
-49.9624303271
 20
2.6976290462
 11
-49.9565616164
 21
2.5563747941
  0
LINE
  5
3BC
100
AcDbEntity
  8
IMPORT_IGES
100
AcDbLine
 62
7
  6
CONTINUOUS
 10
-50.3619868254
 20
2.6876214701
 11
-50.3561710522
 21
2.5463980034
  0
LINE
  5
3BD
100
AcDbEntity
  8
IMPORT_IGES
100
AcDbLine
 62
7
  6
CONTINUOUS
 10
-49.5621195086
 20
2.6906001546
 11
-49.5561907274
 21
2.5468321957
  0
LINE
  5
3BE
100
AcDbEntity
  8
IMPORT_IGES
100
AcDbLine
 62
7
  6
CONTINUOUS
 10
-49.1620584119
 20
2.6892137469
 11
-49.156188677
 21
2.5468214867
  0
LINE
  5
3BF
100
AcDbEntity
  8
IMPORT_IGES
100
AcDbLine
 62
7
  6
CONTINUOUS
 10
-47.8437493679
 20
-1.6483792726
 11
-47.837957007
 21
-1.7888967018
  0
LINE
  5
3C0
100
AcDbEntity
  8
IMPORT_IGES
100
AcDbLine
 62
7
  6
CONTINUOUS
 10
-46.3620126423
 20
2.6881790402
 11
-46.3561448191
 21
2.5456454087
  0
LINE
  5
3C1
100
AcDbEntity
  8
IMPORT_IGES
100
AcDbLine
 62
7
  6
CONTINUOUS
 10
-46.6440339776
 20
-1.6410068416
 11
-46.6382487278
 21
-1.7822190508
  0
LINE
  5
3C2
100
AcDbEntity
  8
IMPORT_IGES
100
AcDbLine
 62
7
  6
CONTINUOUS
 10
-49.4443099932
 20
-1.6338335377
 11
-49.4385260711
 21
-1.7758457582
  0
LINE
  5
3C3
100
AcDbEntity
  8
IMPORT_IGES
100
AcDbLine
 62
7
  6
CONTINUOUS
 10
-46.2448984164
 20
-1.6183673809
 11
-46.2389941685
 21
-1.7650401686
  0
LINE
  5
3C4
100
AcDbEntity
  8
IMPORT_IGES
100
AcDbLine
 62
7
  6
CONTINUOUS
 10
-48.7604644958
 20
2.6523363554
 11
-48.7544542482
 21
2.5011758026
  0
LINE
  5
3C5
100
AcDbEntity
  8
IMPORT_IGES
100
AcDbLine
 62
7
  6
CONTINUOUS
 10
-48.3602277264
 20
2.6467565968
 11
-48.3544464246
 21
2.5008741768
  0
LWPOLYLINE
  5
3C6
100
AcDbEntity
  8
IMPORT_IGES
100
AcDbPolyline
 62
7
  6
CONTINUOUS
 90
7
 70
0
 10
-46.2115848201
 20
-2.0848679025
 10
-46.2098569977
 20
-2.1305125594
 10
-46.208144274
 20
-2.169019151
 10
-46.2064462668
 20
-2.200214206
 10
-46.2047799719
 20
-2.2239596603
 10
-46.2031510544
 20
-2.240191166
 10
-46.2015538491
 20
-2.2488726
  0
LINE
  5
3C7
100
AcDbEntity
  8
IMPORT_IGES
100
AcDbLine
 62
7
  6
CONTINUOUS
 10
-46.7596028007
 20
2.631846706
 11
-46.7536743272
 21
2.4801281541
  0
LINE
  5
3C8
100
AcDbEntity
  8
IMPORT_IGES
100
AcDbLine
 62
7
  6
CONTINUOUS
 10
-47.4469348021
 20
-1.5634288006
 11
-47.4411465921
 21
-1.7137111797
  0
LINE
  5
3C9
100
AcDbEntity
  8
IMPORT_IGES
100
AcDbLine
 62
7
  6
CONTINUOUS
 10
-50.1834522219
 20
2.7933592501
 11
-50.1903541087
 21
2.97549381
  0
LINE
  5
3CA
100
AcDbEntity
  8
IMPORT_IGES
100
AcDbLine
 62
7
  6
CONTINUOUS
 10
-49.6165213465
 20
-1.8940632295
 11
-49.6096152371
 21
-2.0761472679
  0
LINE
  5
3CB
100
AcDbEntity
  8
IMPORT_IGES
100
AcDbLine
 62
7
  6
CONTINUOUS
 10
-49.7834786535
 20
2.7940632295
 11
-49.7903847629
 21
2.9761472679
  0
LINE
  5
3CC
100
AcDbEntity
  8
IMPORT_IGES
100
AcDbLine
 62
7
  6
CONTINUOUS
 10
-49.2165213465
 20
-1.8940632295
 11
-49.2096152371
 21
-2.0761472679
  0
LINE
  5
3CD
100
AcDbEntity
  8
IMPORT_IGES
100
AcDbLine
 62
7
  6
CONTINUOUS
 10
-49.3834786535
 20
2.7940632295
 11
-49.3903847629
 21
2.9761472679
  0
LINE
  5
3CE
100
AcDbEntity
  8
IMPORT_IGES
100
AcDbLine
 62
7
  6
CONTINUOUS
 10
-48.8165213465
 20
-1.8940632295
 11
-48.8096152371
 21
-2.0761472679
  0
LINE
  5
3CF
100
AcDbEntity
  8
IMPORT_IGES
100
AcDbLine
 62
7
  6
CONTINUOUS
 10
-48.9834786535
 20
2.7940632295
 11
-48.9903847629
 21
2.9761472679
  0
LINE
  5
3D0
100
AcDbEntity
  8
IMPORT_IGES
100
AcDbLine
 62
7
  6
CONTINUOUS
 10
-48.4165213465
 20
-1.8940632295
 11
-48.4096152371
 21
-2.0761472679
  0
LINE
  5
3D1
100
AcDbEntity
  8
IMPORT_IGES
100
AcDbLine
 62
7
  6
CONTINUOUS
 10
-48.5834786535
 20
2.7940632295
 11
-48.5903847629
 21
2.9761472679
  0
LINE
  5
3D2
100
AcDbEntity
  8
IMPORT_IGES
100
AcDbLine
 62
7
  6
CONTINUOUS
 10
-48.2472727958
 20
-1.5541328079
 11
-48.2415045048
 21
-1.7049382063
  0
LINE
  5
3D3
100
AcDbEntity
  8
IMPORT_IGES
100
AcDbLine
 62
7
  6
CONTINUOUS
 10
-48.0165213465
 20
-1.8940632295
 11
-48.0096152371
 21
-2.0761472679
  0
LINE
  5
3D4
100
AcDbEntity
  8
IMPORT_IGES
100
AcDbLine
 62
7
  6
CONTINUOUS
 10
-48.1834786535
 20
2.7940632295
 11
-48.1903847629
 21
2.9761472679
  0
LINE
  5
3D5
100
AcDbEntity
  8
IMPORT_IGES
100
AcDbLine
 62
7
  6
CONTINUOUS
 10
-47.6165213465
 20
-1.8940632295
 11
-47.6096152371
 21
-2.0761472679
  0
LINE
  5
3D6
100
AcDbEntity
  8
IMPORT_IGES
100
AcDbLine
 62
7
  6
CONTINUOUS
 10
-47.7834786535
 20
2.7940632295
 11
-47.7903847629
 21
2.9761472679
  0
LINE
  5
3D7
100
AcDbEntity
  8
IMPORT_IGES
100
AcDbLine
 62
7
  6
CONTINUOUS
 10
-47.2165213465
 20
-1.8940632295
 11
-47.2096152371
 21
-2.0761472679
  0
LINE
  5
3D8
100
AcDbEntity
  8
IMPORT_IGES
100
AcDbLine
 62
7
  6
CONTINUOUS
 10
-47.3834786535
 20
2.7940632295
 11
-47.3903847629
 21
2.9761472679
  0
LINE
  5
3D9
100
AcDbEntity
  8
IMPORT_IGES
100
AcDbLine
 62
7
  6
CONTINUOUS
 10
-47.1584210349
 20
2.6030970471
 11
-47.1526373752
 21
2.4517182119
  0
LINE
  5
3DA
100
AcDbEntity
  8
IMPORT_IGES
100
AcDbLine
 62
7
  6
CONTINUOUS
 10
-46.8165213465
 20
-1.8940632295
 11
-46.8096152371
 21
-2.0761472679
  0
LINE
  5
3DB
100
AcDbEntity
  8
IMPORT_IGES
100
AcDbLine
 62
7
  6
CONTINUOUS
 10
-46.9834786535
 20
2.7940632295
 11
-46.9903847629
 21
2.9761472679
  0
LINE
  5
3DC
100
AcDbEntity
  8
IMPORT_IGES
100
AcDbLine
 62
7
  6
CONTINUOUS
 10
-46.4165477781
 20
-1.8933592501
 11
-46.4096458913
 21
-2.07549381
  0
LINE
  5
3DD
100
AcDbEntity
  8
IMPORT_IGES
100
AcDbLine
 62
7
  6
CONTINUOUS
 10
-49.6637285309
 20
-2.0633412435
 11
-49.6706855007
 21
-1.8776550619
  0
LINE
  5
3DE
100
AcDbEntity
  8
IMPORT_IGES
100
AcDbLine
 62
7
  6
CONTINUOUS
 10
-49.7362714691
 20
2.9633412435
 11
-49.7293144993
 21
2.7776550619
  0
LINE
  5
3DF
100
AcDbEntity
  8
IMPORT_IGES
100
AcDbLine
 62
7
  6
CONTINUOUS
 10
-49.2637285309
 20
-2.0633412435
 11
-49.2706855007
 21
-1.8776550619
  0
LINE
  5
3E0
100
AcDbEntity
  8
IMPORT_IGES
100
AcDbLine
 62
7
  6
CONTINUOUS
 10
-49.3362714691
 20
2.9633412435
 11
-49.3293144993
 21
2.7776550619
  0
LINE
  5
3E1
100
AcDbEntity
  8
IMPORT_IGES
100
AcDbLine
 62
7
  6
CONTINUOUS
 10
-48.8637285309
 20
-2.0633412435
 11
-48.8706855007
 21
-1.8776550619
  0
LINE
  5
3E2
100
AcDbEntity
  8
IMPORT_IGES
100
AcDbLine
 62
7
  6
CONTINUOUS
 10
-48.9362714691
 20
2.9633412435
 11
-48.9293144993
 21
2.7776550619
  0
LINE
  5
3E3
100
AcDbEntity
  8
IMPORT_IGES
100
AcDbLine
 62
7
  6
CONTINUOUS
 10
-48.4637285309
 20
-2.0633412435
 11
-48.4706855007
 21
-1.8776550619
  0
LINE
  5
3E4
100
AcDbEntity
  8
IMPORT_IGES
100
AcDbLine
 62
7
  6
CONTINUOUS
 10
-48.5362714691
 20
2.9633412435
 11
-48.5293144993
 21
2.7776550619
  0
LINE
  5
3E5
100
AcDbEntity
  8
IMPORT_IGES
100
AcDbLine
 62
7
  6
CONTINUOUS
 10
-48.0637285309
 20
-2.0633412435
 11
-48.0706855007
 21
-1.8776550619
  0
LINE
  5
3E6
100
AcDbEntity
  8
IMPORT_IGES
100
AcDbLine
 62
7
  6
CONTINUOUS
 10
-48.1362714691
 20
2.9633412435
 11
-48.1293144993
 21
2.7776550619
  0
LINE
  5
3E7
100
AcDbEntity
  8
IMPORT_IGES
100
AcDbLine
 62
7
  6
CONTINUOUS
 10
-47.6637285309
 20
-2.0633412435
 11
-47.6706855007
 21
-1.8776550619
  0
LINE
  5
3E8
100
AcDbEntity
  8
IMPORT_IGES
100
AcDbLine
 62
7
  6
CONTINUOUS
 10
-47.7362714691
 20
2.9633412435
 11
-47.7293144993
 21
2.7776550619
  0
LINE
  5
3E9
100
AcDbEntity
  8
IMPORT_IGES
100
AcDbLine
 62
7
  6
CONTINUOUS
 10
-47.2637285309
 20
-2.0633412435
 11
-47.2706855007
 21
-1.8776550619
  0
LINE
  5
3EA
100
AcDbEntity
  8
IMPORT_IGES
100
AcDbLine
 62
7
  6
CONTINUOUS
 10
-47.3362714691
 20
2.9633412435
 11
-47.3293144993
 21
2.7776550619
  0
LINE
  5
3EB
100
AcDbEntity
  8
IMPORT_IGES
100
AcDbLine
 62
7
  6
CONTINUOUS
 10
-46.8637285309
 20
-2.0633412435
 11
-46.8706855007
 21
-1.8776550619
  0
LINE
  5
3EC
100
AcDbEntity
  8
IMPORT_IGES
100
AcDbLine
 62
7
  6
CONTINUOUS
 10
-46.9362714691
 20
2.9633412435
 11
-46.9293144993
 21
2.7776550619
  0
LINE
  5
3ED
100
AcDbEntity
  8
IMPORT_IGES
100
AcDbLine
 62
7
  6
CONTINUOUS
 10
-50.0637265465
 20
-2.0634714631
 11
-50.0706803701
 21
-1.8778154173
  0
LINE
  5
3EE
100
AcDbEntity
  8
IMPORT_IGES
100
AcDbLine
 62
7
  6
CONTINUOUS
 10
-47.9577114657
 20
2.5854807373
 11
-47.9517945674
 21
2.4280614275
  0
LINE
  5
3EF
100
AcDbEntity
  8
IMPORT_IGES
100
AcDbLine
 62
7
  6
CONTINUOUS
 10
-47.048089824
 20
-1.5313035304
 11
-47.042281615
 21
-1.6856678935
  0
LINE
  5
3F0
100
AcDbEntity
  8
IMPORT_IGES
100
AcDbLine
 62
7
  6
CONTINUOUS
 10
-46.5362734535
 20
2.9634714631
 11
-46.5293196299
 21
2.7778154173
  0
LINE
  5
3F1
100
AcDbEntity
  8
IMPORT_IGES
100
AcDbLine
 62
7
  6
CONTINUOUS
 10
-50.0174965529
 20
-1.8678120706
 11
-50.0104913576
 21
-2.0559998781
  0
LINE
  5
3F2
100
AcDbEntity
  8
IMPORT_IGES
100
AcDbLine
 62
7
  6
CONTINUOUS
 10
-46.5825034471
 20
2.7678120706
 11
-46.5895086424
 21
2.9559998782
  0
LINE
  5
3F3
100
AcDbEntity
  8
IMPORT_IGES
100
AcDbLine
 62
7
  6
CONTINUOUS
 10
-50.134987157
 20
2.9296980419
 11
-50.1279502429
 21
2.7367401664
  0
LINE
  5
3F4
100
AcDbEntity
  8
IMPORT_IGES
100
AcDbLine
 62
7
  6
CONTINUOUS
 10
-46.465012843
 20
-2.0296980417
 11
-46.4720497571
 21
-1.8367401662
  0
LINE
  5
3F5
100
AcDbEntity
  8
IMPORT_IGES
100
AcDbLine
 62
7
  6
CONTINUOUS
 10
-50.3561710522
 20
2.5463980034
 11
-50.3502520697
 21
2.3838746761
  0
LINE
  5
3F6
100
AcDbEntity
  8
IMPORT_IGES
100
AcDbLine
 62
7
  6
CONTINUOUS
 10
-49.0504771022
 20
-1.4624492026
 11
-49.0431994166
 21
-1.6624835359
  0
LINE
  5
3F7
100
AcDbEntity
  8
IMPORT_IGES
100
AcDbLine
 62
7
  6
CONTINUOUS
 10
-48.6502318218
 20
-1.4696515439
 11
-48.6431856415
 21
-1.6628416556
  0
LINE
  5
3F8
100
AcDbEntity
  8
IMPORT_IGES
100
AcDbLine
 62
7
  6
CONTINUOUS
 10
-47.5568950731
 20
2.564872237
 11
-47.5496234945
 21
2.3654166196
  0
LINE
  5
3F9
100
AcDbEntity
  8
IMPORT_IGES
100
AcDbLine
 62
7
  6
CONTINUOUS
 10
-49.850573976
 20
-1.4593307775
 11
-49.8433275039
 21
-1.6592604231
  0
LINE
  5
3FA
100
AcDbEntity
  8
IMPORT_IGES
100
AcDbLine
 62
7
  6
CONTINUOUS
 10
-49.9565616164
 20
2.5563747941
 11
-49.9493481987
 21
2.3573237323
  0
LINE
  5
3FB
100
AcDbEntity
  8
IMPORT_IGES
100
AcDbLine
 62
7
  6
CONTINUOUS
 10
-47.8507648052
 20
-1.4539129029
 11
-47.8437493679
 21
-1.6483792726
  0
LINE
  5
3FC
100
AcDbEntity
  8
IMPORT_IGES
100
AcDbLine
 62
7
  6
CONTINUOUS
 10
-49.5561907274
 20
2.5468321957
 11
-49.5487575166
 21
2.3396761762
  0
LINE
  5
3FD
100
AcDbEntity
  8
IMPORT_IGES
100
AcDbLine
 62
7
  6
CONTINUOUS
 10
-49.156188677
 20
2.5468214867
 11
-49.1488768385
 21
2.3432388586
  0
LINE
  5
3FE
100
AcDbEntity
  8
IMPORT_IGES
100
AcDbLine
 62
7
  6
CONTINUOUS
 10
-46.6510961386
 20
-1.4440662681
 11
-46.6440339776
 21
-1.6410068416
  0
LINE
  5
3FF
100
AcDbEntity
  8
IMPORT_IGES
100
AcDbLine
 62
7
  6
CONTINUOUS
 10
-46.3561448191
 20
2.5456454087
 11
-46.3489108671
 21
2.3442675489
  0
LINE
  5
400
100
AcDbEntity
  8
IMPORT_IGES
100
AcDbLine
 62
7
  6
CONTINUOUS
 10
-49.4514317963
 20
-1.4339965756
 11
-49.4443099932
 21
-1.6338335377
  0
LINE
  5
401
100
AcDbEntity
  8
IMPORT_IGES
100
AcDbLine
 62
7
  6
CONTINUOUS
 10
-46.2520853875
 20
-1.4142177816
 11
-46.2448984164
 21
-1.6183673809
  0
LINE
  5
402
100
AcDbEntity
  8
IMPORT_IGES
100
AcDbLine
 62
7
  6
CONTINUOUS
 10
-48.3544464246
 20
2.5008741768
 11
-48.3472427758
 21
2.293647374
  0
LINE
  5
403
100
AcDbEntity
  8
IMPORT_IGES
100
AcDbLine
 62
7
  6
CONTINUOUS
 10
-48.7544542482
 20
2.5011758026
 11
-48.7470297059
 21
2.2869808219
  0
LINE
  5
404
100
AcDbEntity
  8
IMPORT_IGES
100
AcDbLine
 62
7
  6
CONTINUOUS
 10
-46.7536743272
 20
2.4801281541
 11
-46.7463969366
 21
2.2672691877
  0
LINE
  5
405
100
AcDbEntity
  8
IMPORT_IGES
100
AcDbLine
 62
7
  6
CONTINUOUS
 10
-47.4540719185
 20
-1.3525018915
 11
-47.4469348021
 21
-1.5634288006
  0
LINE
  5
406
100
AcDbEntity
  8
IMPORT_IGES
100
AcDbLine
 62
7
  6
CONTINUOUS
 10
-48.2543582776
 20
-1.3433642511
 11
-48.2472727958
 21
-1.5541328079
  0
LINE
  5
407
100
AcDbEntity
  8
IMPORT_IGES
100
AcDbLine
 62
7
  6
CONTINUOUS
 10
-50.1765310963
 20
2.5820850186
 11
-50.1834522219
 21
2.7933592501
  0
LINE
  5
408
100
AcDbEntity
  8
IMPORT_IGES
100
AcDbLine
 62
7
  6
CONTINUOUS
 10
-49.776549729
 20
2.58269445
 11
-49.7834786535
 21
2.7940632295
  0
LINE
  5
409
100
AcDbEntity
  8
IMPORT_IGES
100
AcDbLine
 62
7
  6
CONTINUOUS
 10
-49.623450271
 20
-1.68269445
 11
-49.6165213465
 21
-1.8940632295
  0
LINE
  5
40A
100
AcDbEntity
  8
IMPORT_IGES
100
AcDbLine
 62
7
  6
CONTINUOUS
 10
-49.376549729
 20
2.58269445
 11
-49.3834786535
 21
2.7940632295
  0
LINE
  5
40B
100
AcDbEntity
  8
IMPORT_IGES
100
AcDbLine
 62
7
  6
CONTINUOUS
 10
-49.223450271
 20
-1.68269445
 11
-49.2165213465
 21
-1.8940632295
  0
LINE
  5
40C
100
AcDbEntity
  8
IMPORT_IGES
100
AcDbLine
 62
7
  6
CONTINUOUS
 10
-48.976549729
 20
2.58269445
 11
-48.9834786535
 21
2.7940632295
  0
LINE
  5
40D
100
AcDbEntity
  8
IMPORT_IGES
100
AcDbLine
 62
7
  6
CONTINUOUS
 10
-48.823450271
 20
-1.68269445
 11
-48.8165213465
 21
-1.8940632295
  0
LINE
  5
40E
100
AcDbEntity
  8
IMPORT_IGES
100
AcDbLine
 62
7
  6
CONTINUOUS
 10
-48.576549729
 20
2.58269445
 11
-48.5834786535
 21
2.7940632295
  0
LINE
  5
40F
100
AcDbEntity
  8
IMPORT_IGES
100
AcDbLine
 62
7
  6
CONTINUOUS
 10
-48.423450271
 20
-1.68269445
 11
-48.4165213465
 21
-1.8940632295
  0
LINE
  5
410
100
AcDbEntity
  8
IMPORT_IGES
100
AcDbLine
 62
7
  6
CONTINUOUS
 10
-48.176549729
 20
2.58269445
 11
-48.1834786535
 21
2.7940632295
  0
LINE
  5
411
100
AcDbEntity
  8
IMPORT_IGES
100
AcDbLine
 62
7
  6
CONTINUOUS
 10
-48.023450271
 20
-1.68269445
 11
-48.0165213465
 21
-1.8940632295
  0
LINE
  5
412
100
AcDbEntity
  8
IMPORT_IGES
100
AcDbLine
 62
7
  6
CONTINUOUS
 10
-47.776549729
 20
2.58269445
 11
-47.7834786535
 21
2.7940632295
  0
LINE
  5
413
100
AcDbEntity
  8
IMPORT_IGES
100
AcDbLine
 62
7
  6
CONTINUOUS
 10
-47.623450271
 20
-1.68269445
 11
-47.6165213465
 21
-1.8940632295
  0
LINE
  5
414
100
AcDbEntity
  8
IMPORT_IGES
100
AcDbLine
 62
7
  6
CONTINUOUS
 10
-47.376549729
 20
2.58269445
 11
-47.3834786535
 21
2.7940632295
  0
LINE
  5
415
100
AcDbEntity
  8
IMPORT_IGES
100
AcDbLine
 62
7
  6
CONTINUOUS
 10
-47.223450271
 20
-1.68269445
 11
-47.2165213465
 21
-1.8940632295
  0
LINE
  5
416
100
AcDbEntity
  8
IMPORT_IGES
100
AcDbLine
 62
7
  6
CONTINUOUS
 10
-47.1526373752
 20
2.4517182119
 11
-47.1454925819
 21
2.2385979611
  0
LINE
  5
417
100
AcDbEntity
  8
IMPORT_IGES
100
AcDbLine
 62
7
  6
CONTINUOUS
 10
-46.976549729
 20
2.58269445
 11
-46.9834786535
 21
2.7940632295
  0
LINE
  5
418
100
AcDbEntity
  8
IMPORT_IGES
100
AcDbLine
 62
7
  6
CONTINUOUS
 10
-46.823450271
 20
-1.68269445
 11
-46.8165213465
 21
-1.8940632295
  0
LINE
  5
419
100
AcDbEntity
  8
IMPORT_IGES
100
AcDbLine
 62
7
  6
CONTINUOUS
 10
-46.4234689037
 20
-1.6820850186
 11
-46.4165477781
 21
-1.8933592501
  0
LINE
  5
41A
100
AcDbEntity
  8
IMPORT_IGES
100
AcDbLine
 62
7
  6
CONTINUOUS
 10
-50.0706803701
 20
-1.8778154173
 11
-50.077658645
 21
-1.6623798168
  0
LINE
  5
41B
100
AcDbEntity
  8
IMPORT_IGES
100
AcDbLine
 62
7
  6
CONTINUOUS
 10
-49.6706855007
 20
-1.8776550619
 11
-49.6776675126
 21
-1.6620959521
  0
LINE
  5
41C
100
AcDbEntity
  8
IMPORT_IGES
100
AcDbLine
 62
7
  6
CONTINUOUS
 10
-49.7293144993
 20
2.7776550619
 11
-49.7223324874
 21
2.5620959521
  0
LINE
  5
41D
100
AcDbEntity
  8
IMPORT_IGES
100
AcDbLine
 62
7
  6
CONTINUOUS
 10
-49.2706855007
 20
-1.8776550619
 11
-49.2776675126
 21
-1.6620959521
  0
LINE
  5
41E
100
AcDbEntity
  8
IMPORT_IGES
100
AcDbLine
 62
7
  6
CONTINUOUS
 10
-49.3293144993
 20
2.7776550619
 11
-49.3223324874
 21
2.5620959521
  0
LINE
  5
41F
100
AcDbEntity
  8
IMPORT_IGES
100
AcDbLine
 62
7
  6
CONTINUOUS
 10
-48.8706855007
 20
-1.8776550619
 11
-48.8776675126
 21
-1.6620959521
  0
LINE
  5
420
100
AcDbEntity
  8
IMPORT_IGES
100
AcDbLine
 62
7
  6
CONTINUOUS
 10
-48.9293144993
 20
2.7776550619
 11
-48.9223324874
 21
2.5620959521
  0
LINE
  5
421
100
AcDbEntity
  8
IMPORT_IGES
100
AcDbLine
 62
7
  6
CONTINUOUS
 10
-48.4706855007
 20
-1.8776550619
 11
-48.4776675126
 21
-1.6620959521
  0
LINE
  5
422
100
AcDbEntity
  8
IMPORT_IGES
100
AcDbLine
 62
7
  6
CONTINUOUS
 10
-48.5293144993
 20
2.7776550619
 11
-48.5223324874
 21
2.5620959521
  0
LINE
  5
423
100
AcDbEntity
  8
IMPORT_IGES
100
AcDbLine
 62
7
  6
CONTINUOUS
 10
-48.0706855007
 20
-1.8776550619
 11
-48.0776675126
 21
-1.6620959521
  0
LINE
  5
424
100
AcDbEntity
  8
IMPORT_IGES
100
AcDbLine
 62
7
  6
CONTINUOUS
 10
-48.1293144993
 20
2.7776550619
 11
-48.1223324874
 21
2.5620959521
  0
LINE
  5
425
100
AcDbEntity
  8
IMPORT_IGES
100
AcDbLine
 62
7
  6
CONTINUOUS
 10
-47.6706855007
 20
-1.8776550619
 11
-47.6776675126
 21
-1.6620959521
  0
LINE
  5
426
100
AcDbEntity
  8
IMPORT_IGES
100
AcDbLine
 62
7
  6
CONTINUOUS
 10
-47.7293144993
 20
2.7776550619
 11
-47.7223324874
 21
2.5620959521
  0
LINE
  5
427
100
AcDbEntity
  8
IMPORT_IGES
100
AcDbLine
 62
7
  6
CONTINUOUS
 10
-47.2706855007
 20
-1.8776550619
 11
-47.2776675126
 21
-1.6620959521
  0
LINE
  5
428
100
AcDbEntity
  8
IMPORT_IGES
100
AcDbLine
 62
7
  6
CONTINUOUS
 10
-47.3293144993
 20
2.7776550619
 11
-47.3223324874
 21
2.5620959521
  0
LINE
  5
429
100
AcDbEntity
  8
IMPORT_IGES
100
AcDbLine
 62
7
  6
CONTINUOUS
 10
-47.0552251135
 20
-1.3154969409
 11
-47.048089824
 21
-1.5313035304
  0
LINE
  5
42A
100
AcDbEntity
  8
IMPORT_IGES
100
AcDbLine
 62
7
  6
CONTINUOUS
 10
-46.8706855007
 20
-1.8776550619
 11
-46.8776675126
 21
-1.6620959521
  0
LINE
  5
42B
100
AcDbEntity
  8
IMPORT_IGES
100
AcDbLine
 62
7
  6
CONTINUOUS
 10
-46.9293144993
 20
2.7776550619
 11
-46.9223324874
 21
2.5620959521
  0
LINE
  5
42C
100
AcDbEntity
  8
IMPORT_IGES
100
AcDbLine
 62
7
  6
CONTINUOUS
 10
-46.5293196299
 20
2.7778154173
 11
-46.522341355
 21
2.5623798168
  0
LINE
  5
42D
100
AcDbEntity
  8
IMPORT_IGES
100
AcDbLine
 62
7
  6
CONTINUOUS
 10
-47.9517945674
 20
2.4280614275
 11
-47.9446604862
 21
2.211801975
  0
LINE
  5
42E
100
AcDbEntity
  8
IMPORT_IGES
100
AcDbLine
 62
7
  6
CONTINUOUS
 10
-50.0243782734
 20
-1.65264591
 11
-50.0174965529
 21
-1.8678120706
  0
LINE
  5
42F
100
AcDbEntity
  8
IMPORT_IGES
100
AcDbLine
 62
7
  6
CONTINUOUS
 10
-46.5756217266
 20
2.5526459101
 11
-46.5825034471
 21
2.7678120706
  0
LINE
  5
430
100
AcDbEntity
  8
IMPORT_IGES
100
AcDbLine
 62
7
  6
CONTINUOUS
 10
-50.3502520697
 20
2.3838746761
 11
-50.343008926
 21
2.157227081
  0
LINE
  5
431
100
AcDbEntity
  8
IMPORT_IGES
100
AcDbLine
 62
7
  6
CONTINUOUS
 10
-49.0575360661
 20
-1.2388126538
 11
-49.0504771022
 21
-1.4624492026
  0
LINE
  5
432
100
AcDbEntity
  8
IMPORT_IGES
100
AcDbLine
 62
7
  6
CONTINUOUS
 10
-47.5496234945
 20
2.3654166196
 11
-47.5424895583
 21
2.139687362
  0
LINE
  5
433
100
AcDbEntity
  8
IMPORT_IGES
100
AcDbLine
 62
7
  6
CONTINUOUS
 10
-49.8576475068
 20
-1.235045626
 11
-49.850573976
 21
-1.4593307775
  0
LINE
  5
434
100
AcDbEntity
  8
IMPORT_IGES
100
AcDbLine
 62
7
  6
CONTINUOUS
 10
-49.5487575166
 20
2.3396761762
 11
-49.5416179878
 21
2.1098213493
  0
LINE
  5
435
100
AcDbEntity
  8
IMPORT_IGES
100
AcDbLine
 62
7
  6
CONTINUOUS
 10
-46.2904155925
 20
3.1713755515
 11
-46.2869968217
 21
3.0615069311
  0
LINE
  5
436
100
AcDbEntity
  8
IMPORT_IGES
100
AcDbLine
 62
7
  6
CONTINUOUS
 10
-48.658499589
 20
-1.2057410807
 11
-48.6502318218
 21
-1.4696515439
  0
LINE
  5
437
100
AcDbEntity
  8
IMPORT_IGES
100
AcDbLine
 62
7
  6
CONTINUOUS
 10
-46.2150664726
 20
-1.9727626948
 11
-46.2115848201
 21
-2.0848679025
  0
LINE
  5
438
100
AcDbEntity
  8
IMPORT_IGES
100
AcDbLine
 62
7
  6
CONTINUOUS
 10
-47.859003969
 20
-1.1881460572
 11
-47.8507648052
 21
-1.4539129029
  0
LINE
  5
439
100
AcDbEntity
  8
IMPORT_IGES
100
AcDbLine
 62
7
  6
CONTINUOUS
 10
-49.9493481987
 20
2.3573237323
 11
-49.94097798
 21
2.0875364989
  0
LINE
  5
43A
100
AcDbEntity
  8
IMPORT_IGES
100
AcDbLine
 62
7
  6
CONTINUOUS
 10
-46.6592513375
 20
-1.1794602141
 11
-46.6510961386
 21
-1.4440662681
  0
LINE
  5
43B
100
AcDbEntity
  8
IMPORT_IGES
100
AcDbLine
 62
7
  6
CONTINUOUS
 10
-49.1488768385
 20
2.3432388586
 11
-49.1404673054
 21
2.0695156287
  0
LINE
  5
43C
100
AcDbEntity
  8
IMPORT_IGES
100
AcDbLine
 62
7
  6
CONTINUOUS
 10
-46.3489108671
 20
2.3442675489
 11
-46.3405445289
 21
2.0722648631
  0
LINE
  5
43D
100
AcDbEntity
  8
IMPORT_IGES
100
AcDbLine
 62
7
  6
CONTINUOUS
 10
-50.1279502429
 20
2.7367401664
 11
-50.1176531318
 21
2.3990204569
  0
LINE
  5
43E
100
AcDbEntity
  8
IMPORT_IGES
100
AcDbLine
 62
7
  6
CONTINUOUS
 10
-49.4596705507
 20
-1.1646171046
 11
-49.4514317963
 21
-1.4339965756
  0
LINE
  5
43F
100
AcDbEntity
  8
IMPORT_IGES
100
AcDbLine
 62
7
  6
CONTINUOUS
 10
-46.4720497571
 20
-1.8367401662
 11
-46.4823468682
 21
-1.4990204567
  0
LINE
  5
440
100
AcDbEntity
  8
IMPORT_IGES
100
AcDbLine
 62
7
  6
CONTINUOUS
 10
-46.2602652098
 20
-1.143343695
 11
-46.2520853875
 21
-1.4142177816
  0
LINE
  5
441
100
AcDbEntity
  8
IMPORT_IGES
100
AcDbLine
 62
7
  6
CONTINUOUS
 10
-48.7470297059
 20
2.2869808219
 11
-48.7387151025
 21
2.0062773533
  0
LINE
  5
442
100
AcDbEntity
  8
IMPORT_IGES
100
AcDbLine
 62
7
  6
CONTINUOUS
 10
-48.3472427758
 20
2.293647374
 11
-48.3389245532
 21
2.0139521773
  0
LINE
  5
443
100
AcDbEntity
  8
IMPORT_IGES
100
AcDbLine
 62
7
  6
CONTINUOUS
 10
-46.7463969366
 20
2.2672691877
 11
-46.738217142
 21
1.9879139062
  0
LINE
  5
444
100
AcDbEntity
  8
IMPORT_IGES
100
AcDbLine
 62
7
  6
CONTINUOUS
 10
-47.4622119204
 20
-1.071967633
 11
-47.4540719185
 21
-1.3525018915
  0
LINE
  5
445
100
AcDbEntity
  8
IMPORT_IGES
100
AcDbLine
 62
7
  6
CONTINUOUS
 10
-48.2624428647
 20
-1.0633280997
 11
-48.2543582776
 21
-1.3433642511
  0
LINE
  5
446
100
AcDbEntity
  8
IMPORT_IGES
100
AcDbLine
 62
7
  6
CONTINUOUS
 10
-47.1454925819
 20
2.2385979611
 11
-47.137411946
 21
1.9578775779
  0
LINE
  5
447
100
AcDbEntity
  8
IMPORT_IGES
100
AcDbLine
 62
7
  6
CONTINUOUS
 10
-50.343008926
 20
2.157227081
 11
-50.3362909737
 21
1.915379138
  0
LINE
  5
448
100
AcDbEntity
  8
IMPORT_IGES
100
AcDbLine
 62
7
  6
CONTINUOUS
 10
-50.1665611279
 20
2.2209072983
 11
-50.1765310963
 21
2.5820850186
  0
LINE
  5
449
100
AcDbEntity
  8
IMPORT_IGES
100
AcDbLine
 62
7
  6
CONTINUOUS
 10
-49.766574661
 20
2.2214503935
 11
-49.776549729
 21
2.58269445
  0
LINE
  5
44A
100
AcDbEntity
  8
IMPORT_IGES
100
AcDbLine
 62
7
  6
CONTINUOUS
 10
-49.633425339
 20
-1.3214503935
 11
-49.623450271
 21
-1.68269445
  0
LINE
  5
44B
100
AcDbEntity
  8
IMPORT_IGES
100
AcDbLine
 62
7
  6
CONTINUOUS
 10
-49.366574661
 20
2.2214503935
 11
-49.376549729
 21
2.58269445
  0
LINE
  5
44C
100
AcDbEntity
  8
IMPORT_IGES
100
AcDbLine
 62
7
  6
CONTINUOUS
 10
-49.233425339
 20
-1.3214503935
 11
-49.223450271
 21
-1.68269445
  0
LINE
  5
44D
100
AcDbEntity
  8
IMPORT_IGES
100
AcDbLine
 62
7
  6
CONTINUOUS
 10
-48.966574661
 20
2.2214503935
 11
-48.976549729
 21
2.58269445
  0
LINE
  5
44E
100
AcDbEntity
  8
IMPORT_IGES
100
AcDbLine
 62
7
  6
CONTINUOUS
 10
-48.833425339
 20
-1.3214503935
 11
-48.823450271
 21
-1.68269445
  0
LINE
  5
44F
100
AcDbEntity
  8
IMPORT_IGES
100
AcDbLine
 62
7
  6
CONTINUOUS
 10
-48.566574661
 20
2.2214503935
 11
-48.576549729
 21
2.58269445
  0
LINE
  5
450
100
AcDbEntity
  8
IMPORT_IGES
100
AcDbLine
 62
7
  6
CONTINUOUS
 10
-48.433425339
 20
-1.3214503935
 11
-48.423450271
 21
-1.68269445
  0
LINE
  5
451
100
AcDbEntity
  8
IMPORT_IGES
100
AcDbLine
 62
7
  6
CONTINUOUS
 10
-48.166574661
 20
2.2214503935
 11
-48.176549729
 21
2.58269445
  0
LINE
  5
452
100
AcDbEntity
  8
IMPORT_IGES
100
AcDbLine
 62
7
  6
CONTINUOUS
 10
-48.033425339
 20
-1.3214503935
 11
-48.023450271
 21
-1.68269445
  0
LINE
  5
453
100
AcDbEntity
  8
IMPORT_IGES
100
AcDbLine
 62
7
  6
CONTINUOUS
 10
-47.9446604862
 20
2.211801975
 11
-47.9352796833
 21
1.8764149948
  0
LINE
  5
454
100
AcDbEntity
  8
IMPORT_IGES
100
AcDbLine
 62
7
  6
CONTINUOUS
 10
-47.766574661
 20
2.2214503935
 11
-47.776549729
 21
2.58269445
  0
LINE
  5
455
100
AcDbEntity
  8
IMPORT_IGES
100
AcDbLine
 62
7
  6
CONTINUOUS
 10
-47.633425339
 20
-1.3214503935
 11
-47.623450271
 21
-1.68269445
  0
LINE
  5
456
100
AcDbEntity
  8
IMPORT_IGES
100
AcDbLine
 62
7
  6
CONTINUOUS
 10
-47.366574661
 20
2.2214503935
 11
-47.376549729
 21
2.58269445
  0
LINE
  5
457
100
AcDbEntity
  8
IMPORT_IGES
100
AcDbLine
 62
7
  6
CONTINUOUS
 10
-47.233425339
 20
-1.3214503935
 11
-47.223450271
 21
-1.68269445
  0
LINE
  5
458
100
AcDbEntity
  8
IMPORT_IGES
100
AcDbLine
 62
7
  6
CONTINUOUS
 10
-47.0644704049
 20
-0.9860937607
 11
-47.0552251135
 21
-1.3154969409
  0
LINE
  5
459
100
AcDbEntity
  8
IMPORT_IGES
100
AcDbLine
 62
7
  6
CONTINUOUS
 10
-46.966574661
 20
2.2214503935
 11
-46.976549729
 21
2.58269445
  0
LINE
  5
45A
100
AcDbEntity
  8
IMPORT_IGES
100
AcDbLine
 62
7
  6
CONTINUOUS
 10
-46.833425339
 20
-1.3214503935
 11
-46.823450271
 21
-1.68269445
  0
LINE
  5
45B
100
AcDbEntity
  8
IMPORT_IGES
100
AcDbLine
 62
7
  6
CONTINUOUS
 10
-46.4334388721
 20
-1.3209072983
 11
-46.4234689037
 21
-1.6820850186
  0
LINE
  5
45C
100
AcDbEntity
  8
IMPORT_IGES
100
AcDbLine
 62
7
  6
CONTINUOUS
 10
-50.077658645
 20
-1.6623798168
 11
-50.087607814
 21
-1.2977146552
  0
LINE
  5
45D
100
AcDbEntity
  8
IMPORT_IGES
100
AcDbLine
 62
7
  6
CONTINUOUS
 10
-49.6776675126
 20
-1.6620959521
 11
-49.6876178323
 21
-1.2973087921
  0
LINE
  5
45E
100
AcDbEntity
  8
IMPORT_IGES
100
AcDbLine
 62
7
  6
CONTINUOUS
 10
-49.7223324874
 20
2.5620959521
 11
-49.7123821677
 21
2.1973087921
  0
LINE
  5
45F
100
AcDbEntity
  8
IMPORT_IGES
100
AcDbLine
 62
7
  6
CONTINUOUS
 10
-49.2776675126
 20
-1.6620959521
 11
-49.2876178323
 21
-1.2973087921
  0
LINE
  5
460
100
AcDbEntity
  8
IMPORT_IGES
100
AcDbLine
 62
7
  6
CONTINUOUS
 10
-49.3223324874
 20
2.5620959521
 11
-49.3123821677
 21
2.1973087921
  0
LINE
  5
461
100
AcDbEntity
  8
IMPORT_IGES
100
AcDbLine
 62
7
  6
CONTINUOUS
 10
-48.8776675126
 20
-1.6620959521
 11
-48.8876178323
 21
-1.2973087921
  0
LINE
  5
462
100
AcDbEntity
  8
IMPORT_IGES
100
AcDbLine
 62
7
  6
CONTINUOUS
 10
-48.9223324874
 20
2.5620959521
 11
-48.9123821677
 21
2.1973087921
  0
LINE
  5
463
100
AcDbEntity
  8
IMPORT_IGES
100
AcDbLine
 62
7
  6
CONTINUOUS
 10
-48.4776675126
 20
-1.6620959521
 11
-48.4876178323
 21
-1.2973087921
  0
LINE
  5
464
100
AcDbEntity
  8
IMPORT_IGES
100
AcDbLine
 62
7
  6
CONTINUOUS
 10
-48.5223324874
 20
2.5620959521
 11
-48.5123821677
 21
2.1973087921
  0
LINE
  5
465
100
AcDbEntity
  8
IMPORT_IGES
100
AcDbLine
 62
7
  6
CONTINUOUS
 10
-48.0776675126
 20
-1.6620959521
 11
-48.0876178323
 21
-1.2973087921
  0
LINE
  5
466
100
AcDbEntity
  8
IMPORT_IGES
100
AcDbLine
 62
7
  6
CONTINUOUS
 10
-48.1223324874
 20
2.5620959521
 11
-48.1123821677
 21
2.1973087921
  0
LINE
  5
467
100
AcDbEntity
  8
IMPORT_IGES
100
AcDbLine
 62
7
  6
CONTINUOUS
 10
-47.6776675126
 20
-1.6620959521
 11
-47.6876178323
 21
-1.2973087921
  0
LINE
  5
468
100
AcDbEntity
  8
IMPORT_IGES
100
AcDbLine
 62
7
  6
CONTINUOUS
 10
-47.7223324874
 20
2.5620959521
 11
-47.7123821677
 21
2.1973087921
  0
LINE
  5
469
100
AcDbEntity
  8
IMPORT_IGES
100
AcDbLine
 62
7
  6
CONTINUOUS
 10
-47.2776675126
 20
-1.6620959521
 11
-47.2876178323
 21
-1.2973087921
  0
LINE
  5
46A
100
AcDbEntity
  8
IMPORT_IGES
100
AcDbLine
 62
7
  6
CONTINUOUS
 10
-47.3223324874
 20
2.5620959521
 11
-47.3123821677
 21
2.1973087921
  0
LINE
  5
46B
100
AcDbEntity
  8
IMPORT_IGES
100
AcDbLine
 62
7
  6
CONTINUOUS
 10
-46.8776675126
 20
-1.6620959521
 11
-46.8876178323
 21
-1.2973087921
  0
LINE
  5
46C
100
AcDbEntity
  8
IMPORT_IGES
100
AcDbLine
 62
7
  6
CONTINUOUS
 10
-46.9223324874
 20
2.5620959521
 11
-46.9123821677
 21
2.1973087921
  0
LINE
  5
46D
100
AcDbEntity
  8
IMPORT_IGES
100
AcDbLine
 62
7
  6
CONTINUOUS
 10
-46.522341355
 20
2.5623798168
 11
-46.512392186
 21
2.1977146552
  0
LINE
  5
46E
100
AcDbEntity
  8
IMPORT_IGES
100
AcDbLine
 62
7
  6
CONTINUOUS
 10
-50.0342915325
 20
-1.2860738982
 11
-50.0243782734
 21
-1.65264591
  0
LINE
  5
46F
100
AcDbEntity
  8
IMPORT_IGES
100
AcDbLine
 62
7
  6
CONTINUOUS
 10
-46.5657084675
 20
2.1860738983
 11
-46.5756217266
 21
2.5526459101
  0
LINE
  5
470
100
AcDbEntity
  8
IMPORT_IGES
100
AcDbLine
 62
7
  6
CONTINUOUS
 10
-47.5424895583
 20
2.139687362
 11
-47.5307505322
 21
1.6964327727
  0
LINE
  5
471
100
AcDbEntity
  8
IMPORT_IGES
100
AcDbLine
 62
7
  6
CONTINUOUS
 10
-49.8706864811
 20
-0.7381274541
 11
-49.8576475068
 21
-1.235045626
  0
LINE
  5
472
100
AcDbEntity
  8
IMPORT_IGES
100
AcDbLine
 62
7
  6
CONTINUOUS
 10
-49.94097798
 20
2.0875364989
 11
-49.8706864811
 21
-0.7381274541
  0
LINE
  5
473
100
AcDbEntity
  8
IMPORT_IGES
100
AcDbLine
 62
7
  6
CONTINUOUS
 10
-49.5416179878
 20
2.1098213493
 11
-49.4596705507
 21
-1.1646171046
  0
LWPOLYLINE
  5
474
100
AcDbEntity
  8
IMPORT_IGES
100
AcDbPolyline
 62
7
  6
CONTINUOUS
 90
3
 70
0
 10
-49.1404673054
 20
2.0695156287
 10
-49.0705490123
 20
-0.7437283034
 10
-49.0575360661
 20
-1.2388126538
  0
LINE
  5
475
100
AcDbEntity
  8
IMPORT_IGES
100
AcDbLine
 62
7
  6
CONTINUOUS
 10
-48.7387151025
 20
2.0062773533
 11
-48.658499589
 21
-1.2057410807
  0
LINE
  5
476
100
AcDbEntity
  8
IMPORT_IGES
100
AcDbLine
 62
7
  6
CONTINUOUS
 10
-48.3389245532
 20
2.0139521773
 11
-48.2624428647
 21
-1.0633280997
  0
LINE
  5
477
100
AcDbEntity
  8
IMPORT_IGES
100
AcDbLine
 62
7
  6
CONTINUOUS
 10
-47.9352796833
 20
1.8764149948
 11
-47.859003969
 21
-1.1881460572
  0
LINE
  5
478
100
AcDbEntity
  8
IMPORT_IGES
100
AcDbLine
 62
7
  6
CONTINUOUS
 10
-47.5307505322
 20
1.6964327727
 11
-47.4622119204
 21
-1.071967633
  0
LINE
  5
479
100
AcDbEntity
  8
IMPORT_IGES
100
AcDbLine
 62
7
  6
CONTINUOUS
 10
-47.137411946
 20
1.9578775779
 11
-47.0644704049
 21
-0.9860937607
  0
LINE
  5
47A
100
AcDbEntity
  8
IMPORT_IGES
100
AcDbLine
 62
7
  6
CONTINUOUS
 10
-46.738217142
 20
1.9879139062
 11
-46.6592513375
 21
-1.1794602141
  0
LINE
  5
47B
100
AcDbEntity
  8
IMPORT_IGES
100
AcDbLine
 62
7
  6
CONTINUOUS
 10
-46.3405445289
 20
2.0722648631
 11
-46.2602652098
 21
-1.143343695
  0
LINE
  5
47C
100
AcDbEntity
  8
IMPORT_IGES
100
AcDbLine
 62
7
  6
CONTINUOUS
 10
-50.1176531318
 20
2.3990204569
 11
-50.1016401597
 21
1.7329137357
  0
LWPOLYLINE
  5
47D
100
AcDbEntity
  8
IMPORT_IGES
100
AcDbPolyline
 62
7
  6
CONTINUOUS
 90
3
 70
0
 10
-46.4823468682
 20
-1.4990204567
 10
-46.4983598403
 20
-0.8329137356
 10
-46.5657084675
 20
2.1860738983
  0
LINE
  5
47E
100
AcDbEntity
  8
IMPORT_IGES
100
AcDbLine
 62
7
  6
CONTINUOUS
 10
-50.087607814
 20
-1.2977146552
 11
-50.1665611279
 21
2.2209072983
  0
LINE
  5
47F
100
AcDbEntity
  8
IMPORT_IGES
100
AcDbLine
 62
7
  6
CONTINUOUS
 10
-50.1016401597
 20
1.7329137357
 11
-50.0342915325
 21
-1.2860738982
  0
LINE
  5
480
100
AcDbEntity
  8
IMPORT_IGES
100
AcDbLine
 62
7
  6
CONTINUOUS
 10
-49.6876178323
 20
-1.2973087921
 11
-49.766574661
 21
2.2214503935
  0
LINE
  5
481
100
AcDbEntity
  8
IMPORT_IGES
100
AcDbLine
 62
7
  6
CONTINUOUS
 10
-49.7123821677
 20
2.1973087921
 11
-49.633425339
 21
-1.3214503935
  0
LINE
  5
482
100
AcDbEntity
  8
IMPORT_IGES
100
AcDbLine
 62
7
  6
CONTINUOUS
 10
-49.2876178323
 20
-1.2973087921
 11
-49.366574661
 21
2.2214503935
  0
LINE
  5
483
100
AcDbEntity
  8
IMPORT_IGES
100
AcDbLine
 62
7
  6
CONTINUOUS
 10
-49.3123821677
 20
2.1973087921
 11
-49.233425339
 21
-1.3214503935
  0
LINE
  5
484
100
AcDbEntity
  8
IMPORT_IGES
100
AcDbLine
 62
7
  6
CONTINUOUS
 10
-48.8876178323
 20
-1.2973087921
 11
-48.966574661
 21
2.2214503935
  0
LINE
  5
485
100
AcDbEntity
  8
IMPORT_IGES
100
AcDbLine
 62
7
  6
CONTINUOUS
 10
-48.9123821677
 20
2.1973087921
 11
-48.833425339
 21
-1.3214503935
  0
LINE
  5
486
100
AcDbEntity
  8
IMPORT_IGES
100
AcDbLine
 62
7
  6
CONTINUOUS
 10
-48.4876178323
 20
-1.2973087921
 11
-48.566574661
 21
2.2214503935
  0
LINE
  5
487
100
AcDbEntity
  8
IMPORT_IGES
100
AcDbLine
 62
7
  6
CONTINUOUS
 10
-48.5123821677
 20
2.1973087921
 11
-48.433425339
 21
-1.3214503935
  0
LINE
  5
488
100
AcDbEntity
  8
IMPORT_IGES
100
AcDbLine
 62
7
  6
CONTINUOUS
 10
-48.0876178323
 20
-1.2973087921
 11
-48.166574661
 21
2.2214503935
  0
LINE
  5
489
100
AcDbEntity
  8
IMPORT_IGES
100
AcDbLine
 62
7
  6
CONTINUOUS
 10
-48.1123821677
 20
2.1973087921
 11
-48.033425339
 21
-1.3214503935
  0
LINE
  5
48A
100
AcDbEntity
  8
IMPORT_IGES
100
AcDbLine
 62
7
  6
CONTINUOUS
 10
-47.6876178323
 20
-1.2973087921
 11
-47.766574661
 21
2.2214503935
  0
LINE
  5
48B
100
AcDbEntity
  8
IMPORT_IGES
100
AcDbLine
 62
7
  6
CONTINUOUS
 10
-47.7123821677
 20
2.1973087921
 11
-47.633425339
 21
-1.3214503935
  0
LINE
  5
48C
100
AcDbEntity
  8
IMPORT_IGES
100
AcDbLine
 62
7
  6
CONTINUOUS
 10
-47.2876178323
 20
-1.2973087921
 11
-47.366574661
 21
2.2214503935
  0
LINE
  5
48D
100
AcDbEntity
  8
IMPORT_IGES
100
AcDbLine
 62
7
  6
CONTINUOUS
 10
-47.3123821677
 20
2.1973087921
 11
-47.233425339
 21
-1.3214503935
  0
LINE
  5
48E
100
AcDbEntity
  8
IMPORT_IGES
100
AcDbLine
 62
7
  6
CONTINUOUS
 10
-46.8876178323
 20
-1.2973087921
 11
-46.966574661
 21
2.2214503935
  0
LINE
  5
48F
100
AcDbEntity
  8
IMPORT_IGES
100
AcDbLine
 62
7
  6
CONTINUOUS
 10
-46.9123821677
 20
2.1973087921
 11
-46.833425339
 21
-1.3214503935
  0
LINE
  5
490
100
AcDbEntity
  8
IMPORT_IGES
100
AcDbLine
 62
7
  6
CONTINUOUS
 10
-46.512392186
 20
2.1977146552
 11
-46.4334388721
 21
-1.3209072983
  0
LINE
  5
491
100
AcDbEntity
  8
IMPORT_IGES
100
AcDbLine
 62
7
  6
CONTINUOUS
 10
-46.2869968217
 20
3.0615069311
 11
-46.2818066639
 21
2.8455638976
  0
LINE
  5
492
100
AcDbEntity
  8
IMPORT_IGES
100
AcDbLine
 62
7
  6
CONTINUOUS
 10
-46.2202451183
 20
-1.7555329326
 11
-46.2150664726
 21
-1.9727626948
  0
LINE
  5
493
100
AcDbEntity
  8
IMPORT_IGES
100
AcDbLine
 62
7
  6
CONTINUOUS
 10
-46.2270904138
 20
-1.3796723121
 11
-46.2202451183
 21
-1.7555329326
  0
LINE
  5
494
100
AcDbEntity
  8
IMPORT_IGES
100
AcDbLine
 62
7
  6
CONTINUOUS
 10
-46.2818066639
 20
2.8455638976
 11
-46.2749391844
 21
2.4658055681
  0
LINE
  5
495
100
AcDbEntity
  8
IMPORT_IGES
100
AcDbLine
 62
7
  6
CONTINUOUS
 10
-46.2749391844
 20
2.4658055681
 11
-46.2270904138
 21
-1.3796723121
  0
LINE
  5
496
100
AcDbEntity
  8
IMPORT_IGES
100
AcDbLine
 62
7
  6
CONTINUOUS
 10
-47.5
 20
13.25
 11
-47.5
 21
3.75
  0
LINE
  5
497
100
AcDbEntity
  8
IMPORT_IGES
100
AcDbLine
 62
7
  6
CONTINUOUS
 10
-46.2
 20
-2.25
 11
-46.2
 21
3.15
  0
LWPOLYLINE
  5
498
100
AcDbEntity
  8
IMPORT_IGES
100
AcDbPolyline
 62
7
  6
CONTINUOUS
 90
10
 70
0
 10
-49.6288030015
 20
-2.5482340983
 10
-49.6298388314
 20
-2.5459736873
 10
-49.6329669464
 20
-2.5338227813
 10
-49.6361792643
 20
-2.5134560102
 10
-49.6394900197
 20
-2.484763996
 10
-49.642884978
 20
-2.4477229096
 10
-49.6463214353
 20
-2.4024971389
 10
-49.6498053653
 20
-2.3490782611
 10
-49.6533307941
 20
-2.2876615019
 10
-49.6568370962
 20
-2.219058742
  0
LWPOLYLINE
  5
499
100
AcDbEntity
  8
IMPORT_IGES
100
AcDbPolyline
 62
7
  6
CONTINUOUS
 90
10
 70
0
 10
-50.0288017024
 20
-2.5482340974
 10
-50.0298395716
 20
-2.5459664491
 10
-50.0329681755
 20
-2.5337978932
 10
-50.036180731
 20
-2.5134122704
 10
-50.0394913908
 20
-2.4847125134
 10
-50.0428860021
 20
-2.4476824515
 10
-50.0463221068
 20
-2.4024816851
 10
-50.049805843
 20
-2.3491063397
 10
-50.0533310724
 20
-2.2877516421
 10
-50.0568369227
 20
-2.2192008656
  0
LWPOLYLINE
  5
49A
100
AcDbEntity
  8
IMPORT_IGES
100
AcDbPolyline
 62
7
  6
CONTINUOUS
 90
3
 70
0
 10
-49.5793789842
 20
-2.5338193754
 10
-49.5762588909
 20
-2.545951813
 10
-49.5732050808
 20
-2.55
  0
LWPOLYLINE
  5
49B
100
AcDbEntity
  8
IMPORT_IGES
100
AcDbPolyline
 62
7
  6
CONTINUOUS
 90
3
 70
0
 10
-49.1793789842
 20
-2.5338193754
 10
-49.1762588909
 20
-2.545951813
 10
-49.1732050808
 20
-2.55
  0
LWPOLYLINE
  5
49C
100
AcDbEntity
  8
IMPORT_IGES
100
AcDbPolyline
 62
7
  6
CONTINUOUS
 90
3
 70
0
 10
-48.7793789842
 20
-2.5338193754
 10
-48.7762588909
 20
-2.545951813
 10
-48.7732050808
 20
-2.55
  0
LWPOLYLINE
  5
49D
100
AcDbEntity
  8
IMPORT_IGES
100
AcDbPolyline
 62
7
  6
CONTINUOUS
 90
3
 70
0
 10
-48.3793789842
 20
-2.5338193754
 10
-48.3762588909
 20
-2.545951813
 10
-48.3732050808
 20
-2.55
  0
LWPOLYLINE
  5
49E
100
AcDbEntity
  8
IMPORT_IGES
100
AcDbPolyline
 62
7
  6
CONTINUOUS
 90
3
 70
0
 10
-49.8206210158
 20
3.4338193754
 10
-49.8237411091
 20
3.445951813
 10
-49.8267949192
 20
3.45
  0
LWPOLYLINE
  5
49F
100
AcDbEntity
  8
IMPORT_IGES
100
AcDbPolyline
 62
7
  6
CONTINUOUS
 90
3
 70
0
 10
-47.9793789842
 20
-2.5338193754
 10
-47.9762588909
 20
-2.545951813
 10
-47.9732050808
 20
-2.55
  0
LWPOLYLINE
  5
4A0
100
AcDbEntity
  8
IMPORT_IGES
100
AcDbPolyline
 62
7
  6
CONTINUOUS
 90
3
 70
0
 10
-49.4206210158
 20
3.4338193754
 10
-49.4237411091
 20
3.445951813
 10
-49.4267949192
 20
3.45
  0
LWPOLYLINE
  5
4A1
100
AcDbEntity
  8
IMPORT_IGES
100
AcDbPolyline
 62
7
  6
CONTINUOUS
 90
3
 70
0
 10
-47.5793789842
 20
-2.5338193754
 10
-47.5762588909
 20
-2.545951813
 10
-47.5732050808
 20
-2.55
  0
LWPOLYLINE
  5
4A2
100
AcDbEntity
  8
IMPORT_IGES
100
AcDbPolyline
 62
7
  6
CONTINUOUS
 90
3
 70
0
 10
-49.0206210158
 20
3.4338193754
 10
-49.0237411091
 20
3.445951813
 10
-49.0267949192
 20
3.45
  0
LWPOLYLINE
  5
4A3
100
AcDbEntity
  8
IMPORT_IGES
100
AcDbPolyline
 62
7
  6
CONTINUOUS
 90
3
 70
0
 10
-47.1793789842
 20
-2.5338193754
 10
-47.1762588909
 20
-2.545951813
 10
-47.1732050808
 20
-2.55
  0
LWPOLYLINE
  5
4A4
100
AcDbEntity
  8
IMPORT_IGES
100
AcDbPolyline
 62
7
  6
CONTINUOUS
 90
3
 70
0
 10
-48.6206210158
 20
3.4338193754
 10
-48.6237411091
 20
3.445951813
 10
-48.6267949192
 20
3.45
  0
LINE
  5
4A5
100
AcDbEntity
  8
IMPORT_IGES
100
AcDbLine
 62
7
  6
CONTINUOUS
 10
-50.220585836
 20
3.4336532907
 11
-50.2237212306
 21
3.4459042537
  0
LWPOLYLINE
  5
4A6
100
AcDbEntity
  8
IMPORT_IGES
100
AcDbPolyline
 62
7
  6
CONTINUOUS
 90
3
 70
0
 10
-49.9795067876
 20
-2.5331546683
 10
-49.9763194266
 20
-2.5457856651
 10
-49.9732050808
 20
-2.5499999999
  0
LWPOLYLINE
  5
4A7
100
AcDbEntity
  8
IMPORT_IGES
100
AcDbPolyline
 62
7
  6
CONTINUOUS
 90
3
 70
0
 10
-49.9861166304
 20
-2.4828168219
 10
-49.9827671636
 20
-2.5121459862
 10
-49.9795067876
 20
-2.5331546683
  0
LWPOLYLINE
  5
4A8
100
AcDbEntity
  8
IMPORT_IGES
100
AcDbPolyline
 62
7
  6
CONTINUOUS
 90
9
 70
0
 10
-44.3703287113
 20
3.55
 10
-44.3711881643
 20
3.5683728082
 10
-44.3737975378
 20
3.6162044091
 10
-44.3764441393
 20
3.6568288982
 10
-44.3791277153
 20
3.6902939754
 10
-44.381830189
 20
3.7163668984
 10
-44.3845455345
 20
3.7349700864
 10
-44.3872797776
 20
3.7461811203
 10
-44.3900329183
 20
3.75
  0
LINE
  5
4A9
100
AcDbEntity
  8
IMPORT_IGES
100
AcDbLine
 62
7
  6
CONTINUOUS
 10
-46.0
 20
5.25
 11
-46.0
 21
11.75
  0
LINE
  5
4AA
100
AcDbEntity
  8
IMPORT_IGES
100
AcDbLine
 62
7
  6
CONTINUOUS
 10
-45.3
 20
-15.05
 11
-45.3
 21
-16.75
  0
LINE
  5
4AB
100
AcDbEntity
  8
IMPORT_IGES
100
AcDbLine
 62
7
  6
CONTINUOUS
 10
-45.3
 20
-29.75
 11
-45.3
 21
-31.45
  0
LINE
  5
4AC
100
AcDbEntity
  8
IMPORT_IGES
100
AcDbLine
 62
7
  6
CONTINUOUS
 10
-44.5
 20
19.5
 11
-44.5
 21
13.45
  0
LINE
  5
4AD
100
AcDbEntity
  8
IMPORT_IGES
100
AcDbLine
 62
7
  6
CONTINUOUS
 10
-44.5
 20
11.75
 11
-44.5
 21
5.25
  0
LINE
  5
4AE
100
AcDbEntity
  8
IMPORT_IGES
100
AcDbLine
 62
7
  6
CONTINUOUS
 10
-44.5
 20
-14.25
 11
-44.5
 21
3.55
  0
LINE
  5
4AF
100
AcDbEntity
  8
IMPORT_IGES
100
AcDbLine
 62
7
  6
CONTINUOUS
 10
-43.5
 20
-18.55
 11
-43.5
 21
-27.95
  0
LINE
  5
4B0
100
AcDbEntity
  8
IMPORT_IGES
100
AcDbLine
 62
7
  6
CONTINUOUS
 10
-42.7
 20
13.45
 11
-42.7
 21
3.55
  0
LINE
  5
4B1
100
AcDbEntity
  8
IMPORT_IGES
100
AcDbLine
 62
7
  6
CONTINUOUS
 10
-50.2267993366
 20
3.4499923489
 11
-50.4000055666
 21
3.1499903582
  0
LINE
  5
4B2
100
AcDbEntity
  8
IMPORT_IGES
100
AcDbLine
 62
7
  6
CONTINUOUS
 10
-49.828827768
 20
3.448234115
 11
-50.0022491003
 21
3.1480543576
  0
LINE
  5
4B3
100
AcDbEntity
  8
IMPORT_IGES
100
AcDbLine
 62
7
  6
CONTINUOUS
 10
-49.428827768
 20
3.448234115
 11
-49.6022491003
 21
3.1480543576
  0
LINE
  5
4B4
100
AcDbEntity
  8
IMPORT_IGES
100
AcDbLine
 62
7
  6
CONTINUOUS
 10
-49.028827768
 20
3.448234115
 11
-49.2022491003
 21
3.1480543576
  0
LINE
  5
4B5
100
AcDbEntity
  8
IMPORT_IGES
100
AcDbLine
 62
7
  6
CONTINUOUS
 10
-48.628827768
 20
3.448234115
 11
-48.8022491003
 21
3.1480543576
  0
LINE
  5
4B6
100
AcDbEntity
  8
IMPORT_IGES
100
AcDbLine
 62
7
  6
CONTINUOUS
 10
-48.228827768
 20
3.448234115
 11
-48.4022491003
 21
3.1480543576
  0
LINE
  5
4B7
100
AcDbEntity
  8
IMPORT_IGES
100
AcDbLine
 62
7
  6
CONTINUOUS
 10
-47.828827768
 20
3.448234115
 11
-48.0022491003
 21
3.1480543576
  0
LINE
  5
4B8
100
AcDbEntity
  8
IMPORT_IGES
100
AcDbLine
 62
7
  6
CONTINUOUS
 10
-47.428827768
 20
3.448234115
 11
-47.6022491003
 21
3.1480543576
  0
LINE
  5
4B9
100
AcDbEntity
  8
IMPORT_IGES
100
AcDbLine
 62
7
  6
CONTINUOUS
 10
-47.028827768
 20
3.448234115
 11
-47.2022491003
 21
3.1480543576
  0
LINE
  5
4BA
100
AcDbEntity
  8
IMPORT_IGES
100
AcDbLine
 62
7
  6
CONTINUOUS
 10
-50.2989395498
 20
-2.4231996337
 11
-50.1977508981
 21
-2.2480543546
  0
LINE
  5
4BB
100
AcDbEntity
  8
IMPORT_IGES
100
AcDbLine
 62
7
  6
CONTINUOUS
 10
-46.628827768
 20
3.448234115
 11
-46.8022491003
 21
3.1480543576
  0
LINE
  5
4BC
100
AcDbEntity
  8
IMPORT_IGES
100
AcDbLine
 62
7
  6
CONTINUOUS
 10
-49.9711722318
 20
-2.5482341146
 11
-49.7977508981
 21
-2.2480543546
  0
LWPOLYLINE
  5
4BD
100
AcDbEntity
  8
IMPORT_IGES
100
AcDbPolyline
 62
7
  6
CONTINUOUS
 90
9
 70
0
 10
-44.3900329182
 20
13.2500566391
 10
-44.3872798018
 20
13.2538502545
 10
-44.3845455808
 20
13.2650422295
 10
-44.381830255
 20
13.2836325639
 10
-44.3791277989
 20
13.3097009206
 10
-44.3764442381
 20
13.3431676369
 10
-44.3737976495
 20
13.3837937239
 10
-44.3711882867
 20
13.4316247838
 10
-44.3703287148
 20
13.45
  0
LINE
  5
4BE
100
AcDbEntity
  8
IMPORT_IGES
100
AcDbLine
 62
7
  6
CONTINUOUS
 10
-43.5
 20
-18.55
 11
-45.3
 21
-16.75
  0
LINE
  5
4BF
100
AcDbEntity
  8
IMPORT_IGES
100
AcDbLine
 62
7
  6
CONTINUOUS
 10
-50.2022491003
 20
-2.2480543576
 11
-50.028827768
 21
-2.548234115
  0
LINE
  5
4C0
100
AcDbEntity
  8
IMPORT_IGES
100
AcDbLine
 62
7
  6
CONTINUOUS
 10
-49.8022491003
 20
-2.2480543576
 11
-49.628827768
 21
-2.548234115
  0
LINE
  5
4C1
100
AcDbEntity
  8
IMPORT_IGES
100
AcDbLine
 62
7
  6
CONTINUOUS
 10
-49.4022491003
 20
-2.2480543576
 11
-49.228827768
 21
-2.548234115
  0
LINE
  5
4C2
100
AcDbEntity
  8
IMPORT_IGES
100
AcDbLine
 62
7
  6
CONTINUOUS
 10
-49.0022491003
 20
-2.2480543576
 11
-48.828827768
 21
-2.548234115
  0
LINE
  5
4C3
100
AcDbEntity
  8
IMPORT_IGES
100
AcDbLine
 62
7
  6
CONTINUOUS
 10
-48.6022491003
 20
-2.2480543576
 11
-48.428827768
 21
-2.548234115
  0
LINE
  5
4C4
100
AcDbEntity
  8
IMPORT_IGES
100
AcDbLine
 62
7
  6
CONTINUOUS
 10
-48.2022491003
 20
-2.2480543576
 11
-48.028827768
 21
-2.548234115
  0
LINE
  5
4C5
100
AcDbEntity
  8
IMPORT_IGES
100
AcDbLine
 62
7
  6
CONTINUOUS
 10
-47.8022491003
 20
-2.2480543576
 11
-47.628827768
 21
-2.548234115
  0
LINE
  5
4C6
100
AcDbEntity
  8
IMPORT_IGES
100
AcDbLine
 62
7
  6
CONTINUOUS
 10
-47.4022491003
 20
-2.2480543576
 11
-47.228827768
 21
-2.548234115
  0
LINE
  5
4C7
100
AcDbEntity
  8
IMPORT_IGES
100
AcDbLine
 62
7
  6
CONTINUOUS
 10
-47.0022491003
 20
-2.2480543576
 11
-46.828827768
 21
-2.548234115
  0
LINE
  5
4C8
100
AcDbEntity
  8
IMPORT_IGES
100
AcDbLine
 62
7
  6
CONTINUOUS
 10
-50.400006627
 20
-2.2499885215
 11
-50.3000070521
 21
-2.423192866
  0
LWPOLYLINE
  5
4C9
100
AcDbEntity
  8
IMPORT_IGES
100
AcDbPolyline
 62
7
  6
CONTINUOUS
 90
15
 70
0
 10
-49.9977507121
 20
3.1480540327
 10
-49.9975181653
 20
3.1476308075
 10
-49.9962292884
 20
3.1445372684
 10
-49.9949307734
 20
3.1401593763
 10
-49.9936234942
 20
3.1345130765
 10
-49.9923052423
 20
3.1276144589
 10
-49.9909721103
 20
3.1194665666
 10
-49.9896259901
 20
3.1100853071
 10
-49.9882713092
 20
3.0995039852
 10
-49.9869081628
 20
3.0877240063
 10
-49.9855323911
 20
3.0746980713
 10
-49.984144919
 20
3.0604135772
 10
-49.9827483767
 20
3.0448813397
 10
-49.9813403538
 20
3.0280733582
 10
-49.9799200815
 20
3.0099758843
  0
LWPOLYLINE
  5
4CA
100
AcDbEntity
  8
IMPORT_IGES
100
AcDbPolyline
 62
7
  6
CONTINUOUS
 90
15
 70
0
 10
-49.5977511102
 20
3.1480547218
 10
-49.5974263634
 20
3.1474522279
 10
-49.5961369593
 20
3.144267126
 10
-49.594840275
 20
3.1398077764
 10
-49.5935342373
 20
3.1340831426
 10
-49.5922131301
 20
3.1270882763
 10
-49.5908737558
 20
3.1188199232
 10
-49.5895183652
 20
3.1092879698
 10
-49.5881484584
 20
3.0984929641
 10
-49.5867630844
 20
3.086409883
 10
-49.5853638719
 20
3.0730297693
 10
-49.5839530749
 20
3.0583521386
 10
-49.5825302352
 20
3.0423556765
 10
-49.5810951981
 20
3.0250352421
 10
-49.5796501625
 20
3.0064137616
  0
LWPOLYLINE
  5
4CB
100
AcDbEntity
  8
IMPORT_IGES
100
AcDbPolyline
 62
7
  6
CONTINUOUS
 90
15
 70
0
 10
-49.1977508772
 20
3.1480543186
 10
-49.1973567681
 20
3.1473126581
 10
-49.1960540336
 20
3.144019383
 10
-49.1947390255
 20
3.1394076922
 10
-49.1934138252
 20
3.1334952447
 10
-49.1920773933
 20
3.1263043308
 10
-49.1907251262
 20
3.1178318956
 10
-49.1893567398
 20
3.1080732884
 10
-49.187974218
 20
3.0970329159
 10
-49.1865799466
 20
3.0847187429
 10
-49.1851744355
 20
3.0711213636
 10
-49.1837588589
 20
3.056234083
 10
-49.1823357246
 20
3.0400743898
 10
-49.180907108
 20
3.0226753952
 10
-49.1794750302
 20
3.004074181
  0
LWPOLYLINE
  5
4CC
100
AcDbEntity
  8
IMPORT_IGES
100
AcDbPolyline
 62
7
  6
CONTINUOUS
 90
14
 70
0
 10
-48.7977506269
 20
3.1480538853
 10
-48.7969209666
 20
3.1463543462
 10
-48.7956473227
 20
3.1427292253
 10
-48.7943595925
 20
3.1378413936
 10
-48.7930527048
 20
3.1316702192
 10
-48.7917237861
 20
3.1242032467
 10
-48.7903732323
 20
3.1154358032
 10
-48.7890015484
 20
3.105349539
 10
-48.7876120815
 20
3.093946629
 10
-48.7862124882
 20
3.0812755567
 10
-48.7848056021
 20
3.0673538194
 10
-48.7833928321
 20
3.052186293
 10
-48.7819794836
 20
3.0358397584
 10
-48.7805702158
 20
3.0183987129
  0
LWPOLYLINE
  5
4CD
100
AcDbEntity
  8
IMPORT_IGES
100
AcDbPolyline
 62
7
  6
CONTINUOUS
 90
14
 70
0
 10
-48.3977509324
 20
3.1480544141
 10
-48.3968684467
 20
3.1462289795
 10
-48.3955680481
 20
3.1424636481
 10
-48.3942578261
 20
3.1374042373
 10
-48.3929325304
 20
3.13104282
 10
-48.3915871394
 20
3.1233687773
 10
-48.3902187775
 20
3.1143638985
 10
-48.3888319821
 20
3.104037995
 10
-48.3874352541
 20
3.0924370202
 10
-48.3860327629
 20
3.0795860131
 10
-48.3846248557
 20
3.0654898116
 10
-48.3832144214
 20
3.0501862045
 10
-48.3818052651
 20
3.0337427569
 10
-48.3803963712
 20
3.016170234
  0
LWPOLYLINE
  5
4CE
100
AcDbEntity
  8
IMPORT_IGES
100
AcDbPolyline
 62
7
  6
CONTINUOUS
 90
10
 70
0
 10
-49.2288030015
 20
-2.5482340983
 10
-49.2298388314
 20
-2.5459736873
 10
-49.2329669464
 20
-2.5338227813
 10
-49.2361792643
 20
-2.5134560102
 10
-49.2394900197
 20
-2.484763996
 10
-49.242884978
 20
-2.4477229096
 10
-49.2463214353
 20
-2.4024971389
 10
-49.2498053653
 20
-2.3490782611
 10
-49.2533307941
 20
-2.2876615019
 10
-49.2568370962
 20
-2.219058742
  0
LWPOLYLINE
  5
4CF
100
AcDbEntity
  8
IMPORT_IGES
100
AcDbPolyline
 62
7
  6
CONTINUOUS
 90
10
 70
0
 10
-48.8288030015
 20
-2.5482340983
 10
-48.8298388314
 20
-2.5459736873
 10
-48.8329669464
 20
-2.5338227813
 10
-48.8361792643
 20
-2.5134560102
 10
-48.8394900197
 20
-2.484763996
 10
-48.842884978
 20
-2.4477229096
 10
-48.8463214353
 20
-2.4024971389
 10
-48.8498053653
 20
-2.3490782611
 10
-48.8533307941
 20
-2.2876615019
 10
-48.8568370962
 20
-2.219058742
  0
LWPOLYLINE
  5
4D0
100
AcDbEntity
  8
IMPORT_IGES
100
AcDbPolyline
 62
7
  6
CONTINUOUS
 90
10
 70
0
 10
-48.4288030015
 20
-2.5482340983
 10
-48.4298388314
 20
-2.5459736873
 10
-48.4329669464
 20
-2.5338227813
 10
-48.4361792643
 20
-2.5134560102
 10
-48.4394900197
 20
-2.484763996
 10
-48.442884978
 20
-2.4477229096
 10
-48.4463214353
 20
-2.4024971389
 10
-48.4498053653
 20
-2.3490782611
 10
-48.4533307941
 20
-2.2876615019
 10
-48.4568370962
 20
-2.219058742
  0
LWPOLYLINE
  5
4D1
100
AcDbEntity
  8
IMPORT_IGES
100
AcDbPolyline
 62
7
  6
CONTINUOUS
 90
10
 70
0
 10
-48.0288030015
 20
-2.5482340983
 10
-48.0298388314
 20
-2.5459736873
 10
-48.0329669464
 20
-2.5338227813
 10
-48.0361792643
 20
-2.5134560102
 10
-48.0394900197
 20
-2.484763996
 10
-48.042884978
 20
-2.4477229096
 10
-48.0463214353
 20
-2.4024971389
 10
-48.0498053653
 20
-2.3490782611
 10
-48.0533307941
 20
-2.2876615019
 10
-48.0568370962
 20
-2.219058742
  0
LWPOLYLINE
  5
4D2
100
AcDbEntity
  8
IMPORT_IGES
100
AcDbPolyline
 62
7
  6
CONTINUOUS
 90
10
 70
0
 10
-47.6288030015
 20
-2.5482340983
 10
-47.6298388314
 20
-2.5459736873
 10
-47.6329669464
 20
-2.5338227813
 10
-47.6361792643
 20
-2.5134560102
 10
-47.6394900197
 20
-2.484763996
 10
-47.642884978
 20
-2.4477229096
 10
-47.6463214353
 20
-2.4024971389
 10
-47.6498053653
 20
-2.3490782611
 10
-47.6533307941
 20
-2.2876615019
 10
-47.6568370962
 20
-2.219058742
  0
LWPOLYLINE
  5
4D3
100
AcDbEntity
  8
IMPORT_IGES
100
AcDbPolyline
 62
7
  6
CONTINUOUS
 90
10
 70
0
 10
-47.2288030015
 20
-2.5482340983
 10
-47.2298388314
 20
-2.5459736873
 10
-47.2329669464
 20
-2.5338227813
 10
-47.2361792643
 20
-2.5134560102
 10
-47.2394900197
 20
-2.484763996
 10
-47.242884978
 20
-2.4477229096
 10
-47.2463214353
 20
-2.4024971389
 10
-47.2498053653
 20
-2.3490782611
 10
-47.2533307941
 20
-2.2876615019
 10
-47.2568370962
 20
-2.219058742
  0
LWPOLYLINE
  5
4D4
100
AcDbEntity
  8
IMPORT_IGES
100
AcDbPolyline
 62
7
  6
CONTINUOUS
 90
10
 70
0
 10
-49.7711969983
 20
3.4482340979
 10
-49.7701611686
 20
3.4459736873
 10
-49.7670330536
 20
3.4338227813
 10
-49.7638207357
 20
3.4134560102
 10
-49.7605099803
 20
3.384763996
 10
-49.757115022
 20
3.3477229096
 10
-49.7536785647
 20
3.3024971389
 10
-49.7501946347
 20
3.2490782611
 10
-49.7466692059
 20
3.1876615019
 10
-49.7431629038
 20
3.119058742
  0
LWPOLYLINE
  5
4D5
100
AcDbEntity
  8
IMPORT_IGES
100
AcDbPolyline
 62
7
  6
CONTINUOUS
 90
10
 70
0
 10
-46.8288030015
 20
-2.5482340983
 10
-46.8298388314
 20
-2.5459736873
 10
-46.8329669464
 20
-2.5338227813
 10
-46.8361792643
 20
-2.5134560102
 10
-46.8394900197
 20
-2.484763996
 10
-46.842884978
 20
-2.4477229096
 10
-46.8463214353
 20
-2.4024971389
 10
-46.8498053653
 20
-2.3490782611
 10
-46.8533307941
 20
-2.2876615019
 10
-46.8568370962
 20
-2.219058742
  0
LWPOLYLINE
  5
4D6
100
AcDbEntity
  8
IMPORT_IGES
100
AcDbPolyline
 62
7
  6
CONTINUOUS
 90
10
 70
0
 10
-49.3711969983
 20
3.4482340979
 10
-49.3701611686
 20
3.4459736873
 10
-49.3670330536
 20
3.4338227813
 10
-49.3638207357
 20
3.4134560102
 10
-49.3605099803
 20
3.384763996
 10
-49.357115022
 20
3.3477229096
 10
-49.3536785647
 20
3.3024971389
 10
-49.3501946347
 20
3.2490782611
 10
-49.3466692059
 20
3.1876615019
 10
-49.3431629038
 20
3.119058742
  0
LWPOLYLINE
  5
4D7
100
AcDbEntity
  8
IMPORT_IGES
100
AcDbPolyline
 62
7
  6
CONTINUOUS
 90
10
 70
0
 10
-48.9711969983
 20
3.4482340979
 10
-48.9701611686
 20
3.4459736873
 10
-48.9670330536
 20
3.4338227813
 10
-48.9638207357
 20
3.4134560102
 10
-48.9605099803
 20
3.384763996
 10
-48.957115022
 20
3.3477229096
 10
-48.9536785647
 20
3.3024971389
 10
-48.9501946347
 20
3.2490782611
 10
-48.9466692059
 20
3.1876615019
 10
-48.9431629038
 20
3.119058742
  0
LWPOLYLINE
  5
4D8
100
AcDbEntity
  8
IMPORT_IGES
100
AcDbPolyline
 62
7
  6
CONTINUOUS
 90
10
 70
0
 10
-48.5711969983
 20
3.4482340979
 10
-48.5701611686
 20
3.4459736873
 10
-48.5670330536
 20
3.4338227813
 10
-48.5638207357
 20
3.4134560102
 10
-48.5605099803
 20
3.384763996
 10
-48.557115022
 20
3.3477229096
 10
-48.5536785647
 20
3.3024971389
 10
-48.5501946347
 20
3.2490782611
 10
-48.5466692059
 20
3.1876615019
 10
-48.5431629038
 20
3.119058742
  0
LWPOLYLINE
  5
4D9
100
AcDbEntity
  8
IMPORT_IGES
100
AcDbPolyline
 62
7
  6
CONTINUOUS
 90
10
 70
0
 10
-48.1711969983
 20
3.4482340979
 10
-48.1701611686
 20
3.4459736873
 10
-48.1670330536
 20
3.4338227813
 10
-48.1638207357
 20
3.4134560102
 10
-48.1605099803
 20
3.384763996
 10
-48.157115022
 20
3.3477229096
 10
-48.1536785647
 20
3.3024971389
 10
-48.1501946347
 20
3.2490782611
 10
-48.1466692059
 20
3.1876615019
 10
-48.1431629038
 20
3.119058742
  0
LWPOLYLINE
  5
4DA
100
AcDbEntity
  8
IMPORT_IGES
100
AcDbPolyline
 62
7
  6
CONTINUOUS
 90
10
 70
0
 10
-47.7711969983
 20
3.4482340979
 10
-47.7701611686
 20
3.4459736873
 10
-47.7670330536
 20
3.4338227813
 10
-47.7638207357
 20
3.4134560102
 10
-47.7605099803
 20
3.384763996
 10
-47.757115022
 20
3.3477229096
 10
-47.7536785647
 20
3.3024971389
 10
-47.7501946347
 20
3.2490782611
 10
-47.7466692059
 20
3.1876615019
 10
-47.7431629038
 20
3.119058742
  0
LWPOLYLINE
  5
4DB
100
AcDbEntity
  8
IMPORT_IGES
100
AcDbPolyline
 62
7
  6
CONTINUOUS
 90
14
 70
0
 10
-47.9977511506
 20
3.1480547918
 10
-47.9965691194
 20
3.1454750249
 10
-47.9952743431
 20
3.1414386865
 10
-47.9939748082
 20
3.1361498255
 10
-47.9926611493
 20
3.1295931736
 10
-47.9913297421
 20
3.1217661065
 10
-47.9899815239
 20
3.1126744912
 10
-47.988613835
 20
3.1022866719
 10
-47.9872265987
 20
3.0905787324
 10
-47.9858237411
 20
3.0775566703
 10
-47.9844084186
 20
3.0632230632
 10
-47.9829836077
 20
3.0475859865
 10
-47.9815494735
 20
3.0306473424
 10
-47.9801049057
 20
3.012398395
  0
LWPOLYLINE
  5
4DC
100
AcDbEntity
  8
IMPORT_IGES
100
AcDbPolyline
 62
7
  6
CONTINUOUS
 90
10
 70
0
 10
-50.171166605
 20
3.4482341184
 10
-50.1691350675
 20
3.4429264579
 10
-50.1659413899
 20
3.4277860277
 10
-50.1626555327
 20
3.4042187179
 10
-50.1593107995
 20
3.372299298
 10
-50.1559211287
 20
3.3322362557
 10
-50.1524793193
 20
3.2843167026
 10
-50.1489925724
 20
3.2286598883
 10
-50.1454964286
 20
3.1652377398
 10
-50.1419997768
 20
3.0941295534
  0
LWPOLYLINE
  5
4DD
100
AcDbEntity
  8
IMPORT_IGES
100
AcDbPolyline
 62
7
  6
CONTINUOUS
 90
10
 70
0
 10
-46.4288333948
 20
-2.5482341188
 10
-46.4308649325
 20
-2.5429264579
 10
-46.4340586101
 20
-2.5277860277
 10
-46.4373444673
 20
-2.5042187178
 10
-46.4406892005
 20
-2.4722992979
 10
-46.4440788713
 20
-2.4322362556
 10
-46.4475206807
 20
-2.3843167025
 10
-46.4510074276
 20
-2.3286598882
 10
-46.4545035714
 20
-2.2652377397
 10
-46.4580002233
 20
-2.1941295532
  0
LWPOLYLINE
  5
4DE
100
AcDbEntity
  8
IMPORT_IGES
100
AcDbPolyline
 62
7
  6
CONTINUOUS
 90
3
 70
0
 10
-46.7793789842
 20
-2.5338193754
 10
-46.7762588909
 20
-2.545951813
 10
-46.7732050808
 20
-2.55
  0
LWPOLYLINE
  5
4DF
100
AcDbEntity
  8
IMPORT_IGES
100
AcDbPolyline
 62
7
  6
CONTINUOUS
 90
3
 70
0
 10
-48.2206210158
 20
3.4338193754
 10
-48.2237411091
 20
3.445951813
 10
-48.2267949192
 20
3.45
  0
LWPOLYLINE
  5
4E0
100
AcDbEntity
  8
IMPORT_IGES
100
AcDbPolyline
 62
7
  6
CONTINUOUS
 90
3
 70
0
 10
-47.8206210158
 20
3.4338193754
 10
-47.8237411091
 20
3.445951813
 10
-47.8267949192
 20
3.45
  0
LWPOLYLINE
  5
4E1
100
AcDbEntity
  8
IMPORT_IGES
100
AcDbPolyline
 62
7
  6
CONTINUOUS
 90
3
 70
0
 10
-47.4206210158
 20
3.4338193754
 10
-47.4237411091
 20
3.445951813
 10
-47.4267949192
 20
3.45
  0
LWPOLYLINE
  5
4E2
100
AcDbEntity
  8
IMPORT_IGES
100
AcDbPolyline
 62
7
  6
CONTINUOUS
 90
3
 70
0
 10
-47.0206210158
 20
3.4338193754
 10
-47.0237411091
 20
3.445951813
 10
-47.0267949192
 20
3.45
  0
LINE
  5
4E3
100
AcDbEntity
  8
IMPORT_IGES
100
AcDbLine
 62
7
  6
CONTINUOUS
 10
-46.379414164
 20
-2.5336532907
 11
-46.3762787694
 21
-2.5459042537
  0
LWPOLYLINE
  5
4E4
100
AcDbEntity
  8
IMPORT_IGES
100
AcDbPolyline
 62
7
  6
CONTINUOUS
 90
3
 70
0
 10
-46.6204932124
 20
3.4331546683
 10
-46.6236805734
 20
3.4457856651
 10
-46.6267949192
 20
3.4499999999
  0
LWPOLYLINE
  5
4E5
100
AcDbEntity
  8
IMPORT_IGES
100
AcDbPolyline
 62
7
  6
CONTINUOUS
 90
7
 70
0
 10
-46.2999929478
 20
3.323192866
 10
-46.2984839046
 20
3.3167944157
 10
-46.2969399883
 20
3.3027765526
 10
-46.295361199
 20
3.2811667051
 10
-46.2937432825
 20
3.252012492
 10
-46.2920904929
 20
3.2153876351
 10
-46.2904155925
 20
3.1713755515
  0
LWPOLYLINE
  5
4E6
100
AcDbEntity
  8
IMPORT_IGES
100
AcDbPolyline
 62
7
  6
CONTINUOUS
 90
3
 70
0
 10
-46.6138833696
 20
3.3828168219
 10
-46.6172328364
 20
3.4121459862
 10
-46.6204932124
 20
3.4331546683
  0
LINE
  5
4E7
100
AcDbEntity
  8
IMPORT_IGES
100
AcDbLine
 62
7
  6
CONTINUOUS
 10
-41.2
 20
3.55
 11
-41.2
 21
13.45
  0
LINE
  5
4E8
100
AcDbEntity
  8
IMPORT_IGES
100
AcDbLine
 62
7
  6
CONTINUOUS
 10
-46.1999944334
 20
-2.2499903582
 11
-46.3732006634
 21
-2.5499923489
  0
LINE
  5
4E9
100
AcDbEntity
  8
IMPORT_IGES
100
AcDbLine
 62
7
  6
CONTINUOUS
 10
-46.3010604507
 20
3.3231996327
 11
-46.4022491003
 21
3.1480543576
  0
LINE
  5
4EA
100
AcDbEntity
  8
IMPORT_IGES
100
AcDbLine
 62
7
  6
CONTINUOUS
 10
-49.5711722318
 20
-2.5482341146
 11
-49.3977508981
 21
-2.2480543546
  0
LINE
  5
4EB
100
AcDbEntity
  8
IMPORT_IGES
100
AcDbLine
 62
7
  6
CONTINUOUS
 10
-49.1711722318
 20
-2.5482341146
 11
-48.9977508981
 21
-2.2480543546
  0
LINE
  5
4EC
100
AcDbEntity
  8
IMPORT_IGES
100
AcDbLine
 62
7
  6
CONTINUOUS
 10
-48.7711722318
 20
-2.5482341146
 11
-48.5977508981
 21
-2.2480543546
  0
LINE
  5
4ED
100
AcDbEntity
  8
IMPORT_IGES
100
AcDbLine
 62
7
  6
CONTINUOUS
 10
-48.3711722318
 20
-2.5482341146
 11
-48.1977508981
 21
-2.2480543546
  0
LINE
  5
4EE
100
AcDbEntity
  8
IMPORT_IGES
100
AcDbLine
 62
7
  6
CONTINUOUS
 10
-47.9711722318
 20
-2.5482341146
 11
-47.7977508981
 21
-2.2480543546
  0
LINE
  5
4EF
100
AcDbEntity
  8
IMPORT_IGES
100
AcDbLine
 62
7
  6
CONTINUOUS
 10
-47.5711722318
 20
-2.5482341146
 11
-47.3977508981
 21
-2.2480543546
  0
LINE
  5
4F0
100
AcDbEntity
  8
IMPORT_IGES
100
AcDbLine
 62
7
  6
CONTINUOUS
 10
-47.1711722318
 20
-2.5482341146
 11
-46.9977508981
 21
-2.2480543546
  0
LINE
  5
4F1
100
AcDbEntity
  8
IMPORT_IGES
100
AcDbLine
 62
7
  6
CONTINUOUS
 10
-46.7711722318
 20
-2.5482341146
 11
-46.5977508981
 21
-2.2480543546
  0
LINE
  5
4F2
100
AcDbEntity
  8
IMPORT_IGES
100
AcDbLine
 62
7
  6
CONTINUOUS
 10
-46.3762787694
 20
-2.5459042537
 11
-46.373203608
 21
-2.5499999999
  0
LINE
  5
4F3
100
AcDbEntity
  8
IMPORT_IGES
100
AcDbLine
 62
7
  6
CONTINUOUS
 10
-50.2237212306
 20
3.4459042537
 11
-50.226796392
 21
3.4499999999
  0
LINE
  5
4F4
100
AcDbEntity
  8
IMPORT_IGES
100
AcDbLine
 62
7
  6
CONTINUOUS
 10
-49.9977508981
 20
3.1480543546
 11
-50.1711722318
 21
3.4482341146
  0
LINE
  5
4F5
100
AcDbEntity
  8
IMPORT_IGES
100
AcDbLine
 62
7
  6
CONTINUOUS
 10
-46.6022491003
 20
-2.2480543576
 11
-46.428827768
 21
-2.548234115
  0
LINE
  5
4F6
100
AcDbEntity
  8
IMPORT_IGES
100
AcDbLine
 62
7
  6
CONTINUOUS
 10
-49.5977508981
 20
3.1480543546
 11
-49.7711722318
 21
3.4482341146
  0
LINE
  5
4F7
100
AcDbEntity
  8
IMPORT_IGES
100
AcDbLine
 62
7
  6
CONTINUOUS
 10
-49.1977508981
 20
3.1480543546
 11
-49.3711722318
 21
3.4482341146
  0
LINE
  5
4F8
100
AcDbEntity
  8
IMPORT_IGES
100
AcDbLine
 62
7
  6
CONTINUOUS
 10
-48.7977508981
 20
3.1480543546
 11
-48.9711722318
 21
3.4482341146
  0
LINE
  5
4F9
100
AcDbEntity
  8
IMPORT_IGES
100
AcDbLine
 62
7
  6
CONTINUOUS
 10
-48.3977508981
 20
3.1480543546
 11
-48.5711722318
 21
3.4482341146
  0
LINE
  5
4FA
100
AcDbEntity
  8
IMPORT_IGES
100
AcDbLine
 62
7
  6
CONTINUOUS
 10
-47.9977508981
 20
3.1480543546
 11
-48.1711722318
 21
3.4482341146
  0
LINE
  5
4FB
100
AcDbEntity
  8
IMPORT_IGES
100
AcDbLine
 62
7
  6
CONTINUOUS
 10
-47.5977508981
 20
3.1480543546
 11
-47.7711722318
 21
3.4482341146
  0
LINE
  5
4FC
100
AcDbEntity
  8
IMPORT_IGES
100
AcDbLine
 62
7
  6
CONTINUOUS
 10
-47.1977508981
 20
3.1480543546
 11
-47.3711722318
 21
3.4482341146
  0
LINE
  5
4FD
100
AcDbEntity
  8
IMPORT_IGES
100
AcDbLine
 62
7
  6
CONTINUOUS
 10
-46.7977508981
 20
3.1480543546
 11
-46.9711722318
 21
3.4482341146
  0
LINE
  5
4FE
100
AcDbEntity
  8
IMPORT_IGES
100
AcDbLine
 62
7
  6
CONTINUOUS
 10
-46.3977508981
 20
3.1480543546
 11
-46.5711722318
 21
3.4482341146
  0
LINE
  5
4FF
100
AcDbEntity
  8
IMPORT_IGES
100
AcDbLine
 62
7
  6
CONTINUOUS
 10
-46.2999929478
 20
3.323192866
 11
-46.199993373
 21
3.1499885216
  0
LWPOLYLINE
  5
500
100
AcDbEntity
  8
IMPORT_IGES
100
AcDbPolyline
 62
7
  6
CONTINUOUS
 90
15
 70
0
 10
-46.3977513364
 20
3.1480551133
 10
-46.3975097343
 20
3.1476145729
 10
-46.3962028499
 20
3.1444601455
 10
-46.3948872834
 20
3.1399907681
 10
-46.3935587606
 20
3.1342019646
 10
-46.3922132198
 20
3.1270900829
 10
-46.3908537811
 20
3.1186896509
 10
-46.38948526
 20
3.1090406622
 10
-46.3881072471
 20
3.098146454
 10
-46.3867188789
 20
3.0859981637
 10
-46.3853236127
 20
3.0726202716
 10
-46.3839222678
 20
3.0580131713
 10
-46.3825093751
 20
3.0421091999
 10
-46.3810839663
 20
3.0248931914
 10
-46.3796490027
 20
3.00639772
  0
LWPOLYLINE
  5
501
100
AcDbEntity
  8
IMPORT_IGES
100
AcDbPolyline
 62
7
  6
CONTINUOUS
 90
14
 70
0
 10
-47.5977510112
 20
3.1480545505
 10
-47.5967433934
 20
3.1459222352
 10
-47.595445828
 20
3.1420447767
 10
-47.5941347745
 20
3.1368658567
 10
-47.5928069073
 20
3.1303781007
 10
-47.5914583866
 20
3.1225708265
 10
-47.5900893404
 20
3.113440194
 10
-47.5887031684
 20
3.1029978797
 10
-47.5873019498
 20
3.0912518042
 10
-47.5858879599
 20
3.0782016263
 10
-47.5844649471
 20
3.0638520044
 10
-47.583036236
 20
3.0482111033
 10
-47.5816018603
 20
3.0312939299
 10
-47.5801605357
 20
3.0131144136
  0
LWPOLYLINE
  5
502
100
AcDbEntity
  8
IMPORT_IGES
100
AcDbPolyline
 62
7
  6
CONTINUOUS
 90
10
 70
0
 10
-47.3711969983
 20
3.4482340979
 10
-47.3701611686
 20
3.4459736873
 10
-47.3670330536
 20
3.4338227813
 10
-47.3638207357
 20
3.4134560102
 10
-47.3605099803
 20
3.384763996
 10
-47.357115022
 20
3.3477229096
 10
-47.3536785647
 20
3.3024971389
 10
-47.3501946347
 20
3.2490782611
 10
-47.3466692059
 20
3.1876615019
 10
-47.3431629038
 20
3.119058742
  0
LWPOLYLINE
  5
503
100
AcDbEntity
  8
IMPORT_IGES
100
AcDbPolyline
 62
7
  6
CONTINUOUS
 90
10
 70
0
 10
-46.9711969983
 20
3.4482340979
 10
-46.9701611686
 20
3.4459736873
 10
-46.9670330536
 20
3.4338227813
 10
-46.9638207357
 20
3.4134560102
 10
-46.9605099803
 20
3.384763996
 10
-46.957115022
 20
3.3477229096
 10
-46.9536785647
 20
3.3024971389
 10
-46.9501946347
 20
3.2490782611
 10
-46.9466692059
 20
3.1876615019
 10
-46.9431629038
 20
3.119058742
  0
LWPOLYLINE
  5
504
100
AcDbEntity
  8
IMPORT_IGES
100
AcDbPolyline
 62
7
  6
CONTINUOUS
 90
10
 70
0
 10
-46.5711982974
 20
3.4482340971
 10
-46.5701604284
 20
3.4459664491
 10
-46.5670318245
 20
3.4337978932
 10
-46.563819269
 20
3.4134122704
 10
-46.5605086092
 20
3.3847125134
 10
-46.5571139979
 20
3.3476824515
 10
-46.5536778932
 20
3.3024816851
 10
-46.5501941571
 20
3.2491063397
 10
-46.5466689276
 20
3.1877516421
 10
-46.5431630773
 20
3.1192008656
  0
LWPOLYLINE
  5
505
100
AcDbEntity
  8
IMPORT_IGES
100
AcDbPolyline
 62
7
  6
CONTINUOUS
 90
14
 70
0
 10
-47.1977507332
 20
3.1480540694
 10
-47.1964715567
 20
3.1452148057
 10
-47.1951756187
 20
3.1410799292
 10
-47.1938679079
 20
3.1356609064
 10
-47.1925433146
 20
3.1289478663
 10
-47.1911997657
 20
3.1209417642
 10
-47.1898427031
 20
3.1116760806
 10
-47.1884761868
 20
3.1011794285
 10
-47.1871008141
 20
3.089457312
 10
-47.1857182534
 20
3.0765217874
 10
-47.1843329797
 20
3.0624132841
 10
-47.1829445945
 20
3.0471284188
 10
-47.1815466691
 20
3.0306032559
 10
-47.1801387091
 20
3.0128332711
  0
LWPOLYLINE
  5
506
100
AcDbEntity
  8
IMPORT_IGES
100
AcDbPolyline
 62
7
  6
CONTINUOUS
 90
14
 70
0
 10
-46.7977508909
 20
3.1480543423
 10
-46.7964674605
 20
3.1452035868
 10
-46.7951608005
 20
3.1410252653
 10
-46.7938417064
 20
3.1355398457
 10
-46.7925068827
 20
3.1287464705
 10
-46.7911592219
 20
3.1206815117
 10
-46.7898027525
 20
3.1113843842
 10
-46.7884372564
 20
3.1008620569
 10
-46.7870629316
 20
3.0891176868
 10
-46.7856839482
 20
3.0761870227
 10
-46.7843004694
 20
3.0620703482
 10
-46.7829061538
 20
3.0466924123
 10
-46.781499762
 20
3.030033896
 10
-46.7800845908
 20
3.0121325249
  0
LINE
  5
507
100
AcDbEntity
  8
IMPORT_IGES
100
AcDbLine
 62
7
  6
CONTINUOUS
 10
-42.8357864376
 20
-33.5
 11
43.499961918
 21
-33.5
  0
LINE
  5
508
100
AcDbEntity
  8
IMPORT_IGES
100
AcDbLine
 62
7
  6
CONTINUOUS
 10
-49.6267949192
 20
-2.55
 11
-49.6288030015
 21
-2.5482340983
  0
LINE
  5
509
100
AcDbEntity
  8
IMPORT_IGES
100
AcDbLine
 62
7
  6
CONTINUOUS
 10
-49.2267949192
 20
-2.55
 11
-49.2288030015
 21
-2.5482340983
  0
LINE
  5
50A
100
AcDbEntity
  8
IMPORT_IGES
100
AcDbLine
 62
7
  6
CONTINUOUS
 10
-48.8267949192
 20
-2.55
 11
-48.8288030015
 21
-2.5482340983
  0
LINE
  5
50B
100
AcDbEntity
  8
IMPORT_IGES
100
AcDbLine
 62
7
  6
CONTINUOUS
 10
-48.4267949192
 20
-2.55
 11
-48.4288030015
 21
-2.5482340983
  0
LINE
  5
50C
100
AcDbEntity
  8
IMPORT_IGES
100
AcDbLine
 62
7
  6
CONTINUOUS
 10
-48.0267949192
 20
-2.55
 11
-48.0288030015
 21
-2.5482340983
  0
LINE
  5
50D
100
AcDbEntity
  8
IMPORT_IGES
100
AcDbLine
 62
7
  6
CONTINUOUS
 10
-47.6267949192
 20
-2.55
 11
-47.6288030015
 21
-2.5482340983
  0
LINE
  5
50E
100
AcDbEntity
  8
IMPORT_IGES
100
AcDbLine
 62
7
  6
CONTINUOUS
 10
-50.0267949192
 20
-2.5499999999
 11
-50.0288017024
 21
-2.5482340974
  0
LINE
  5
50F
100
AcDbEntity
  8
IMPORT_IGES
100
AcDbLine
 62
7
  6
CONTINUOUS
 10
-47.2267949192
 20
-2.55
 11
-47.2288030015
 21
-2.5482340983
  0
LINE
  5
510
100
AcDbEntity
  8
IMPORT_IGES
100
AcDbLine
 62
7
  6
CONTINUOUS
 10
-46.8267949192
 20
-2.55
 11
-46.8288030015
 21
-2.5482340983
  0
LINE
  5
511
100
AcDbEntity
  8
IMPORT_IGES
100
AcDbLine
 62
7
  6
CONTINUOUS
 10
-49.7732050808
 20
3.45
 11
-49.7711969983
 21
3.4482340979
  0
LINE
  5
512
100
AcDbEntity
  8
IMPORT_IGES
100
AcDbLine
 62
7
  6
CONTINUOUS
 10
-49.3732050808
 20
3.45
 11
-49.3711969983
 21
3.4482340979
  0
LINE
  5
513
100
AcDbEntity
  8
IMPORT_IGES
100
AcDbLine
 62
7
  6
CONTINUOUS
 10
-48.9732050808
 20
3.45
 11
-48.9711969983
 21
3.4482340979
  0
LINE
  5
514
100
AcDbEntity
  8
IMPORT_IGES
100
AcDbLine
 62
7
  6
CONTINUOUS
 10
-48.5732050808
 20
3.45
 11
-48.5711969983
 21
3.4482340979
  0
LINE
  5
515
100
AcDbEntity
  8
IMPORT_IGES
100
AcDbLine
 62
7
  6
CONTINUOUS
 10
-48.1732050808
 20
3.45
 11
-48.1711969983
 21
3.4482340979
  0
LINE
  5
516
100
AcDbEntity
  8
IMPORT_IGES
100
AcDbLine
 62
7
  6
CONTINUOUS
 10
21.0
 20
-27.498040201
 11
-18.0
 21
-27.498040201
  0
LWPOLYLINE
  5
517
100
AcDbEntity
  8
IMPORT_IGES
100
AcDbPolyline
 62
7
  6
CONTINUOUS
 90
9
 70
0
 10
-50.4000039761
 20
3.1499931132
 10
-50.3984546084
 20
3.148900989
 10
-50.3968678376
 20
3.1402948435
 10
-50.3952436637
 20
3.1241448962
 10
-50.3935755882
 20
3.1004245724
 10
-50.3918701095
 20
3.0691484167
 10
-50.3901467226
 20
3.0304437019
 10
-50.3884046247
 20
2.9844515292
 10
-50.3866446186
 20
2.9312912322
  0
LINE
  5
518
100
AcDbEntity
  8
IMPORT_IGES
100
AcDbLine
 62
7
  6
CONTINUOUS
 10
-46.2015538491
 20
-2.2488726
 11
-46.1999883561
 21
-2.249979832
  0
LINE
  5
519
100
AcDbEntity
  8
IMPORT_IGES
100
AcDbLine
 62
7
  6
CONTINUOUS
 10
-47.7732050808
 20
3.45
 11
-47.7711969983
 21
3.4482340979
  0
LINE
  5
51A
100
AcDbEntity
  8
IMPORT_IGES
100
AcDbLine
 62
7
  6
CONTINUOUS
 10
-47.3732050808
 20
3.45
 11
-47.3711969983
 21
3.4482340979
  0
LINE
  5
51B
100
AcDbEntity
  8
IMPORT_IGES
100
AcDbLine
 62
7
  6
CONTINUOUS
 10
-46.9732050808
 20
3.45
 11
-46.9711969983
 21
3.4482340979
  0
LINE
  5
51C
100
AcDbEntity
  8
IMPORT_IGES
100
AcDbLine
 62
7
  6
CONTINUOUS
 10
-46.5732050808
 20
3.4499999999
 11
-46.5711982974
 21
3.4482340971
  0
LINE
  5
51D
100
AcDbEntity
  8
IMPORT_IGES
100
AcDbLine
 62
7
  6
CONTINUOUS
 10
-45.3
 20
-15.05
 11
-44.5
 21
-14.25
  0
LINE
  5
51E
100
AcDbEntity
  8
IMPORT_IGES
100
AcDbLine
 62
7
  6
CONTINUOUS
 10
47.5
 20
-24.0
 11
48.5000164923
 21
-24.0
  0
LINE
  5
51F
100
AcDbEntity
  8
IMPORT_IGES
100
AcDbLine
 62
7
  6
CONTINUOUS
 10
-19.0
 20
-26.498040201
 11
-19.0
 21
-7.498040201
  0
LWPOLYLINE
  5
520
100
AcDbEntity
  8
IMPORT_IGES
100
AcDbPolyline
 62
7
  6
CONTINUOUS
 90
3
 70
0
 10
-46.4268070642
 20
-2.55
 10
-46.4277301308
 20
-2.5496345055
 10
-46.4288333948
 20
-2.5482341188
  0
LWPOLYLINE
  5
521
100
AcDbEntity
  8
IMPORT_IGES
100
AcDbPolyline
 62
7
  6
CONTINUOUS
 90
16
 70
0
 10
-50.3999992055
 20
3.149998622
 10
-50.3987162287
 20
3.1493328037
 10
-50.3974158523
 20
3.1473379852
 10
-50.3960992179
 20
3.1440191245
 10
-50.3947673793
 20
3.1393811873
 10
-50.393421493
 20
3.1334297986
 10
-50.3920628284
 20
3.1261719316
 10
-50.3906922325
 20
3.1176128753
 10
-50.3893109423
 20
3.1077605136
 10
-50.3879208156
 20
3.0966291286
 10
-50.3865241582
 20
3.084240545
 10
-50.3851206915
 20
3.0705953372
 10
-50.3837083007
 20
3.0556702962
 10
-50.3822876068
 20
3.039472115
 10
-50.3808602065
 20
3.022028342
 10
-50.3794253439
 20
3.003336386
  0
LINE
  5
522
100
AcDbEntity
  8
IMPORT_IGES
100
AcDbLine
 62
7
  6
CONTINUOUS
 10
48.5000164923
 20
-13.0
 11
44.5
 21
-13.0
  0
LINE
  5
523
100
AcDbEntity
  8
IMPORT_IGES
100
AcDbLine
 62
7
  6
CONTINUOUS
 10
44.5
 20
-12.8650898701
 11
40.9650898701
 21
-12.8650898701
  0
LINE
  5
524
100
AcDbEntity
  8
IMPORT_IGES
100
AcDbLine
 62
7
  6
CONTINUOUS
 10
41.1650898701
 20
-12.6650898701
 11
47.5
 21
-12.6650898701
  0
LWPOLYLINE
  5
525
100
AcDbEntity
  8
IMPORT_IGES
100
AcDbPolyline
 62
7
  6
CONTINUOUS
 90
3
 70
0
 10
-50.1731929358
 20
3.45
 10
-50.1722698692
 20
3.4496345056
 10
-50.171166605
 20
3.4482341184
  0
LINE
  5
526
100
AcDbEntity
  8
IMPORT_IGES
100
AcDbLine
 62
7
  6
CONTINUOUS
 10
-8.5
 20
-2.0
 11
-8.5
 21
13.0
  0
LINE
  5
527
100
AcDbEntity
  8
IMPORT_IGES
100
AcDbLine
 62
7
  6
CONTINUOUS
 10
-45.3
 20
-29.75
 11
-43.5
 21
-27.95
  0
LINE
  5
528
100
AcDbEntity
  8
IMPORT_IGES
100
AcDbLine
 62
7
  6
CONTINUOUS
 10
44.5
 20
-11.1650898701
 11
46.0
 21
-11.1650898701
  0
LINE
  5
529
100
AcDbEntity
  8
IMPORT_IGES
100
AcDbLine
 62
7
  6
CONTINUOUS
 10
-5.625
 20
9.25
 11
-5.6249921287
 21
10.7499999999
  0
LINE
  5
52A
100
AcDbEntity
  8
IMPORT_IGES
100
AcDbLine
 62
7
  6
CONTINUOUS
 10
-5.625
 20
0.25
 11
-5.6249921287
 21
1.75
  0
LINE
  5
52B
100
AcDbEntity
  8
IMPORT_IGES
100
AcDbLine
 62
7
  6
CONTINUOUS
 10
-4.625
 20
4.75
 11
-4.625
 21
6.25
  0
LINE
  5
52C
100
AcDbEntity
  8
IMPORT_IGES
100
AcDbLine
 62
7
  6
CONTINUOUS
 10
-18.0
 20
-6.498040201
 11
21.0
 21
-6.498040201
  0
LINE
  5
52D
100
AcDbEntity
  8
IMPORT_IGES
100
AcDbLine
 62
7
  6
CONTINUOUS
 10
44.5
 20
-6.1650898701
 11
46.0
 21
-6.1650898701
  0
LINE
  5
52E
100
AcDbEntity
  8
IMPORT_IGES
100
AcDbLine
 62
7
  6
CONTINUOUS
 10
41.1650898701
 20
-4.6650898701
 11
47.5
 21
-4.6650898701
  0
LINE
  5
52F
100
AcDbEntity
  8
IMPORT_IGES
100
AcDbLine
 62
7
  6
CONTINUOUS
 10
40.9650898701
 20
-4.4650898701
 11
44.5
 21
-4.4650898701
  0
LINE
  5
530
100
AcDbEntity
  8
IMPORT_IGES
100
AcDbLine
 62
7
  6
CONTINUOUS
 10
-50.0267949192
 20
-2.5499999999
 11
-49.9732050808
 21
-2.5499999999
  0
LINE
  5
531
100
AcDbEntity
  8
IMPORT_IGES
100
AcDbLine
 62
7
  6
CONTINUOUS
 10
-49.6267949192
 20
-2.5499999999
 11
-49.5732050808
 21
-2.5499999999
  0
LINE
  5
532
100
AcDbEntity
  8
IMPORT_IGES
100
AcDbLine
 62
7
  6
CONTINUOUS
 10
-49.2267949192
 20
-2.5499999999
 11
-49.1732050808
 21
-2.5499999999
  0
LINE
  5
533
100
AcDbEntity
  8
IMPORT_IGES
100
AcDbLine
 62
7
  6
CONTINUOUS
 10
-48.8267949192
 20
-2.5499999999
 11
-48.7732050808
 21
-2.5499999999
  0
LINE
  5
534
100
AcDbEntity
  8
IMPORT_IGES
100
AcDbLine
 62
7
  6
CONTINUOUS
 10
-48.4267949192
 20
-2.5499999999
 11
-48.3732050808
 21
-2.5499999999
  0
LINE
  5
535
100
AcDbEntity
  8
IMPORT_IGES
100
AcDbLine
 62
7
  6
CONTINUOUS
 10
-48.0267949192
 20
-2.5499999999
 11
-47.9732050808
 21
-2.5499999999
  0
LINE
  5
536
100
AcDbEntity
  8
IMPORT_IGES
100
AcDbLine
 62
7
  6
CONTINUOUS
 10
-47.6267949192
 20
-2.5499999999
 11
-47.5732050808
 21
-2.5499999999
  0
LINE
  5
537
100
AcDbEntity
  8
IMPORT_IGES
100
AcDbLine
 62
7
  6
CONTINUOUS
 10
-47.2267949192
 20
-2.5499999999
 11
-47.1732050808
 21
-2.5499999999
  0
LINE
  5
538
100
AcDbEntity
  8
IMPORT_IGES
100
AcDbLine
 62
7
  6
CONTINUOUS
 10
-46.8267949192
 20
-2.5499999999
 11
-46.7732050808
 21
-2.5499999999
  0
LINE
  5
539
100
AcDbEntity
  8
IMPORT_IGES
100
AcDbLine
 62
7
  6
CONTINUOUS
 10
-46.3732050808
 20
-2.55
 11
-46.4267949192
 21
-2.55
  0
LINE
  5
53A
100
AcDbEntity
  8
IMPORT_IGES
100
AcDbLine
 62
7
  6
CONTINUOUS
 10
-46.2
 20
-2.1999999999
 11
-44.5
 21
-2.1999999999
  0
LINE
  5
53B
100
AcDbEntity
  8
IMPORT_IGES
100
AcDbLine
 62
7
  6
CONTINUOUS
 10
11.5
 20
-2.0
 11
-8.5
 21
-2.0
  0
LINE
  5
53C
100
AcDbEntity
  8
IMPORT_IGES
100
AcDbLine
 62
7
  6
CONTINUOUS
 10
3.375
 20
9.25
 11
3.3750134937
 21
10.7499999999
  0
LINE
  5
53D
100
AcDbEntity
  8
IMPORT_IGES
100
AcDbLine
 62
7
  6
CONTINUOUS
 10
3.375
 20
0.25
 11
3.3750134937
 21
1.7500000001
  0
LINE
  5
53E
100
AcDbEntity
  8
IMPORT_IGES
100
AcDbLine
 62
7
  6
CONTINUOUS
 10
-44.5
 20
3.0999999999
 11
-46.2
 21
3.0999999999
  0
LINE
  5
53F
100
AcDbEntity
  8
IMPORT_IGES
100
AcDbLine
 62
7
  6
CONTINUOUS
 10
-46.5732050808
 20
3.4499999999
 11
-46.6267949192
 21
3.4499999999
  0
LINE
  5
540
100
AcDbEntity
  8
IMPORT_IGES
100
AcDbLine
 62
7
  6
CONTINUOUS
 10
-46.9732050808
 20
3.4499999999
 11
-47.0267949192
 21
3.4499999999
  0
LINE
  5
541
100
AcDbEntity
  8
IMPORT_IGES
100
AcDbLine
 62
7
  6
CONTINUOUS
 10
-47.3732050808
 20
3.4499999999
 11
-47.4267949192
 21
3.4499999999
  0
LINE
  5
542
100
AcDbEntity
  8
IMPORT_IGES
100
AcDbLine
 62
7
  6
CONTINUOUS
 10
-47.7732050808
 20
3.4499999999
 11
-47.8267949192
 21
3.4499999999
  0
LINE
  5
543
100
AcDbEntity
  8
IMPORT_IGES
100
AcDbLine
 62
7
  6
CONTINUOUS
 10
-48.1732050808
 20
3.4499999999
 11
-48.2267949192
 21
3.4499999999
  0
LINE
  5
544
100
AcDbEntity
  8
IMPORT_IGES
100
AcDbLine
 62
7
  6
CONTINUOUS
 10
-48.5732050808
 20
3.4499999999
 11
-48.6267949192
 21
3.4499999999
  0
LINE
  5
545
100
AcDbEntity
  8
IMPORT_IGES
100
AcDbLine
 62
7
  6
CONTINUOUS
 10
-48.9732050808
 20
3.4499999999
 11
-49.0267949192
 21
3.4499999999
  0
LINE
  5
546
100
AcDbEntity
  8
IMPORT_IGES
100
AcDbLine
 62
7
  6
CONTINUOUS
 10
-49.3732050808
 20
3.4499999999
 11
-49.4267949192
 21
3.4499999999
  0
LINE
  5
547
100
AcDbEntity
  8
IMPORT_IGES
100
AcDbLine
 62
7
  6
CONTINUOUS
 10
-49.7732050808
 20
3.4499999999
 11
-49.8267949192
 21
3.4499999999
  0
LINE
  5
548
100
AcDbEntity
  8
IMPORT_IGES
100
AcDbLine
 62
7
  6
CONTINUOUS
 10
-50.1732050808
 20
3.45
 11
-50.2267949192
 21
3.45
  0
LINE
  5
549
100
AcDbEntity
  8
IMPORT_IGES
100
AcDbLine
 62
7
  6
CONTINUOUS
 10
-44.5
 20
3.55
 11
-41.2
 21
3.55
  0
LINE
  5
54A
100
AcDbEntity
  8
IMPORT_IGES
100
AcDbLine
 62
7
  6
CONTINUOUS
 10
-41.2
 20
3.75
 11
-47.5
 21
3.75
  0
LINE
  5
54B
100
AcDbEntity
  8
IMPORT_IGES
100
AcDbLine
 62
7
  6
CONTINUOUS
 10
-1.9507653858
 20
4.75
 11
-4.625
 21
4.75
  0
LINE
  5
54C
100
AcDbEntity
  8
IMPORT_IGES
100
AcDbLine
 62
7
  6
CONTINUOUS
 10
-44.5
 20
5.25
 11
-46.0
 21
5.25
  0
LINE
  5
54D
100
AcDbEntity
  8
IMPORT_IGES
100
AcDbLine
 62
7
  6
CONTINUOUS
 10
-4.625
 20
6.25
 11
-1.9507653858
 21
6.25
  0
LINE
  5
54E
100
AcDbEntity
  8
IMPORT_IGES
100
AcDbLine
 62
7
  6
CONTINUOUS
 10
11.5
 20
13.0
 11
11.5
 21
-2.0
  0
LINE
  5
54F
100
AcDbEntity
  8
IMPORT_IGES
100
AcDbLine
 62
7
  6
CONTINUOUS
 10
-46.0
 20
11.75
 11
-44.5
 21
11.75
  0
LINE
  5
550
100
AcDbEntity
  8
IMPORT_IGES
100
AcDbLine
 62
7
  6
CONTINUOUS
 10
-8.5
 20
13.0
 11
11.5
 21
13.0
  0
LINE
  5
551
100
AcDbEntity
  8
IMPORT_IGES
100
AcDbLine
 62
7
  6
CONTINUOUS
 10
-41.2
 20
13.25
 11
-47.5
 21
13.25
  0
LINE
  5
552
100
AcDbEntity
  8
IMPORT_IGES
100
AcDbLine
 62
7
  6
CONTINUOUS
 10
-44.5
 20
13.45
 11
-41.2
 21
13.45
  0
LINE
  5
553
100
AcDbEntity
  8
IMPORT_IGES
100
AcDbLine
 62
7
  6
CONTINUOUS
 10
38.45
 20
18.6384615385
 11
37.95
 21
18.6384615385
  0
LINE
  5
554
100
AcDbEntity
  8
IMPORT_IGES
100
AcDbLine
 62
7
  6
CONTINUOUS
 10
38.45
 20
19.1
 11
37.95
 21
19.1
  0
LINE
  5
555
100
AcDbEntity
  8
IMPORT_IGES
100
AcDbLine
 62
7
  6
CONTINUOUS
 10
37.95
 20
19.7883247403
 11
38.45
 21
19.7883247403
  0
LINE
  5
556
100
AcDbEntity
  8
IMPORT_IGES
100
AcDbLine
 62
7
  6
CONTINUOUS
 10
44.5
 20
21.4650898701
 11
40.9650898701
 21
21.4650898701
  0
LINE
  5
557
100
AcDbEntity
  8
IMPORT_IGES
100
AcDbLine
 62
7
  6
CONTINUOUS
 10
41.1650898701
 20
21.6650898701
 11
47.5
 21
21.6650898701
  0
LINE
  5
558
100
AcDbEntity
  8
IMPORT_IGES
100
AcDbLine
 62
7
  6
CONTINUOUS
 10
22.0
 20
-7.498040201
 11
22.0
 21
-26.498040201
  0
LINE
  5
559
100
AcDbEntity
  8
IMPORT_IGES
100
AcDbLine
 62
7
  6
CONTINUOUS
 10
-48.5000164923
 20
22.5
 11
-47.5
 21
22.5
  0
LINE
  5
55A
100
AcDbEntity
  8
IMPORT_IGES
100
AcDbLine
 62
7
  6
CONTINUOUS
 10
40.9650898701
 20
22.5
 11
41.0
 21
22.5
  0
LINE
  5
55B
100
AcDbEntity
  8
IMPORT_IGES
100
AcDbLine
 62
7
  6
CONTINUOUS
 10
41.1650898701
 20
23.0
 11
40.9650898701
 21
23.0
  0
LINE
  5
55C
100
AcDbEntity
  8
IMPORT_IGES
100
AcDbLine
 62
7
  6
CONTINUOUS
 10
46.0
 20
23.1650898701
 11
44.5
 21
23.1650898701
  0
LINE
  5
55D
100
AcDbEntity
  8
IMPORT_IGES
100
AcDbLine
 62
7
  6
CONTINUOUS
 10
44.5
 20
28.1650898701
 11
46.0
 21
28.1650898701
  0
LINE
  5
55E
100
AcDbEntity
  8
IMPORT_IGES
100
AcDbLine
 62
7
  6
CONTINUOUS
 10
41.1650898701
 20
29.6650898701
 11
47.5
 21
29.6650898701
  0
LINE
  5
55F
100
AcDbEntity
  8
IMPORT_IGES
100
AcDbLine
 62
7
  6
CONTINUOUS
 10
40.9650898701
 20
29.8650898701
 11
44.5
 21
29.8650898701
  0
LINE
  5
560
100
AcDbEntity
  8
IMPORT_IGES
100
AcDbLine
 62
7
  6
CONTINUOUS
 10
-48.5
 20
33.5
 11
43.5
 21
33.5
  0
LINE
  5
561
100
AcDbEntity
  8
IMPORT_IGES
100
AcDbLine
 62
7
  6
CONTINUOUS
 10
37.95
 20
19.7883247403
 11
37.95
 21
18.6384615385
  0
LINE
  5
562
100
AcDbEntity
  8
IMPORT_IGES
100
AcDbLine
 62
7
  6
CONTINUOUS
 10
38.45
 20
18.6384615385
 11
38.45
 21
19.7883247403
  0
LINE
  5
563
100
AcDbEntity
  8
IMPORT_IGES
100
AcDbLine
 62
7
  6
CONTINUOUS
 10
40.9650898701
 20
-12.8650898701
 11
40.9650898701
 21
-4.4650898701
  0
LINE
  5
564
100
AcDbEntity
  8
IMPORT_IGES
100
AcDbLine
 62
7
  6
CONTINUOUS
 10
40.9650898701
 20
21.4650898701
 11
40.9650898701
 21
29.8650898701
  0
LINE
  5
565
100
AcDbEntity
  8
IMPORT_IGES
100
AcDbLine
 62
7
  6
CONTINUOUS
 10
41.0
 20
22.5
 11
41.0
 21
21.4650898701
  0
LINE
  5
566
100
AcDbEntity
  8
IMPORT_IGES
100
AcDbLine
 62
7
  6
CONTINUOUS
 10
41.1650898701
 20
-4.6650898701
 11
41.1650898701
 21
-12.6650898701
  0
LINE
  5
567
100
AcDbEntity
  8
IMPORT_IGES
100
AcDbLine
 62
7
  6
CONTINUOUS
 10
41.1650898701
 20
21.6650898701
 11
41.1650898701
 21
29.6650898701
  0
LINE
  5
568
100
AcDbEntity
  8
IMPORT_IGES
100
AcDbLine
 62
7
  6
CONTINUOUS
 10
41.5
 20
21.6650898701
 11
41.5
 21
21.4650898701
  0
LINE
  5
569
100
AcDbEntity
  8
IMPORT_IGES
100
AcDbLine
 62
7
  6
CONTINUOUS
 10
42.6650898701
 20
-4.6650898701
 11
42.6650898701
 21
-12.6650898701
  0
LINE
  5
56A
100
AcDbEntity
  8
IMPORT_IGES
100
AcDbLine
 62
7
  6
CONTINUOUS
 10
42.6650898701
 20
21.6650898701
 11
42.6650898701
 21
29.6650898701
  0
LINE
  5
56B
100
AcDbEntity
  8
IMPORT_IGES
100
AcDbLine
 62
7
  6
CONTINUOUS
 10
42.7
 20
-12.8650898701
 11
42.7
 21
-12.6650898701
  0
LINE
  5
56C
100
AcDbEntity
  8
IMPORT_IGES
100
AcDbLine
 62
7
  6
CONTINUOUS
 10
42.7
 20
-4.6650898701
 11
42.7
 21
-4.4650898701
  0
LINE
  5
56D
100
AcDbEntity
  8
IMPORT_IGES
100
AcDbLine
 62
7
  6
CONTINUOUS
 10
42.7
 20
21.4650898701
 11
42.7
 21
21.6650898701
  0
LINE
  5
56E
100
AcDbEntity
  8
IMPORT_IGES
100
AcDbLine
 62
7
  6
CONTINUOUS
 10
42.7
 20
29.6650898701
 11
42.7
 21
29.8650898701
  0
LINE
  5
56F
100
AcDbEntity
  8
IMPORT_IGES
100
AcDbLine
 62
7
  6
CONTINUOUS
 10
44.3778145455
 20
29.8650898701
 11
44.3778145455
 21
29.6650898701
  0
LINE
  5
570
100
AcDbEntity
  8
IMPORT_IGES
100
AcDbLine
 62
7
  6
CONTINUOUS
 10
44.3778145455
 20
21.6650898701
 11
44.3778145455
 21
21.4650898701
  0
LINE
  5
571
100
AcDbEntity
  8
IMPORT_IGES
100
AcDbLine
 62
7
  6
CONTINUOUS
 10
44.3778145455
 20
-4.4650898701
 11
44.3778145455
 21
-4.6650898701
  0
LINE
  5
572
100
AcDbEntity
  8
IMPORT_IGES
100
AcDbLine
 62
7
  6
CONTINUOUS
 10
44.3778145455
 20
-12.6650898701
 11
44.3778145455
 21
-12.8650898701
  0
LINE
  5
573
100
AcDbEntity
  8
IMPORT_IGES
100
AcDbLine
 62
7
  6
CONTINUOUS
 10
44.5
 20
32.5
 11
44.5
 21
29.8650898701
  0
LINE
  5
574
100
AcDbEntity
  8
IMPORT_IGES
100
AcDbLine
 62
7
  6
CONTINUOUS
 10
44.5
 20
-6.1650898701
 11
44.5
 21
-11.1650898701
  0
LINE
  5
575
100
AcDbEntity
  8
IMPORT_IGES
100
AcDbLine
 62
7
  6
CONTINUOUS
 10
44.5
 20
-12.8650898701
 11
44.5
 21
-13.0
  0
LINE
  5
576
100
AcDbEntity
  8
IMPORT_IGES
100
AcDbLine
 62
7
  6
CONTINUOUS
 10
44.5
 20
-27.0
 11
44.5
 21
-32.5
  0
LINE
  5
577
100
AcDbEntity
  8
IMPORT_IGES
100
AcDbLine
 62
7
  6
CONTINUOUS
 10
44.5
 20
-4.4650898701
 11
44.5
 21
21.4650898701
  0
LINE
  5
578
100
AcDbEntity
  8
IMPORT_IGES
100
AcDbLine
 62
7
  6
CONTINUOUS
 10
44.5
 20
23.1650898701
 11
44.5
 21
28.1650898701
  0
LINE
  5
579
100
AcDbEntity
  8
IMPORT_IGES
100
AcDbLine
 62
7
  6
CONTINUOUS
 10
46.0
 20
28.1650898701
 11
46.0
 21
23.1650898701
  0
LINE
  5
57A
100
AcDbEntity
  8
IMPORT_IGES
100
AcDbLine
 62
7
  6
CONTINUOUS
 10
46.0
 20
-6.1650898701
 11
46.0
 21
-11.1650898701
  0
LINE
  5
57B
100
AcDbEntity
  8
IMPORT_IGES
100
AcDbLine
 62
7
  6
CONTINUOUS
 10
47.5
 20
-12.6650898701
 11
47.5
 21
-4.6650898701
  0
LINE
  5
57C
100
AcDbEntity
  8
IMPORT_IGES
100
AcDbLine
 62
7
  6
CONTINUOUS
 10
47.5
 20
21.6650898701
 11
47.5
 21
29.6650898701
  0
ARC
  5
57D
100
AcDbEntity
  8
IMPORT_IGES
100
AcDbCircle
 62
7
  6
CONTINUOUS
 10
-48.5
 20
28.0
 40
5.5
100
AcDbArc
 50
90.0
 51
269.9998281927
  0
ARC
  5
57E
100
AcDbEntity
  8
IMPORT_IGES
100
AcDbCircle
 62
7
  6
CONTINUOUS
 10
48.5
 20
-18.5
 40
5.5
100
AcDbArc
 50
270.0
 51
89.9998281927
  0
ARC
  5
57F
100
AcDbEntity
  8
IMPORT_IGES
100
AcDbCircle
 62
7
  6
CONTINUOUS
 10
-5.625
 20
5.5
 40
5.25
100
AcDbArc
 50
270.0
 51
89.9999140964
  0
ARC
  5
580
100
AcDbEntity
  8
IMPORT_IGES
100
AcDbCircle
 62
7
  6
CONTINUOUS
 10
3.375
 20
5.5
 40
5.25
100
AcDbArc
 50
270.0
 51
89.9998527367
  0
ARC
  5
581
100
AcDbEntity
  8
IMPORT_IGES
100
AcDbCircle
 62
7
  6
CONTINUOUS
 10
-5.625
 20
5.5
 40
3.75
100
AcDbArc
 50
11.5369590328
 51
90.0
  0
ARC
  5
582
100
AcDbEntity
  8
IMPORT_IGES
100
AcDbCircle
 62
7
  6
CONTINUOUS
 10
-5.625
 20
5.5
 40
3.75
100
AcDbArc
 50
270.0001202651
 51
348.4630409672
  0
ARC
  5
583
100
AcDbEntity
  8
IMPORT_IGES
100
AcDbCircle
 62
7
  6
CONTINUOUS
 10
3.375
 20
5.5
 40
3.75
100
AcDbArc
 50
270.0002061686
 51
90.0
  0
ARC
  5
584
100
AcDbEntity
  8
IMPORT_IGES
100
AcDbCircle
 62
7
  6
CONTINUOUS
 10
47.5
 20
-27.0
 40
3.0
100
AcDbArc
 50
90.0000000002
 51
179.9999999998
  0
ARC
  5
585
100
AcDbEntity
  8
IMPORT_IGES
100
AcDbCircle
 62
7
  6
CONTINUOUS
 10
-47.5
 20
19.5
 40
3.0
100
AcDbArc
 50
0.0000000002
 51
89.9999999998
  0
CIRCLE
  5
586
100
AcDbEntity
  8
IMPORT_IGES
100
AcDbCircle
 62
7
  6
CONTINUOUS
 10
48.5
 20
-18.5
 40
2.25
  0
CIRCLE
  5
587
100
AcDbEntity
  8
IMPORT_IGES
100
AcDbCircle
 62
7
  6
CONTINUOUS
 10
-48.5
 20
28.0
 40
2.25
  0
ARC
  5
588
100
AcDbEntity
  8
IMPORT_IGES
100
AcDbCircle
 62
7
  6
CONTINUOUS
 10
43.5
 20
-32.5
 40
1.0
100
AcDbArc
 50
270.0000000009
 51
359.9999999991
  0
ARC
  5
589
100
AcDbEntity
  8
IMPORT_IGES
100
AcDbCircle
 62
7
  6
CONTINUOUS
 10
-42.8357864376
 20
-32.5
 40
1.0
100
AcDbArc
 50
225.0
 51
269.9999999988
  0
ARC
  5
58A
100
AcDbEntity
  8
IMPORT_IGES
100
AcDbCircle
 62
7
  6
CONTINUOUS
 10
43.5
 20
32.5
 40
1.0
100
AcDbArc
 50
0.0000000009
 51
89.9999999991
  0
ARC
  5
58B
100
AcDbEntity
  8
IMPORT_IGES
100
AcDbCircle
 62
7
  6
CONTINUOUS
 10
21.0
 20
-7.498040201
 40
1.0
100
AcDbArc
 50
0.0000000003
 51
89.9999999997
  0
ARC
  5
58C
100
AcDbEntity
  8
IMPORT_IGES
100
AcDbCircle
 62
7
  6
CONTINUOUS
 10
-18.0
 20
-7.498040201
 40
1.0
100
AcDbArc
 50
90.0000000003
 51
179.9999999997
  0
ARC
  5
58D
100
AcDbEntity
  8
IMPORT_IGES
100
AcDbCircle
 62
7
  6
CONTINUOUS
 10
-18.0
 20
-26.498040201
 40
1.0
100
AcDbArc
 50
180.0000000013
 51
269.9999999992
  0
ARC
  5
58E
100
AcDbEntity
  8
IMPORT_IGES
100
AcDbCircle
 62
7
  6
CONTINUOUS
 10
21.0
 20
-26.498040201
 40
1.0
100
AcDbArc
 50
270.0000000008
 51
359.9999999987
  0
ENDSEC
  0
SECTION
  2
OBJECTS
  0
DICTIONARY
  5
C
100
AcDbDictionary
280
0
281
1
  3
ACAD_GROUP
350
D
  3
ACAD_MLINESTYLE
350
17
  3
ACAD_LAYOUT
350
1A
  3
ACAD_PLOTSETTINGS
350
19
  3
ACAD_PLOTSTYLENAME
350
E
  0
DICTIONARY
  5
D
102
{ACAD_REACTORS
330
C
102
}
100
AcDbDictionary
280
0
281
1
  0
ACDBDICTIONARYWDFLT
  5
E
102
{ACAD_REACTORS
330
C
102
}
100
AcDbDictionary
281
1
  3
Normal
350
F
100
AcDbDictionaryWithDefault
340
F
  0
DICTIONARY
  5
17
102
{ACAD_REACTORS
330
C
102
}
100
AcDbDictionary
280
0
281
1
  3
Standard
350
18
  0
DICTIONARY
  5
19
102
{ACAD_REACTORS
330
C
102
}
100
AcDbDictionary
281
1
  0
DICTIONARY
  5
1A
102
{ACAD_REACTORS
330
C
102
}
100
AcDbDictionary
281
1
  3
Model
350
58F
  3
Layout1
350
590
  0
ACDBPLACEHOLDER
  5
F
102
{ACAD_REACTORS
330
E
102
}
  0
MLINESTYLE
  5
18
102
{ACAD_REACTORS
330
17
102
}
100
AcDbMlineStyle
  2
STANDARD
 70
0
  3

 62
256
 51
90.0
 52
90.0
 71
2
 49
0.5
 62
256
  6
BYLAYER
 49
-0.5
 62
256
  6
BYLAYER
  0
LAYOUT
  5
58F
102
{ACAD_REACTORS
330
1A
102
}
100
AcDbPlotSettings
  1

  2
none_device
  4
ISO_A4_(297.00_x_210.00_MM)
  6

 40
0.0
 41
0.0
 42
0.0
 43
0.0
 44
297.0
 45
210.0
 46
0.0
 47
0.0
 48
0.0
 49
0.0
140
0.0
141
0.0
142
1.0
143
1.0
 70
1024
 72
1
 73
0
 74
0
  7

 75
0
147
1.0
148
0.0
149
0.0
100
AcDbLayout
  1
Model
 70
0
 71
0
 10
0.0
 20
0.0
 11
297.0
 21
210.0
 12
0.0
 22
0.0
 32
0.0
 14
0.0
 24
0.0
 34
0.0
 15
0.0
 25
0.0
 35
0.0
146
0.0
 13
0.0
 23
0.0
 33
0.0
 16
1.0
 26
0.0
 36
0.0
 17
0.0
 27
1.0
 37
0.0
 76
0
330
2D2
345
0
346
0
  0
LAYOUT
  5
590
102
{ACAD_REACTORS
330
1A
102
}
100
AcDbPlotSettings
  1

  2
none_device
  4
ISO_A4_(297.00_x_210.00_MM)
  6

 40
0.0
 41
0.0
 42
0.0
 43
0.0
 44
297.0
 45
210.0
 46
0.0
 47
0.0
 48
0.0
 49
0.0
140
0.0
141
0.0
142
1.0
143
1.0
 70
0
 72
1
 73
0
 74
0
  7

 75
0
147
1.0
148
0.0
149
0.0
100
AcDbLayout
  1
Layout1
 70
0
 71
1
 10
0.0
 20
0.0
 11
297.0
 21
210.0
 12
0.0
 22
0.0
 32
0.0
 14
0.0
 24
0.0
 34
0.0
 15
0.0
 25
0.0
 35
0.0
146
0.0
 13
0.0
 23
0.0
 33
0.0
 16
1.0
 26
0.0
 36
0.0
 17
0.0
 27
1.0
 37
0.0
 76
0
330
2D3
345
0
346
0
  0
ENDSEC
  0
EOF
