0
SECTION
2
HEADER
9
$ACADVER
1
AC1014
9
$HANDSEED
5
       2DC
9
$EXTMAX
10
297.0000000000
20
210.0000000000
9
$EXTMIN
10
0.0000000000
20
0.0000000000
9
$LIMMIN
10
0.0000000000
20
0.0000000000
9
$LIMMAX
10
297.0000000000
20
210.0000000000
9
$VIEWCTR
10
148.5000000000
20
105.0000000000
9
$VIEWSIZE
40
210.0000000000
9
$CLAYER
8
0
9
$LTSCALE
40
16.3350000000
9
$CELTYPE
6
BYLAYER
9
$DIMSCALE
40
1
9
$DIMASZ
40
3.0000000000
9
$DIMEXO
40
1.8562500000
9
$DIMDLI
40
11.2860000000
9
$DIMEXE
40
5.3460000000
9
$DIMCEN
40
2.6730000000
9
$DIMLFAC
40
1.0000000000
9
$DIMTXT
40
3.0000000000
9
$DIMTOL
70
1
9
$DIMLIM
70
0
9
$DIMTFAC
40
1.0000000000
9
$DIMTP
40
0.0100000000
9
$DIMTM
40
0.0100000000
9
$MEASUREMENT
70
1
0
ENDSEC
0
SECTION
2
CLASSES
0
ENDSEC
0
SECTION
2
TABLES
0
TABLE
2
VPORT
5
8
100
AcDbSymbolTable
70
2
0
VPORT
5
1F4
100
AcDbSymbolTableRecord
100
AcDbViewportTableRecord
2
*ACTIVE
70
0
10
0.0
20
0.0
11
1.0
21
1.0
12
148.5000000000
22
105.0000000000
13
0.0
23
0.0
14
1.0
24
1.0
15
0.0
25
0.0
16
0.0
26
0.0
36
1.0
17
0.0
27
0.0
37
0.0
40
210.0000000000
41
1.4142857143
42
50.0
43
0.0
44
0.0
50
0.0
51
0.0
71
0
72
100
73
1
74
1
75
0
76
0
77
0
78
0
0
ENDTAB
0
TABLE
2
LTYPE
5
5
100
AcDbSymbolTable
70
6
0
LTYPE
5
14
100
AcDbSymbolTableRecord
100
AcDbLinetypeTableRecord
2
BYBLOCK
70
0
3

72
65
73
0
40
0.0
0
LTYPE
5
15
100
AcDbSymbolTableRecord
100
AcDbLinetypeTableRecord
2
BYLAYER
70
0
3

72
65
73
0
40
0.0
0
LTYPE
5
16
100
AcDbSymbolTableRecord
100
AcDbLinetypeTableRecord
2
CONTINUOUS
70
64
3
Solid line
72
65
73
0
40
0
0
LTYPE
5
1F5
100
AcDbSymbolTableRecord
100
AcDbLinetypeTableRecord
2
CENTER
70
64
3
____ _ ____ _ ____ _ ____ _ ____ _ ____ _ ____
72
65
73
4
40
0.6
49
0.375
74
0
49
-0.075
74
0
49
0.075
74
0
49
-0.075
74
0
0
LTYPE
5
1F6
100
AcDbSymbolTableRecord
100
AcDbLinetypeTableRecord
2
HIDDEN
70
64
3
- - - - - - - - - - - - - - - - - - - -
72
65
73
2
40
0.2
49
0.1
74
0
49
-0.1
74
0
0
LTYPE
5
1F7
100
AcDbSymbolTableRecord
100
AcDbLinetypeTableRecord
2
PHANTOM
70
64
3
_____ _ _ _____ _ _ _____ _ _ _____
72
65
73
6
40
0.8
49
0.45
74
0
49
-0.05
74
0
49
0.1
74
0
49
-0.05
74
0
49
0.1
74
0
49
-0.05
74
0
0
LTYPE
5
1F8
100
AcDbSymbolTableRecord
100
AcDbLinetypeTableRecord
2
DOT
70
64
3
. . . . . . . . . . . . . . . . . . . .
72
65
73
2
40
0.2
49
0.1
74
0
49
-0.1
74
0
0
LTYPE
5
1F9
100
AcDbSymbolTableRecord
100
AcDbLinetypeTableRecord
2
DASHED
70
64
3
- - - - - - - - - - - - - - - - - - - -
72
65
73
2
40
0.2
49
0.1
74
0
49
-0.1
74
0
0
ENDTAB
0
TABLE
2
LAYER
5
2
100
AcDbSymbolTable
70
36
0
LAYER
5
10
100
AcDbSymbolTableRecord
100
AcDbLayerTableRecord
2
0
70
0
62
7
6
CONTINUOUS
0
LAYER
5
1FA
100
AcDbSymbolTableRecord
100
AcDbLayerTableRecord
2
DEFAULT_1
70
0
62
7
6
CENTER
0
LAYER
5
1FB
100
AcDbSymbolTableRecord
100
AcDbLayerTableRecord
2
DEFAULT_2
70
0
62
8
6
HIDDEN
0
LAYER
5
1FC
100
AcDbSymbolTableRecord
100
AcDbLayerTableRecord
2
DEFAULT_3
70
0
62
7
6
PHANTOM
0
LAYER
5
1FD
100
AcDbSymbolTableRecord
100
AcDbLayerTableRecord
2
ASSI
70
0
62
7
6
CONTINUOUS
0
LAYER
5
1FE
100
AcDbSymbolTableRecord
100
AcDbLayerTableRecord
2
COORDINATE
70
0
62
7
6
CONTINUOUS
0
LAYER
5
1FF
100
AcDbSymbolTableRecord
100
AcDbLayerTableRecord
2
COORD_ORIGINE
70
0
62
7
6
CONTINUOUS
0
LAYER
5
200
100
AcDbSymbolTableRecord
100
AcDbLayerTableRecord
2
CURVE
70
0
62
7
6
CONTINUOUS
0
LAYER
5
201
100
AcDbSymbolTableRecord
100
AcDbLayerTableRecord
2
DRAFT
70
0
62
7
6
CONTINUOUS
0
LAYER
5
202
100
AcDbSymbolTableRecord
100
AcDbLayerTableRecord
2
IGES
70
0
62
7
6
CONTINUOUS
0
LAYER
5
203
100
AcDbSymbolTableRecord
100
AcDbLayerTableRecord
2
NOTE
70
0
62
7
6
CONTINUOUS
0
LAYER
5
204
100
AcDbSymbolTableRecord
100
AcDbLayerTableRecord
2
PIANI
70
0
62
7
6
CONTINUOUS
0
LAYER
5
205
100
AcDbSymbolTableRecord
100
AcDbLayerTableRecord
2
PIANI_ORIGINE
70
0
62
7
6
CONTINUOUS
0
LAYER
5
206
100
AcDbSymbolTableRecord
100
AcDbLayerTableRecord
2
PUNTI
70
0
62
7
6
CONTINUOUS
0
LAYER
5
207
100
AcDbSymbolTableRecord
100
AcDbLayerTableRecord
2
RACCORDO
70
0
62
7
6
CONTINUOUS
0
LAYER
5
208
100
AcDbSymbolTableRecord
100
AcDbLayerTableRecord
2
SMUSSO
70
0
62
7
6
CONTINUOUS
0
LAYER
5
209
100
AcDbSymbolTableRecord
100
AcDbLayerTableRecord
2
SNAPLINE
70
0
62
7
6
CONTINUOUS
0
LAYER
5
20A
100
AcDbSymbolTableRecord
100
AcDbLayerTableRecord
2
SUPERFICI
70
0
62
7
6
CONTINUOUS
0
LAYER
5
20B
100
AcDbSymbolTableRecord
100
AcDbLayerTableRecord
2
TRASH
70
0
62
7
6
CONTINUOUS
0
ENDTAB
0
TABLE
2
STYLE
5
3
100
AcDbSymbolTable
70
1
0
STYLE
5
11
100
AcDbSymbolTableRecord
100
AcDbTextStyleTableRecord
2
STANDARD
70
0
40
0.0
41
0.8000000000
50
0.0
71
0
42
0.2
3
txt
4

0
ENDTAB
0
TABLE
2
VIEW
5
6
100
AcDbSymbolTable
70
0
0
ENDTAB
0
TABLE
2
UCS
5
7
100
AcDbSymbolTable
70
0
0
ENDTAB
0
TABLE
2
APPID
5
9
100
AcDbSymbolTable
70
1
0
APPID
5
20C
100
AcDbSymbolTableRecord
100
AcDbRegAppTableRecord
2
ACAD
70
0
0
ENDTAB
0
TABLE
2
DIMSTYLE
5
A
100
AcDbSymbolTable
70
1
0
DIMSTYLE
105
20D
100
AcDbSymbolTableRecord
100
AcDbDimStyleTableRecord
2
STANDARD
70
0
3

4

5

6

7

40
1.0
41
3.0000000000
42
0.0625
43
0.38
44
0.18
45
0.0
46
0.0
47
0.0100000000
48
0.0100000000
140
3.0000000000
141
0.09
142
0.0
143
25.4
144
1.0000000000
145
0.0
146
1.0000000000
147
0.09
71
1
72
0
73
0
74
0
75
0
76
0
77
1
78
8
170
0
171
2
172
0
173
0
174
0
175
0
176
0
177
0
178
0
270
2
271
2
272
2
273
2
274
2
340
11
275
0
280
0
281
0
282
0
283
1
284
8
285
0
286
0
287
3
288
0
0
ENDTAB
0
TABLE
2
BLOCK_RECORD
5
1
100
AcDbSymbolTable
70
0
0
BLOCK_RECORD
5
1B
100
AcDbSymbolTableRecord
100
AcDbBlockTableRecord
2
*MODEL_SPACE
0
BLOCK_RECORD
5
1C
100
AcDbSymbolTableRecord
100
AcDbBlockTableRecord
2
*PAPER_SPACE
0
ENDTAB
0
ENDSEC
0
SECTION
2
BLOCKS
0
BLOCK
5
1E
100
AcDbEntity
8
0
100
AcDbBlockBegin
2
*MODEL_SPACE
70
0
10
0.0
20
0.0
30
0.0
3
*MODEL_SPACE
1

0
ENDBLK
5
1F
100
AcDbEntity
8
0
100
AcDbBlockEnd
0
BLOCK
5
20
100
AcDbEntity
8
0
100
AcDbBlockBegin
2
*PAPER_SPACE
70
0
10
0.0
20
0.0
30
0.0
3
*PAPER_SPACE
1

0
ENDBLK
5
21
100
AcDbEntity
8
0
100
AcDbBlockEnd
0
ENDSEC
0
SECTION
2
ENTITIES
0
LINE
5
20E
100
AcDbEntity
8
0
100
AcDbLine
62
7
6
CONTINUOUS
10
-496.2053008519
20
98.9229027339
11
-496.2053008519
21
-175.0770972661
0
LINE
5
20F
100
AcDbEntity
8
0
100
AcDbLine
62
9
6
CONTINUOUS
10
-494.2053008519
20
98.9229027339
11
-494.2053008519
21
-175.0770972661
0
LINE
5
210
100
AcDbEntity
8
0
100
AcDbLine
62
7
6
CONTINUOUS
10
-494.2053008519
20
98.9229027339
11
-494.2053008519
21
100.9229027339
0
LINE
5
211
100
AcDbEntity
8
0
100
AcDbLine
62
7
6
CONTINUOUS
10
-494.2053008519
20
-175.0770972661
11
-494.2053008519
21
-177.0770972661
0
LINE
5
212
100
AcDbEntity
8
0
100
AcDbLine
62
9
6
CONTINUOUS
10
-492.2053008519
20
-177.0770972661
11
-492.2053008519
21
-175.5770972661
0
LINE
5
213
100
AcDbEntity
8
0
100
AcDbLine
62
9
6
CONTINUOUS
10
-492.2053008519
20
99.4229027339
11
-492.2053008519
21
100.9229027339
0
LINE
5
214
100
AcDbEntity
8
0
100
AcDbLine
62
7
6
CONTINUOUS
10
-482.2053008519
20
96.9229027339
11
-482.2053008519
21
-173.0770972661
0
LINE
5
215
100
AcDbEntity
8
DEFAULT_3
100
AcDbLine
62
8
6
PHANTOM
10
-470.2053008519
20
-172.0770972661
11
-470.2053008519
21
95.9229027339
0
LINE
5
216
100
AcDbEntity
8
DEFAULT_3
100
AcDbLine
62
8
6
PHANTOM
10
-469.2053008519
20
-171.0770972661
11
-469.2053008519
21
94.9229027339
0
LINE
5
217
100
AcDbEntity
8
0
100
AcDbLine
62
7
6
CONTINUOUS
10
-462.4553008519
20
-42.4770972661
11
-462.4553008519
21
-33.6770972661
0
LINE
5
218
100
AcDbEntity
8
0
100
AcDbLine
62
7
6
CONTINUOUS
10
-461.7053008519
20
-70.3193500702
11
-461.7053008519
21
-52.5770972661
0
LINE
5
219
100
AcDbEntity
8
0
100
AcDbLine
62
7
6
CONTINUOUS
10
-461.7053008519
20
-42.0770972661
11
-461.7053008519
21
-34.0770972661
0
LINE
5
21A
100
AcDbEntity
8
0
100
AcDbLine
62
7
6
CONTINUOUS
10
-460.1053008519
20
-44.1959206824
11
-460.1053008519
21
-50.9770972661
0
LINE
5
21B
100
AcDbEntity
8
0
100
AcDbLine
62
7
6
CONTINUOUS
10
-456.0032412256
20
-38.3750376397
11
-456.0032412256
21
-37.7791568924
0
LINE
5
21C
100
AcDbEntity
8
0
100
AcDbLine
62
7
6
CONTINUOUS
10
-454.5032412256
20
-39.8750376397
11
-454.5032412256
21
-38.3750376397
0
LINE
5
21D
100
AcDbEntity
8
0
100
AcDbLine
62
7
6
CONTINUOUS
10
-454.5032412256
20
-37.7791568924
11
-454.5032412256
21
-36.2791568924
0
LINE
5
21E
100
AcDbEntity
8
0
100
AcDbLine
62
7
6
CONTINUOUS
10
-453.9073604783
20
-36.2791568924
11
-453.9073604783
21
-37.7791568924
0
LINE
5
21F
100
AcDbEntity
8
0
100
AcDbLine
62
7
6
CONTINUOUS
10
-453.9073604783
20
-38.3750376397
11
-453.9073604783
21
-39.8750376397
0
LINE
5
220
100
AcDbEntity
8
0
100
AcDbLine
62
7
6
CONTINUOUS
10
-452.4073604783
20
-37.7791568924
11
-452.4073604783
21
-38.3750376397
0
LINE
5
221
100
AcDbEntity
8
0
100
AcDbLine
62
7
6
CONTINUOUS
10
-448.3053008519
20
-50.9770972661
11
-448.3053008519
21
-44.1959206824
0
LINE
5
222
100
AcDbEntity
8
0
100
AcDbLine
62
7
6
CONTINUOUS
10
-446.7053008519
20
-70.3193500702
11
-446.7053008519
21
-52.5770972661
0
LINE
5
223
100
AcDbEntity
8
0
100
AcDbLine
62
7
6
CONTINUOUS
10
-446.7053008519
20
-42.0770972661
11
-446.7053008519
21
-34.0770972661
0
LINE
5
224
100
AcDbEntity
8
0
100
AcDbLine
62
7
6
CONTINUOUS
10
-445.9553008519
20
-33.6770972661
11
-445.9553008519
21
-42.4770972661
0
LINE
5
225
100
AcDbEntity
8
0
100
AcDbLine
62
9
6
CONTINUOUS
10
-433.2053008519
20
100.9229027339
11
-433.2053008519
21
99.4229027339
0
LINE
5
226
100
AcDbEntity
8
0
100
AcDbLine
62
9
6
CONTINUOUS
10
-433.2053008519
20
-175.5770972661
11
-433.2053008519
21
-177.0770972661
0
LINE
5
227
100
AcDbEntity
8
0
100
AcDbLine
62
7
6
CONTINUOUS
10
-431.2053008519
20
100.9229027339
11
-431.2053008519
21
-177.0770972661
0
LINE
5
228
100
AcDbEntity
8
0
100
AcDbLine
62
7
6
CONTINUOUS
10
-466.9070067741
20
-38.0770972661
11
-460.5561538130
21
-27.0770972661
0
LINE
5
229
100
AcDbEntity
8
0
100
AcDbLine
62
7
6
CONTINUOUS
10
-460.5561538130
20
-49.0770972661
11
-466.9070067741
21
-38.0770972661
0
LINE
5
22A
100
AcDbEntity
8
0
100
AcDbLine
62
7
6
CONTINUOUS
10
-441.5035949297
20
-38.0770972661
11
-447.8544478908
21
-49.0770972661
0
LINE
5
22B
100
AcDbEntity
8
0
100
AcDbLine
62
7
6
CONTINUOUS
10
-447.8544478908
20
-27.0770972661
11
-441.5035949297
21
-38.0770972661
0
LINE
5
22C
100
AcDbEntity
8
0
100
AcDbLine
62
7
6
CONTINUOUS
10
-453.9073604783
20
-36.2791568924
11
-453.7250659125
21
-36.0968623267
0
LINE
5
22D
100
AcDbEntity
8
0
100
AcDbLine
62
7
6
CONTINUOUS
10
-456.0032412256
20
-38.3750376397
11
-456.1855357913
21
-38.5573322055
0
LINE
5
22E
100
AcDbEntity
8
0
100
AcDbLine
62
7
6
CONTINUOUS
10
-453.9073604783
20
-37.7791568924
11
-453.7053008519
21
-37.5770972661
0
LINE
5
22F
100
AcDbEntity
8
0
100
AcDbLine
62
7
6
CONTINUOUS
10
-454.5032412256
20
-38.3750376397
11
-454.7053008519
21
-38.5770972661
0
LINE
5
230
100
AcDbEntity
8
0
100
AcDbLine
62
7
6
CONTINUOUS
10
-452.4073604783
20
-37.7791568924
11
-452.2250659125
21
-37.5968623267
0
LINE
5
231
100
AcDbEntity
8
0
100
AcDbLine
62
7
6
CONTINUOUS
10
-454.5032412256
20
-39.8750376397
11
-454.6855357913
21
-40.0573322055
0
LINE
5
232
100
AcDbEntity
8
0
100
AcDbLine
62
7
6
CONTINUOUS
10
-460.1053008519
20
-50.9770972661
11
-461.7053008519
21
-52.5770972661
0
LINE
5
233
100
AcDbEntity
8
0
100
AcDbLine
62
7
6
CONTINUOUS
10
-446.7053008519
20
-52.5770972661
11
-448.3053008519
21
-50.9770972661
0
LINE
5
234
100
AcDbEntity
8
0
100
AcDbLine
62
7
6
CONTINUOUS
10
-453.9073604783
20
-39.8750376397
11
-453.7250659125
21
-40.0573322055
0
LINE
5
235
100
AcDbEntity
8
0
100
AcDbLine
62
7
6
CONTINUOUS
10
-456.0032412256
20
-37.7791568924
11
-456.1855357913
21
-37.5968623267
0
LINE
5
236
100
AcDbEntity
8
0
100
AcDbLine
62
7
6
CONTINUOUS
10
-453.9073604783
20
-38.3750376397
11
-453.7053008519
21
-38.5770972661
0
LINE
5
237
100
AcDbEntity
8
0
100
AcDbLine
62
7
6
CONTINUOUS
10
-454.5032412256
20
-37.7791568924
11
-454.7053008519
21
-37.5770972661
0
LINE
5
238
100
AcDbEntity
8
0
100
AcDbLine
62
7
6
CONTINUOUS
10
-452.4073604783
20
-38.3750376397
11
-452.2250659125
21
-38.5573322055
0
LINE
5
239
100
AcDbEntity
8
0
100
AcDbLine
62
7
6
CONTINUOUS
10
-454.5032412256
20
-36.2791568924
11
-454.6855357913
21
-36.0968623267
0
LINE
5
23A
100
AcDbEntity
8
0
100
AcDbLine
62
7
6
CONTINUOUS
10
90.0946991481
20
-188.8770972661
11
93.4946991481
21
-188.8770972661
0
LINE
5
23B
100
AcDbEntity
8
0
100
AcDbLine
62
7
6
CONTINUOUS
10
89.2946991481
20
-188.0770972661
11
94.2946991481
21
-188.0770972661
0
LINE
5
23C
100
AcDbEntity
8
0
100
AcDbLine
62
7
6
CONTINUOUS
10
99.2946991481
20
-179.8770972661
11
84.2946991481
21
-179.8770972661
0
LINE
5
23D
100
AcDbEntity
8
0
100
AcDbLine
62
7
6
CONTINUOUS
10
33.7946991481
20
-177.0770972661
11
99.2946991481
21
-177.0770972661
0
LINE
5
23E
100
AcDbEntity
8
0
100
AcDbLine
62
7
6
CONTINUOUS
10
-431.2053008519
20
-177.0770972661
11
-494.2053008519
21
-177.0770972661
0
LINE
5
23F
100
AcDbEntity
8
0
100
AcDbLine
62
7
6
CONTINUOUS
10
33.7946991481
20
-175.5770972661
11
96.7946991481
21
-175.5770972661
0
LINE
5
240
100
AcDbEntity
8
0
100
AcDbLine
62
7
6
CONTINUOUS
10
-431.2053008519
20
-175.5770972661
11
-494.2053008519
21
-175.5770972661
0
LINE
5
241
100
AcDbEntity
8
0
100
AcDbLine
62
9
6
CONTINUOUS
10
-484.2053008519
20
-175.0770972661
11
-431.2053008519
21
-175.0770972661
0
LINE
5
242
100
AcDbEntity
8
0
100
AcDbLine
62
9
6
CONTINUOUS
10
33.7946991481
20
-175.0770972661
11
86.7946991481
21
-175.0770972661
0
LINE
5
243
100
AcDbEntity
8
0
100
AcDbLine
62
7
6
CONTINUOUS
10
86.7946991481
20
-175.0770972661
11
98.7946991481
21
-175.0770972661
0
LINE
5
244
100
AcDbEntity
8
0
100
AcDbLine
62
7
6
CONTINUOUS
10
-484.2053008519
20
-175.0770972661
11
-496.2053008519
21
-175.0770972661
0
LINE
5
245
100
AcDbEntity
8
DEFAULT_3
100
AcDbLine
62
8
6
PHANTOM
10
63.7946991481
20
-172.0770972661
11
-470.2053008519
21
-172.0770972661
0
LINE
5
246
100
AcDbEntity
8
DEFAULT_3
100
AcDbLine
62
8
6
PHANTOM
10
62.7946991481
20
-171.0770972661
11
-469.2053008519
21
-171.0770972661
0
LINE
5
247
100
AcDbEntity
8
DEFAULT_3
100
AcDbLine
62
8
6
PHANTOM
10
-469.2053008519
20
-171.0770972661
11
-470.2053008519
21
-172.0770972661
0
LINE
5
248
100
AcDbEntity
8
0
100
AcDbLine
62
7
6
CONTINUOUS
10
45.9079478022
20
-140.0770972661
11
51.6814504940
21
-140.0770972661
0
LINE
5
249
100
AcDbEntity
8
0
100
AcDbLine
62
7
6
CONTINUOUS
10
51.6814504940
20
-130.0770972661
11
45.9079478022
21
-130.0770972661
0
LINE
5
24A
100
AcDbEntity
8
DEFAULT_3
100
AcDbLine
62
8
6
PHANTOM
10
-469.2053008519
20
94.9229027339
11
-470.2053008519
21
95.9229027339
0
LINE
5
24B
100
AcDbEntity
8
0
100
AcDbLine
62
7
6
CONTINUOUS
10
84.7946991481
20
-123.8770972661
11
72.5946991481
21
-123.8770972661
0
LINE
5
24C
100
AcDbEntity
8
0
100
AcDbLine
62
7
6
CONTINUOUS
10
84.7946991481
20
-118.8770972661
11
72.5946991481
21
-118.8770972661
0
LINE
5
24D
100
AcDbEntity
8
0
100
AcDbLine
62
7
6
CONTINUOUS
10
-447.8544478908
20
-49.0770972661
11
-448.3053008519
21
-49.0770972661
0
LINE
5
24E
100
AcDbEntity
8
0
100
AcDbLine
62
7
6
CONTINUOUS
10
-460.1053008519
20
-49.0770972661
11
-460.5561538130
21
-49.0770972661
0
LINE
5
24F
100
AcDbEntity
8
0
100
AcDbLine
62
7
6
CONTINUOUS
10
-447.4959506775
20
-43.2957771985
11
-460.9146510263
21
-43.2957771985
0
LINE
5
250
100
AcDbEntity
8
0
100
AcDbLine
62
7
6
CONTINUOUS
10
-453.9073604783
20
-39.8750376397
11
-454.5032412256
21
-39.8750376397
0
LINE
5
251
100
AcDbEntity
8
0
100
AcDbLine
62
7
6
CONTINUOUS
10
-452.4073604783
20
-38.3750376397
11
-453.9073604783
21
-38.3750376397
0
LINE
5
252
100
AcDbEntity
8
0
100
AcDbLine
62
7
6
CONTINUOUS
10
-454.5032412256
20
-38.3750376397
11
-456.0032412256
21
-38.3750376397
0
LINE
5
253
100
AcDbEntity
8
0
100
AcDbLine
62
7
6
CONTINUOUS
10
-456.0032412256
20
-37.7791568924
11
-454.5032412256
21
-37.7791568924
0
LINE
5
254
100
AcDbEntity
8
0
100
AcDbLine
62
7
6
CONTINUOUS
10
-453.9073604783
20
-37.7791568924
11
-452.4073604783
21
-37.7791568924
0
LINE
5
255
100
AcDbEntity
8
0
100
AcDbLine
62
7
6
CONTINUOUS
10
-454.5032412256
20
-36.2791568924
11
-453.9073604783
21
-36.2791568924
0
LINE
5
256
100
AcDbEntity
8
0
100
AcDbLine
62
7
6
CONTINUOUS
10
-460.5561538130
20
-27.0770972661
11
-447.8544478908
21
-27.0770972661
0
LINE
5
257
100
AcDbEntity
8
DEFAULT_3
100
AcDbLine
62
8
6
PHANTOM
10
62.7946991481
20
94.9229027339
11
63.7946991481
21
95.9229027339
0
LINE
5
258
100
AcDbEntity
8
0
100
AcDbLine
62
7
6
CONTINUOUS
10
84.7946991481
20
42.7229027339
11
72.5946991481
21
42.7229027339
0
LINE
5
259
100
AcDbEntity
8
0
100
AcDbLine
62
7
6
CONTINUOUS
10
84.7946991481
20
47.7229027339
11
72.5946991481
21
47.7229027339
0
LINE
5
25A
100
AcDbEntity
8
DEFAULT_3
100
AcDbLine
62
8
6
PHANTOM
10
62.7946991481
20
-171.0770972661
11
63.7946991481
21
-172.0770972661
0
LINE
5
25B
100
AcDbEntity
8
0
100
AcDbLine
62
7
6
CONTINUOUS
10
90.0946991481
20
112.7229027339
11
89.2946991481
21
111.9229027339
0
LINE
5
25C
100
AcDbEntity
8
0
100
AcDbLine
62
7
6
CONTINUOUS
10
45.9079478022
20
53.9229027339
11
51.6814504940
21
53.9229027339
0
LINE
5
25D
100
AcDbEntity
8
0
100
AcDbLine
62
7
6
CONTINUOUS
10
51.6814504940
20
63.9229027339
11
45.9079478022
21
63.9229027339
0
LINE
5
25E
100
AcDbEntity
8
0
100
AcDbLine
62
7
6
CONTINUOUS
10
90.0946991481
20
-188.8770972661
11
89.2946991481
21
-188.0770972661
0
LINE
5
25F
100
AcDbEntity
8
0
100
AcDbLine
62
7
6
CONTINUOUS
10
72.5946991481
20
47.7229027339
11
71.7946991481
21
46.9229027339
0
LINE
5
260
100
AcDbEntity
8
DEFAULT_3
100
AcDbLine
62
8
6
PHANTOM
10
-469.2053008519
20
94.9229027339
11
62.7946991481
21
94.9229027339
0
LINE
5
261
100
AcDbEntity
8
DEFAULT_3
100
AcDbLine
62
8
6
PHANTOM
10
-470.2053008519
20
95.9229027339
11
63.7946991481
21
95.9229027339
0
LINE
5
262
100
AcDbEntity
8
0
100
AcDbLine
62
7
6
CONTINUOUS
10
72.5946991481
20
-123.8770972661
11
71.7946991481
21
-123.0770972661
0
LINE
5
263
100
AcDbEntity
8
0
100
AcDbLine
62
9
6
CONTINUOUS
10
86.7946991481
20
98.9229027339
11
33.7946991481
21
98.9229027339
0
LINE
5
264
100
AcDbEntity
8
0
100
AcDbLine
62
7
6
CONTINUOUS
10
86.7946991481
20
98.9229027339
11
98.7946991481
21
98.9229027339
0
LINE
5
265
100
AcDbEntity
8
0
100
AcDbLine
62
9
6
CONTINUOUS
10
-431.2053008519
20
98.9229027339
11
-484.2053008519
21
98.9229027339
0
LINE
5
266
100
AcDbEntity
8
0
100
AcDbLine
62
7
6
CONTINUOUS
10
-484.2053008519
20
98.9229027339
11
-496.2053008519
21
98.9229027339
0
LINE
5
267
100
AcDbEntity
8
0
100
AcDbLine
62
7
6
CONTINUOUS
10
33.7946991481
20
99.4229027339
11
96.7946991481
21
99.4229027339
0
LINE
5
268
100
AcDbEntity
8
0
100
AcDbLine
62
7
6
CONTINUOUS
10
-431.2053008519
20
99.4229027339
11
-494.2053008519
21
99.4229027339
0
LINE
5
269
100
AcDbEntity
8
0
100
AcDbLine
62
7
6
CONTINUOUS
10
33.7946991481
20
100.9229027339
11
99.2946991481
21
100.9229027339
0
LINE
5
26A
100
AcDbEntity
8
0
100
AcDbLine
62
7
6
CONTINUOUS
10
-431.2053008519
20
100.9229027339
11
-494.2053008519
21
100.9229027339
0
LINE
5
26B
100
AcDbEntity
8
0
100
AcDbLine
62
7
6
CONTINUOUS
10
84.2946991481
20
103.7229027339
11
99.2946991481
21
103.7229027339
0
LINE
5
26C
100
AcDbEntity
8
0
100
AcDbLine
62
7
6
CONTINUOUS
10
94.2946991481
20
111.9229027339
11
89.2946991481
21
111.9229027339
0
LINE
5
26D
100
AcDbEntity
8
0
100
AcDbLine
62
7
6
CONTINUOUS
10
93.4946991481
20
112.7229027339
11
90.0946991481
21
112.7229027339
0
LINE
5
26E
100
AcDbEntity
8
0
100
AcDbLine
62
7
6
CONTINUOUS
10
45.9079478022
20
63.9229027339
11
43.0211964562
21
58.9229027339
0
LINE
5
26F
100
AcDbEntity
8
0
100
AcDbLine
62
7
6
CONTINUOUS
10
51.6814504940
20
53.9229027339
11
54.5682018400
21
58.9229027339
0
LINE
5
270
100
AcDbEntity
8
0
100
AcDbLine
62
7
6
CONTINUOUS
10
43.0211964562
20
-135.0770972661
11
45.9079478022
21
-140.0770972661
0
LINE
5
271
100
AcDbEntity
8
0
100
AcDbLine
62
7
6
CONTINUOUS
10
54.5682018400
20
-135.0770972661
11
51.6814504940
21
-130.0770972661
0
LINE
5
272
100
AcDbEntity
8
0
100
AcDbLine
62
7
6
CONTINUOUS
10
33.7946991481
20
100.9229027339
11
33.7946991481
21
-177.0770972661
0
LINE
5
273
100
AcDbEntity
8
0
100
AcDbLine
62
9
6
CONTINUOUS
10
35.7946991481
20
-177.0770972661
11
35.7946991481
21
-175.5770972661
0
LINE
5
274
100
AcDbEntity
8
0
100
AcDbLine
62
9
6
CONTINUOUS
10
35.7946991481
20
99.4229027339
11
35.7946991481
21
100.9229027339
0
LINE
5
275
100
AcDbEntity
8
DEFAULT_3
100
AcDbLine
62
8
6
PHANTOM
10
62.7946991481
20
94.9229027339
11
62.7946991481
21
-171.0770972661
0
LINE
5
276
100
AcDbEntity
8
DEFAULT_3
100
AcDbLine
62
8
6
PHANTOM
10
63.7946991481
20
95.9229027339
11
63.7946991481
21
-172.0770972661
0
LINE
5
277
100
AcDbEntity
8
0
100
AcDbLine
62
7
6
CONTINUOUS
10
45.9079478022
20
-130.0770972661
11
43.0211964562
21
-135.0770972661
0
LINE
5
278
100
AcDbEntity
8
0
100
AcDbLine
62
7
6
CONTINUOUS
10
51.6814504940
20
-140.0770972661
11
54.5682018400
21
-135.0770972661
0
LINE
5
279
100
AcDbEntity
8
0
100
AcDbLine
62
7
6
CONTINUOUS
10
72.5946991481
20
-118.8770972661
11
71.7946991481
21
-119.6770972661
0
LINE
5
27A
100
AcDbEntity
8
0
100
AcDbLine
62
7
6
CONTINUOUS
10
72.5946991481
20
42.7229027339
11
71.7946991481
21
43.5229027339
0
LINE
5
27B
100
AcDbEntity
8
0
100
AcDbLine
62
7
6
CONTINUOUS
10
43.0211964562
20
58.9229027339
11
45.9079478022
21
53.9229027339
0
LINE
5
27C
100
AcDbEntity
8
0
100
AcDbLine
62
7
6
CONTINUOUS
10
54.5682018400
20
58.9229027339
11
51.6814504940
21
63.9229027339
0
LINE
5
27D
100
AcDbEntity
8
0
100
AcDbLine
62
7
6
CONTINUOUS
10
71.7946991481
20
-123.0770972661
11
71.7946991481
21
-119.6770972661
0
LINE
5
27E
100
AcDbEntity
8
0
100
AcDbLine
62
7
6
CONTINUOUS
10
71.7946991481
20
43.5229027339
11
71.7946991481
21
46.9229027339
0
LINE
5
27F
100
AcDbEntity
8
0
100
AcDbLine
62
7
6
CONTINUOUS
10
72.5946991481
20
-123.8770972661
11
72.5946991481
21
-118.8770972661
0
LINE
5
280
100
AcDbEntity
8
0
100
AcDbLine
62
7
6
CONTINUOUS
10
72.5946991481
20
42.7229027339
11
72.5946991481
21
47.7229027339
0
LINE
5
281
100
AcDbEntity
8
0
100
AcDbLine
62
7
6
CONTINUOUS
10
84.2946991481
20
100.9229027339
11
84.2946991481
21
103.7229027339
0
LINE
5
282
100
AcDbEntity
8
0
100
AcDbLine
62
7
6
CONTINUOUS
10
84.2946991481
20
-177.0770972661
11
84.2946991481
21
-179.8770972661
0
LINE
5
283
100
AcDbEntity
8
0
100
AcDbLine
62
7
6
CONTINUOUS
10
84.7946991481
20
-173.0770972661
11
84.7946991481
21
96.9229027339
0
LINE
5
284
100
AcDbEntity
8
0
100
AcDbLine
62
7
6
CONTINUOUS
10
87.8946991481
20
98.9229027339
11
87.8946991481
21
99.4229027339
0
LINE
5
285
100
AcDbEntity
8
0
100
AcDbLine
62
7
6
CONTINUOUS
10
87.8946991481
20
-175.0770972661
11
87.8946991481
21
-175.5770972661
0
LINE
5
286
100
AcDbEntity
8
0
100
AcDbLine
62
7
6
CONTINUOUS
10
89.2946991481
20
-188.0770972661
11
89.2946991481
21
-179.8770972661
0
LINE
5
287
100
AcDbEntity
8
0
100
AcDbLine
62
7
6
CONTINUOUS
10
89.2946991481
20
111.9229027339
11
89.2946991481
21
103.7229027339
0
LINE
5
288
100
AcDbEntity
8
0
100
AcDbLine
62
7
6
CONTINUOUS
10
94.2946991481
20
-188.0770972661
11
94.2946991481
21
-179.8770972661
0
LINE
5
289
100
AcDbEntity
8
0
100
AcDbLine
62
7
6
CONTINUOUS
10
94.2946991481
20
111.9229027339
11
94.2946991481
21
103.7229027339
0
LINE
5
28A
100
AcDbEntity
8
0
100
AcDbLine
62
9
6
CONTINUOUS
10
94.7946991481
20
100.9229027339
11
94.7946991481
21
99.4229027339
0
LINE
5
28B
100
AcDbEntity
8
0
100
AcDbLine
62
9
6
CONTINUOUS
10
94.7946991481
20
-175.5770972661
11
94.7946991481
21
-177.0770972661
0
LINE
5
28C
100
AcDbEntity
8
0
100
AcDbLine
62
7
6
CONTINUOUS
10
95.6946991481
20
98.9229027339
11
95.6946991481
21
99.4229027339
0
LINE
5
28D
100
AcDbEntity
8
0
100
AcDbLine
62
7
6
CONTINUOUS
10
95.6946991481
20
-175.0770972661
11
95.6946991481
21
-175.5770972661
0
LINE
5
28E
100
AcDbEntity
8
0
100
AcDbLine
62
9
6
CONTINUOUS
10
96.7946991481
20
-175.0770972661
11
96.7946991481
21
98.9229027339
0
LINE
5
28F
100
AcDbEntity
8
0
100
AcDbLine
62
7
6
CONTINUOUS
10
96.7946991481
20
98.9229027339
11
96.7946991481
21
100.9229027339
0
LINE
5
290
100
AcDbEntity
8
0
100
AcDbLine
62
7
6
CONTINUOUS
10
96.7946991481
20
-175.0770972661
11
96.7946991481
21
-177.0770972661
0
LINE
5
291
100
AcDbEntity
8
0
100
AcDbLine
62
7
6
CONTINUOUS
10
98.7946991481
20
-175.0770972661
11
98.7946991481
21
98.9229027339
0
LINE
5
292
100
AcDbEntity
8
0
100
AcDbLine
62
7
6
CONTINUOUS
10
99.2946991481
20
100.9229027339
11
99.2946991481
21
103.7229027339
0
LINE
5
293
100
AcDbEntity
8
0
100
AcDbLine
62
7
6
CONTINUOUS
10
99.2946991481
20
-177.0770972661
11
99.2946991481
21
-179.8770972661
0
LINE
5
294
100
AcDbEntity
8
0
100
AcDbLine
62
7
6
CONTINUOUS
10
93.4946991481
20
-188.8770972661
11
94.2946991481
21
-188.0770972661
0
LINE
5
295
100
AcDbEntity
8
0
100
AcDbLine
62
7
6
CONTINUOUS
10
93.4946991481
20
112.7229027339
11
94.2946991481
21
111.9229027339
0
CIRCLE
5
296
100
AcDbEntity
8
0
100
AcDbCircle
62
7
6
CONTINUOUS
10
91.7946991481
20
-119.0770972661
40
3.7500000000
0
CIRCLE
5
297
100
AcDbEntity
8
0
100
AcDbCircle
62
9
6
CONTINUOUS
10
91.7946991481
20
-119.0770972661
40
3.7086807617
0
CIRCLE
5
298
100
AcDbEntity
8
0
100
AcDbCircle
62
9
6
CONTINUOUS
10
91.7946991481
20
-119.0770972661
40
1.5071067812
0
CIRCLE
5
299
100
AcDbEntity
8
0
100
AcDbCircle
62
9
6
CONTINUOUS
10
91.7946991481
20
-119.0770972661
40
1.1535533906
0
CIRCLE
5
29A
100
AcDbEntity
8
0
100
AcDbCircle
62
9
6
CONTINUOUS
10
91.7946991481
20
-119.0770972661
40
1.7251712409
0
CIRCLE
5
29B
100
AcDbEntity
8
0
100
AcDbCircle
62
7
6
CONTINUOUS
10
91.7946991481
20
-104.0770972661
40
3.7500000000
0
CIRCLE
5
29C
100
AcDbEntity
8
0
100
AcDbCircle
62
9
6
CONTINUOUS
10
91.7946991481
20
-104.0770972661
40
3.7086807617
0
CIRCLE
5
29D
100
AcDbEntity
8
0
100
AcDbCircle
62
9
6
CONTINUOUS
10
91.7946991481
20
-104.0770972661
40
1.5071067812
0
CIRCLE
5
29E
100
AcDbEntity
8
0
100
AcDbCircle
62
9
6
CONTINUOUS
10
91.7946991481
20
-104.0770972661
40
1.1535533906
0
CIRCLE
5
29F
100
AcDbEntity
8
0
100
AcDbCircle
62
9
6
CONTINUOUS
10
91.7946991481
20
-104.0770972661
40
1.7251712409
0
CIRCLE
5
2A0
100
AcDbEntity
8
0
100
AcDbCircle
62
7
6
CONTINUOUS
10
91.7946991481
20
27.9229027339
40
3.7500000000
0
CIRCLE
5
2A1
100
AcDbEntity
8
0
100
AcDbCircle
62
9
6
CONTINUOUS
10
91.7946991481
20
27.9229027339
40
3.7086807617
0
CIRCLE
5
2A2
100
AcDbEntity
8
0
100
AcDbCircle
62
9
6
CONTINUOUS
10
91.7946991481
20
27.9229027339
40
1.5071067812
0
CIRCLE
5
2A3
100
AcDbEntity
8
0
100
AcDbCircle
62
9
6
CONTINUOUS
10
91.7946991481
20
27.9229027339
40
1.1535533906
0
CIRCLE
5
2A4
100
AcDbEntity
8
0
100
AcDbCircle
62
9
6
CONTINUOUS
10
91.7946991481
20
27.9229027339
40
1.7251712409
0
CIRCLE
5
2A5
100
AcDbEntity
8
0
100
AcDbCircle
62
7
6
CONTINUOUS
10
91.7946991481
20
42.9229027339
40
3.7500000000
0
CIRCLE
5
2A6
100
AcDbEntity
8
0
100
AcDbCircle
62
9
6
CONTINUOUS
10
91.7946991481
20
42.9229027339
40
3.7086807617
0
CIRCLE
5
2A7
100
AcDbEntity
8
0
100
AcDbCircle
62
9
6
CONTINUOUS
10
91.7946991481
20
42.9229027339
40
1.5071067812
0
CIRCLE
5
2A8
100
AcDbEntity
8
0
100
AcDbCircle
62
9
6
CONTINUOUS
10
91.7946991481
20
42.9229027339
40
1.1535533906
0
CIRCLE
5
2A9
100
AcDbEntity
8
0
100
AcDbCircle
62
9
6
CONTINUOUS
10
91.7946991481
20
42.9229027339
40
1.7251712409
0
CIRCLE
5
2AA
100
AcDbEntity
8
0
100
AcDbCircle
62
7
6
CONTINUOUS
10
48.7946991481
20
58.9229027339
40
6.7500000000
0
CIRCLE
5
2AB
100
AcDbEntity
8
0
100
AcDbCircle
62
7
6
CONTINUOUS
10
48.7946991481
20
58.9229027339
40
4.7735026919
0
CIRCLE
5
2AC
100
AcDbEntity
8
0
100
AcDbCircle
62
7
6
CONTINUOUS
10
48.7946991481
20
-135.0770972661
40
6.7500000000
0
CIRCLE
5
2AD
100
AcDbEntity
8
0
100
AcDbCircle
62
7
6
CONTINUOUS
10
48.7946991481
20
-135.0770972661
40
4.7735026919
0
CIRCLE
5
2AE
100
AcDbEntity
8
0
100
AcDbCircle
62
7
6
CONTINUOUS
10
48.7946991481
20
-135.0770972661
40
7.5000000000
0
CIRCLE
5
2AF
100
AcDbEntity
8
0
100
AcDbCircle
62
7
6
CONTINUOUS
10
48.7946991481
20
-135.0770972661
40
7.0000000000
0
CIRCLE
5
2B0
100
AcDbEntity
8
0
100
AcDbCircle
62
7
6
CONTINUOUS
10
48.7946991481
20
58.9229027339
40
7.5000000000
0
CIRCLE
5
2B1
100
AcDbEntity
8
0
100
AcDbCircle
62
7
6
CONTINUOUS
10
48.7946991481
20
58.9229027339
40
7.0000000000
0
ARC
5
2B2
100
AcDbEntity
8
0
100
AcDbCircle
62
7
6
CONTINUOUS
10
-454.2053008519
20
-38.0770972661
40
9.3500000000
100
AcDbArc
50
28.0724869359
51
151.9275130641
0
ARC
5
2B3
100
AcDbEntity
8
0
100
AcDbCircle
62
7
6
CONTINUOUS
10
-454.2053008519
20
-38.0770972661
40
9.3500000000
100
AcDbArc
50
208.0724869359
51
230.8690459593
0
ARC
5
2B4
100
AcDbEntity
8
0
100
AcDbCircle
62
7
6
CONTINUOUS
10
-454.2053008519
20
-38.0770972661
40
9.3500000000
100
AcDbArc
50
309.1309540407
51
331.9275130641
0
ARC
5
2B5
100
AcDbEntity
8
0
100
AcDbCircle
62
7
6
CONTINUOUS
10
-454.2053008519
20
-38.0770972661
40
12.5000000000
100
AcDbArc
50
1.6853311366
51
58.3146688634
0
ARC
5
2B6
100
AcDbEntity
8
0
100
AcDbCircle
62
7
6
CONTINUOUS
10
-454.2053008519
20
-38.0770972661
40
12.5000000000
100
AcDbArc
50
301.6853311366
51
358.3146688634
0
ARC
5
2B7
100
AcDbEntity
8
0
100
AcDbCircle
62
7
6
CONTINUOUS
10
-454.2053008519
20
-38.0770972661
40
12.5000000000
100
AcDbArc
50
298.1801064150
51
298.3146688634
0
ARC
5
2B8
100
AcDbEntity
8
0
100
AcDbCircle
62
7
6
CONTINUOUS
10
-454.2053008519
20
-38.0770972661
40
12.5000000000
100
AcDbArc
50
241.6853311366
51
241.8198935850
0
ARC
5
2B9
100
AcDbEntity
8
0
100
AcDbCircle
62
7
6
CONTINUOUS
10
-454.2053008519
20
-38.0770972661
40
12.5000000000
100
AcDbArc
50
181.6853311366
51
238.3146688634
0
ARC
5
2BA
100
AcDbEntity
8
0
100
AcDbCircle
62
7
6
CONTINUOUS
10
-454.2053008519
20
-38.0770972661
40
12.5000000000
100
AcDbArc
50
121.6853311366
51
178.3146688634
0
ARC
5
2BB
100
AcDbEntity
8
0
100
AcDbCircle
62
7
6
CONTINUOUS
10
-454.2053008519
20
-38.0770972661
40
12.5000000000
100
AcDbArc
50
61.6853311366
51
118.3146688634
0
ARC
5
2BC
100
AcDbEntity
8
0
100
AcDbCircle
62
7
6
CONTINUOUS
10
-454.2053008519
20
-38.0770972661
40
8.5000000000
100
AcDbArc
50
208.0724869359
51
226.0430532762
0
ARC
5
2BD
100
AcDbEntity
8
0
100
AcDbCircle
62
7
6
CONTINUOUS
10
-454.2053008519
20
-38.0770972661
40
8.5000000000
100
AcDbArc
50
28.0724869359
51
151.9275130641
0
ARC
5
2BE
100
AcDbEntity
8
0
100
AcDbCircle
62
7
6
CONTINUOUS
10
-454.2053008519
20
-38.0770972661
40
8.5000000000
100
AcDbArc
50
313.9569467238
51
331.9275130641
0
CIRCLE
5
2BF
100
AcDbEntity
8
0
100
AcDbCircle
62
7
6
CONTINUOUS
10
-454.2053008519
20
-38.0770972661
40
4.5000000000
0
ARC
5
2C0
100
AcDbEntity
8
0
100
AcDbCircle
62
7
6
CONTINUOUS
10
-454.2053008519
20
-38.0770972661
40
10.7500000000
100
AcDbArc
50
303.2885480750
51
236.7114519250
0
ARC
5
2C1
100
AcDbEntity
8
0
100
AcDbCircle
62
7
6
CONTINUOUS
10
86.7946991481
20
-173.0770972661
40
2.0000000000
100
AcDbArc
50
180.0000000000
51
270.0000000000
0
ARC
5
2C2
100
AcDbEntity
8
0
100
AcDbCircle
62
7
6
CONTINUOUS
10
86.7946991481
20
96.9229027339
40
2.0000000000
100
AcDbArc
50
90.0000000000
51
180.0000000000
0
CIRCLE
5
2C3
100
AcDbEntity
8
0
100
AcDbCircle
62
7
6
CONTINUOUS
10
68.7946991481
20
-145.0770972661
40
3.0000000000
0
CIRCLE
5
2C4
100
AcDbEntity
8
0
100
AcDbCircle
62
7
6
CONTINUOUS
10
48.7946991481
20
58.9229027339
40
3.0000000000
0
CIRCLE
5
2C5
100
AcDbEntity
8
0
100
AcDbCircle
62
7
6
CONTINUOUS
10
48.7946991481
20
-135.0770972661
40
3.0000000000
0
ARC
5
2C6
100
AcDbEntity
8
0
100
AcDbCircle
62
7
6
CONTINUOUS
10
-484.2053008519
20
96.9229027339
40
2.0000000000
100
AcDbArc
50
0.0000000000
51
90.0000000000
0
ARC
5
2C7
100
AcDbEntity
8
0
100
AcDbCircle
62
7
6
CONTINUOUS
10
-484.2053008519
20
-173.0770972661
40
2.0000000000
100
AcDbArc
50
270.0000000000
51
360.0000000000
0
SPLINE
5
2C8
100
AcDbEntity
8
0
100
AcDbSpline
62
7
6
CONTINUOUS
70
0
71
3
72
13
73
9
74
7
42
0.0000001000
43
0.0000001000
44
0.0000000001
12
14.2954792199
22
-5.5584171921
32
0.0000000000
13
14.2954792199
23
5.5584171921
33
0.0000000000
40
0.0000000000
40
0.0000000000
40
0.0000000000
40
0.0000000000
40
0.1663319461
40
0.3330630118
40
0.5000000000
40
0.6669369882
40
0.8336680539
40
1.0000000000
40
1.0000000000
40
1.0000000000
40
1.0000000000
10
-461.7053008519
20
-70.3193500702
30
0.0000000000
10
-460.9127025588
20
-70.6275308532
30
0.0000000000
10
-459.2853335880
20
-71.1461978161
30
0.0000000000
10
-456.7664185279
20
-71.6169977426
30
0.0000000000
10
-454.2053008519
20
-71.7748651968
30
0.0000000000
10
-451.6441831759
20
-71.6169977426
30
0.0000000000
10
-449.1252681158
20
-71.1461978161
30
0.0000000000
10
-447.4978991450
20
-70.6275308532
30
0.0000000000
10
-446.7053008519
20
-70.3193500702
30
0.0000000000
11
-461.7053008519
21
-70.3193500702
31
0.0000000000
11
-459.2746775055
21
-71.0944353498
31
0.0000000000
11
-456.7609395710
21
-71.5646286884
31
0.0000000000
11
-454.2053008519
21
-71.7222210659
31
0.0000000000
11
-451.6496621328
21
-71.5646286884
31
0.0000000000
11
-449.1359241983
21
-71.0944353498
31
0.0000000000
11
-446.7053008519
21
-70.3193500702
31
0.0000000000
0
SPLINE
5
2C9
100
AcDbEntity
8
0
100
AcDbSpline
62
7
6
CONTINUOUS
70
0
71
3
72
13
73
9
74
7
42
0.0000001000
43
0.0000001000
44
0.0000000001
12
-14.2954792199
22
-5.5584171921
32
0.0000000000
13
-14.2954792199
23
5.5584171921
33
0.0000000000
40
0.0000000000
40
0.0000000000
40
0.0000000000
40
0.0000000000
40
0.1663319461
40
0.3330630118
40
0.5000000000
40
0.6669369882
40
0.8336680539
40
1.0000000000
40
1.0000000000
40
1.0000000000
40
1.0000000000
10
-446.7053008519
20
-69.7676259323
30
0.0000000000
10
-447.4978991450
20
-70.0758067153
30
0.0000000000
10
-449.1252681158
20
-70.5944736781
30
0.0000000000
10
-451.6441831759
20
-71.0652736047
30
0.0000000000
10
-454.2053008519
20
-71.2231410588
30
0.0000000000
10
-456.7664185279
20
-71.0652736047
30
0.0000000000
10
-459.2853335880
20
-70.5944736781
30
0.0000000000
10
-460.9127025588
20
-70.0758067153
30
0.0000000000
10
-461.7053008519
20
-69.7676259323
30
0.0000000000
11
-446.7053008519
21
-69.7676259323
31
0.0000000000
11
-449.1359241983
21
-70.5427112119
31
0.0000000000
11
-451.6496621328
21
-71.0129045504
31
0.0000000000
11
-454.2053008519
21
-71.1704969280
31
0.0000000000
11
-456.7609395710
21
-71.0129045504
31
0.0000000000
11
-459.2746775055
21
-70.5427112119
31
0.0000000000
11
-461.7053008519
21
-69.7676259323
31
0.0000000000
0
SPLINE
5
2CA
100
AcDbEntity
8
0
100
AcDbSpline
62
7
6
CONTINUOUS
70
0
71
3
72
10
73
6
74
4
42
0.0000001000
43
0.0000001000
44
0.0000000001
12
0.4802370081
22
0.0000000000
32
0.0000000000
13
0.4802306155
23
-0.0024778710
33
0.0000000000
40
0.0000000000
40
0.0000000000
40
0.0000000000
40
0.0000000000
40
0.3346045636
40
0.6681381611
40
1.0000000000
40
1.0000000000
40
1.0000000000
40
1.0000000000
10
-454.2053008519
20
-36.0956244637
30
0.0000000000
10
-454.1517376871
20
-36.0956244637
30
0.0000000000
10
-454.0447827727
20
-36.0957166214
30
0.0000000000
10
-453.8847042331
20
-36.0961301361
30
0.0000000000
10
-453.7781893176
20
-36.0965882231
30
0.0000000000
10
-453.7250659125
20
-36.0968623267
30
0.0000000000
11
-454.2053008519
21
-36.0956244637
31
0.0000000000
11
-454.0446114171
21
-36.0957629486
31
0.0000000000
11
-453.8844367747
21
-36.0961767915
31
0.0000000000
11
-453.7250659125
21
-36.0968623267
31
0.0000000000
0
SPLINE
5
2CB
100
AcDbEntity
8
0
100
AcDbSpline
62
7
6
CONTINUOUS
70
0
71
3
72
10
73
6
74
4
42
0.0000001000
43
0.0000001000
44
0.0000000001
12
-0.4802370081
22
0.0000000000
32
0.0000000000
13
-0.4802306155
23
0.0024778710
33
0.0000000000
40
0.0000000000
40
0.0000000000
40
0.0000000000
40
0.0000000000
40
0.3346045636
40
0.6681381611
40
1.0000000000
40
1.0000000000
40
1.0000000000
40
1.0000000000
10
-454.2053008519
20
-40.0585700685
30
0.0000000000
10
-454.2588640167
20
-40.0585700685
30
0.0000000000
10
-454.3658189311
20
-40.0584779108
30
0.0000000000
10
-454.5258974708
20
-40.0580643960
30
0.0000000000
10
-454.6324123862
20
-40.0576063091
30
0.0000000000
10
-454.6855357913
20
-40.0573322055
30
0.0000000000
11
-454.2053008519
21
-40.0585700685
31
0.0000000000
11
-454.3659902868
21
-40.0584315835
31
0.0000000000
11
-454.5261649291
21
-40.0580177406
31
0.0000000000
11
-454.6855357913
21
-40.0573322055
31
0.0000000000
0
SPLINE
5
2CC
100
AcDbEntity
8
0
100
AcDbSpline
62
7
6
CONTINUOUS
70
0
71
3
72
10
73
6
74
4
42
0.0000001000
43
0.0000001000
44
0.0000000001
12
0.4802306155
22
0.0024778710
32
0.0000000000
13
0.4802370081
23
-0.0000000000
33
0.0000000000
40
0.0000000000
40
0.0000000000
40
0.0000000000
40
0.0000000000
40
0.3319470555
40
0.6654640393
40
1.0000000000
40
1.0000000000
40
1.0000000000
40
1.0000000000
10
-454.6855357913
20
-36.0968623267
30
0.0000000000
10
-454.6323987450
20
-36.0965881527
30
0.0000000000
10
-454.5258728476
20
-36.0961300420
30
0.0000000000
10
-454.3657943078
20
-36.0957165907
30
0.0000000000
10
-454.2588530349
20
-36.0956244637
30
0.0000000000
10
-454.2053008519
20
-36.0956244637
30
0.0000000000
11
-454.6855357913
21
-36.0968623267
31
0.0000000000
11
-454.5261240052
21
-36.0961766506
31
0.0000000000
11
-454.3659573412
21
-36.0957628918
31
0.0000000000
11
-454.2053008519
21
-36.0956244637
31
0.0000000000
0
SPLINE
5
2CD
100
AcDbEntity
8
0
100
AcDbSpline
62
7
6
CONTINUOUS
70
0
71
3
72
16
73
12
74
10
42
0.0000001000
43
0.0000001000
44
0.0000000001
12
0.0078596139
22
1.4803621696
32
0.0000000000
13
0.0320052075
23
1.4800370244
33
0.0000000000
40
0.0000000000
40
0.0000000000
40
0.0000000000
40
0.0000000000
40
0.1446788206
40
0.2727250257
40
0.3882219558
40
0.4951862000
40
0.5976288021
40
0.6988632346
40
0.7995812912
40
0.8999189804
40
1.0000000000
40
1.0000000000
40
1.0000000000
40
1.0000000000
10
-454.7053008519
20
-37.5770972661
30
0.0000000000
10
-454.7049218120
20
-37.5057049151
30
0.0000000000
10
-454.7040537409
20
-37.3711284058
30
0.0000000000
10
-454.7024035967
20
-37.1795629905
30
0.0000000000
10
-454.7005773169
20
-37.0066108059
30
0.0000000000
10
-454.6985974127
20
-36.8462956063
30
0.0000000000
10
-454.6964439708
20
-36.6930213022
30
0.0000000000
10
-454.6940833686
20
-36.5428326739
30
0.0000000000
10
-454.6914900109
20
-36.3936867311
30
0.0000000000
10
-454.6886568020
20
-36.2451144230
30
0.0000000000
10
-454.6866034959
20
-36.1462368648
30
0.0000000000
10
-454.6855357913
20
-36.0968623267
30
0.0000000000
11
-454.7053008519
21
-37.5770972661
31
0.0000000000
11
-454.7039188633
21
-37.3629216534
31
0.0000000000
11
-454.7022856352
21
-37.1733712598
31
0.0000000000
11
-454.7004798849
21
-37.0024010999
31
0.0000000000
11
-454.6985240494
21
-36.8440651267
31
0.0000000000
11
-454.6963931999
21
-36.6924258073
31
0.0000000000
11
-454.6940375502
21
-36.5425785856
31
0.0000000000
11
-454.6914449037
21
-36.3934998263
31
0.0000000000
11
-454.6886123570
21
-36.2449886236
31
0.0000000000
11
-454.6855357913
21
-36.0968623267
31
0.0000000000
0
SPLINE
5
2CE
100
AcDbEntity
8
0
100
AcDbSpline
62
7
6
CONTINUOUS
70
0
71
3
72
15
73
11
74
9
42
0.0000001000
43
0.0000001000
44
0.0000000001
12
1.4800369748
22
0.0320052065
32
0.0000000000
13
1.4803621201
23
0.0078596136
33
0.0000000000
40
0.0000000000
40
0.0000000000
40
0.0000000000
40
0.0000000000
40
0.1160706953
40
0.2320431172
40
0.3485960214
40
0.4664268351
40
0.5870610763
40
0.7138575591
40
0.8503073998
40
1.0000000000
40
1.0000000000
40
1.0000000000
40
1.0000000000
10
-456.1855357913
20
-37.5968623267
30
0.0000000000
10
-456.1282728177
20
-37.5956240378
30
0.0000000000
10
-456.0137928583
20
-37.5932624264
30
0.0000000000
10
-455.8418041843
20
-37.5900516136
30
0.0000000000
10
-455.6689411792
20
-37.5871594310
30
0.0000000000
10
-455.4937727436
20
-37.5845666362
30
0.0000000000
10
-455.3135452106
20
-37.5822488864
30
0.0000000000
10
-455.1241261723
20
-37.5801908509
30
0.0000000000
10
-454.9203645889
20
-37.5784058012
30
0.0000000000
10
-454.7791672702
20
-37.5774894414
30
0.0000000000
10
-454.7053008519
20
-37.5770972661
30
0.0000000000
11
-456.1855357913
21
-37.5968623267
31
0.0000000000
11
-456.0137432766
21
-37.5933175568
31
0.0000000000
11
-455.8420896005
21
-37.5901122405
31
0.0000000000
11
-455.6695708206
21
-37.5872251395
31
0.0000000000
11
-455.4951552033
21
-37.5846428777
31
0.0000000000
11
-455.3165850983
21
-37.5823458812
31
0.0000000000
11
-455.1288888267
21
-37.5803060189
31
0.0000000000
11
-454.9268985600
21
-37.5785359442
31
0.0000000000
11
-454.7053008519
21
-37.5770972661
31
0.0000000000
0
SPLINE
5
2CF
100
AcDbEntity
8
0
100
AcDbSpline
62
7
6
CONTINUOUS
70
0
71
3
72
10
73
6
74
4
42
0.0000001000
43
0.0000001000
44
0.0000000001
12
-0.0049557402
22
0.9604608760
32
0.0000000000
13
0.0049557402
23
0.9604608760
33
0.0000000000
40
0.0000000000
40
0.0000000000
40
0.0000000000
40
0.0000000000
40
0.3328070337
40
0.6671929178
40
1.0000000000
40
1.0000000000
40
1.0000000000
40
1.0000000000
10
-456.1855357913
20
-38.5573322055
30
0.0000000000
10
-456.1860855597
20
-38.4507828271
30
0.0000000000
10
-456.1868197735
20
-38.2371765101
30
0.0000000000
10
-456.1868197736
20
-37.9170180531
30
0.0000000000
10
-456.1860855598
20
-37.7034117206
30
0.0000000000
10
-456.1855357913
20
-37.5968623267
30
0.0000000000
11
-456.1855357913
21
-38.5573322055
31
0.0000000000
11
-456.1866353503
21
-38.2376817066
31
0.0000000000
11
-456.1866353504
21
-37.9165128722
31
0.0000000000
11
-456.1855357913
21
-37.5968623267
31
0.0000000000
0
SPLINE
5
2D0
100
AcDbEntity
8
0
100
AcDbSpline
62
7
6
CONTINUOUS
70
0
71
3
72
15
73
11
74
9
42
0.0000001000
43
0.0000001000
44
0.0000000001
12
-1.4803621179
22
0.0078596136
32
0.0000000000
13
-1.4800369726
23
0.0320052064
33
0.0000000000
40
0.0000000000
40
0.0000000000
40
0.0000000000
40
0.0000000000
40
0.1546157540
40
0.2925013647
40
0.4185697721
40
0.5376308442
40
0.6541984108
40
0.7698885810
40
0.8850458830
40
1.0000000000
40
1.0000000000
40
1.0000000000
40
1.0000000000
10
-454.7053008519
20
-38.5770972661
30
0.0000000000
10
-454.7815966203
20
-38.5766921927
30
0.0000000000
10
-454.9259317322
20
-38.5757498667
30
0.0000000000
10
-455.1324716541
20
-38.5739219305
30
0.0000000000
10
-455.3214634392
20
-38.5718503407
30
0.0000000000
10
-455.4999319949
20
-38.5695411912
30
0.0000000000
10
-455.6732750962
20
-38.5669656817
30
0.0000000000
10
-455.8446868705
20
-38.5640910635
30
0.0000000000
10
-456.0152967574
20
-38.5609016202
30
0.0000000000
10
-456.1288236769
20
-38.5585585822
30
0.0000000000
10
-456.1855357913
20
-38.5573322055
30
0.0000000000
11
-454.7053008519
21
-38.5770972661
31
0.0000000000
11
-454.9341865011
21
-38.5756023484
31
0.0000000000
11
-455.1383020139
21
-38.5737953024
31
0.0000000000
11
-455.3249203221
21
-38.5717491883
31
0.0000000000
11
-455.5011615484
21
-38.5694683142
31
0.0000000000
11
-455.6737071372
21
-38.5669040610
31
0.0000000000
11
-455.8449488068
21
-38.5640316311
31
0.0000000000
11
-456.0153959218
21
-38.5608444878
31
0.0000000000
11
-456.1855357913
21
-38.5573322055
31
0.0000000000
0
SPLINE
5
2D1
100
AcDbEntity
8
0
100
AcDbSpline
62
7
6
CONTINUOUS
70
0
71
3
72
16
73
12
74
10
42
0.0000001000
43
0.0000001000
44
0.0000000001
12
-0.0320052076
22
1.4800370275
32
0.0000000000
13
-0.0078596139
23
1.4803621727
33
0.0000000000
40
0.0000000000
40
0.0000000000
40
0.0000000000
40
0.0000000000
40
0.1016060292
40
0.2031955299
40
0.3051629993
40
0.4079213899
40
0.5122181184
40
0.6205675573
40
0.7359712154
40
0.8614297626
40
1.0000000000
40
1.0000000000
40
1.0000000000
40
1.0000000000
10
-454.6855357913
20
-40.0573322055
30
0.0000000000
10
-454.6866197653
20
-40.0072053103
30
0.0000000000
10
-454.6887002098
20
-39.9069577646
30
0.0000000000
10
-454.6915658436
20
-39.7563989214
30
0.0000000000
10
-454.6941851791
20
-39.6052668567
30
0.0000000000
10
-454.6965696488
20
-39.4527948290
30
0.0000000000
10
-454.6987396754
20
-39.2971700303
30
0.0000000000
10
-454.7007175715
20
-39.1353022331
30
0.0000000000
10
-454.7025129556
20
-38.9629891548
30
0.0000000000
10
-454.7041036992
20
-38.7757606788
30
0.0000000000
10
-454.7049378157
20
-38.6454753120
30
0.0000000000
10
-454.7053008519
20
-38.5770972661
30
0.0000000000
11
-454.6855357913
21
-40.0573322055
31
0.0000000000
11
-454.6886572879
21
-39.9069487563
31
0.0000000000
11
-454.6915197366
21
-39.7565846261
31
0.0000000000
11
-454.6941360119
21
-39.6056563883
31
0.0000000000
11
-454.6965151433
21
-39.4535532155
31
0.0000000000
11
-454.6986682658
21
-39.2991691214
31
0.0000000000
11
-454.7006284490
21
-39.1387824279
31
0.0000000000
11
-454.7024087978
21
-38.9679500868
31
0.0000000000
11
-454.7039871336
21
-38.7822300883
31
0.0000000000
11
-454.7053008519
21
-38.5770972661
31
0.0000000000
0
SPLINE
5
2D2
100
AcDbEntity
8
0
100
AcDbSpline
62
7
6
CONTINUOUS
70
0
71
3
72
16
73
12
74
10
42
0.0000001000
43
0.0000001000
44
0.0000000001
12
0.0320052076
22
-1.4800370275
32
0.0000000000
13
0.0078596139
23
-1.4803621727
33
0.0000000000
40
0.0000000000
40
0.0000000000
40
0.0000000000
40
0.0000000000
40
0.1016060292
40
0.2031955299
40
0.3051629993
40
0.4079213899
40
0.5122181184
40
0.6205675573
40
0.7359712154
40
0.8614297626
40
1.0000000000
40
1.0000000000
40
1.0000000000
40
1.0000000000
10
-453.7250659125
20
-36.0968623267
30
0.0000000000
10
-453.7239819385
20
-36.1469892218
30
0.0000000000
10
-453.7219014940
20
-36.2472367675
30
0.0000000000
10
-453.7190358602
20
-36.3977956108
30
0.0000000000
10
-453.7164165247
20
-36.5489276754
30
0.0000000000
10
-453.7140320551
20
-36.7013997031
30
0.0000000000
10
-453.7118620284
20
-36.8570245018
30
0.0000000000
10
-453.7098841323
20
-37.0188922991
30
0.0000000000
10
-453.7080887482
20
-37.1912053773
30
0.0000000000
10
-453.7064980046
20
-37.3784338533
30
0.0000000000
10
-453.7056638881
20
-37.5087192202
30
0.0000000000
10
-453.7053008519
20
-37.5770972661
30
0.0000000000
11
-453.7250659125
21
-36.0968623267
31
0.0000000000
11
-453.7219444159
21
-36.2472457759
31
0.0000000000
11
-453.7190819672
21
-36.3976099061
31
0.0000000000
11
-453.7164656919
21
-36.5485381438
31
0.0000000000
11
-453.7140865605
21
-36.7006413166
31
0.0000000000
11
-453.7119334380
21
-36.8550254108
31
0.0000000000
11
-453.7099732548
21
-37.0154121042
31
0.0000000000
11
-453.7081929061
21
-37.1862444453
31
0.0000000000
11
-453.7066145702
21
-37.3719644439
31
0.0000000000
11
-453.7053008519
21
-37.5770972661
31
0.0000000000
0
SPLINE
5
2D3
100
AcDbEntity
8
0
100
AcDbSpline
62
7
6
CONTINUOUS
70
0
71
3
72
15
73
11
74
9
42
0.0000001000
43
0.0000001000
44
0.0000000001
12
1.4803621179
22
-0.0078596136
32
0.0000000000
13
1.4800369726
23
-0.0320052064
33
0.0000000000
40
0.0000000000
40
0.0000000000
40
0.0000000000
40
0.0000000000
40
0.1546157540
40
0.2925013647
40
0.4185697721
40
0.5376308442
40
0.6541984108
40
0.7698885810
40
0.8850458830
40
1.0000000000
40
1.0000000000
40
1.0000000000
40
1.0000000000
10
-453.7053008519
20
-37.5770972661
30
0.0000000000
10
-453.6290050835
20
-37.5775023394
30
0.0000000000
10
-453.4846699716
20
-37.5784446654
30
0.0000000000
10
-453.2781300497
20
-37.5802726016
30
0.0000000000
10
-453.0891382646
20
-37.5823441914
30
0.0000000000
10
-452.9106697090
20
-37.5846533409
30
0.0000000000
10
-452.7373266076
20
-37.5872288504
30
0.0000000000
10
-452.5659148333
20
-37.5901034686
30
0.0000000000
10
-452.3953049464
20
-37.5932929119
30
0.0000000000
10
-452.2817780269
20
-37.5956359499
30
0.0000000000
10
-452.2250659125
20
-37.5968623267
30
0.0000000000
11
-453.7053008519
21
-37.5770972661
31
0.0000000000
11
-453.4764152027
21
-37.5785921838
31
0.0000000000
11
-453.2722996899
21
-37.5803992298
31
0.0000000000
11
-453.0856813817
21
-37.5824453438
31
0.0000000000
11
-452.9094401554
21
-37.5847262179
31
0.0000000000
11
-452.7368945666
21
-37.5872904712
31
0.0000000000
11
-452.5656528970
21
-37.5901629011
31
0.0000000000
11
-452.3952057820
21
-37.5933500443
31
0.0000000000
11
-452.2250659125
21
-37.5968623267
31
0.0000000000
0
SPLINE
5
2D4
100
AcDbEntity
8
0
100
AcDbSpline
62
7
6
CONTINUOUS
70
0
71
3
72
10
73
6
74
4
42
0.0000001000
43
0.0000001000
44
0.0000000001
12
0.0049557402
22
-0.9604608760
32
0.0000000000
13
-0.0049557402
23
-0.9604608760
33
0.0000000000
40
0.0000000000
40
0.0000000000
40
0.0000000000
40
0.0000000000
40
0.3328070337
40
0.6671929178
40
1.0000000000
40
1.0000000000
40
1.0000000000
40
1.0000000000
10
-452.2250659125
20
-37.5968623267
30
0.0000000000
10
-452.2245161441
20
-37.7034117050
30
0.0000000000
10
-452.2237819303
20
-37.9170180221
30
0.0000000000
10
-452.2237819302
20
-38.2371764790
30
0.0000000000
10
-452.2245161440
20
-38.4507828116
30
0.0000000000
10
-452.2250659125
20
-38.5573322055
30
0.0000000000
11
-452.2250659125
21
-37.5968623267
31
0.0000000000
11
-452.2239663535
21
-37.9165128256
31
0.0000000000
11
-452.2239663534
21
-38.2376816600
31
0.0000000000
11
-452.2250659125
21
-38.5573322055
31
0.0000000000
0
SPLINE
5
2D5
100
AcDbEntity
8
0
100
AcDbSpline
62
7
6
CONTINUOUS
70
0
71
3
72
15
73
11
74
9
42
0.0000001000
43
0.0000001000
44
0.0000000001
12
-1.4800369748
22
-0.0320052065
32
0.0000000000
13
-1.4803621201
23
-0.0078596136
33
0.0000000000
40
0.0000000000
40
0.0000000000
40
0.0000000000
40
0.0000000000
40
0.1160706953
40
0.2320431172
40
0.3485960214
40
0.4664268351
40
0.5870610763
40
0.7138575591
40
0.8503073998
40
1.0000000000
40
1.0000000000
40
1.0000000000
40
1.0000000000
10
-452.2250659125
20
-38.5573322055
30
0.0000000000
10
-452.2823288861
20
-38.5585704943
30
0.0000000000
10
-452.3968088455
20
-38.5609321057
30
0.0000000000
10
-452.5687975195
20
-38.5641429185
30
0.0000000000
10
-452.7416605246
20
-38.5670351011
30
0.0000000000
10
-452.9168289602
20
-38.5696278959
30
0.0000000000
10
-453.0970564932
20
-38.5719456458
30
0.0000000000
10
-453.2864755315
20
-38.5740036812
30
0.0000000000
10
-453.4902371149
20
-38.5757887309
30
0.0000000000
10
-453.6314344336
20
-38.5767050907
30
0.0000000000
10
-453.7053008519
20
-38.5770972661
30
0.0000000000
11
-452.2250659125
21
-38.5573322055
31
0.0000000000
11
-452.3968584272
21
-38.5608769753
31
0.0000000000
11
-452.5685121033
21
-38.5640822917
31
0.0000000000
11
-452.7410308832
21
-38.5669693926
31
0.0000000000
11
-452.9154465005
21
-38.5695516545
31
0.0000000000
11
-453.0940166055
21
-38.5718486510
31
0.0000000000
11
-453.2817128771
21
-38.5738885132
31
0.0000000000
11
-453.4837031438
21
-38.5756585880
31
0.0000000000
11
-453.7053008519
21
-38.5770972661
31
0.0000000000
0
SPLINE
5
2D6
100
AcDbEntity
8
0
100
AcDbSpline
62
7
6
CONTINUOUS
70
0
71
3
72
16
73
12
74
10
42
0.0000001000
43
0.0000001000
44
0.0000000001
12
-0.0078596139
22
-1.4803621696
32
0.0000000000
13
-0.0320052075
23
-1.4800370244
33
0.0000000000
40
0.0000000000
40
0.0000000000
40
0.0000000000
40
0.0000000000
40
0.1446788206
40
0.2727250257
40
0.3882219558
40
0.4951862000
40
0.5976288021
40
0.6988632346
40
0.7995812912
40
0.8999189804
40
1.0000000000
40
1.0000000000
40
1.0000000000
40
1.0000000000
10
-453.7053008519
20
-38.5770972661
30
0.0000000000
10
-453.7056798918
20
-38.6484896170
30
0.0000000000
10
-453.7065479629
20
-38.7830661263
30
0.0000000000
10
-453.7081981071
20
-38.9746315417
30
0.0000000000
10
-453.7100243869
20
-39.1475837262
30
0.0000000000
10
-453.7120042911
20
-39.3078989258
30
0.0000000000
10
-453.7141577330
20
-39.4611732299
30
0.0000000000
10
-453.7165183352
20
-39.6113618582
30
0.0000000000
10
-453.7191116929
20
-39.7605078010
30
0.0000000000
10
-453.7219449018
20
-39.9090801092
30
0.0000000000
10
-453.7239982079
20
-40.0079576673
30
0.0000000000
10
-453.7250659125
20
-40.0573322055
30
0.0000000000
11
-453.7053008519
21
-38.5770972661
31
0.0000000000
11
-453.7066828405
21
-38.7912728788
31
0.0000000000
11
-453.7083160686
21
-38.9808232723
31
0.0000000000
11
-453.7101218189
21
-39.1517934323
31
0.0000000000
11
-453.7120776544
21
-39.3101294055
31
0.0000000000
11
-453.7142085039
21
-39.4617687248
31
0.0000000000
11
-453.7165641536
21
-39.6116159465
31
0.0000000000
11
-453.7191568001
21
-39.7606947058
31
0.0000000000
11
-453.7219893468
21
-39.9092059086
31
0.0000000000
11
-453.7250659125
21
-40.0573322055
31
0.0000000000
0
SPLINE
5
2D7
100
AcDbEntity
8
0
100
AcDbSpline
62
7
6
CONTINUOUS
70
0
71
3
72
10
73
6
74
4
42
0.0000001000
43
0.0000001000
44
0.0000000001
12
-0.4802306155
22
-0.0024778710
32
0.0000000000
13
-0.4802370081
23
0.0000000000
33
0.0000000000
40
0.0000000000
40
0.0000000000
40
0.0000000000
40
0.0000000000
40
0.3319470555
40
0.6654640393
40
1.0000000000
40
1.0000000000
40
1.0000000000
40
1.0000000000
10
-453.7250659125
20
-40.0573322055
30
0.0000000000
10
-453.7782029588
20
-40.0576063795
30
0.0000000000
10
-453.8847288562
20
-40.0580644901
30
0.0000000000
10
-454.0448073960
20
-40.0584779414
30
0.0000000000
10
-454.1517486689
20
-40.0585700685
30
0.0000000000
10
-454.2053008519
20
-40.0585700685
30
0.0000000000
11
-453.7250659125
21
-40.0573322055
31
0.0000000000
11
-453.8844776986
21
-40.0580178815
31
0.0000000000
11
-454.0446443627
21
-40.0584316403
31
0.0000000000
11
-454.2053008519
21
-40.0585700685
31
0.0000000000
0
ENDSEC
0
SECTION
2
OBJECTS
0
DICTIONARY
5
2D8
100
AcDbDictionary
3
ACAD_GROUP
350
2D9
3
ACAD_MLINESTYLE
350
2DA
0
DICTIONARY
5
2D9
102
{ACAD_REACTORS
330
2D8
102
}
100
AcDbDictionary
0
DICTIONARY
5
2DA
102
{ACAD_REACTORS
330
2D8
102
}
100
AcDbDictionary
3
STANDARD
350
2DB
0
MLINESTYLE
5
2DB
102
{ACAD_REACTORS
330
2DA
102
}
100
AcDbMlineStyle
2
STANDARD
70
0
3

62
256
51
90.0
52
90.0
71
2
49
0.5
62
256
6
BYLAYER
49
-0.5
62
256
6
BYLAYER
0
ENDSEC
0
EOF
