  0
SECTION
  2
HEADER
  9
$ACADVER
  1
AC1021
  9
$DWGCODEPAGE
  3
ANSI_1252
  9
$EXTMAX
 10
558.8
 20
431.8
 30
0.0
  9
$EXTMIN
 10
0.0
 20
0.0
 30
0.0
  9
$LIMMIN
 10
0.0
 20
0.0
  9
$LIMMAX
 10
558.8
 20
431.8
  9
$VIEWCTR
 10
279.4
 20
215.9
  9
$VIEWSIZE
 40
431.8
  9
$CLAYER
  8
0
  9
$LTSCALE
 40
30.734
  9
$CELTYPE
  6
BYLAYER
  9
$DIMSCALE
 40
1.0
  9
$DIMASZ
 40
3.0
  9
$DIMEXO
 40
0.5
  9
$DIMDLI
 40
21.2344
  9
$DIMEXE
 40
1.5
  9
$DIMCEN
 40
5.0292
  9
$DIMLFAC
 40
1.0
  9
$DIMBLK
  1
_FILLED
  9
$DIMALT
 70
0
  9
$DIMALTF
 40
25.4
  9
$DIMTXT
 40
3.0
  9
$DIMTOL
 70
1
  9
$DIMLIM
 70
0
  9
$DIMTFAC
 40
1.0
  9
$DIMTP
 40
0.01
  9
$DIMTM
 40
0.01
  9
$DIMGAP
 40
0.625
  9
$DIMDSEP
 70
44
  9
$AUNITS
 70
0
  9
$PDMODE
 70
3
  9
$PDSIZE
 40
3.0
  9
$HANDSEED
  5
4B5
  9
$TILEMODE
 70
1
  9
$MEASUREMENT
 70
1
  9
$INSUNITS
 70
4
  0
ENDSEC
  0
SECTION
  2
CLASSES
  0
CLASS
  1
ACDBDICTIONARYWDFLT
  2
AcDbDictionaryWithDefault
  3
AutoCAD 2000
 90
0
 91
1
280
0
281
0
  0
CLASS
  1
ACDBPLACEHOLDER
  2
AcDbPlaceHolder
  3
AutoCAD 2000
 90
0
 91
1
280
0
281
0
  0
CLASS
  1
LAYOUT
  2
AcDbLayout
  3
AutoCAD 2000
 90
0
 91
0
280
0
281
0
  0
ENDSEC
  0
SECTION
  2
TABLES
  0
TABLE
  2
VPORT
  5
8
100
AcDbSymbolTable
 70
2
  0
VPORT
  5
1F4
100
AcDbSymbolTableRecord
100
AcDbViewportTableRecord
  2
*ACTIVE
 70
0
 10
0.0
 20
0.0
 11
1.0
 21
1.0
 12
279.4
 22
215.9
 13
0.0
 23
0.0
 14
1.0
 24
1.0
 15
0.0
 25
0.0
 16
0.0
 26
0.0
 36
1.0
 17
0.0
 27
0.0
 37
0.0
 40
431.8
 41
1.2941176471
 42
50.0
 43
0.0
 44
0.0
 50
0.0
 51
0.0
 71
0
 72
100
 73
1
 74
1
 75
0
 76
0
 77
0
 78
0
  0
ENDTAB
  0
TABLE
  2
LTYPE
  5
5
100
AcDbSymbolTable
 70
6
  0
LTYPE
  5
14
100
AcDbSymbolTableRecord
100
AcDbLinetypeTableRecord
  2
BYBLOCK
 70
0
  3

 72
65
 73
0
 40
0.0
  0
LTYPE
  5
15
100
AcDbSymbolTableRecord
100
AcDbLinetypeTableRecord
  2
BYLAYER
 70
0
  3

 72
65
 73
0
 40
0.0
  0
LTYPE
  5
16
100
AcDbSymbolTableRecord
100
AcDbLinetypeTableRecord
  2
CONTINUOUS
 70
64
  3
Solid line
 72
65
 73
0
 40
0.0
  0
LTYPE
  5
1F5
100
AcDbSymbolTableRecord
100
AcDbLinetypeTableRecord
  2
CENTER
 70
64
  3
____ _ ____ _ ____ _ ____ _ ____ _ ____ _ ____
 72
65
 73
4
 40
0.6
 49
0.375
 74
0
 49
-0.075
 74
0
 49
0.075
 74
0
 49
-0.075
 74
0
  0
LTYPE
  5
1F6
100
AcDbSymbolTableRecord
100
AcDbLinetypeTableRecord
  2
HIDDEN
 70
64
  3
- - - - - - - - - - - - - - - - - - - -
 72
65
 73
2
 40
0.2
 49
0.1
 74
0
 49
-0.1
 74
0
  0
LTYPE
  5
1F7
100
AcDbSymbolTableRecord
100
AcDbLinetypeTableRecord
  2
PHANTOM
 70
64
  3
_____ _ _ _____ _ _ _____ _ _ _____
 72
65
 73
6
 40
0.8
 49
0.45
 74
0
 49
-0.05
 74
0
 49
0.1
 74
0
 49
-0.05
 74
0
 49
0.1
 74
0
 49
-0.05
 74
0
  0
LTYPE
  5
1F8
100
AcDbSymbolTableRecord
100
AcDbLinetypeTableRecord
  2
DOT
 70
64
  3
. . . . . . . . . . . . . . . . . . . .
 72
65
 73
2
 40
0.2
 49
0.1
 74
0
 49
-0.1
 74
0
  0
LTYPE
  5
1F9
100
AcDbSymbolTableRecord
100
AcDbLinetypeTableRecord
  2
DASHED
 70
64
  3
- - - - - - - - - - - - - - - - - - - -
 72
65
 73
2
 40
0.2
 49
0.1
 74
0
 49
-0.1
 74
0
  0
ENDTAB
  0
TABLE
  2
LAYER
  5
2
100
AcDbSymbolTable
 70
36
  0
LAYER
  5
10
100
AcDbSymbolTableRecord
100
AcDbLayerTableRecord
  2
0
 70
0
 62
7
  6
CONTINUOUS
370
-3
390
F
  0
LAYER
  5
1FA
100
AcDbSymbolTableRecord
100
AcDbLayerTableRecord
  2
DEFAULT_1
 70
0
 62
7
  6
CENTER
370
-3
390
F
  0
LAYER
  5
1FB
100
AcDbSymbolTableRecord
100
AcDbLayerTableRecord
  2
DEFAULT_2
 70
0
 62
7
  6
HIDDEN
370
-3
390
F
  0
LAYER
  5
1FC
100
AcDbSymbolTableRecord
100
AcDbLayerTableRecord
  2
DEFAULT_3
 70
0
 62
7
  6
PHANTOM
370
-3
390
F
  0
LAYER
  5
1FD
100
AcDbSymbolTableRecord
100
AcDbLayerTableRecord
  2
ASSI
 70
0
 62
7
  6
CONTINUOUS
370
-3
390
F
  0
LAYER
  5
1FE
100
AcDbSymbolTableRecord
100
AcDbLayerTableRecord
  2
COORDINATE
 70
0
 62
7
  6
CONTINUOUS
370
-3
390
F
  0
LAYER
  5
1FF
100
AcDbSymbolTableRecord
100
AcDbLayerTableRecord
  2
COORD_ORIGINE
 70
0
 62
7
  6
CONTINUOUS
370
-3
390
F
  0
LAYER
  5
200
100
AcDbSymbolTableRecord
100
AcDbLayerTableRecord
  2
COPY_PUBLISH
 70
0
 62
7
  6
CONTINUOUS
370
-3
390
F
  0
LAYER
  5
201
100
AcDbSymbolTableRecord
100
AcDbLayerTableRecord
  2
COSMETIC
 70
0
 62
7
  6
CONTINUOUS
370
-3
390
F
  0
LAYER
  5
202
100
AcDbSymbolTableRecord
100
AcDbLayerTableRecord
  2
COSMETICHE
 70
0
 62
7
  6
CONTINUOUS
370
-3
390
F
  0
LAYER
  5
203
100
AcDbSymbolTableRecord
100
AcDbLayerTableRecord
  2
COSMETICI
 70
0
 62
7
  6
CONTINUOUS
370
-3
390
F
  0
LAYER
  5
204
100
AcDbSymbolTableRecord
100
AcDbLayerTableRecord
  2
CURVE
 70
0
 62
7
  6
CONTINUOUS
370
-3
390
F
  0
LAYER
  5
205
100
AcDbSymbolTableRecord
100
AcDbLayerTableRecord
  2
DRAFT
 70
0
 62
7
  6
CONTINUOUS
370
-3
390
F
  0
LAYER
  5
206
100
AcDbSymbolTableRecord
100
AcDbLayerTableRecord
  2
IMPORT_IGES
 70
0
 62
7
  6
CONTINUOUS
370
-3
390
F
  0
LAYER
  5
207
100
AcDbSymbolTableRecord
100
AcDbLayerTableRecord
  2
NOTE
 70
0
 62
7
  6
CONTINUOUS
370
-3
390
F
  0
LAYER
  5
208
100
AcDbSymbolTableRecord
100
AcDbLayerTableRecord
  2
PIANI
 70
0
 62
7
  6
CONTINUOUS
370
-3
390
F
  0
LAYER
  5
209
100
AcDbSymbolTableRecord
100
AcDbLayerTableRecord
  2
PIANI_ORIGINE
 70
0
 62
7
  6
CONTINUOUS
370
-3
390
F
  0
LAYER
  5
20A
100
AcDbSymbolTableRecord
100
AcDbLayerTableRecord
  2
PUNTI
 70
0
 62
7
  6
CONTINUOUS
370
-3
390
F
  0
LAYER
  5
20B
100
AcDbSymbolTableRecord
100
AcDbLayerTableRecord
  2
RACCORDO
 70
0
 62
7
  6
CONTINUOUS
370
-3
390
F
  0
LAYER
  5
20C
100
AcDbSymbolTableRecord
100
AcDbLayerTableRecord
  2
SIMBOLI
 70
0
 62
7
  6
CONTINUOUS
370
-3
390
F
  0
LAYER
  5
20D
100
AcDbSymbolTableRecord
100
AcDbLayerTableRecord
  2
SMUSSO
 70
0
 62
7
  6
CONTINUOUS
370
-3
390
F
  0
LAYER
  5
20E
100
AcDbSymbolTableRecord
100
AcDbLayerTableRecord
  2
SNAPLINE
 70
0
 62
7
  6
CONTINUOUS
370
-3
390
F
  0
LAYER
  5
20F
100
AcDbSymbolTableRecord
100
AcDbLayerTableRecord
  2
SUPERFICI
 70
0
 62
7
  6
CONTINUOUS
370
-3
390
F
  0
LAYER
  5
210
100
AcDbSymbolTableRecord
100
AcDbLayerTableRecord
  2
TRASH
 70
0
 62
7
  6
CONTINUOUS
370
-3
390
F
  0
LAYER
  5
211
100
AcDbSymbolTableRecord
100
AcDbLayerTableRecord
  2
XSEC_DATUMS
 70
0
 62
7
  6
CONTINUOUS
370
-3
390
F
  0
ENDTAB
  0
TABLE
  2
STYLE
  5
3
100
AcDbSymbolTable
 70
1
  0
STYLE
  5
11
100
AcDbSymbolTableRecord
100
AcDbTextStyleTableRecord
  2
STANDARD
 70
0
 40
0.0
 41
0.8
 50
0.0
 71
0
 42
0.2
  3
txt
  4

  0
STYLE
  5
212
100
AcDbSymbolTableRecord
100
AcDbTextStyleTableRecord
  2
TEXTSTYLE_1
 70
0
 40
0.0
 41
0.8
 50
0.0
 71
0
 42
0.2
  3
gdt
  4

  0
ENDTAB
  0
TABLE
  2
VIEW
  5
6
100
AcDbSymbolTable
 70
0
  0
ENDTAB
  0
TABLE
  2
UCS
  5
7
100
AcDbSymbolTable
 70
0
  0
ENDTAB
  0
TABLE
  2
APPID
  5
9
100
AcDbSymbolTable
 70
1
  0
APPID
  5
213
100
AcDbSymbolTableRecord
100
AcDbRegAppTableRecord
  2
ACAD
 70
0
  0
ENDTAB
  0
TABLE
  2
BLOCK_RECORD
  5
1
100
AcDbSymbolTable
 70
0
  0
BLOCK_RECORD
  5
214
100
AcDbSymbolTableRecord
100
AcDbBlockTableRecord
  2
*Model_Space
  0
BLOCK_RECORD
  5
215
100
AcDbSymbolTableRecord
100
AcDbBlockTableRecord
  2
*Paper_Space
  0
BLOCK_RECORD
  5
216
100
AcDbSymbolTableRecord
100
AcDbBlockTableRecord
  2
_FILLED
  0
ENDTAB
  0
TABLE
  2
DIMSTYLE
  5
A
100
AcDbSymbolTable
 70
1
100
AcDbDimStyleTable
 71
0
  0
DIMSTYLE
105
217
100
AcDbSymbolTableRecord
100
AcDbDimStyleTableRecord
  2
STANDARD
 70
0
  3

  4

 40
1.0
 41
3.0
 42
0.5
 43
0.38
 44
1.5
 45
0.0
 46
0.0
 47
0.01
 48
0.01
140
3.0
141
0.09
142
0.0
143
25.4
144
1.0
145
0.0
146
1.0
147
0.625
 71
1.0
 72
0.0
 73
0
 74
0
 75
0
 76
0
 77
1
 78
8
 79
2
170
0
171
1
172
0
173
0
174
0
175
0
176
0
177
0
178
0
270
2
179
2
271
2
272
2
273
2
274
2
275
0
280
0
281
0
282
0
283
1
284
8
285
0
286
0
287
3
288
0
340
11
278
44
341
216
342
216
343
216
344
216
  0
ENDTAB
  0
ENDSEC
  0
SECTION
  2
BLOCKS
  0
BLOCK
  5
20
100
AcDbEntity
  8
0
100
AcDbBlockBegin
  2
*Model_Space
 70
0
 10
0.0
 20
0.0
 30
0.0
  3
*Model_Space
  1

  0
ENDBLK
  5
21
100
AcDbEntity
  8
0
100
AcDbBlockEnd
  0
BLOCK
  5
1C
100
AcDbEntity
  8
0
100
AcDbBlockBegin
  2
*Paper_Space
 70
0
 10
0.0
 20
0.0
 30
0.0
  3
*Paper_Space
  1

  0
ENDBLK
  5
1D
100
AcDbEntity
  8
0
100
AcDbBlockEnd
  0
BLOCK
  5
218
100
AcDbEntity
  8
0
100
AcDbBlockBegin
  2
_FILLED
 70
64
 10
0.0
 20
0.0
  3
_FILLED
  1

  0
SOLID
  5
219
100
AcDbEntity
  8
0
  6
BYBLOCK
 62
0
100
AcDbTrace
 10
0.0
 20
0.0
 11
-1.0
 21
0.3166666667
 12
-1.0
 22
-0.3166666667
 13
-1.0
 23
-0.3166666667
  0
ENDBLK
  5
21A
100
AcDbEntity
  8
0
  6
BYBLOCK
 62
0
100
AcDbBlockEnd
  0
ENDSEC
  0
SECTION
  2
ENTITIES
  0
LINE
  5
21B
100
AcDbEntity
  8
0
100
AcDbLine
 62
7
  6
CONTINUOUS
 10
13.4999211708
 20
-37.9918905195
 11
10.0
 21
-37.9918905195
  0
LINE
  5
21C
100
AcDbEntity
  8
ASSI
100
AcDbLine
 62
7
  6
CONTINUOUS
 10
10.0
 20
-37.9918905195
 11
8.0
 21
-37.9918905195
  0
LINE
  5
21D
100
AcDbEntity
  8
0
100
AcDbLine
 62
7
  6
CONTINUOUS
 10
8.0
 20
-37.9918905195
 11
-13.4999237221
 21
-37.9918905195
  0
LINE
  5
21E
100
AcDbEntity
  8
0
100
AcDbLine
 62
7
  6
CONTINUOUS
 10
8.0
 20
-35.9918905195
 11
4.5
 21
-35.9918905195
  0
LINE
  5
21F
100
AcDbEntity
  8
SMUSSO
100
AcDbLine
 62
7
  6
CONTINUOUS
 10
13.5
 20
-31.4918055317
 11
10.0
 21
-31.4918905195
  0
LINE
  5
220
100
AcDbEntity
  8
SMUSSO
100
AcDbLine
 62
7
  6
CONTINUOUS
 10
-10.0
 20
-31.4918905195
 11
-13.5
 21
-31.4918487615
  0
LINE
  5
221
100
AcDbEntity
  8
SMUSSO
100
AcDbLine
 62
7
  6
CONTINUOUS
 10
10.0
 20
-29.9918905195
 11
12.0
 21
-29.9918055311
  0
LINE
  5
222
100
AcDbEntity
  8
SMUSSO
100
AcDbLine
 62
7
  6
CONTINUOUS
 10
-12.0
 20
-29.9918487611
 11
-10.0
 21
-29.9918905195
  0
LINE
  5
223
100
AcDbEntity
  8
0
100
AcDbLine
 62
7
  6
CONTINUOUS
 10
-11.9998573241
 20
-27.4918905195
 11
-10.0
 21
-27.4918905195
  0
LINE
  5
224
100
AcDbEntity
  8
0
100
AcDbLine
 62
7
  6
CONTINUOUS
 10
10.0
 20
-27.4918905195
 11
11.9998555045
 21
-27.4918905195
  0
LINE
  5
225
100
AcDbEntity
  8
0
100
AcDbLine
 62
7
  6
CONTINUOUS
 10
1.9724998379
 20
25.7088241919
 11
1.9087500811
 21
25.6832922801
  0
LINE
  5
226
100
AcDbEntity
  8
0
100
AcDbLine
 62
7
  6
CONTINUOUS
 10
-8.177499994
 20
18.1283222739
 11
-8.101562494
 21
18.1857690756
  0
LINE
  5
227
100
AcDbEntity
  8
0
100
AcDbLine
 62
7
  6
CONTINUOUS
 10
1.99375
 20
25.5811646327
 11
2.0787501621
 21
25.6322284564
  0
LINE
  5
228
100
AcDbEntity
  8
0
100
AcDbLine
 62
7
  6
CONTINUOUS
 10
-8.126875006
 20
18.3293860797
 11
-8.228125
 21
18.271939278
  0
LINE
  5
229
100
AcDbEntity
  8
0
100
AcDbLine
 62
7
  6
CONTINUOUS
 10
17.0
 20
-19.4918905195
 11
10.25
 21
-19.4918905195
  0
LINE
  5
22A
100
AcDbEntity
  8
ASSI
100
AcDbLine
 62
7
  6
CONTINUOUS
 10
-10.25
 20
-19.4918905195
 11
-10.0
 21
-19.4918905195
  0
LINE
  5
22B
100
AcDbEntity
  8
0
100
AcDbLine
 62
7
  6
CONTINUOUS
 10
7.0
 20
-19.4918905195
 11
5.0
 21
-19.4918905195
  0
LINE
  5
22C
100
AcDbEntity
  8
ASSI
100
AcDbLine
 62
7
  6
CONTINUOUS
 10
4.5
 20
-19.4918905195
 11
5.0
 21
-19.4918905195
  0
LINE
  5
22D
100
AcDbEntity
  8
ASSI
100
AcDbLine
 62
7
  6
CONTINUOUS
 10
9.0
 20
-19.4918905195
 11
10.25
 21
-19.4918905195
  0
LINE
  5
22E
100
AcDbEntity
  8
0
100
AcDbLine
 62
7
  6
CONTINUOUS
 10
4.5
 20
-19.4918905195
 11
-10.0
 21
-19.4918905195
  0
LINE
  5
22F
100
AcDbEntity
  8
0
100
AcDbLine
 62
7
  6
CONTINUOUS
 10
-10.25
 20
-19.4918905195
 11
-17.0
 21
-19.4918905195
  0
LINE
  5
230
100
AcDbEntity
  8
RACCORDO
100
AcDbLine
 62
7
  6
CONTINUOUS
 10
16.6931917829
 20
-19.28507819
 11
-16.6931917829
 21
-19.28507819
  0
LINE
  5
231
100
AcDbEntity
  8
RACCORDO
100
AcDbLine
 62
253
  6
CONTINUOUS
 10
16.6931917829
 20
-19.0850809316
 11
-16.6931917829
 21
-19.0850809316
  0
LWPOLYLINE
  5
232
100
AcDbEntity
  8
RACCORDO
100
AcDbPolyline
 62
253
  6
CONTINUOUS
 90
16
 70
0
 10
-16.6931917829
 20
-19.0850809316
 10
-16.7017104913
 20
-19.0848235499
 10
-16.7102767639
 20
-19.0837039531
 10
-16.7188906009
 20
-19.0817221411
 10
-16.7276532618
 20
-19.0789240756
 10
-16.736463487
 20
-19.0752637949
 10
-16.7450174974
 20
-19.0706034141
 10
-16.7533605363
 20
-19.0648994879
 10
-16.7614473603
 20
-19.0581954616
 10
-16.76883846
 20
-19.0504837857
 10
-16.7755541993
 20
-19.0416862283
 10
-16.7815742142
 20
-19.0318810213
 10
-16.7863979032
 20
-19.0212953107
 10
-16.7898583988
 20
-19.0100048116
 10
-16.7921225685
 20
-18.9979338088
 10
-16.7931904121
 20
-18.9850823024
  0
LWPOLYLINE
  5
233
100
AcDbEntity
  8
RACCORDO
100
AcDbPolyline
 62
253
  6
CONTINUOUS
 90
16
 70
0
 10
-16.6931917829
 20
-19.28507819
 10
-16.7183641506
 20
-19.2840197854
 10
-16.7441610713
 20
-19.2807157521
 10
-16.7703615679
 20
-19.2749815606
 10
-16.7966732273
 20
-19.2666637705
 10
-16.822843628
 20
-19.2556127859
 10
-16.8486470654
 20
-19.2416555756
 10
-16.8737260898
 20
-19.2246724652
 10
-16.8976459924
 20
-19.204614782
 10
-16.9199907542
 20
-19.1814449004
 10
-16.9402799135
 20
-19.1552104158
 10
-16.9580083175
 20
-19.126037869
 10
-16.9726757631
 20
-19.0941015371
 10
-16.9837630687
 20
-19.059681929
 10
-16.9907582462
 20
-19.0231785993
 10
-16.9931876706
 20
-18.9850823024
  0
LINE
  5
234
100
AcDbEntity
  8
RACCORDO
100
AcDbLine
 62
7
  6
CONTINUOUS
 10
-17.0
 20
-18.9918946318
 11
-17.0
 21
-19.4918905195
  0
LINE
  5
235
100
AcDbEntity
  8
RACCORDO
100
AcDbLine
 62
7
  6
CONTINUOUS
 10
-16.9931876706
 20
-18.9850823024
 11
-16.9931876706
 21
-6.9991469104
  0
LINE
  5
236
100
AcDbEntity
  8
RACCORDO
100
AcDbLine
 62
253
  6
CONTINUOUS
 10
-16.7931904121
 20
-18.9850823024
 11
-16.7931904121
 21
-6.9986685795
  0
LINE
  5
237
100
AcDbEntity
  8
RACCORDO
100
AcDbLine
 62
253
  6
CONTINUOUS
 10
-16.6931917829
 20
-19.28507819
 11
-16.6931917829
 21
-19.0850809316
  0
LINE
  5
238
100
AcDbEntity
  8
RACCORDO
100
AcDbLine
 62
253
  6
CONTINUOUS
 10
-16.7931904121
 20
-6.9986685795
 11
-16.7848901096
 21
-6.7782911901
  0
LWPOLYLINE
  5
239
100
AcDbEntity
  8
RACCORDO
100
AcDbPolyline
 62
253
  6
CONTINUOUS
 90
16
 70
0
 10
-16.9931876278
 20
-6.9991469073
 10
-16.9821401255
 20
-6.763903696
 10
-16.9478014606
 20
-6.5244657125
 10
-16.8886623179
 20
-6.2833393332
 10
-16.8029870989
 20
-6.0422072566
 10
-16.6900665751
 20
-5.8054750965
 10
-16.5514561833
 20
-5.5796859469
 10
-16.388189146
 20
-5.3680427583
 10
-16.2013169783
 20
-5.1732226107
 10
-15.9946702829
 20
-4.999795499
 10
-15.7715228526
 20
-4.8502307762
 10
-15.5337775261
 20
-4.7255476291
 10
-15.2841457496
 20
-4.6271140205
 10
-15.0254979916
 20
-4.5560242608
 10
-14.7608400024
 20
-4.5130683629
 10
-14.49322194
 20
-4.4987028489
  0
LINE
  5
23A
100
AcDbEntity
  8
0
100
AcDbLine
 62
7
  6
CONTINUOUS
 10
-9.43125
 20
15.6921520714
 11
-9.3749999933
 21
15.7783222739
  0
LINE
  5
23B
100
AcDbEntity
  8
0
100
AcDbLine
 62
7
  6
CONTINUOUS
 10
-8.228125
 20
18.271939278
 11
-8.3293749985
 21
18.1570456747
  0
LINE
  5
23C
100
AcDbEntity
  8
0
100
AcDbLine
 62
7
  6
CONTINUOUS
 10
-9.43125
 20
15.921939278
 11
-9.5437499983
 21
15.8070456747
  0
LINE
  5
23D
100
AcDbEntity
  8
0
100
AcDbLine
 62
7
  6
CONTINUOUS
 10
-7.6712500241
 20
17.8698115859
 11
-8.38
 21
17.1517265048
  0
LINE
  5
23E
100
AcDbEntity
  8
0
100
AcDbLine
 62
7
  6
CONTINUOUS
 10
-8.177499994
 20
17.1517265048
 11
-7.5446875
 21
17.7836413835
  0
LINE
  5
23F
100
AcDbEntity
  8
0
100
AcDbLine
 62
7
  6
CONTINUOUS
 10
-8.8125000268
 20
15.5198115859
 11
-9.6
 21
14.8017265048
  0
LINE
  5
240
100
AcDbEntity
  8
0
100
AcDbLine
 62
7
  6
CONTINUOUS
 10
-9.3749999933
 20
14.8017265048
 11
-8.671875
 21
15.4336413835
  0
LINE
  5
241
100
AcDbEntity
  8
0
100
AcDbLine
 62
7
  6
CONTINUOUS
 10
-8.165625
 20
15.2613009785
 11
-8.0531249464
 21
15.347471181
  0
LINE
  5
242
100
AcDbEntity
  8
0
100
AcDbLine
 62
7
  6
CONTINUOUS
 10
-9.3749999933
 20
15.7783222739
 11
-9.2906249933
 21
15.8357690756
  0
LINE
  5
243
100
AcDbEntity
  8
0
100
AcDbLine
 62
7
  6
CONTINUOUS
 10
-6.8437498927
 20
15.7783222739
 11
-6.7593748927
 21
15.8357690756
  0
LINE
  5
244
100
AcDbEntity
  8
0
100
AcDbLine
 62
7
  6
CONTINUOUS
 10
-7.575
 20
14.8878967073
 11
-7.659375
 21
14.8304499056
  0
LINE
  5
245
100
AcDbEntity
  8
0
100
AcDbLine
 62
7
  6
CONTINUOUS
 10
-8.08125
 20
15.4910881851
 11
-8.2218749464
 21
15.4049179826
  0
LINE
  5
246
100
AcDbEntity
  8
0
100
AcDbLine
 62
7
  6
CONTINUOUS
 10
-6.7875001073
 20
15.9793860797
 11
-6.9281250536
 21
15.8932158772
  0
LINE
  5
247
100
AcDbEntity
  8
0
100
AcDbLine
 62
7
  6
CONTINUOUS
 10
-7.6312499464
 20
14.6868328839
 11
-7.490625
 21
14.7730030939
  0
LINE
  5
248
100
AcDbEntity
  8
0
100
AcDbLine
 62
7
  6
CONTINUOUS
 10
-9.3187500067
 20
15.9793860797
 11
-9.43125
 21
15.921939278
  0
LINE
  5
249
100
AcDbEntity
  8
RACCORDO
100
AcDbLine
 62
253
  6
CONTINUOUS
 10
-16.9931876706
 20
-18.9850823024
 11
-16.7931904121
 21
-18.9850823024
  0
LINE
  5
24A
100
AcDbEntity
  8
RACCORDO
100
AcDbLine
 62
253
  6
CONTINUOUS
 10
16.9931876706
 20
-18.9850823024
 11
16.7931904121
 21
-18.9850823024
  0
LINE
  5
24B
100
AcDbEntity
  8
RACCORDO
100
AcDbLine
 62
253
  6
CONTINUOUS
 10
-14.49322194
 20
-4.4987028489
 11
-14.49322194
 21
-4.6987001073
  0
LWPOLYLINE
  5
24C
100
AcDbEntity
  8
RACCORDO
100
AcDbPolyline
 62
253
  6
CONTINUOUS
 90
15
 70
0
 10
-16.7848901096
 20
-6.7782911901
 10
-16.7528831287
 20
-6.5591360495
 10
-16.6971694695
 20
-6.3412031577
 10
-16.6174409727
 20
-6.120804395
 10
-16.5140057976
 20
-5.9016278812
 10
-16.387788422
 20
-5.694737975
 10
-16.2366959628
 20
-5.5007648098
 10
-16.0628213031
 20
-5.3190782522
 10
-15.8733675703
 20
-5.1588522603
 10
-15.6681679902
 20
-5.0219528196
 10
-15.447389337
 20
-4.9065139446
 10
-15.2187350604
 20
-4.8161116358
 10
-14.9847729769
 20
-4.7519378934
 10
-14.7429352701
 20
-4.7128007173
 10
-14.49322194
 20
-4.6987001073
  0
LINE
  5
24D
100
AcDbEntity
  8
0
100
AcDbLine
 62
7
  6
CONTINUOUS
 10
-7.620625
 20
17.9847051893
 11
-7.6712500241
 21
17.8698115859
  0
LINE
  5
24E
100
AcDbEntity
  8
0
100
AcDbLine
 62
7
  6
CONTINUOUS
 10
-8.75625
 20
15.6347051893
 11
-8.8125000268
 21
15.5198115859
  0
LINE
  5
24F
100
AcDbEntity
  8
0
100
AcDbLine
 62
7
  6
CONTINUOUS
 10
-8.228125
 20
18.0421520714
 11
-8.177499994
 21
18.1283222739
  0
LINE
  5
250
100
AcDbEntity
  8
0
100
AcDbLine
 62
7
  6
CONTINUOUS
 10
-7.5446875
 20
17.7836413835
 11
-7.4940624759
 21
17.8698115859
  0
LINE
  5
251
100
AcDbEntity
  8
0
100
AcDbLine
 62
7
  6
CONTINUOUS
 10
-8.671875
 20
15.4336413835
 11
-8.6156249732
 21
15.5198115859
  0
LINE
  5
252
100
AcDbEntity
  8
0
100
AcDbLine
 62
7
  6
CONTINUOUS
 10
-7.5187500536
 20
14.9740669299
 11
-7.575
 21
14.8878967073
  0
LINE
  5
253
100
AcDbEntity
  8
0
100
AcDbLine
 62
7
  6
CONTINUOUS
 10
-6.9562499464
 20
15.6059817884
 11
-6.8437498927
 21
15.7783222739
  0
LINE
  5
254
100
AcDbEntity
  8
0
100
AcDbLine
 62
7
  6
CONTINUOUS
 10
-7.490625
 20
14.7730030939
 11
-7.40625
 21
14.8878967073
  0
LINE
  5
255
100
AcDbEntity
  8
0
100
AcDbLine
 62
7
  6
CONTINUOUS
 10
2.0150001621
 20
25.7598880156
 11
1.9724998379
 21
25.7088241919
  0
LINE
  5
256
100
AcDbEntity
  8
0
100
AcDbLine
 62
7
  6
CONTINUOUS
 10
-6.9281250536
 20
15.8932158772
 11
-7.0125000536
 21
15.8070456747
  0
LINE
  5
257
100
AcDbEntity
  8
0
100
AcDbLine
 62
7
  6
CONTINUOUS
 10
-6.309375
 20
14.7730030939
 11
-6.225
 21
14.8591733065
  0
LINE
  5
258
100
AcDbEntity
  8
0
100
AcDbLine
 62
7
  6
CONTINUOUS
 10
-6.39375
 20
14.8878967073
 11
-6.478125
 21
14.8304499056
  0
LINE
  5
259
100
AcDbEntity
  8
0
100
AcDbLine
 62
7
  6
CONTINUOUS
 10
-6.4500001073
 20
14.6868328839
 11
-6.309375
 21
14.7730030939
  0
LWPOLYLINE
  5
25A
100
AcDbEntity
  8
RACCORDO
100
AcDbPolyline
 62
7
  6
CONTINUOUS
 90
10
 70
0
 10
-12.4963292919
 20
-3.0918905195
 10
-12.4941163644
 20
-3.1204894047
 10
-12.4874860442
 20
-3.1496904726
 10
-12.4760437253
 20
-3.178719121
 10
-12.4597593061
 20
-3.2063215312
 10
-12.4384220211
 20
-3.2318887036
 10
-12.4111518052
 20
-3.2550442809
 10
-12.3775943627
 20
-3.2742153327
 10
-12.3385807565
 20
-3.2871569778
 10
-12.2952848264
 20
-3.2918905195
  0
LINE
  5
25B
100
AcDbEntity
  8
0
100
AcDbLine
 62
7
  6
CONTINUOUS
 10
-13.5
 20
-37.9918905195
 11
-13.5
 21
-31.49184876
  0
LINE
  5
25C
100
AcDbEntity
  8
RACCORDO
100
AcDbLine
 62
7
  6
CONTINUOUS
 10
-12.4963292919
 20
-4.4955612275
 11
-12.4963292919
 21
-3.0918905195
  0
LINE
  5
25D
100
AcDbEntity
  8
RACCORDO
100
AcDbLine
 62
7
  6
CONTINUOUS
 10
-12.4931876706
 20
25.5081094805
 11
-12.4931876706
 21
-3.0918905195
  0
LINE
  5
25E
100
AcDbEntity
  8
RACCORDO
100
AcDbLine
 62
253
  6
CONTINUOUS
 10
-12.2963320335
 20
-4.4966029515
 11
-12.2963320335
 21
-3.2918905195
  0
LINE
  5
25F
100
AcDbEntity
  8
RACCORDO
100
AcDbLine
 62
253
  6
CONTINUOUS
 10
-12.2931904121
 20
25.5081094805
 11
-12.2931904121
 21
-3.2918905195
  0
LINE
  5
260
100
AcDbEntity
  8
0
100
AcDbLine
 62
7
  6
CONTINUOUS
 10
-12.0
 20
-29.99184876
 11
-12.0
 21
-27.4918905195
  0
LINE
  5
261
100
AcDbEntity
  8
0
100
AcDbLine
 62
7
  6
CONTINUOUS
 10
-10.1468749984
 20
4.2847052519
 11
-10.1734374992
 21
4.1570456926
  0
LINE
  5
262
100
AcDbEntity
  8
0
100
AcDbLine
 62
7
  6
CONTINUOUS
 10
-8.3293749985
 20
18.1570456747
 11
-8.3546874992
 21
18.0421520714
  0
LINE
  5
263
100
AcDbEntity
  8
0
100
AcDbLine
 62
7
  6
CONTINUOUS
 10
-7.4940624759
 20
17.8698115859
 11
-7.46875
 21
17.9847051893
  0
LINE
  5
264
100
AcDbEntity
  8
0
100
AcDbLine
 62
7
  6
CONTINUOUS
 10
-9.5437499983
 20
15.8070456747
 11
-9.5718749992
 21
15.6921520714
  0
LINE
  5
265
100
AcDbEntity
  8
0
100
AcDbLine
 62
7
  6
CONTINUOUS
 10
-8.6156249732
 20
15.5198115859
 11
-8.5875
 21
15.6347051893
  0
LINE
  5
266
100
AcDbEntity
  8
0
100
AcDbLine
 62
7
  6
CONTINUOUS
 10
-7.490625
 20
15.0602371324
 11
-7.5187500536
 21
14.9740669299
  0
LINE
  5
267
100
AcDbEntity
  8
0
100
AcDbLine
 62
7
  6
CONTINUOUS
 10
-7.06875
 20
15.6921520714
 11
-7.0968750536
 21
15.6059817884
  0
LINE
  5
268
100
AcDbEntity
  8
0
100
AcDbLine
 62
7
  6
CONTINUOUS
 10
-7.40625
 20
14.8878967073
 11
-7.3500000536
 21
15.0315137316
  0
LINE
  5
269
100
AcDbEntity
  8
0
100
AcDbLine
 62
7
  6
CONTINUOUS
 10
-7.0125000536
 20
15.8070456747
 11
-7.06875
 21
15.6921520714
  0
LINE
  5
26A
100
AcDbEntity
  8
0
100
AcDbLine
 62
7
  6
CONTINUOUS
 10
-6.225
 20
14.8591733065
 11
-6.1687498927
 21
14.9740669299
  0
LINE
  5
26B
100
AcDbEntity
  8
0
100
AcDbLine
 62
7
  6
CONTINUOUS
 10
-10.040625
 20
4.1570456926
 11
-9.9874999937
 21
4.252790362
  0
LINE
  5
26C
100
AcDbEntity
  8
0
100
AcDbLine
 62
7
  6
CONTINUOUS
 10
2.0787501621
 20
25.6322284564
 11
2.1425001621
 21
25.7343561038
  0
LINE
  5
26D
100
AcDbEntity
  8
0
100
AcDbLine
 62
7
  6
CONTINUOUS
 10
-6.2812501073
 20
15.0602371324
 11
-6.39375
 21
14.8878967073
  0
LINE
  5
26E
100
AcDbEntity
  8
0
100
AcDbLine
 62
7
  6
CONTINUOUS
 10
6.4033333111
 20
16.3421520178
 11
6.3333333111
 21
16.3123647873
  0
LINE
  5
26F
100
AcDbEntity
  8
0
100
AcDbLine
 62
7
  6
CONTINUOUS
 10
7.4533333778
 20
16.3421520178
 11
7.3833333778
 21
16.3123647873
  0
LINE
  5
270
100
AcDbEntity
  8
0
100
AcDbLine
 62
7
  6
CONTINUOUS
 10
6.4033333111
 20
15.7166201148
 11
6.3333333111
 21
15.6868328844
  0
LINE
  5
271
100
AcDbEntity
  8
SMUSSO
100
AcDbLine
 62
7
  6
CONTINUOUS
 10
11.9999999999
 20
-29.9918055298
 11
13.4999999999
 21
-31.4918055298
  0
LWPOLYLINE
  5
272
100
AcDbEntity
  8
0
100
AcDbPolyline
 62
7
  6
CONTINUOUS
 90
30
 70
0
 10
-6.2353305118
 20
-9.5618837745
 10
-6.1734176826
 20
-9.625656369
 10
-6.1085008143
 20
-9.6876049772
 10
-6.0398381472
 20
-9.7474587001
 10
-5.968171441
 20
-9.8054884367
 10
-5.8966044243
 20
-9.8592940882
 10
-5.8260642465
 20
-9.9081356638
 10
-5.7556237582
 20
-9.9527531542
 10
-5.6856052391
 20
-9.9929664327
 10
-5.6159867956
 20
-10.0287428518
 10
-5.5467903213
 20
-10.060115059
 10
-5.4784037777
 20
-10.0870008692
 10
-5.4107598029
 20
-10.1096150313
 10
-5.3439257589
 20
-10.1277427963
 10
-5.2784916922
 20
-10.1406577325
 10
-5.2140931075
 20
-10.1486199234
 10
-5.1510945003
 20
-10.1513692853
 10
-5.0911794032
 20
-10.1473991352
 10
-5.032454664
 20
-10.1373847318
 10
-4.9768134349
 20
-10.1206508162
 10
-4.9316187055
 20
-10.0936649296
 10
-4.8987463153
 20
-10.0530049957
 10
-4.8763204247
 20
-10.0020930907
 10
-4.8660765046
 20
-9.947662984
 10
-4.8707985455
 20
-9.8908210851
 10
-4.8877025569
 20
-9.8304609845
 10
-4.9101720374
 20
-9.7699972235
 10
-4.9360014868
 20
-9.7105679825
 10
-4.9673964054
 20
-9.6510350812
 10
-5.0043567931
 20
-9.5913985195
  0
LINE
  5
273
100
AcDbEntity
  8
0
100
AcDbLine
 62
7
  6
CONTINUOUS
 10
-6.9593505404
 20
-9.8427575195
 11
-7.2760515404
 21
-9.4499745195
  0
LINE
  5
274
100
AcDbEntity
  8
0
100
AcDbLine
 62
7
  6
CONTINUOUS
 10
-7.0206885404
 20
-8.8629855195
 11
-7.2369195404
 21
-8.5948815195
  0
LINE
  5
275
100
AcDbEntity
  8
0
100
AcDbLine
 62
7
  6
CONTINUOUS
 10
-8.4181785404
 20
-8.5018725195
 11
-7.0481725404
 21
-10.2011395195
  0
LINE
  5
276
100
AcDbEntity
  8
0
100
AcDbLine
 62
7
  6
CONTINUOUS
 10
-8.2467235404
 20
-8.5948815195
 11
-7.0245105404
 21
-10.1110435195
  0
LINE
  5
277
100
AcDbEntity
  8
0
100
AcDbLine
 62
7
  6
CONTINUOUS
 10
-5.9819445404
 20
-10.1110435195
 11
-6.1981755404
 21
-9.8427575195
  0
LINE
  5
278
100
AcDbEntity
  8
0
100
AcDbLine
 62
7
  6
CONTINUOUS
 10
-7.4922825404
 20
-9.1818705195
 11
-7.7492835404
 21
-8.8629855195
  0
LINE
  5
279
100
AcDbEntity
  8
0
100
AcDbLine
 62
7
  6
CONTINUOUS
 10
-6.6067925404
 20
-9.4499745195
 11
-6.8228415404
 21
-9.1818705195
  0
LINE
  5
27A
100
AcDbEntity
  8
0
100
AcDbLine
 62
7
  6
CONTINUOUS
 10
-10.25
 20
-19.4918905195
 11
-10.25
 21
-19.2918905195
  0
LINE
  5
27B
100
AcDbEntity
  8
0
100
AcDbLine
 62
7
  6
CONTINUOUS
 10
-10.2
 20
3.167683952
 11
-10.2
 21
3.0081094805
  0
LINE
  5
27C
100
AcDbEntity
  8
0
100
AcDbLine
 62
7
  6
CONTINUOUS
 10
-10.0
 20
-19.2918905195
 11
-10.0
 21
-37.9918905195
  0
LINE
  5
27D
100
AcDbEntity
  8
0
100
AcDbLine
 62
7
  6
CONTINUOUS
 10
-9.7
 20
16.6081094805
 11
-9.7
 21
16.4081094805
  0
LINE
  5
27E
100
AcDbEntity
  8
0
100
AcDbLine
 62
7
  6
CONTINUOUS
 10
-9.6
 20
14.8017265048
 11
-9.6
 21
14.6581094805
  0
LINE
  5
27F
100
AcDbEntity
  8
0
100
AcDbLine
 62
7
  6
CONTINUOUS
 10
-9.403125
 20
4.1570456926
 11
-9.403125
 21
4.0932158236
  0
LINE
  5
280
100
AcDbEntity
  8
0
100
AcDbLine
 62
7
  6
CONTINUOUS
 10
-9.24375
 20
3.0081094805
 11
-9.24375
 21
3.167683952
  0
LINE
  5
281
100
AcDbEntity
  8
0
100
AcDbLine
 62
7
  6
CONTINUOUS
 10
-9.24375
 20
4.0932158236
 11
-9.24375
 21
4.1570456926
  0
LINE
  5
282
100
AcDbEntity
  8
0
100
AcDbLine
 62
7
  6
CONTINUOUS
 10
-9.0312499747
 20
3.6464073662
 11
-9.0312499747
 21
3.4549179826
  0
LINE
  5
283
100
AcDbEntity
  8
ASSI
100
AcDbLine
 62
7
  6
CONTINUOUS
 10
-9.0
 20
-19.4918905195
 11
-9.0
 21
-19.2918905195
  0
LINE
  5
284
100
AcDbEntity
  8
0
100
AcDbLine
 62
7
  6
CONTINUOUS
 10
-8.75625
 20
15.6921520714
 11
-8.75625
 21
15.6347051893
  0
LINE
  5
285
100
AcDbEntity
  8
0
100
AcDbLine
 62
7
  6
CONTINUOUS
 10
-8.5875
 20
14.6581094805
 11
-8.5875
 21
14.8017265048
  0
LINE
  5
286
100
AcDbEntity
  8
0
100
AcDbLine
 62
7
  6
CONTINUOUS
 10
-8.5875
 20
15.6347051893
 11
-8.5875
 21
15.6921520714
  0
LINE
  5
287
100
AcDbEntity
  8
0
100
AcDbLine
 62
7
  6
CONTINUOUS
 10
-8.3937500507
 20
4.252790362
 11
-8.3937500507
 21
3.6464073662
  0
LINE
  5
288
100
AcDbEntity
  8
0
100
AcDbLine
 62
7
  6
CONTINUOUS
 10
-8.3937500507
 20
3.4549179826
 11
-8.3937500507
 21
3.0081094805
  0
LINE
  5
289
100
AcDbEntity
  8
0
100
AcDbLine
 62
7
  6
CONTINUOUS
 10
-8.38
 20
17.1517265048
 11
-8.38
 21
17.0081094805
  0
LINE
  5
28A
100
AcDbEntity
  8
0
100
AcDbLine
 62
7
  6
CONTINUOUS
 10
-8.3624999732
 20
16.0081094805
 11
-8.3624999732
 21
15.2613009785
  0
LINE
  5
28B
100
AcDbEntity
  8
0
100
AcDbLine
 62
7
  6
CONTINUOUS
 10
-8.2343750507
 20
3.0081094805
 11
-8.2343750507
 21
3.4549179826
  0
LINE
  5
28C
100
AcDbEntity
  8
0
100
AcDbLine
 62
7
  6
CONTINUOUS
 10
-8.2343750507
 20
3.6464073662
 11
-8.2343750507
 21
4.5081094805
  0
LINE
  5
28D
100
AcDbEntity
  8
0
100
AcDbLine
 62
7
  6
CONTINUOUS
 10
-8.2218749464
 20
15.4049179826
 11
-8.2218749464
 21
15.8644924764
  0
LINE
  5
28E
100
AcDbEntity
  8
0
100
AcDbLine
 62
7
  6
CONTINUOUS
 10
-7.96875
 20
3.4549179826
 11
-7.96875
 21
3.6464073662
  0
LINE
  5
28F
100
AcDbEntity
  8
0
100
AcDbLine
 62
7
  6
CONTINUOUS
 10
-7.7296875
 20
4.0932158236
 11
-7.7562500507
 21
3.8698115949
  0
LINE
  5
290
100
AcDbEntity
  8
0
100
AcDbLine
 62
7
  6
CONTINUOUS
 10
-7.6234376013
 20
3.8698115949
 11
-7.5968748987
 21
4.0613009338
  0
LINE
  5
291
100
AcDbEntity
  8
0
100
AcDbLine
 62
7
  6
CONTINUOUS
 10
-6.984375
 20
15.4336413835
 11
-6.9562499464
 21
15.6059817884
  0
LINE
  5
292
100
AcDbEntity
  8
0
100
AcDbLine
 62
7
  6
CONTINUOUS
 10
-6.2531248927
 20
15.2325775776
 11
-6.2812501073
 21
15.0602371324
  0
LINE
  5
293
100
AcDbEntity
  8
0
100
AcDbLine
 62
7
  6
CONTINUOUS
 10
-7.0968750536
 20
15.6059817884
 11
-7.1249999464
 21
15.4623647843
  0
LINE
  5
294
100
AcDbEntity
  8
0
100
AcDbLine
 62
7
  6
CONTINUOUS
 10
-6.140625
 20
15.0602371324
 11
-6.1125001073
 21
15.2038541768
  0
LINE
  5
295
100
AcDbEntity
  8
0
100
AcDbLine
 62
7
  6
CONTINUOUS
 10
-9.2703124747
 20
3.9655562643
 11
-9.24375
 21
4.0932158236
  0
LINE
  5
296
100
AcDbEntity
  8
0
100
AcDbLine
 62
7
  6
CONTINUOUS
 10
-7.5968748987
 20
4.0613009338
 11
-7.5703125
 21
4.1570456926
  0
LINE
  5
297
100
AcDbEntity
  8
0
100
AcDbLine
 62
7
  6
CONTINUOUS
 10
-7.5968748987
 20
3.5506626521
 11
-7.5703125
 21
3.6464073662
  0
LINE
  5
298
100
AcDbEntity
  8
0
100
AcDbLine
 62
7
  6
CONTINUOUS
 10
-1.64
 20
24.9939305886
 11
-1.3000000203
 21
26.1939305886
  0
LINE
  5
299
100
AcDbEntity
  8
0
100
AcDbLine
 62
7
  6
CONTINUOUS
 10
-1.4275000203
 20
26.1939305886
 11
-1.7250000101
 21
25.1471220776
  0
LINE
  5
29A
100
AcDbEntity
  8
0
100
AcDbLine
 62
7
  6
CONTINUOUS
 10
-6.1687498927
 20
14.9740669299
 11
-6.140625
 21
15.0602371324
  0
LINE
  5
29B
100
AcDbEntity
  8
0
100
AcDbLine
 62
7
  6
CONTINUOUS
 10
-7.6765625507
 20
4.252790362
 11
-7.7296875
 21
4.0932158236
  0
LINE
  5
29C
100
AcDbEntity
  8
0
100
AcDbLine
 62
7
  6
CONTINUOUS
 10
-9.403125
 20
4.0932158236
 11
-9.4562500253
 21
3.9655562643
  0
LINE
  5
29D
100
AcDbEntity
  8
0
100
AcDbLine
 62
7
  6
CONTINUOUS
 10
-9.3234375
 20
3.8698115949
 11
-9.2703124747
 21
3.9655562643
  0
LINE
  5
29E
100
AcDbEntity
  8
0
100
AcDbLine
 62
7
  6
CONTINUOUS
 10
-7.5703125
 20
4.1570456926
 11
-7.5171873987
 21
4.252790362
  0
LWPOLYLINE
  5
29F
100
AcDbEntity
  8
RACCORDO
100
AcDbPolyline
 62
7
  6
CONTINUOUS
 90
10
 70
0
 10
9.1621777632
 20
34.0012971511
 10
9.1600947644
 20
33.9977325076
 10
9.1558113357
 20
33.9877296441
 10
9.149327477
 20
33.9718836408
 10
9.1402643692
 20
33.9509613736
 10
9.1290008315
 20
33.9258177725
 10
9.1166733214
 20
33.8973260367
 10
9.1036606583
 20
33.8664212093
 10
9.0895840229
 20
33.8340948469
 10
9.0744434153
 20
33.8012998927
  0
LINE
  5
2A0
100
AcDbEntity
  8
0
100
AcDbLine
 62
7
  6
CONTINUOUS
 10
-7.5968748987
 20
4.3804499213
 11
-7.6765625507
 21
4.252790362
  0
LINE
  5
2A1
100
AcDbEntity
  8
0
100
AcDbLine
 62
7
  6
CONTINUOUS
 10
-8.3937500507
 20
4.5081094805
 11
-9.0312499747
 21
3.6464073662
  0
LINE
  5
2A2
100
AcDbEntity
  8
0
100
AcDbLine
 62
7
  6
CONTINUOUS
 10
-8.8453125
 20
3.6464073662
 11
-8.3937500507
 21
4.252790362
  0
LINE
  5
2A3
100
AcDbEntity
  8
0
100
AcDbLine
 62
7
  6
CONTINUOUS
 10
-10.040625
 20
4.4123648111
 11
-10.1468749984
 21
4.2847052519
  0
LINE
  5
2A4
100
AcDbEntity
  8
0
100
AcDbLine
 62
7
  6
CONTINUOUS
 10
-7.5703125
 20
3.6464073662
 11
-7.5171873987
 21
3.7102371458
  0
LINE
  5
2A5
100
AcDbEntity
  8
0
100
AcDbLine
 62
7
  6
CONTINUOUS
 10
-9.4562500253
 20
3.9655562643
 11
-10.2
 21
3.167683952
  0
LINE
  5
2A6
100
AcDbEntity
  8
0
100
AcDbLine
 62
7
  6
CONTINUOUS
 10
-9.9874999937
 20
3.167683952
 11
-9.3234375
 21
3.8698115949
  0
LINE
  5
2A7
100
AcDbEntity
  8
0
100
AcDbLine
 62
7
  6
CONTINUOUS
 10
-9.9874999937
 20
4.252790362
 11
-9.9078124937
 21
4.3166201417
  0
LINE
  5
2A8
100
AcDbEntity
  8
0
100
AcDbLine
 62
7
  6
CONTINUOUS
 10
-7.5171873987
 20
4.252790362
 11
-7.4374998987
 21
4.3166201417
  0
LINE
  5
2A9
100
AcDbEntity
  8
0
100
AcDbLine
 62
7
  6
CONTINUOUS
 10
-7.4640626013
 20
4.4761945907
 11
-7.5968748987
 21
4.3804499213
  0
LINE
  5
2AA
100
AcDbEntity
  8
0
100
AcDbLine
 62
7
  6
CONTINUOUS
 10
6.4733333111
 20
16.2230030958
 11
6.52
 21
16.2527903263
  0
LINE
  5
2AB
100
AcDbEntity
  8
0
100
AcDbLine
 62
7
  6
CONTINUOUS
 10
7.4766666222
 20
16.1932158653
 11
7.57
 21
16.2527903263
  0
LINE
  5
2AC
100
AcDbEntity
  8
0
100
AcDbLine
 62
7
  6
CONTINUOUS
 10
-9.9343750063
 20
4.4761945907
 11
-10.040625
 21
4.4123648111
  0
LWPOLYLINE
  5
2AD
100
AcDbEntity
  8
0
100
AcDbPolyline
 62
7
  6
CONTINUOUS
 90
3
 70
0
 10
-4.0564375404
 20
-8.5916048831
 10
-4.0247300623
 20
-8.5893921432
 10
-3.9958136332
 20
-8.5917451823
  0
LWPOLYLINE
  5
2AE
100
AcDbEntity
  8
0
100
AcDbPolyline
 62
7
  6
CONTINUOUS
 90
12
 70
0
 10
-4.8394538098
 20
-9.081035896
 10
-4.7795357078
 20
-9.0772694223
 10
-4.723972163
 20
-9.0639568875
 10
-4.6727631753
 20
-9.0410982915
 10
-4.6251577502
 20
-9.0078950681
 10
-4.5819068823
 20
-8.9651457836
 10
-4.5452635552
 20
-8.9152461368
 10
-4.516395721
 20
-8.8578320706
 10
-4.4941354277
 20
-8.793267642
 10
-4.4772318032
 20
-8.7250407214
 10
-4.4652678903
 20
-8.654313932
 10
-4.4586606462
 20
-8.5799246506
  0
LINE
  5
2AF
100
AcDbEntity
  8
0
100
AcDbLine
 62
7
  6
CONTINUOUS
 10
-7.0481725404
 20
-10.2011395195
 11
-4.4222815404
 21
-10.2011395195
  0
LINE
  5
2B0
100
AcDbEntity
  8
0
100
AcDbLine
 62
7
  6
CONTINUOUS
 10
-7.0245105404
 20
-10.1110435195
 11
-5.9819445404
 21
-10.1110435195
  0
LINE
  5
2B1
100
AcDbEntity
  8
0
100
AcDbLine
 62
7
  6
CONTINUOUS
 10
-6.1981755404
 20
-9.8427575195
 11
-6.9593505404
 21
-9.8427575195
  0
LINE
  5
2B2
100
AcDbEntity
  8
0
100
AcDbLine
 62
7
  6
CONTINUOUS
 10
-5.0043567931
 20
-9.5913985195
 11
-5.2913901323
 21
-9.5913985195
  0
LINE
  5
2B3
100
AcDbEntity
  8
0
100
AcDbLine
 62
7
  6
CONTINUOUS
 10
-7.2760515404
 20
-9.4499745195
 11
-6.6067925404
 21
-9.4499745195
  0
LINE
  5
2B4
100
AcDbEntity
  8
0
100
AcDbLine
 62
7
  6
CONTINUOUS
 10
-6.8228415404
 20
-9.1818705195
 11
-7.4922825404
 21
-9.1818705195
  0
LINE
  5
2B5
100
AcDbEntity
  8
0
100
AcDbLine
 62
7
  6
CONTINUOUS
 10
-5.6947294885
 20
-9.0910465195
 11
-5.4078781582
 21
-9.0910465195
  0
LINE
  5
2B6
100
AcDbEntity
  8
0
100
AcDbLine
 62
7
  6
CONTINUOUS
 10
-7.7492835404
 20
-8.8629855195
 11
-7.0206885404
 21
-8.8629855195
  0
LINE
  5
2B7
100
AcDbEntity
  8
0
100
AcDbLine
 62
7
  6
CONTINUOUS
 10
-4.1350664115
 20
-8.6784245195
 11
-4.3796908911
 21
-8.6784245195
  0
LINE
  5
2B8
100
AcDbEntity
  8
0
100
AcDbLine
 62
7
  6
CONTINUOUS
 10
-7.2369195404
 20
-8.5948815195
 11
-8.2467235404
 21
-8.5948815195
  0
LINE
  5
2B9
100
AcDbEntity
  8
0
100
AcDbLine
 62
7
  6
CONTINUOUS
 10
-8.2476335404
 20
-8.4115945195
 11
-7.1837715404
 21
-8.4115945195
  0
LINE
  5
2BA
100
AcDbEntity
  8
0
100
AcDbLine
 62
7
  6
CONTINUOUS
 10
-6.9593505404
 20
-8.4115945195
 11
-6.6861505404
 21
-8.4115945195
  0
LINE
  5
2BB
100
AcDbEntity
  8
0
100
AcDbLine
 62
7
  6
CONTINUOUS
 10
-6.1102635404
 20
-8.4115945195
 11
-5.8175875404
 21
-8.4115945195
  0
LINE
  5
2BC
100
AcDbEntity
  8
0
100
AcDbLine
 62
7
  6
CONTINUOUS
 10
-4.3523889365
 20
-8.3082115195
 11
-4.1175930315
 21
-8.3082115195
  0
LINE
  5
2BD
100
AcDbEntity
  8
0
100
AcDbLine
 62
7
  6
CONTINUOUS
 10
-6.9675415404
 20
-8.1434905195
 11
-7.7445515404
 21
-8.1434905195
  0
LWPOLYLINE
  5
2BE
100
AcDbEntity
  8
0
100
AcDbPolyline
 62
7
  6
CONTINUOUS
 90
8
 70
0
 10
-3.9975426686
 20
-8.838596597
 10
-4.0280200936
 20
-8.8382528656
 10
-4.0581022433
 20
-8.828474047
 10
-4.0876128211
 20
-8.8104388355
 10
-4.1106542814
 20
-8.7862100001
 10
-4.1252607756
 20
-8.7564751304
 10
-4.1333981523
 20
-8.7205466369
 10
-4.1350664115
 20
-8.6784245195
  0
LWPOLYLINE
  5
2BF
100
AcDbEntity
  8
0
100
AcDbPolyline
 62
7
  6
CONTINUOUS
 90
13
 70
0
 10
-4.8394538098
 20
-8.8393236115
 10
-4.8682401626
 20
-8.8320290407
 10
-4.8926791547
 20
-8.8193704637
 10
-4.912770786
 20
-8.8013478804
 10
-4.9278711645
 20
-8.7767433862
 10
-4.9386241822
 20
-8.7467748857
 10
-4.9469615158
 20
-8.7150960935
 10
-4.9531001115
 20
-8.6827227575
 10
-4.9568230231
 20
-8.6486391298
 10
-4.9594110882
 20
-8.6134516808
 10
-4.9612912527
 20
-8.5773625674
 10
-4.9620365707
 20
-8.5401696329
 10
-4.9616470422
 20
-8.501872877
  0
LWPOLYLINE
  5
2C0
100
AcDbEntity
  8
0
100
AcDbPolyline
 62
7
  6
CONTINUOUS
 90
13
 70
0
 10
-4.8394538098
 20
-8.1644221425
 10
-4.8106674571
 20
-8.1717167134
 10
-4.786228465
 20
-8.1843752904
 10
-4.7661368337
 20
-8.2023978736
 10
-4.7510364552
 20
-8.2270023679
 10
-4.7402834375
 20
-8.2569708683
 10
-4.7319461039
 20
-8.2886496606
 10
-4.7258075082
 20
-8.3210229965
 10
-4.7220845965
 20
-8.3551066243
 10
-4.7194965314
 20
-8.3902940732
 10
-4.717616367
 20
-8.4263831866
 10
-4.716871049
 20
-8.4635761212
 10
-4.7172605775
 20
-8.501872877
  0
LWPOLYLINE
  5
2C1
100
AcDbEntity
  8
0
100
AcDbPolyline
 62
7
  6
CONTINUOUS
 90
6
 70
0
 10
-3.9958136332
 20
-8.5917451823
 10
-3.969688253
 20
-8.5986640004
 10
-3.94546173
 20
-8.6102738735
 10
-3.9240262559
 20
-8.6264495256
 10
-3.9080584062
 20
-8.6468151281
 10
-3.8981608471
 20
-8.672736436
  0
LWPOLYLINE
  5
2C2
100
AcDbEntity
  8
0
100
AcDbPolyline
 62
7
  6
CONTINUOUS
 90
31
 70
0
 10
-6.0289885631
 20
-8.6443843532
 10
-6.0895394658
 20
-8.6202710999
 10
-6.1493027176
 20
-8.5999468263
 10
-6.2083864508
 20
-8.5835096529
 10
-6.266682533
 20
-8.5708614592
 10
-6.3236860829
 20
-8.5620225331
 10
-6.3796030966
 20
-8.5567042401
 10
-6.434227578
 20
-8.5551952146
 10
-6.4864366584
 20
-8.5583816488
 10
-6.5372890984
 20
-8.5656491089
 10
-6.5857261373
 20
-8.5776120287
 10
-6.627448624
 20
-8.5969999014
 10
-6.6617060521
 20
-8.6257164564
 10
-6.689248928
 20
-8.6618579643
 10
-6.7080296204
 20
-8.7024427314
 10
-6.7165716556
 20
-8.7476737098
 10
-6.7163515074
 20
-8.7973479473
 10
-6.7097509657
 20
-8.8478748931
 10
-6.6967254666
 20
-8.8981634144
 10
-6.6773195741
 20
-8.9493046439
 10
-6.65404877
 20
-9.0009814296
 10
-6.6275668544
 20
-9.0530050995
 10
-6.5972200272
 20
-9.1055643257
 10
-6.5635623706
 20
-9.1589079715
 10
-6.5267725163
 20
-9.2129871543
 10
-6.4866718326
 20
-9.2678507569
 10
-6.4432785058
 20
-9.3238942906
 10
-6.3967952129
 20
-9.3811799663
 10
-6.347019277
 20
-9.4396455732
 10
-6.2933608536
 20
-9.4994999898
 10
-6.2353305118
 20
-9.5618837745
  0
LWPOLYLINE
  5
2C3
100
AcDbEntity
  8
0
100
AcDbPolyline
 62
7
  6
CONTINUOUS
 90
6
 70
0
 10
-5.7180495406
 20
-8.8171820845
 10
-5.7808937639
 20
-8.7752660294
 10
-5.8435195533
 20
-8.7371145883
 10
-5.9059786068
 20
-8.7028060974
 10
-5.9678304931
 20
-8.6719719376
 10
-6.0289885631
 20
-8.6443843532
  0
LWPOLYLINE
  5
2C4
100
AcDbEntity
  8
0
100
AcDbPolyline
 62
7
  6
CONTINUOUS
 90
6
 70
0
 10
-4.5848662483
 20
-8.0350014073
 10
-4.6284302762
 20
-7.9934144781
 10
-4.6759285869
 20
-7.9612004602
 10
-4.7265027117
 20
-7.9389973482
 10
-4.7810111193
 20
-7.9261671475
 10
-4.8394538098
 20
-7.9227098581
  0
LWPOLYLINE
  5
2C5
100
AcDbEntity
  8
0
100
AcDbPolyline
 62
7
  6
CONTINUOUS
 90
6
 70
0
 10
-5.4078781582
 20
-9.0910465195
 10
-5.4689754536
 20
-9.0272999927
 10
-5.530501538
 20
-8.9680000439
 10
-5.5924564112
 20
-8.9131466732
 10
-5.6550385815
 20
-8.8629410898
 10
-5.7180495406
 20
-8.8171820845
  0
LINE
  5
2C6
100
AcDbEntity
  8
0
100
AcDbLine
 62
7
  6
CONTINUOUS
 10
-4.4222815404
 20
-10.2011395195
 11
-5.7922875404
 21
-8.5018725195
  0
LWPOLYLINE
  5
2C7
100
AcDbEntity
  8
0
100
AcDbPolyline
 62
7
  6
CONTINUOUS
 90
18
 70
0
 10
-4.3267537307
 20
-8.9163108274
 10
-4.2813061043
 20
-8.9749624792
 10
-4.2233541719
 20
-9.0228469429
 10
-4.161277816
 20
-9.057292443
 10
-4.0953449512
 20
-9.0757589789
 10
-4.0252876629
 20
-9.0807865511
 10
-3.9586820904
 20
-9.0773233859
 10
-3.8968569474
 20
-9.0664509446
 10
-3.8384835203
 20
-9.0470877659
 10
-3.7871518068
 20
-9.0209376922
 10
-3.7438985081
 20
-8.9871161298
 10
-3.7076869231
 20
-8.9465076724
 10
-3.6789969469
 20
-8.9034699432
 10
-3.6586537952
 20
-8.859304751
 10
-3.6458322522
 20
-8.8127102871
 10
-3.638536566
 20
-8.7641387484
 10
-3.6341001815
 20
-8.7123025173
 10
-3.6351896537
 20
-8.6584892116
  0
LWPOLYLINE
  5
2C8
100
AcDbEntity
  8
0
100
AcDbPolyline
 62
7
  6
CONTINUOUS
 90
7
 70
0
 10
-5.1310957099
 20
-8.9196984907
 10
-5.0940413714
 20
-8.9687443467
 10
-5.0504773435
 20
-9.0103312759
 10
-5.0029790327
 20
-9.0425452939
 10
-4.952404908
 20
-9.0647484058
 10
-4.8978965003
 20
-9.0775786065
 10
-4.8394538098
 20
-9.081035896
  0
LWPOLYLINE
  5
2C9
100
AcDbEntity
  8
0
100
AcDbPolyline
 62
7
  6
CONTINUOUS
 90
10
 70
0
 10
-5.2913901323
 20
-9.5913985195
 10
-5.2714321051
 20
-9.6232084958
 10
-5.2548400899
 20
-9.6550204687
 10
-5.2416140868
 20
-9.686834438
 10
-5.2303751985
 20
-9.7193933703
 10
-5.2225023223
 20
-9.7519542991
 10
-5.2221321496
 20
-9.7822883249
 10
-5.2312077859
 20
-9.8110111549
 10
-5.2477861258
 20
-9.8375070819
 10
-5.270174545
 20
-9.8577000844
  0
LWPOLYLINE
  5
2CA
100
AcDbEntity
  8
0
100
AcDbPolyline
 62
7
  6
CONTINUOUS
 90
28
 70
0
 10
-6.2489571573
 20
-9.1867879724
 10
-6.2704105828
 20
-9.1515636473
 10
-6.2899438971
 20
-9.1165541393
 10
-6.307093678
 20
-9.0817437568
 10
-6.3227338904
 20
-9.0469439885
 10
-6.3359905694
 20
-9.0123433457
 10
-6.3437783986
 20
-8.9784916711
 10
-6.3456793398
 20
-8.9440542025
 10
-6.3421114312
 20
-8.9103657021
 10
-6.3312434705
 20
-8.8819802988
 10
-6.3109985388
 20
-8.8603836833
 10
-6.2834535552
 20
-8.8440901649
 10
-6.2530080746
 20
-8.8331968001
 10
-6.2204376545
 20
-8.8285518612
 10
-6.1849667374
 20
-8.8293070761
 10
-6.1486682061
 20
-8.8330146842
 10
-6.1120620547
 20
-8.8388580258
 10
-6.0746282889
 20
-8.8476537607
 10
-6.0368798096
 20
-8.8594041081
 10
-5.9988658046
 20
-8.8741516304
 10
-5.960537086
 20
-8.8918537651
 10
-5.9222589902
 20
-8.912385044
 10
-5.8841405065
 20
-8.9358402108
 10
-5.8460726456
 20
-8.9621245218
 10
-5.8080937765
 20
-8.990828278
 10
-5.7702166887
 20
-9.0218149132
 10
-5.7324285927
 20
-9.0552209937
 10
-5.6947294885
 20
-9.0910465195
  0
LINE
  5
2CB
100
AcDbEntity
  8
0
100
AcDbLine
 62
7
  6
CONTINUOUS
 10
-9.24375
 20
4.1570456926
 11
-9.2703124747
 21
4.2847052519
  0
LWPOLYLINE
  5
2CC
100
AcDbEntity
  8
0
100
AcDbPolyline
 62
7
  6
CONTINUOUS
 90
7
 70
0
 10
-4.4589611811
 20
-8.4217154623
 10
-4.4659186364
 20
-8.3457659726
 10
-4.4782824369
 20
-8.2740244078
 10
-4.4956848012
 20
-8.2054071007
 10
-4.5184935109
 20
-8.1409977186
 10
-4.5478119098
 20
-8.0840472633
 10
-4.5848662483
 20
-8.0350014073
  0
LWPOLYLINE
  5
2CD
100
AcDbEntity
  8
0
100
AcDbPolyline
 62
7
  6
CONTINUOUS
 90
7
 70
0
 10
-5.2214975486
 20
-8.501872877
 10
-5.2199464386
 20
-8.5820302918
 10
-5.2129889833
 20
-8.6579797815
 10
-5.2006251828
 20
-8.7297213463
 10
-5.1832228184
 20
-8.7983386533
 10
-5.1604141088
 20
-8.8627480354
 10
-5.1310957099
 20
-8.9196984907
  0
LINE
  5
2CE
100
AcDbEntity
  8
0
100
AcDbLine
 62
7
  6
CONTINUOUS
 10
-7.7562500507
 20
3.8698115949
 11
-7.7562500507
 21
3.6464073662
  0
LINE
  5
2CF
100
AcDbEntity
  8
0
100
AcDbLine
 62
7
  6
CONTINUOUS
 10
-7.6234376013
 20
3.8059818153
 11
-7.6234376013
 21
3.8698115949
  0
LINE
  5
2D0
100
AcDbEntity
  8
0
100
AcDbLine
 62
7
  6
CONTINUOUS
 10
-7.620625
 20
18.0421520714
 11
-7.620625
 21
17.9847051893
  0
LINE
  5
2D1
100
AcDbEntity
  8
0
100
AcDbLine
 62
7
  6
CONTINUOUS
 10
-7.5968748987
 20
3.4549179826
 11
-7.5968748987
 21
3.5506626521
  0
LINE
  5
2D2
100
AcDbEntity
  8
0
100
AcDbLine
 62
7
  6
CONTINUOUS
 10
-7.490625
 20
15.1176839341
 11
-7.490625
 21
15.0602371324
  0
LINE
  5
2D3
100
AcDbEntity
  8
0
100
AcDbLine
 62
7
  6
CONTINUOUS
 10
-7.46875
 20
17.0081094805
 11
-7.46875
 21
17.1517265048
  0
LINE
  5
2D4
100
AcDbEntity
  8
0
100
AcDbLine
 62
7
  6
CONTINUOUS
 10
-7.46875
 20
17.9847051893
 11
-7.46875
 21
18.0421520714
  0
LINE
  5
2D5
100
AcDbEntity
  8
0
100
AcDbLine
 62
7
  6
CONTINUOUS
 10
-7.40625
 20
15.8644924764
 11
-7.40625
 21
16.0081094805
  0
LINE
  5
2D6
100
AcDbEntity
  8
0
100
AcDbLine
 62
7
  6
CONTINUOUS
 10
-7.3500000536
 20
15.0315137316
 11
-7.3500000536
 21
15.1464073349
  0
LINE
  5
2D7
100
AcDbEntity
  8
0
100
AcDbLine
 62
7
  6
CONTINUOUS
 10
-7.1249999464
 20
15.4623647843
 11
-7.1249999464
 21
15.2038541768
  0
LINE
  5
2D8
100
AcDbEntity
  8
0
100
AcDbLine
 62
7
  6
CONTINUOUS
 10
-7.0
 20
-19.4918905195
 11
-7.0
 21
-19.2918905195
  0
LINE
  5
2D9
100
AcDbEntity
  8
0
100
AcDbLine
 62
7
  6
CONTINUOUS
 10
-6.984375
 20
15.2325775776
 11
-6.984375
 21
15.4336413835
  0
LINE
  5
2DA
100
AcDbEntity
  8
0
100
AcDbLine
 62
7
  6
CONTINUOUS
 10
-6.9328125
 20
3.5506626521
 11
-6.9328125
 21
3.4549179826
  0
LINE
  5
2DB
100
AcDbEntity
  8
0
100
AcDbLine
 62
7
  6
CONTINUOUS
 10
-6.7999998987
 20
3.4230030928
 11
-6.7999998987
 21
3.5825775866
  0
LINE
  5
2DC
100
AcDbEntity
  8
0
100
AcDbLine
 62
7
  6
CONTINUOUS
 10
-6.2531248927
 20
15.4336413835
 11
-6.2531248927
 21
15.2325775776
  0
LINE
  5
2DD
100
AcDbEntity
  8
0
100
AcDbLine
 62
7
  6
CONTINUOUS
 10
-6.2
 20
16.4081094805
 11
-6.2
 21
16.6081094805
  0
LINE
  5
2DE
100
AcDbEntity
  8
0
100
AcDbLine
 62
7
  6
CONTINUOUS
 10
-6.1624998987
 20
3.8378967051
 11
-6.1624998987
 21
3.7102371458
  0
LINE
  5
2DF
100
AcDbEntity
  8
0
100
AcDbLine
 62
7
  6
CONTINUOUS
 10
-6.1125001073
 20
15.2038541768
 11
-6.1125001073
 21
15.4623647843
  0
LINE
  5
2E0
100
AcDbEntity
  8
0
100
AcDbLine
 62
7
  6
CONTINUOUS
 10
-5.7906251013
 20
4.1570456926
 11
-5.7906251013
 21
4.0932158236
  0
LINE
  5
2E1
100
AcDbEntity
  8
0
100
AcDbLine
 62
7
  6
CONTINUOUS
 10
-5.7640623987
 20
3.4868328724
 11
-5.7640623987
 21
3.3591733132
  0
LINE
  5
2E2
100
AcDbEntity
  8
0
100
AcDbLine
 62
7
  6
CONTINUOUS
 10
-5.6578125
 20
4.0932158236
 11
-5.6578125
 21
4.1570456926
  0
LINE
  5
2E3
100
AcDbEntity
  8
0
100
AcDbLine
 62
7
  6
CONTINUOUS
 10
-5.6312501013
 20
3.3591733132
 11
-5.6312501013
 21
3.4868328724
  0
LINE
  5
2E4
100
AcDbEntity
  8
0
100
AcDbLine
 62
7
  6
CONTINUOUS
 10
-6.534375
 20
4.2847052519
 11
-6.5609373987
 21
4.1570456926
  0
LINE
  5
2E5
100
AcDbEntity
  8
0
100
AcDbLine
 62
7
  6
CONTINUOUS
 10
-5.6843748987
 20
3.9655562643
 11
-5.6578125
 21
4.0932158236
  0
LINE
  5
2E6
100
AcDbEntity
  8
0
100
AcDbLine
 62
7
  6
CONTINUOUS
 10
-6.9328125
 20
3.4549179826
 11
-6.9593748987
 21
3.3591733132
  0
LINE
  5
2E7
100
AcDbEntity
  8
0
100
AcDbLine
 62
7
  6
CONTINUOUS
 10
-5.6578125
 20
3.2634286214
 11
-5.6312501013
 21
3.3591733132
  0
LINE
  5
2E8
100
AcDbEntity
  8
0
100
AcDbLine
 62
7
  6
CONTINUOUS
 10
0.59125
 20
25.402441214
 11
0.7825
 21
26.0918029412
  0
LINE
  5
2E9
100
AcDbEntity
  8
0
100
AcDbLine
 62
7
  6
CONTINUOUS
 10
0.4849999189
 20
24.9939305886
 11
0.5700000811
 21
25.3003135666
  0
LINE
  5
2EA
100
AcDbEntity
  8
0
100
AcDbLine
 62
7
  6
CONTINUOUS
 10
0.6975000811
 20
26.1939305886
 11
0.3574999189
 21
24.9939305886
  0
LINE
  5
2EB
100
AcDbEntity
  8
0
100
AcDbLine
 62
7
  6
CONTINUOUS
 10
-0.0037499189
 20
26.1939305886
 11
-0.3225000405
 21
25.1215901658
  0
LINE
  5
2EC
100
AcDbEntity
  8
0
100
AcDbLine
 62
7
  6
CONTINUOUS
 10
-0.2375
 20
24.9939305886
 11
0.0600000811
 21
25.9386114701
  0
LINE
  5
2ED
100
AcDbEntity
  8
0
100
AcDbLine
 62
7
  6
CONTINUOUS
 10
-6.853125
 20
3.2634286214
 11
-6.7999998987
 21
3.4230030928
  0
LINE
  5
2EE
100
AcDbEntity
  8
0
100
AcDbLine
 62
7
  6
CONTINUOUS
 10
-5.7906251013
 20
4.0932158236
 11
-5.8437498987
 21
3.9655562643
  0
LINE
  5
2EF
100
AcDbEntity
  8
0
100
AcDbLine
 62
7
  6
CONTINUOUS
 10
-5.7640623987
 20
3.3591733132
 11
-5.7906251013
 21
3.2953435336
  0
LINE
  5
2F0
100
AcDbEntity
  8
0
100
AcDbLine
 62
7
  6
CONTINUOUS
 10
-6.9593748987
 20
3.3591733132
 11
-7.0125
 21
3.2634286214
  0
LINE
  5
2F1
100
AcDbEntity
  8
0
100
AcDbLine
 62
7
  6
CONTINUOUS
 10
-6.4281251013
 20
4.1570456926
 11
-6.375
 21
4.252790362
  0
LINE
  5
2F2
100
AcDbEntity
  8
0
100
AcDbLine
 62
7
  6
CONTINUOUS
 10
-5.7375
 20
3.8698115949
 11
-5.6843748987
 21
3.9655562643
  0
LINE
  5
2F3
100
AcDbEntity
  8
0
100
AcDbLine
 62
7
  6
CONTINUOUS
 10
-5.7109376013
 20
3.167683952
 11
-5.6578125
 21
3.2634286214
  0
LINE
  5
2F4
100
AcDbEntity
  8
0
100
AcDbLine
 62
7
  6
CONTINUOUS
 10
-6.9328125
 20
3.135769051
 11
-6.853125
 21
3.2634286214
  0
LINE
  5
2F5
100
AcDbEntity
  8
0
100
AcDbLine
 62
7
  6
CONTINUOUS
 10
-6.4281251013
 20
4.4123648111
 11
-6.534375
 21
4.2847052519
  0
LINE
  5
2F6
100
AcDbEntity
  8
0
100
AcDbLine
 62
7
  6
CONTINUOUS
 10
-5.8437498987
 20
3.9655562643
 11
-5.896875
 21
3.9017264847
  0
LINE
  5
2F7
100
AcDbEntity
  8
0
100
AcDbLine
 62
7
  6
CONTINUOUS
 10
-5.7906251013
 20
3.2953435336
 11
-5.8437498987
 21
3.2315137316
  0
LINE
  5
2F8
100
AcDbEntity
  8
0
100
AcDbLine
 62
7
  6
CONTINUOUS
 10
6.4266666889
 20
15.5378967136
 11
6.52
 21
15.6272584129
  0
LINE
  5
2F9
100
AcDbEntity
  8
0
100
AcDbLine
 62
7
  6
CONTINUOUS
 10
-5.8437498987
 20
3.7740669254
 11
-5.7375
 21
3.8698115949
  0
LINE
  5
2FA
100
AcDbEntity
  8
0
100
AcDbLine
 62
7
  6
CONTINUOUS
 10
-7.4640626013
 20
3.9336413745
 11
-7.6234376013
 21
3.8059818153
  0
LINE
  5
2FB
100
AcDbEntity
  8
0
100
AcDbLine
 62
7
  6
CONTINUOUS
 10
-7.5171873987
 20
3.7102371458
 11
-7.4374998987
 21
3.7740669254
  0
LINE
  5
2FC
100
AcDbEntity
  8
0
100
AcDbLine
 62
7
  6
CONTINUOUS
 10
-6.375
 20
4.252790362
 11
-6.2953125
 21
4.3166201417
  0
LINE
  5
2FD
100
AcDbEntity
  8
0
100
AcDbLine
 62
7
  6
CONTINUOUS
 10
-7.0125
 20
3.2634286214
 11
-7.0921875
 21
3.1995988418
  0
LINE
  5
2FE
100
AcDbEntity
  8
0
100
AcDbLine
 62
7
  6
CONTINUOUS
 10
-5.7906251013
 20
3.1038541612
 11
-5.7109376013
 21
3.167683952
  0
LINE
  5
2FF
100
AcDbEntity
  8
0
100
AcDbLine
 62
7
  6
CONTINUOUS
 10
-7.0656251013
 20
3.0400243731
 11
-6.9328125
 21
3.135769051
  0
LINE
  5
300
100
AcDbEntity
  8
0
100
AcDbLine
 62
7
  6
CONTINUOUS
 10
-6.3218748987
 20
4.4761945907
 11
-6.4281251013
 21
4.4123648111
  0
LINE
  5
301
100
AcDbEntity
  8
0
100
AcDbLine
 62
7
  6
CONTINUOUS
 10
-5.8437498987
 20
3.2315137316
 11
-5.896875
 21
3.1995988418
  0
LINE
  5
302
100
AcDbEntity
  8
0
100
AcDbLine
 62
7
  6
CONTINUOUS
 10
-5.896875
 20
3.0400243731
 11
-5.7906251013
 21
3.1038541612
  0
LINE
  5
303
100
AcDbEntity
  8
0
100
AcDbLine
 62
7
  6
CONTINUOUS
 10
-7.4374998987
 20
4.3166201417
 11
-7.3578123987
 21
4.3485350315
  0
LINE
  5
304
100
AcDbEntity
  8
0
100
AcDbLine
 62
7
  6
CONTINUOUS
 10
-7.4374998987
 20
3.7740669254
 11
-7.3578123987
 21
3.8059818153
  0
LINE
  5
305
100
AcDbEntity
  8
0
100
AcDbLine
 62
7
  6
CONTINUOUS
 10
-5.896875
 20
3.9017264847
 11
-6.05625
 21
3.8378967051
  0
LINE
  5
306
100
AcDbEntity
  8
0
100
AcDbLine
 62
7
  6
CONTINUOUS
 10
-7.0921875
 20
3.1995988418
 11
-7.171875
 21
3.167683952
  0
LWPOLYLINE
  5
307
100
AcDbEntity
  8
0
100
AcDbPolyline
 62
7
  6
CONTINUOUS
 90
13
 70
0
 10
-4.8394538098
 20
-7.9227098581
 10
-4.8993719119
 20
-7.9264763318
 10
-4.9549354567
 20
-7.9397888666
 10
-5.0061444444
 20
-7.9626474625
 10
-5.0537498695
 20
-7.9958506859
 10
-5.0970007374
 20
-8.0385999704
 10
-5.1336440645
 20
-8.0884996173
 10
-5.1625118987
 20
-8.1459136835
 10
-5.184772192
 20
-8.210478112
 10
-5.2016758165
 20
-8.2787050327
 10
-5.2136397294
 20
-8.349431822
 10
-5.2202469734
 20
-8.4238211035
 10
-5.2214975486
 20
-8.501872877
  0
LINE
  5
308
100
AcDbEntity
  8
0
100
AcDbLine
 62
7
  6
CONTINUOUS
 10
-7.4278505404
 20
-7.7507085195
 11
-6.7447585404
 21
-7.7507085195
  0
LINE
  5
309
100
AcDbEntity
  8
0
100
AcDbLine
 62
7
  6
CONTINUOUS
 10
-6.5285275404
 20
-7.4826045195
 11
-7.2118015404
 21
-7.4826045195
  0
LINE
  5
30A
100
AcDbEntity
  8
0
100
AcDbLine
 62
7
  6
CONTINUOUS
 10
-6.9546185404
 20
-7.1639005195
 11
-6.2110985404
 21
-7.1639005195
  0
LINE
  5
30B
100
AcDbEntity
  8
RACCORDO
100
AcDbLine
 62
253
  6
CONTINUOUS
 10
-16.9931876706
 20
-6.9986685795
 11
-16.7931904121
 21
-6.9986685795
  0
LINE
  5
30C
100
AcDbEntity
  8
RACCORDO
100
AcDbLine
 62
253
  6
CONTINUOUS
 10
16.9931876706
 20
-6.9986685795
 11
16.7931904121
 21
-6.9986685795
  0
LINE
  5
30D
100
AcDbEntity
  8
0
100
AcDbLine
 62
7
  6
CONTINUOUS
 10
-4.5953755404
 20
-6.8956145195
 11
-4.8685755404
 21
-6.8956145195
  0
LINE
  5
30E
100
AcDbEntity
  8
0
100
AcDbLine
 62
7
  6
CONTINUOUS
 10
-5.4288095404
 20
-6.8956145195
 11
-5.7371385404
 21
-6.8956145195
  0
LINE
  5
30F
100
AcDbEntity
  8
0
100
AcDbLine
 62
7
  6
CONTINUOUS
 10
-5.9948675404
 20
-6.8956145195
 11
-7.0252395404
 21
-6.8956145195
  0
LINE
  5
310
100
AcDbEntity
  8
0
100
AcDbLine
 62
7
  6
CONTINUOUS
 10
-4.4222815404
 20
-6.8024245195
 11
-7.0481725404
 21
-6.8024245195
  0
LINE
  5
311
100
AcDbEntity
  8
0
100
AcDbLine
 62
7
  6
CONTINUOUS
 10
-9.4562500253
 20
4.252790362
 11
-9.403125
 21
4.1570456926
  0
LINE
  5
312
100
AcDbEntity
  8
0
100
AcDbLine
 62
7
  6
CONTINUOUS
 10
-4.3569037569
 20
-8.8477825794
 11
-4.3267537307
 21
-8.9163108274
  0
LINE
  5
313
100
AcDbEntity
  8
0
100
AcDbLine
 62
7
  6
CONTINUOUS
 10
-7.7296875
 20
3.4230030928
 11
-7.6765625507
 21
3.2634286214
  0
LINE
  5
314
100
AcDbEntity
  8
0
100
AcDbLine
 62
7
  6
CONTINUOUS
 10
-6.7999998987
 20
3.5825775866
 11
-6.853125
 21
3.7421520356
  0
LINE
  5
315
100
AcDbEntity
  8
0
100
AcDbLine
 62
7
  6
CONTINUOUS
 10
-7.5703125
 20
3.3591733132
 11
-7.5968748987
 21
3.4549179826
  0
LINE
  5
316
100
AcDbEntity
  8
0
100
AcDbLine
 62
7
  6
CONTINUOUS
 10
-6.9593748987
 20
3.6464073662
 11
-6.9328125
 21
3.5506626521
  0
LINE
  5
317
100
AcDbEntity
  8
0
100
AcDbLine
 62
7
  6
CONTINUOUS
 10
-6.853125
 20
4.1570456926
 11
-6.8796873987
 21
4.252790362
  0
LINE
  5
318
100
AcDbEntity
  8
0
100
AcDbLine
 62
7
  6
CONTINUOUS
 10
-6.5875001013
 20
3.3591733132
 11
-6.5609373987
 21
3.2634286214
  0
LWPOLYLINE
  5
319
100
AcDbEntity
  8
0
100
AcDbPolyline
 62
7
  6
CONTINUOUS
 90
5
 70
0
 10
-3.6351896537
 20
-8.6584892116
 10
-3.6478088947
 20
-8.6070138812
 10
-3.6739592086
 20
-8.5593148762
 10
-3.7116392913
 20
-8.5139538466
 10
-3.7608491429
 20
-8.4709307924
  0
LINE
  5
31A
100
AcDbEntity
  8
0
100
AcDbLine
 62
7
  6
CONTINUOUS
 10
-7.7562500507
 20
3.6464073662
 11
-7.7296875
 21
3.4230030928
  0
LWPOLYLINE
  5
31B
100
AcDbEntity
  8
0
100
AcDbPolyline
 62
7
  6
CONTINUOUS
 90
3
 70
0
 10
-4.3796908911
 20
-8.6784245195
 10
-4.374549477
 20
-8.7684871435
 10
-4.3569037569
 20
-8.8477825794
  0
LINE
  5
31C
100
AcDbEntity
  8
0
100
AcDbLine
 62
7
  6
CONTINUOUS
 10
-4.4574100711
 20
-8.501872877
 11
-4.4589611811
 21
-8.4217154623
  0
LWPOLYLINE
  5
31D
100
AcDbEntity
  8
0
100
AcDbPolyline
 62
7
  6
CONTINUOUS
 90
13
 70
0
 10
-4.9616470422
 20
-8.501872877
 10
-4.9620387961
 20
-8.4636641513
 10
-4.9612968771
 20
-8.4265336967
 10
-4.9594212852
 20
-8.3904815131
 10
-4.9568398407
 20
-8.3552986948
 10
-4.9531247234
 20
-8.3211941475
 10
-4.9469924723
 20
-8.2887945887
 10
-4.9386603941
 20
-8.2570879347
 10
-4.9279111822
 20
-8.227086269
 10
-4.9128094559
 20
-8.2024525602
 10
-4.8927100883
 20
-8.1844077975
 10
-4.8682582063
 20
-8.1717309916
 10
-4.8394538098
 20
-8.1644221425
  0
LWPOLYLINE
  5
31E
100
AcDbEntity
  8
0
100
AcDbPolyline
 62
7
  6
CONTINUOUS
 90
13
 70
0
 10
-4.7172605775
 20
-8.501872877
 10
-4.7168688236
 20
-8.5400816027
 10
-4.7176107426
 20
-8.5772120574
 10
-4.7194863345
 20
-8.613264241
 10
-4.7220677789
 20
-8.6484470593
 10
-4.7257828963
 20
-8.6825516065
 10
-4.7319151474
 20
-8.7149511653
 10
-4.7402472256
 20
-8.7466578194
 10
-4.7509964375
 20
-8.776659485
 10
-4.7660981638
 20
-8.8012931939
 10
-4.7861975314
 20
-8.8193379565
 10
-4.8106494134
 20
-8.8320147624
 10
-4.8394538098
 20
-8.8393236115
  0
LINE
  5
31F
100
AcDbEntity
  8
ASSI
100
AcDbLine
 62
7
  6
CONTINUOUS
 10
-5.0
 20
-19.4918905195
 11
-5.0
 21
-19.2918905195
  0
LINE
  5
320
100
AcDbEntity
  8
0
100
AcDbLine
 62
7
  6
CONTINUOUS
 10
-4.0564375404
 20
-8.4012201605
 11
-4.0564375404
 21
-8.5916048831
  0
LINE
  5
321
100
AcDbEntity
  8
0
100
AcDbLine
 62
7
  6
CONTINUOUS
 10
-4.4586606462
 20
-8.5799246506
 11
-4.4574100711
 21
-8.501872877
  0
LINE
  5
322
100
AcDbEntity
  8
0
100
AcDbLine
 62
7
  6
CONTINUOUS
 10
-4.3508248667
 20
-8.2562042988
 11
-4.3523889365
 21
-8.3082115195
  0
LINE
  5
323
100
AcDbEntity
  8
0
100
AcDbLine
 62
7
  6
CONTINUOUS
 10
-5.8085735404
 20
-7.3230555195
 11
-6.1102635404
 21
-8.4115945195
  0
LINE
  5
324
100
AcDbEntity
  8
0
100
AcDbLine
 62
7
  6
CONTINUOUS
 10
2.0362498379
 20
25.8364837512
 11
2.0150001621
 21
25.7598880156
  0
LINE
  5
325
100
AcDbEntity
  8
0
100
AcDbLine
 62
7
  6
CONTINUOUS
 10
2.1425001621
 20
25.7343561038
 11
2.1637498379
 21
25.8109518393
  0
LINE
  5
326
100
AcDbEntity
  8
0
100
AcDbLine
 62
7
  6
CONTINUOUS
 10
-5.7255115404
 20
-7.9585375195
 11
-5.4288095404
 21
-6.8956145195
  0
LINE
  5
327
100
AcDbEntity
  8
0
100
AcDbLine
 62
7
  6
CONTINUOUS
 10
6.52
 20
16.2527903263
 11
6.59
 21
16.3719392482
  0
LINE
  5
328
100
AcDbEntity
  8
0
100
AcDbLine
 62
7
  6
CONTINUOUS
 10
6.45
 20
16.4017264787
 11
6.4033333111
 21
16.3421520178
  0
LINE
  5
329
100
AcDbEntity
  8
0
100
AcDbLine
 62
7
  6
CONTINUOUS
 10
6.45
 20
15.7761945967
 11
6.4033333111
 21
15.7166201148
  0
LINE
  5
32A
100
AcDbEntity
  8
0
100
AcDbLine
 62
7
  6
CONTINUOUS
 10
7.5
 20
16.4017264787
 11
7.4533333778
 21
16.3421520178
  0
LINE
  5
32B
100
AcDbEntity
  8
0
100
AcDbLine
 62
7
  6
CONTINUOUS
 10
-6.0031248987
 20
3.0081094805
 11
-5.896875
 21
3.0400243731
  0
LINE
  5
32C
100
AcDbEntity
  8
RACCORDO
100
AcDbLine
 62
253
  6
CONTINUOUS
 10
-14.49322194
 20
-4.6987001073
 11
14.49322194
 21
-4.6987001073
  0
LINE
  5
32D
100
AcDbEntity
  8
RACCORDO
100
AcDbLine
 62
7
  6
CONTINUOUS
 10
-14.49322194
 20
-4.4987028489
 11
14.492743609
 21
-4.4987028489
  0
LINE
  5
32E
100
AcDbEntity
  8
RACCORDO
100
AcDbLine
 62
7
  6
CONTINUOUS
 10
-12.2931904121
 20
-3.2918905195
 11
12.2931904121
 21
-3.2918905195
  0
LINE
  5
32F
100
AcDbEntity
  8
RACCORDO
100
AcDbLine
 62
253
  6
CONTINUOUS
 10
-12.4931876706
 20
-3.0918905195
 11
12.4931876706
 21
-3.0918905195
  0
LINE
  5
330
100
AcDbEntity
  8
RACCORDO
100
AcDbLine
 62
253
  6
CONTINUOUS
 10
14.49322194
 20
-4.6987001073
 11
14.7135993294
 21
-4.7070004099
  0
LWPOLYLINE
  5
331
100
AcDbEntity
  8
RACCORDO
100
AcDbPolyline
 62
253
  6
CONTINUOUS
 90
16
 70
0
 10
14.4927436122
 20
-4.4987028917
 10
14.7279868235
 20
-4.509750394
 10
14.9674248069
 20
-4.5440890588
 10
15.2085511862
 20
-4.6032282015
 10
15.4496832628
 20
-4.6889034206
 10
15.686415423
 20
-4.8018239443
 10
15.9122045726
 20
-4.9404343362
 10
16.1238477611
 20
-5.1037013734
 10
16.3186679087
 20
-5.2905735412
 10
16.4920950205
 20
-5.4972202366
 10
16.6416597433
 20
-5.7203676669
 10
16.7663428904
 20
-5.9581129934
 10
16.864776499
 20
-6.2077447698
 10
16.9358662587
 20
-6.4663925278
 10
16.9788221566
 20
-6.7310505171
 10
16.9931876706
 20
-6.9986685795
  0
LWPOLYLINE
  5
332
100
AcDbEntity
  8
RACCORDO
100
AcDbPolyline
 62
253
  6
CONTINUOUS
 90
10
 70
0
 10
-12.2931904121
 20
-3.2918905195
 10
-12.3279195716
 20
-3.2888520701
 10
-12.3615935031
 20
-3.2798290436
 10
-12.3931890413
 20
-3.2650956002
 10
-12.4217461718
 20
-3.2450994081
 10
-12.4463972006
 20
-3.2204480414
 10
-12.4663931186
 20
-3.1918905195
 10
-12.4811263601
 20
-3.1602945481
 10
-12.4901492628
 20
-3.126620155
 10
-12.4931876706
 20
-3.0918905195
  0
LWPOLYLINE
  5
333
100
AcDbEntity
  8
RACCORDO
100
AcDbPolyline
 62
253
  6
CONTINUOUS
 90
15
 70
0
 10
14.7135993294
 20
-4.7070004099
 10
14.93275447
 20
-4.7390073907
 10
15.1506873618
 20
-4.7947210499
 10
15.3710861244
 20
-4.8744495467
 10
15.5902626382
 20
-4.9778847219
 10
15.7971525445
 20
-5.1041020975
 10
15.9911257096
 20
-5.2551945567
 10
16.1728122672
 20
-5.4290692163
 10
16.3330382592
 20
-5.6185229491
 10
16.4699376998
 20
-5.8237225292
 10
16.5853765749
 20
-6.0445011825
 10
16.6757788837
 20
-6.2731554591
 10
16.739952626
 20
-6.5071175425
 10
16.7790898022
 20
-6.7489552493
 10
16.7931904121
 20
-6.9986685795
  0
LINE
  5
334
100
AcDbEntity
  8
0
100
AcDbLine
 62
7
  6
CONTINUOUS
 10
-9.5359375253
 20
4.3166201417
 11
-9.4562500253
 21
4.252790362
  0
LINE
  5
335
100
AcDbEntity
  8
0
100
AcDbLine
 62
7
  6
CONTINUOUS
 10
-9.2703124747
 20
4.2847052519
 11
-9.3765625253
 21
4.4123648111
  0
LINE
  5
336
100
AcDbEntity
  8
0
100
AcDbLine
 62
7
  6
CONTINUOUS
 10
-7.0125
 20
3.7102371458
 11
-6.9593748987
 21
3.6464073662
  0
LINE
  5
337
100
AcDbEntity
  8
0
100
AcDbLine
 62
7
  6
CONTINUOUS
 10
-6.853125
 20
3.7421520356
 11
-6.9328125
 21
3.8378967051
  0
LINE
  5
338
100
AcDbEntity
  8
0
100
AcDbLine
 62
7
  6
CONTINUOUS
 10
-6.375
 20
3.2315137316
 11
-6.4281251013
 21
3.2953435336
  0
LINE
  5
339
100
AcDbEntity
  8
0
100
AcDbLine
 62
7
  6
CONTINUOUS
 10
-7.6765625507
 20
3.2634286214
 11
-7.5968748987
 21
3.135769051
  0
LINE
  5
33A
100
AcDbEntity
  8
0
100
AcDbLine
 62
7
  6
CONTINUOUS
 10
-6.8796873987
 20
4.252790362
 11
-6.9593748987
 21
4.3804499213
  0
LINE
  5
33B
100
AcDbEntity
  8
0
100
AcDbLine
 62
7
  6
CONTINUOUS
 10
-7.5171873987
 20
3.2634286214
 11
-7.5703125
 21
3.3591733132
  0
LINE
  5
33C
100
AcDbEntity
  8
0
100
AcDbLine
 62
7
  6
CONTINUOUS
 10
-6.5609373987
 20
3.2634286214
 11
-6.5078126013
 21
3.167683952
  0
LINE
  5
33D
100
AcDbEntity
  8
0
100
AcDbLine
 62
7
  6
CONTINUOUS
 10
-7.0390623987
 20
4.252790362
 11
-6.9859376013
 21
4.1570456926
  0
LINE
  5
33E
100
AcDbEntity
  8
0
100
AcDbLine
 62
7
  6
CONTINUOUS
 10
-5.6578125
 20
3.6144924764
 11
-5.7109376013
 21
3.7102371458
  0
LINE
  5
33F
100
AcDbEntity
  8
0
100
AcDbLine
 62
7
  6
CONTINUOUS
 10
-5.8437498987
 20
4.252790362
 11
-5.7906251013
 21
4.1570456926
  0
LINE
  5
340
100
AcDbEntity
  8
0
100
AcDbLine
 62
7
  6
CONTINUOUS
 10
-6.4281251013
 20
3.2953435336
 11
-6.4546875
 21
3.3591733132
  0
LINE
  5
341
100
AcDbEntity
  8
0
100
AcDbLine
 62
7
  6
CONTINUOUS
 10
-5.8171875
 20
3.6144924764
 11
-5.7640623987
 21
3.4868328724
  0
LINE
  5
342
100
AcDbEntity
  8
0
100
AcDbLine
 62
7
  6
CONTINUOUS
 10
-7.5187500536
 20
15.2038541768
 11
-7.490625
 21
15.1176839341
  0
LINE
  5
343
100
AcDbEntity
  8
0
100
AcDbLine
 62
7
  6
CONTINUOUS
 10
-8.5875
 20
15.6921520714
 11
-8.6156249732
 21
15.8070456747
  0
LINE
  5
344
100
AcDbEntity
  8
0
100
AcDbLine
 62
7
  6
CONTINUOUS
 10
-7.46875
 20
18.0421520714
 11
-7.4940624759
 21
18.1570456747
  0
LINE
  5
345
100
AcDbEntity
  8
0
100
AcDbLine
 62
7
  6
CONTINUOUS
 10
-5.6312501013
 20
3.4868328724
 11
-5.6578125
 21
3.6144924764
  0
LINE
  5
346
100
AcDbEntity
  8
0
100
AcDbLine
 62
7
  6
CONTINUOUS
 10
-5.6578125
 20
4.1570456926
 11
-5.6843748987
 21
4.2847052519
  0
LINE
  5
347
100
AcDbEntity
  8
0
100
AcDbLine
 62
7
  6
CONTINUOUS
 10
-7.1249999464
 20
15.2038541768
 11
-7.0968750536
 21
15.0602371324
  0
LINE
  5
348
100
AcDbEntity
  8
0
100
AcDbLine
 62
7
  6
CONTINUOUS
 10
-6.1125001073
 20
15.4623647843
 11
-6.140625
 21
15.6059817884
  0
LINE
  5
349
100
AcDbEntity
  8
0
100
AcDbLine
 62
7
  6
CONTINUOUS
 10
-6.9562499464
 20
15.0602371324
 11
-6.984375
 21
15.2325775776
  0
LINE
  5
34A
100
AcDbEntity
  8
0
100
AcDbLine
 62
7
  6
CONTINUOUS
 10
-6.2812501073
 20
15.6059817884
 11
-6.2531248927
 21
15.4336413835
  0
LWPOLYLINE
  5
34B
100
AcDbEntity
  8
0
100
AcDbPolyline
 62
7
  6
CONTINUOUS
 90
8
 70
0
 10
-3.8981608471
 20
-8.672736436
 10
-3.8937309125
 20
-8.7028476943
 10
-3.8956371786
 20
-8.7326758087
 10
-3.9046822101
 20
-8.7628963931
 10
-3.9200634425
 20
-8.7928338335
 10
-3.9402417587
 20
-8.8159881946
 10
-3.9664936717
 20
-8.8306839355
 10
-3.9975426686
 20
-8.838596597
  0
LINE
  5
34C
100
AcDbEntity
  8
0
100
AcDbLine
 62
7
  6
CONTINUOUS
 10
-1.9
 20
34.5081094805
 11
-1.9
 21
34.3052681127
  0
LINE
  5
34D
100
AcDbEntity
  8
RACCORDO
100
AcDbLine
 62
7
  6
CONTINUOUS
 10
-1.9
 20
34.3052681127
 11
-1.9
 21
34.0280860063
  0
LINE
  5
34E
100
AcDbEntity
  8
0
100
AcDbLine
 62
7
  6
CONTINUOUS
 10
-1.13
 20
26.1939305886
 11
-1.13
 21
24.9939305886
  0
LINE
  5
34F
100
AcDbEntity
  8
0
100
AcDbLine
 62
7
  6
CONTINUOUS
 10
-1.0025
 20
24.9939305886
 11
-1.0025
 21
26.1939305886
  0
LINE
  5
350
100
AcDbEntity
  8
ASSI
100
AcDbLine
 62
7
  6
CONTINUOUS
 10
-0.887554
 20
15.7900724485
 11
-0.887554
 21
16.5408894501
  0
LINE
  5
351
100
AcDbEntity
  8
ASSI
100
AcDbLine
 62
7
  6
CONTINUOUS
 10
-0.887554
 20
20.1353294805
 11
-0.887554
 21
20.8861464805
  0
LINE
  5
352
100
AcDbEntity
  8
0
100
AcDbLine
 62
7
  6
CONTINUOUS
 10
-0.8325000405
 20
26.1939305886
 11
-0.8325000405
 21
24.9939305886
  0
LINE
  5
353
100
AcDbEntity
  8
0
100
AcDbLine
 62
7
  6
CONTINUOUS
 10
-0.7050000405
 20
24.9939305886
 11
-0.7050000405
 21
25.9386114701
  0
LINE
  5
354
100
AcDbEntity
  8
0
100
AcDbLine
 62
7
  6
CONTINUOUS
 10
0.0600000811
 20
25.9386114701
 11
0.0600000811
 21
24.9939305886
  0
LINE
  5
355
100
AcDbEntity
  8
0
100
AcDbLine
 62
7
  6
CONTINUOUS
 10
0.1875000811
 20
24.9939305886
 11
0.1875000811
 21
26.1939305886
  0
LWPOLYLINE
  5
356
100
AcDbEntity
  8
0
100
AcDbPolyline
 62
7
  6
CONTINUOUS
 90
4
 70
0
 10
-4.1175930315
 20
-8.3082115195
 10
-4.108053501
 20
-8.2689095581
 10
-4.093394057
 20
-8.2376784624
 10
-4.0736146996
 20
-8.2145182321
  0
LWPOLYLINE
  5
357
100
AcDbEntity
  8
0
100
AcDbPolyline
 62
7
  6
CONTINUOUS
 90
7
 70
0
 10
-3.9059135099
 20
-8.3230610808
 10
-3.9182438535
 20
-8.3483655819
 10
-3.9376883059
 20
-8.3713896803
 10
-3.9615041706
 20
-8.3885459318
 10
-3.988777215
 20
-8.3986385217
 10
-4.0204216716
 20
-8.4028632645
 10
-4.0564375404
 20
-8.4012201605
  0
LINE
  5
358
100
AcDbEntity
  8
0
100
AcDbLine
 62
7
  6
CONTINUOUS
 10
6.52
 20
15.6272584129
 11
6.59
 21
15.7464073453
  0
LINE
  5
359
100
AcDbEntity
  8
0
100
AcDbLine
 62
7
  6
CONTINUOUS
 10
7.57
 20
16.2527903263
 11
7.64
 21
16.3719392482
  0
LINE
  5
35A
100
AcDbEntity
  8
0
100
AcDbLine
 62
7
  6
CONTINUOUS
 10
-6.2110985404
 20
-7.1639005195
 11
-5.9948675404
 21
-6.8956145195
  0
LINE
  5
35B
100
AcDbEntity
  8
0
100
AcDbLine
 62
7
  6
CONTINUOUS
 10
-7.0481725404
 20
-6.8024245195
 11
-8.4181785404
 21
-8.5018725195
  0
LINE
  5
35C
100
AcDbEntity
  8
0
100
AcDbLine
 62
7
  6
CONTINUOUS
 10
-7.0252395404
 20
-6.8956145195
 11
-8.2476335404
 21
-8.4115945195
  0
LINE
  5
35D
100
AcDbEntity
  8
0
100
AcDbLine
 62
7
  6
CONTINUOUS
 10
-7.7445515404
 20
-8.1434905195
 11
-7.4278505404
 21
-7.7507085195
  0
LINE
  5
35E
100
AcDbEntity
  8
0
100
AcDbLine
 62
7
  6
CONTINUOUS
 10
-5.7371385404
 20
-6.8956145195
 11
-6.9593505404
 21
-8.4115945195
  0
LINE
  5
35F
100
AcDbEntity
  8
0
100
AcDbLine
 62
7
  6
CONTINUOUS
 10
-6.6861505404
 20
-8.4115945195
 11
-5.8085735404
 21
-7.3230555195
  0
LINE
  5
360
100
AcDbEntity
  8
0
100
AcDbLine
 62
7
  6
CONTINUOUS
 10
-6.7447585404
 20
-7.7507085195
 11
-6.5285275404
 21
-7.4826045195
  0
LINE
  5
361
100
AcDbEntity
  8
0
100
AcDbLine
 62
7
  6
CONTINUOUS
 10
-7.1837715404
 20
-8.4115945195
 11
-6.9675415404
 21
-8.1434905195
  0
LINE
  5
362
100
AcDbEntity
  8
0
100
AcDbLine
 62
7
  6
CONTINUOUS
 10
-7.2118015404
 20
-7.4826045195
 11
-6.9546185404
 21
-7.1639005195
  0
LINE
  5
363
100
AcDbEntity
  8
0
100
AcDbLine
 62
7
  6
CONTINUOUS
 10
-7.3578123987
 20
3.167683952
 11
-7.4374998987
 21
3.1995988418
  0
LINE
  5
364
100
AcDbEntity
  8
0
100
AcDbLine
 62
7
  6
CONTINUOUS
 10
-9.3765625253
 20
4.4123648111
 11
-9.4828125
 21
4.4761945907
  0
LINE
  5
365
100
AcDbEntity
  8
0
100
AcDbLine
 62
7
  6
CONTINUOUS
 10
-6.4281251013
 20
3.1038541612
 11
-6.3218748987
 21
3.0400243731
  0
LINE
  5
366
100
AcDbEntity
  8
0
100
AcDbLine
 62
7
  6
CONTINUOUS
 10
-6.3218748987
 20
3.1995988418
 11
-6.375
 21
3.2315137316
  0
LINE
  5
367
100
AcDbEntity
  8
0
100
AcDbLine
 62
7
  6
CONTINUOUS
 10
-7.5968748987
 20
3.135769051
 11
-7.4640626013
 21
3.0400243731
  0
LINE
  5
368
100
AcDbEntity
  8
0
100
AcDbLine
 62
7
  6
CONTINUOUS
 10
-6.9328125
 20
3.8378967051
 11
-7.0656251013
 21
3.9336413745
  0
LINE
  5
369
100
AcDbEntity
  8
0
100
AcDbLine
 62
7
  6
CONTINUOUS
 10
-6.9593748987
 20
4.3804499213
 11
-7.0921875
 21
4.4761945907
  0
LINE
  5
36A
100
AcDbEntity
  8
0
100
AcDbLine
 62
7
  6
CONTINUOUS
 10
-7.4374998987
 20
3.1995988418
 11
-7.5171873987
 21
3.2634286214
  0
LINE
  5
36B
100
AcDbEntity
  8
0
100
AcDbLine
 62
7
  6
CONTINUOUS
 10
-6.5078126013
 20
3.167683952
 11
-6.4281251013
 21
3.1038541612
  0
LINE
  5
36C
100
AcDbEntity
  8
0
100
AcDbLine
 62
7
  6
CONTINUOUS
 10
-7.0921875
 20
3.7740669254
 11
-7.0125
 21
3.7102371458
  0
LINE
  5
36D
100
AcDbEntity
  8
0
100
AcDbLine
 62
7
  6
CONTINUOUS
 10
-7.1187498987
 20
4.3166201417
 11
-7.0390623987
 21
4.252790362
  0
LINE
  5
36E
100
AcDbEntity
  8
0
100
AcDbLine
 62
7
  6
CONTINUOUS
 10
-5.896875
 20
3.678322256
 11
-5.8171875
 21
3.6144924764
  0
LINE
  5
36F
100
AcDbEntity
  8
0
100
AcDbLine
 62
7
  6
CONTINUOUS
 10
-5.9234373987
 20
4.3166201417
 11
-5.8437498987
 21
4.252790362
  0
LINE
  5
370
100
AcDbEntity
  8
0
100
AcDbLine
 62
7
  6
CONTINUOUS
 10
-5.6843748987
 20
4.2847052519
 11
-5.7906251013
 21
4.4123648111
  0
LINE
  5
371
100
AcDbEntity
  8
0
100
AcDbLine
 62
7
  6
CONTINUOUS
 10
-8.3624999732
 20
15.0027903307
 11
-8.3062500268
 21
14.8878967073
  0
LINE
  5
372
100
AcDbEntity
  8
0
100
AcDbLine
 62
7
  6
CONTINUOUS
 10
-8.1374999464
 20
14.8878967073
 11
-8.1937500536
 21
15.0027903307
  0
LINE
  5
373
100
AcDbEntity
  8
0
100
AcDbLine
 62
7
  6
CONTINUOUS
 10
-7.06875
 20
14.9740669299
 11
-7.0125000536
 21
14.8591733065
  0
LINE
  5
374
100
AcDbEntity
  8
0
100
AcDbLine
 62
7
  6
CONTINUOUS
 10
-7.3500000536
 20
15.1464073349
 11
-7.40625
 21
15.2900243793
  0
LINE
  5
375
100
AcDbEntity
  8
0
100
AcDbLine
 62
7
  6
CONTINUOUS
 10
-7.0968750536
 20
15.0602371324
 11
-7.06875
 21
14.9740669299
  0
LINE
  5
376
100
AcDbEntity
  8
0
100
AcDbLine
 62
7
  6
CONTINUOUS
 10
-6.140625
 20
15.6059817884
 11
-6.1687498927
 21
15.6921520714
  0
LINE
  5
377
100
AcDbEntity
  8
0
100
AcDbLine
 62
7
  6
CONTINUOUS
 10
1.3774999189
 20
26.1939305886
 11
1.3774999189
 21
24.9939305886
  0
LINE
  5
378
100
AcDbEntity
  8
0
100
AcDbLine
 62
7
  6
CONTINUOUS
 10
1.5049999189
 20
24.9939305886
 11
1.5049999189
 21
25.530100809
  0
LINE
  5
379
100
AcDbEntity
  8
0
100
AcDbLine
 62
7
  6
CONTINUOUS
 10
1.5049999189
 20
25.6832922801
 11
1.5049999189
 21
26.0662710294
  0
LINE
  5
37A
100
AcDbEntity
  8
0
100
AcDbLine
 62
7
  6
CONTINUOUS
 10
1.9
 20
34.5081094805
 11
1.9
 21
34.3052681127
  0
LINE
  5
37B
100
AcDbEntity
  8
RACCORDO
100
AcDbLine
 62
7
  6
CONTINUOUS
 10
1.9
 20
34.3052681127
 11
1.9
 21
34.0280860063
  0
LINE
  5
37C
100
AcDbEntity
  8
0
100
AcDbLine
 62
7
  6
CONTINUOUS
 10
2.0362498379
 20
25.9130795583
 11
2.0362498379
 21
25.8364837512
  0
LINE
  5
37D
100
AcDbEntity
  8
0
100
AcDbLine
 62
7
  6
CONTINUOUS
 10
2.1637498379
 20
25.8109518393
 11
2.1637498379
 21
25.9130795583
  0
LINE
  5
37E
100
AcDbEntity
  8
ASSI
100
AcDbLine
 62
7
  6
CONTINUOUS
 10
3.097556
 20
17.9631094805
 11
3.097556
 21
18.7131094805
  0
LINE
  5
37F
100
AcDbEntity
  8
0
100
AcDbLine
 62
7
  6
CONTINUOUS
 10
6.4733333111
 20
16.4910881702
 11
6.45
 21
16.4017264787
  0
LINE
  5
380
100
AcDbEntity
  8
0
100
AcDbLine
 62
7
  6
CONTINUOUS
 10
6.59
 20
16.3719392482
 11
6.6133333111
 21
16.4613009397
  0
LINE
  5
381
100
AcDbEntity
  8
0
100
AcDbLine
 62
7
  6
CONTINUOUS
 10
6.4733333111
 20
15.8655562882
 11
6.45
 21
15.7761945967
  0
LINE
  5
382
100
AcDbEntity
  8
0
100
AcDbLine
 62
7
  6
CONTINUOUS
 10
6.59
 20
15.7464073453
 11
6.6133333111
 21
15.8357690577
  0
LINE
  5
383
100
AcDbEntity
  8
0
100
AcDbLine
 62
7
  6
CONTINUOUS
 10
7.5233333778
 20
16.4910881702
 11
7.5
 21
16.4017264787
  0
LINE
  5
384
100
AcDbEntity
  8
0
100
AcDbLine
 62
7
  6
CONTINUOUS
 10
-4.8685755404
 20
-6.8956145195
 11
-5.7255115404
 21
-7.9585375195
  0
LINE
  5
385
100
AcDbEntity
  8
0
100
AcDbLine
 62
7
  6
CONTINUOUS
 10
-5.8175875404
 20
-8.4115945195
 11
-4.5953755404
 21
-6.8956145195
  0
LINE
  5
386
100
AcDbEntity
  8
0
100
AcDbLine
 62
7
  6
CONTINUOUS
 10
-5.7922875404
 20
-8.5018725195
 11
-4.4222815404
 21
-6.8024245195
  0
LWPOLYLINE
  5
387
100
AcDbEntity
  8
0
100
AcDbPolyline
 62
7
  6
CONTINUOUS
 90
6
 70
0
 10
-4.2223770868
 20
-8.0203185737
 10
-4.2639452398
 20
-8.0601315441
 10
-4.2977791548
 20
-8.1077707259
 10
-4.3235712409
 20
-8.1570199331
 10
-4.3412189682
 20
-8.2058071033
 10
-4.3508248667
 20
-8.2562042988
  0
LINE
  5
388
100
AcDbEntity
  8
0
100
AcDbLine
 62
7
  6
CONTINUOUS
 10
-10.2
 20
3.0081094805
 11
-9.24375
 21
3.0081094805
  0
LINE
  5
389
100
AcDbEntity
  8
0
100
AcDbLine
 62
7
  6
CONTINUOUS
 10
-8.3937500507
 20
3.0081094805
 11
-8.2343750507
 21
3.0081094805
  0
LINE
  5
38A
100
AcDbEntity
  8
0
100
AcDbLine
 62
7
  6
CONTINUOUS
 10
-7.33125
 20
3.0081094805
 11
-7.1984373987
 21
3.0081094805
  0
LINE
  5
38B
100
AcDbEntity
  8
0
100
AcDbLine
 62
7
  6
CONTINUOUS
 10
-6.215625
 20
3.0081094805
 11
-6.0031248987
 21
3.0081094805
  0
LINE
  5
38C
100
AcDbEntity
  8
0
100
AcDbLine
 62
7
  6
CONTINUOUS
 10
-6.05625
 20
3.7102371458
 11
-5.896875
 21
3.678322256
  0
LINE
  5
38D
100
AcDbEntity
  8
0
100
AcDbLine
 62
7
  6
CONTINUOUS
 10
-9.4828125
 20
4.4761945907
 11
-9.6421875
 21
4.5081094805
  0
LINE
  5
38E
100
AcDbEntity
  8
0
100
AcDbLine
 62
7
  6
CONTINUOUS
 10
-7.4640626013
 20
3.0400243731
 11
-7.33125
 21
3.0081094805
  0
LINE
  5
38F
100
AcDbEntity
  8
0
100
AcDbLine
 62
7
  6
CONTINUOUS
 10
-6.1890626013
 20
3.167683952
 11
-6.3218748987
 21
3.1995988418
  0
LINE
  5
390
100
AcDbEntity
  8
0
100
AcDbLine
 62
7
  6
CONTINUOUS
 10
-9.6687500127
 20
4.3485350315
 11
-9.5359375253
 21
4.3166201417
  0
LINE
  5
391
100
AcDbEntity
  8
0
100
AcDbLine
 62
7
  6
CONTINUOUS
 10
-7.0656251013
 20
3.9336413745
 11
-7.1984373987
 21
3.9655562643
  0
LINE
  5
392
100
AcDbEntity
  8
0
100
AcDbLine
 62
7
  6
CONTINUOUS
 10
-7.0921875
 20
4.4761945907
 11
-7.2250001013
 21
4.5081094805
  0
LINE
  5
393
100
AcDbEntity
  8
0
100
AcDbLine
 62
7
  6
CONTINUOUS
 10
-6.05625
 20
4.3485350315
 11
-5.9234373987
 21
4.3166201417
  0
LINE
  5
394
100
AcDbEntity
  8
0
100
AcDbLine
 62
7
  6
CONTINUOUS
 10
-6.3218748987
 20
3.0400243731
 11
-6.215625
 21
3.0081094805
  0
LINE
  5
395
100
AcDbEntity
  8
0
100
AcDbLine
 62
7
  6
CONTINUOUS
 10
-7.171875
 20
3.8059818153
 11
-7.0921875
 21
3.7740669254
  0
LINE
  5
396
100
AcDbEntity
  8
0
100
AcDbLine
 62
7
  6
CONTINUOUS
 10
-7.1984373987
 20
4.3485350315
 11
-7.1187498987
 21
4.3166201417
  0
LINE
  5
397
100
AcDbEntity
  8
0
100
AcDbLine
 62
7
  6
CONTINUOUS
 10
-5.7109376013
 20
3.7102371458
 11
-5.8437498987
 21
3.7740669254
  0
LINE
  5
398
100
AcDbEntity
  8
0
100
AcDbLine
 62
7
  6
CONTINUOUS
 10
-5.7906251013
 20
4.4123648111
 11
-5.896875
 21
4.4761945907
  0
LINE
  5
399
100
AcDbEntity
  8
0
100
AcDbLine
 62
7
  6
CONTINUOUS
 10
-8.3062500268
 20
14.8878967073
 11
-8.2218749464
 21
14.7730030939
  0
LINE
  5
39A
100
AcDbEntity
  8
0
100
AcDbLine
 62
7
  6
CONTINUOUS
 10
-7.40625
 20
15.2900243793
 11
-7.490625
 21
15.4049179826
  0
LINE
  5
39B
100
AcDbEntity
  8
0
100
AcDbLine
 62
7
  6
CONTINUOUS
 10
-8.8125000268
 20
15.7783222739
 11
-8.75625
 21
15.6921520714
  0
LINE
  5
39C
100
AcDbEntity
  8
0
100
AcDbLine
 62
7
  6
CONTINUOUS
 10
-7.575
 20
15.2900243793
 11
-7.5187500536
 21
15.2038541768
  0
LINE
  5
39D
100
AcDbEntity
  8
0
100
AcDbLine
 62
7
  6
CONTINUOUS
 10
-6.8437498927
 20
14.8878967073
 11
-6.9562499464
 21
15.0602371324
  0
LINE
  5
39E
100
AcDbEntity
  8
0
100
AcDbLine
 62
7
  6
CONTINUOUS
 10
-7.6712500241
 20
18.1283222739
 11
-7.620625
 21
18.0421520714
  0
LINE
  5
39F
100
AcDbEntity
  8
0
100
AcDbLine
 62
7
  6
CONTINUOUS
 10
-6.1687498927
 20
15.6921520714
 11
-6.225
 21
15.8070456747
  0
LINE
  5
3A0
100
AcDbEntity
  8
ASSI
100
AcDbLine
 62
7
  6
CONTINUOUS
 10
3.497556
 20
15.790072332
 11
3.497556
 21
16.5408931877
  0
LINE
  5
3A1
100
AcDbEntity
  8
ASSI
100
AcDbLine
 62
7
  6
CONTINUOUS
 10
3.497556
 20
20.1353294805
 11
3.497556
 21
20.8861457809
  0
LINE
  5
3A2
100
AcDbEntity
  8
0
100
AcDbLine
 62
7
  6
CONTINUOUS
 10
4.5
 20
-37.9918905195
 11
4.5
 21
-19.4918905195
  0
LINE
  5
3A3
100
AcDbEntity
  8
ASSI
100
AcDbLine
 62
7
  6
CONTINUOUS
 10
5.0
 20
-19.4918905195
 11
5.0
 21
-19.2918905195
  0
LINE
  5
3A4
100
AcDbEntity
  8
0
100
AcDbLine
 62
7
  6
CONTINUOUS
 10
5.75
 20
16.9081094805
 11
5.75
 21
15.5081094805
  0
LINE
  5
3A5
100
AcDbEntity
  8
0
100
AcDbLine
 62
7
  6
CONTINUOUS
 10
5.89
 20
15.6868328844
 11
5.89
 21
16.1336414043
  0
LINE
  5
3A6
100
AcDbEntity
  8
0
100
AcDbLine
 62
7
  6
CONTINUOUS
 10
5.89
 20
16.3123647873
 11
5.89
 21
16.7293860976
  0
LINE
  5
3A7
100
AcDbEntity
  8
0
100
AcDbLine
 62
7
  6
CONTINUOUS
 10
7.64
 20
16.3719392482
 11
7.6633333778
 21
16.4613009397
  0
LINE
  5
3A8
100
AcDbEntity
  8
0
100
AcDbLine
 62
7
  6
CONTINUOUS
 10
9.46
 20
15.5081094805
 11
9.8333332443
 21
16.9081094805
  0
LINE
  5
3A9
100
AcDbEntity
  8
0
100
AcDbLine
 62
7
  6
CONTINUOUS
 10
9.6933332443
 20
16.9081094805
 11
9.3666667557
 21
15.6868328844
  0
LWPOLYLINE
  5
3AA
100
AcDbEntity
  8
0
100
AcDbPolyline
 62
7
  6
CONTINUOUS
 90
16
 70
0
 10
-3.7608491429
 20
-8.4709307924
 10
-3.7153350905
 20
-8.4276041023
 10
-3.6830058976
 20
-8.3783388632
 10
-3.6638615642
 20
-8.323135075
 10
-3.6571744718
 20
-8.257975192
 10
-3.6636722389
 20
-8.18687676
 10
-3.6855377209
 20
-8.1218924164
 10
-3.7269149639
 20
-8.0644632024
 10
-3.7836599218
 20
-8.0131480768
 10
-3.8455233116
 20
-7.9756765542
 10
-3.9121003748
 20
-7.9559845295
 10
-3.9837958699
 20
-7.9501361079
 10
-4.0515747893
 20
-7.9540531185
 10
-4.1136980183
 20
-7.9670225782
 10
-4.1719046716
 20
-7.9897574702
 10
-4.2223770868
 20
-8.0203185737
  0
LWPOLYLINE
  5
3AB
100
AcDbEntity
  8
0
100
AcDbPolyline
 62
7
  6
CONTINUOUS
 90
10
 70
0
 10
-4.0736146996
 20
-8.2145182321
 10
-4.04623656
 20
-8.1997248831
 10
-4.0137385069
 20
-8.1930023995
 10
-3.9835571467
 20
-8.1934627348
 10
-3.9566928013
 20
-8.2016330867
 10
-3.9321451488
 20
-8.2169862574
 10
-3.9143498294
 20
-8.2370526062
 10
-3.9046647978
 20
-8.2633401132
 10
-3.9017320994
 20
-8.2943407983
 10
-3.9059135099
 20
-8.3230610808
  0
LINE
  5
3AC
100
AcDbEntity
  8
0
100
AcDbLine
 62
7
  6
CONTINUOUS
 10
-5.896875
 20
3.1995988418
 11
-6.0296876013
 21
3.167683952
  0
LINE
  5
3AD
100
AcDbEntity
  8
0
100
AcDbLine
 62
7
  6
CONTINUOUS
 10
-7.1984373987
 20
3.0081094805
 11
-7.0656251013
 21
3.0400243731
  0
LINE
  5
3AE
100
AcDbEntity
  8
0
100
AcDbLine
 62
7
  6
CONTINUOUS
 10
-7.33125
 20
3.9655562643
 11
-7.4640626013
 21
3.9336413745
  0
LINE
  5
3AF
100
AcDbEntity
  8
0
100
AcDbLine
 62
7
  6
CONTINUOUS
 10
-6.2953125
 20
4.3166201417
 11
-6.1624998987
 21
4.3485350315
  0
LINE
  5
3B0
100
AcDbEntity
  8
0
100
AcDbLine
 62
7
  6
CONTINUOUS
 10
-6.1359375
 20
4.5081094805
 11
-6.3218748987
 21
4.4761945907
  0
LINE
  5
3B1
100
AcDbEntity
  8
0
100
AcDbLine
 62
7
  6
CONTINUOUS
 10
-6.0296876013
 20
3.167683952
 11
-6.1890626013
 21
3.167683952
  0
LINE
  5
3B2
100
AcDbEntity
  8
0
100
AcDbLine
 62
7
  6
CONTINUOUS
 10
-7.171875
 20
3.167683952
 11
-7.3578123987
 21
3.167683952
  0
LINE
  5
3B3
100
AcDbEntity
  8
0
100
AcDbLine
 62
7
  6
CONTINUOUS
 10
-9.24375
 20
3.167683952
 11
-9.9874999937
 21
3.167683952
  0
LINE
  5
3B4
100
AcDbEntity
  8
0
100
AcDbLine
 62
7
  6
CONTINUOUS
 10
-6.4546875
 20
3.3591733132
 11
-6.5875001013
 21
3.3591733132
  0
LINE
  5
3B5
100
AcDbEntity
  8
0
100
AcDbLine
 62
7
  6
CONTINUOUS
 10
-9.0312499747
 20
3.4549179826
 11
-8.3937500507
 21
3.4549179826
  0
LINE
  5
3B6
100
AcDbEntity
  8
0
100
AcDbLine
 62
7
  6
CONTINUOUS
 10
-8.2343750507
 20
3.4549179826
 11
-7.96875
 21
3.4549179826
  0
LINE
  5
3B7
100
AcDbEntity
  8
0
100
AcDbLine
 62
7
  6
CONTINUOUS
 10
-7.96875
 20
3.6464073662
 11
-8.2343750507
 21
3.6464073662
  0
LINE
  5
3B8
100
AcDbEntity
  8
0
100
AcDbLine
 62
7
  6
CONTINUOUS
 10
-8.3937500507
 20
3.6464073662
 11
-8.8453125
 21
3.6464073662
  0
LINE
  5
3B9
100
AcDbEntity
  8
0
100
AcDbLine
 62
7
  6
CONTINUOUS
 10
-6.1624998987
 20
3.7102371458
 11
-6.05625
 21
3.7102371458
  0
LINE
  5
3BA
100
AcDbEntity
  8
0
100
AcDbLine
 62
7
  6
CONTINUOUS
 10
-7.3578123987
 20
3.8059818153
 11
-7.171875
 21
3.8059818153
  0
LINE
  5
3BB
100
AcDbEntity
  8
0
100
AcDbLine
 62
7
  6
CONTINUOUS
 10
-6.05625
 20
3.8378967051
 11
-6.1624998987
 21
3.8378967051
  0
LINE
  5
3BC
100
AcDbEntity
  8
0
100
AcDbLine
 62
7
  6
CONTINUOUS
 10
-7.1984373987
 20
3.9655562643
 11
-7.33125
 21
3.9655562643
  0
LINE
  5
3BD
100
AcDbEntity
  8
0
100
AcDbLine
 62
7
  6
CONTINUOUS
 10
-10.1734374992
 20
4.1570456926
 11
-10.040625
 21
4.1570456926
  0
LINE
  5
3BE
100
AcDbEntity
  8
0
100
AcDbLine
 62
7
  6
CONTINUOUS
 10
-6.9859376013
 20
4.1570456926
 11
-6.853125
 21
4.1570456926
  0
LINE
  5
3BF
100
AcDbEntity
  8
0
100
AcDbLine
 62
7
  6
CONTINUOUS
 10
-6.5609373987
 20
4.1570456926
 11
-6.4281251013
 21
4.1570456926
  0
LINE
  5
3C0
100
AcDbEntity
  8
0
100
AcDbLine
 62
7
  6
CONTINUOUS
 10
-9.7749999873
 20
4.3485350315
 11
-9.6687500127
 21
4.3485350315
  0
LINE
  5
3C1
100
AcDbEntity
  8
0
100
AcDbLine
 62
7
  6
CONTINUOUS
 10
-7.3578123987
 20
4.3485350315
 11
-7.1984373987
 21
4.3485350315
  0
LINE
  5
3C2
100
AcDbEntity
  8
0
100
AcDbLine
 62
7
  6
CONTINUOUS
 10
-6.1624998987
 20
4.3485350315
 11
-6.05625
 21
4.3485350315
  0
LINE
  5
3C3
100
AcDbEntity
  8
0
100
AcDbLine
 62
7
  6
CONTINUOUS
 10
-6.0828123987
 20
4.5081094805
 11
-6.1359375
 21
4.5081094805
  0
LINE
  5
3C4
100
AcDbEntity
  8
0
100
AcDbLine
 62
7
  6
CONTINUOUS
 10
-7.2250001013
 20
4.5081094805
 11
-7.33125
 21
4.5081094805
  0
LINE
  5
3C5
100
AcDbEntity
  8
0
100
AcDbLine
 62
7
  6
CONTINUOUS
 10
-8.2343750507
 20
4.5081094805
 11
-8.3937500507
 21
4.5081094805
  0
LINE
  5
3C6
100
AcDbEntity
  8
0
100
AcDbLine
 62
7
  6
CONTINUOUS
 10
-9.6421875
 20
4.5081094805
 11
-9.7484375127
 21
4.5081094805
  0
LINE
  5
3C7
100
AcDbEntity
  8
0
100
AcDbLine
 62
7
  6
CONTINUOUS
 10
-5.896875
 20
4.4761945907
 11
-6.0828123987
 21
4.5081094805
  0
LINE
  5
3C8
100
AcDbEntity
  8
0
100
AcDbLine
 62
7
  6
CONTINUOUS
 10
-8.6156249732
 20
15.8070456747
 11
-8.7281250268
 21
15.921939278
  0
LINE
  5
3C9
100
AcDbEntity
  8
0
100
AcDbLine
 62
7
  6
CONTINUOUS
 10
-7.0125000536
 20
14.8591733065
 11
-6.9281250536
 21
14.7730030939
  0
LINE
  5
3CA
100
AcDbEntity
  8
0
100
AcDbLine
 62
7
  6
CONTINUOUS
 10
-6.39375
 20
15.7783222739
 11
-6.2812501073
 21
15.6059817884
  0
LINE
  5
3CB
100
AcDbEntity
  8
0
100
AcDbLine
 62
7
  6
CONTINUOUS
 10
-1.7250000101
 20
25.1471220776
 11
-2.0225
 21
26.1939305886
  0
LINE
  5
3CC
100
AcDbEntity
  8
0
100
AcDbLine
 62
7
  6
CONTINUOUS
 10
-2.15
 20
26.1939305886
 11
-1.8099999899
 21
24.9939305886
  0
LINE
  5
3CD
100
AcDbEntity
  8
0
100
AcDbLine
 62
7
  6
CONTINUOUS
 10
6.4733333111
 20
16.5506626312
 11
6.4733333111
 21
16.4910881702
  0
LINE
  5
3CE
100
AcDbEntity
  8
0
100
AcDbLine
 62
7
  6
CONTINUOUS
 10
6.4733333111
 20
15.9549179796
 11
6.4733333111
 21
15.8655562882
  0
LINE
  5
3CF
100
AcDbEntity
  8
0
100
AcDbLine
 62
7
  6
CONTINUOUS
 10
6.6133333111
 20
15.8357690577
 11
6.6133333111
 21
15.9847052101
  0
LINE
  5
3D0
100
AcDbEntity
  8
0
100
AcDbLine
 62
7
  6
CONTINUOUS
 10
6.6133333111
 20
16.4613009397
 11
6.6133333111
 21
16.5804499451
  0
LINE
  5
3D1
100
AcDbEntity
  8
0
100
AcDbLine
 62
7
  6
CONTINUOUS
 10
6.8
 20
16.9081094805
 11
6.8
 21
15.5081094805
  0
LINE
  5
3D2
100
AcDbEntity
  8
0
100
AcDbLine
 62
7
  6
CONTINUOUS
 10
6.94
 20
15.5081094805
 11
6.94
 21
16.1336414043
  0
LINE
  5
3D3
100
AcDbEntity
  8
0
100
AcDbLine
 62
7
  6
CONTINUOUS
 10
6.94
 20
16.3123647873
 11
6.94
 21
16.7591733281
  0
LINE
  5
3D4
100
AcDbEntity
  8
0
100
AcDbLine
 62
7
  6
CONTINUOUS
 10
7.0
 20
-19.2918905195
 11
7.0
 21
-19.4918905195
  0
LINE
  5
3D5
100
AcDbEntity
  8
0
100
AcDbLine
 62
7
  6
CONTINUOUS
 10
7.5233333778
 20
16.5804499451
 11
7.5233333778
 21
16.4910881702
  0
LINE
  5
3D6
100
AcDbEntity
  8
0
100
AcDbLine
 62
7
  6
CONTINUOUS
 10
7.6633333778
 20
16.4613009397
 11
7.6633333778
 21
16.5804499451
  0
LINE
  5
3D7
100
AcDbEntity
  8
0
100
AcDbLine
 62
7
  6
CONTINUOUS
 10
7.8733333778
 20
16.9081094805
 11
7.8733333778
 21
15.5081094805
  0
LINE
  5
3D8
100
AcDbEntity
  8
ASSI
100
AcDbLine
 62
7
  6
CONTINUOUS
 10
8.0
 20
-37.9918905195
 11
8.0
 21
-35.9918905195
  0
LINE
  5
3D9
100
AcDbEntity
  8
0
100
AcDbLine
 62
7
  6
CONTINUOUS
 10
8.0133332443
 20
15.6868328844
 11
8.0133332443
 21
16.1634286348
  0
LINE
  5
3DA
100
AcDbEntity
  8
0
100
AcDbLine
 62
7
  6
CONTINUOUS
 10
8.0133332443
 20
16.3421520178
 11
8.0133332443
 21
16.7293860976
  0
LINE
  5
3DB
100
AcDbEntity
  8
0
100
AcDbLine
 62
7
  6
CONTINUOUS
 10
8.62
 20
16.1634286348
 11
8.62
 21
16.3421520178
  0
LWPOLYLINE
  5
3DC
100
AcDbEntity
  8
0
100
AcDbPolyline
 62
7
  6
CONTINUOUS
 90
28
 70
0
 10
-5.270174545
 20
-9.8577000844
 10
-5.2992672629
 20
-9.8694659357
 10
-5.3341700601
 20
-9.8749288624
 10
-5.3705076542
 20
-9.8763855231
 10
-5.4070599472
 20
-9.8743650378
 10
-5.445047037
 20
-9.8683382864
 10
-5.4837539353
 20
-9.8590145668
 10
-5.5229875332
 20
-9.846551063
 10
-5.5629409396
 20
-9.830790591
 10
-5.6034784929
 20
-9.8119708963
 10
-5.6445268277
 20
-9.7901699633
 10
-5.6861593094
 20
-9.7653098076
 10
-5.7284603731
 20
-9.7373942209
 10
-5.7720133586
 20
-9.7059137248
 10
-5.8162349261
 20
-9.6713777977
 10
-5.8594594902
 20
-9.6353186667
 10
-5.9014753045
 20
-9.5976883143
 10
-5.9424941155
 20
-9.5585347579
 10
-5.9814855775
 20
-9.5195342773
 10
-6.0180047492
 20
-9.4811838916
 10
-6.052496572
 20
-9.4429865817
 10
-6.0852655241
 20
-9.4051275695
 10
-6.1163149782
 20
-9.3676189742
 10
-6.1456415616
 20
-9.3304486765
 10
-6.1735396352
 20
-9.2937655411
 10
-6.2002711862
 20
-9.257709971
 10
-6.2255742274
 20
-9.2221415632
 10
-6.2489571573
 20
-9.1867879724
  0
LINE
  5
3DD
100
AcDbEntity
  8
0
100
AcDbLine
 62
7
  6
CONTINUOUS
 10
-7.33125
 20
4.5081094805
 11
-7.4640626013
 21
4.4761945907
  0
LINE
  5
3DE
100
AcDbEntity
  8
0
100
AcDbLine
 62
7
  6
CONTINUOUS
 10
-9.9078124937
 20
4.3166201417
 11
-9.7749999873
 21
4.3485350315
  0
LINE
  5
3DF
100
AcDbEntity
  8
0
100
AcDbLine
 62
7
  6
CONTINUOUS
 10
-9.7484375127
 20
4.5081094805
 11
-9.9343750063
 21
4.4761945907
  0
LINE
  5
3E0
100
AcDbEntity
  8
0
100
AcDbLine
 62
7
  6
CONTINUOUS
 10
-8.2218749464
 20
14.7730030939
 11
-8.08125
 21
14.6868328839
  0
LINE
  5
3E1
100
AcDbEntity
  8
0
100
AcDbLine
 62
7
  6
CONTINUOUS
 10
-8.0531249464
 20
14.8304499056
 11
-8.1374999464
 21
14.8878967073
  0
LINE
  5
3E2
100
AcDbEntity
  8
0
100
AcDbLine
 62
7
  6
CONTINUOUS
 10
-8.8968750268
 20
15.8357690756
 11
-8.8125000268
 21
15.7783222739
  0
LINE
  5
3E3
100
AcDbEntity
  8
0
100
AcDbLine
 62
7
  6
CONTINUOUS
 10
-7.659375
 20
15.347471181
 11
-7.575
 21
15.2900243793
  0
LINE
  5
3E4
100
AcDbEntity
  8
0
100
AcDbLine
 62
7
  6
CONTINUOUS
 10
-6.7593748927
 20
14.8304499056
 11
-6.8437498927
 21
14.8878967073
  0
LINE
  5
3E5
100
AcDbEntity
  8
0
100
AcDbLine
 62
7
  6
CONTINUOUS
 10
-6.225
 20
15.8070456747
 11
-6.309375
 21
15.8932158772
  0
LINE
  5
3E6
100
AcDbEntity
  8
0
100
AcDbLine
 62
7
  6
CONTINUOUS
 10
-7.4940624759
 20
18.1570456747
 11
-7.5953125241
 21
18.271939278
  0
LINE
  5
3E7
100
AcDbEntity
  8
0
100
AcDbLine
 62
7
  6
CONTINUOUS
 10
-0.7050000405
 20
25.9386114701
 11
-0.4074999595
 21
24.9939305886
  0
LINE
  5
3E8
100
AcDbEntity
  8
0
100
AcDbLine
 62
7
  6
CONTINUOUS
 10
-0.3225000405
 20
25.1215901658
 11
-0.6412500405
 21
26.1939305886
  0
LINE
  5
3E9
100
AcDbEntity
  8
0
100
AcDbLine
 62
7
  6
CONTINUOUS
 10
1.2075000811
 20
24.9939305886
 11
0.8674999189
 21
26.1939305886
  0
LINE
  5
3EA
100
AcDbEntity
  8
0
100
AcDbLine
 62
7
  6
CONTINUOUS
 10
0.9949999189
 20
25.3003135666
 11
1.0800000811
 21
24.9939305886
  0
LINE
  5
3EB
100
AcDbEntity
  8
0
100
AcDbLine
 62
7
  6
CONTINUOUS
 10
0.7825
 20
26.0918029412
 11
0.97375
 21
25.402441214
  0
LINE
  5
3EC
100
AcDbEntity
  8
0
100
AcDbLine
 62
7
  6
CONTINUOUS
 10
8.7133332443
 20
15.5081094805
 11
8.7133332443
 21
15.6868328844
  0
LINE
  5
3ED
100
AcDbEntity
  8
0
100
AcDbLine
 62
7
  6
CONTINUOUS
 10
8.7133332443
 20
16.7293860976
 11
8.7133332443
 21
16.9081094805
  0
LINE
  5
3EE
100
AcDbEntity
  8
ASSI
100
AcDbLine
 62
7
  6
CONTINUOUS
 10
9.0
 20
-19.4918905195
 11
9.0
 21
-19.2918905195
  0
LINE
  5
3EF
100
AcDbEntity
  8
0
100
AcDbLine
 62
7
  6
CONTINUOUS
 10
10.0
 20
-37.9918905195
 11
10.0
 21
-19.4918905195
  0
LINE
  5
3F0
100
AcDbEntity
  8
0
100
AcDbLine
 62
7
  6
CONTINUOUS
 10
10.02
 20
15.6570456539
 11
10.02
 21
15.5081094805
  0
LINE
  5
3F1
100
AcDbEntity
  8
0
100
AcDbLine
 62
7
  6
CONTINUOUS
 10
10.1366667557
 20
15.5081094805
 11
10.1366667557
 21
15.6570456539
  0
LINE
  5
3F2
100
AcDbEntity
  8
0
100
AcDbLine
 62
7
  6
CONTINUOUS
 10
10.25
 20
-19.4918905195
 11
10.25
 21
-19.2918905195
  0
LINE
  5
3F3
100
AcDbEntity
  8
0
100
AcDbLine
 62
7
  6
CONTINUOUS
 10
-8.7281250268
 20
15.921939278
 11
-8.840625
 21
15.9793860797
  0
LINE
  5
3F4
100
AcDbEntity
  8
0
100
AcDbLine
 62
7
  6
CONTINUOUS
 10
-6.9281250536
 20
14.7730030939
 11
-6.7875001073
 21
14.6868328839
  0
LINE
  5
3F5
100
AcDbEntity
  8
0
100
AcDbLine
 62
7
  6
CONTINUOUS
 10
-7.490625
 20
15.4049179826
 11
-7.6312499464
 21
15.4910881851
  0
LINE
  5
3F6
100
AcDbEntity
  8
0
100
AcDbLine
 62
7
  6
CONTINUOUS
 10
-6.309375
 20
15.8932158772
 11
-6.4500001073
 21
15.9793860797
  0
LINE
  5
3F7
100
AcDbEntity
  8
0
100
AcDbLine
 62
7
  6
CONTINUOUS
 10
-6.478125
 20
15.8357690756
 11
-6.39375
 21
15.7783222739
  0
LINE
  5
3F8
100
AcDbEntity
  8
0
100
AcDbLine
 62
7
  6
CONTINUOUS
 10
-7.7471875241
 20
18.1857690756
 11
-7.6712500241
 21
18.1283222739
  0
LWPOLYLINE
  5
3F9
100
AcDbEntity
  8
RACCORDO
100
AcDbPolyline
 62
7
  6
CONTINUOUS
 90
10
 70
0
 10
-9.1621777632
 20
34.0012971511
 10
-9.1600947644
 20
33.9977325076
 10
-9.1558113357
 20
33.9877296441
 10
-9.149327477
 20
33.9718836408
 10
-9.1402643692
 20
33.9509613736
 10
-9.1290008315
 20
33.9258177725
 10
-9.1166733214
 20
33.8973260367
 10
-9.1036606583
 20
33.8664212093
 10
-9.0895840229
 20
33.8340948469
 10
-9.0744434153
 20
33.8012998927
  0
LINE
  5
3FA
100
AcDbEntity
  8
0
100
AcDbLine
 62
7
  6
CONTINUOUS
 10
2.185
 20
24.9939305886
 11
1.99375
 21
25.5811646327
  0
LINE
  5
3FB
100
AcDbEntity
  8
0
100
AcDbLine
 62
7
  6
CONTINUOUS
 10
1.86625
 20
25.530100809
 11
2.0362498379
 21
24.9939305886
  0
LINE
  5
3FC
100
AcDbEntity
  8
0
100
AcDbLine
 62
7
  6
CONTINUOUS
 10
2.0150001621
 20
25.9896752938
 11
2.0362498379
 21
25.9130795583
  0
LINE
  5
3FD
100
AcDbEntity
  8
0
100
AcDbLine
 62
7
  6
CONTINUOUS
 10
2.1637498379
 20
25.9130795583
 11
2.1425001621
 21
25.9896752938
  0
LINE
  5
3FE
100
AcDbEntity
  8
0
100
AcDbLine
 62
7
  6
CONTINUOUS
 10
6.45
 20
16.0442797128
 11
6.4733333111
 21
15.9549179796
  0
LINE
  5
3FF
100
AcDbEntity
  8
0
100
AcDbLine
 62
7
  6
CONTINUOUS
 10
6.6133333111
 20
15.9847052101
 11
6.59
 21
16.0740669433
  0
LINE
  5
400
100
AcDbEntity
  8
0
100
AcDbLine
 62
7
  6
CONTINUOUS
 10
6.45
 20
16.6400244061
 11
6.4733333111
 21
16.5506626312
  0
LINE
  5
401
100
AcDbEntity
  8
0
100
AcDbLine
 62
7
  6
CONTINUOUS
 10
6.6133333111
 20
16.5804499451
 11
6.59
 21
16.6698116366
  0
LINE
  5
402
100
AcDbEntity
  8
0
100
AcDbLine
 62
7
  6
CONTINUOUS
 10
7.5
 20
16.6698116366
 11
7.5233333778
 21
16.5804499451
  0
LINE
  5
403
100
AcDbEntity
  8
0
100
AcDbLine
 62
7
  6
CONTINUOUS
 10
12.0
 20
-29.9918055299
 11
12.0
 21
-27.4918905195
  0
LINE
  5
404
100
AcDbEntity
  8
RACCORDO
100
AcDbLine
 62
253
  6
CONTINUOUS
 10
12.2931904121
 20
-3.2918905195
 11
12.2931904121
 21
25.5081094805
  0
LINE
  5
405
100
AcDbEntity
  8
RACCORDO
100
AcDbLine
 62
253
  6
CONTINUOUS
 10
12.2963320335
 20
-3.2918905195
 11
12.2963320335
 21
-4.4966029515
  0
LINE
  5
406
100
AcDbEntity
  8
RACCORDO
100
AcDbLine
 62
7
  6
CONTINUOUS
 10
12.4931876706
 20
-3.0918905195
 11
12.4931876706
 21
25.5081094805
  0
LINE
  5
407
100
AcDbEntity
  8
RACCORDO
100
AcDbLine
 62
7
  6
CONTINUOUS
 10
12.4963292919
 20
-3.0918905195
 11
12.4963292919
 21
-4.4955612275
  0
LINE
  5
408
100
AcDbEntity
  8
0
100
AcDbLine
 62
7
  6
CONTINUOUS
 10
13.5
 20
-37.9918905195
 11
13.5
 21
-31.4918055299
  0
LWPOLYLINE
  5
409
100
AcDbEntity
  8
RACCORDO
100
AcDbPolyline
 62
7
  6
CONTINUOUS
 90
8
 70
0
 10
12.4963292919
 20
-3.0918905195
 10
12.4941119879
 20
-3.122070033
 10
12.4874563466
 20
-3.1510492719
 10
12.4759905283
 20
-3.1788282359
 10
12.4597098662
 20
-3.2064589893
 10
12.4384208213
 20
-3.2328894679
 10
12.4112661083
 20
-3.2549634794
 10
12.3990643968
 20
-3.2610614692
  0
LWPOLYLINE
  5
40A
100
AcDbEntity
  8
RACCORDO
100
AcDbPolyline
 62
7
  6
CONTINUOUS
 90
10
 70
0
 10
12.4931876706
 20
-3.0918905195
 10
12.4903644483
 20
-3.1253768387
 10
12.4818369045
 20
-3.1583098332
 10
12.4676485349
 20
-3.1896838166
 10
12.4479418888
 20
-3.218584339
 10
12.423185896
 20
-3.2438796995
 10
12.394345522
 20
-3.2644227287
 10
12.3624453118
 20
-3.2795168166
 10
12.3283737053
 20
-3.2887714529
 10
12.2931904121
 20
-3.2918905195
  0
LINE
  5
40B
100
AcDbEntity
  8
SMUSSO
100
AcDbLine
 62
7
  6
CONTINUOUS
 10
-11.9999999999
 20
-29.9918487598
 11
-13.4999999999
 21
-31.4918487598
  0
LINE
  5
40C
100
AcDbEntity
  8
0
100
AcDbLine
 62
7
  6
CONTINUOUS
 10
6.31
 20
15.5081094805
 11
6.4266666889
 21
15.5378967136
  0
LINE
  5
40D
100
AcDbEntity
  8
0
100
AcDbLine
 62
7
  6
CONTINUOUS
 10
-6.7875001073
 20
14.6868328839
 11
-6.6187501073
 21
14.6581094805
  0
LINE
  5
40E
100
AcDbEntity
  8
0
100
AcDbLine
 62
7
  6
CONTINUOUS
 10
-8.08125
 20
14.6868328839
 11
-7.9406250536
 21
14.6581094805
  0
LINE
  5
40F
100
AcDbEntity
  8
0
100
AcDbLine
 62
7
  6
CONTINUOUS
 10
-6.6187501073
 20
14.8017265048
 11
-6.7593748927
 21
14.8304499056
  0
LINE
  5
410
100
AcDbEntity
  8
0
100
AcDbLine
 62
7
  6
CONTINUOUS
 10
-7.6312499464
 20
15.4910881851
 11
-7.7718750536
 21
15.5198115859
  0
LINE
  5
411
100
AcDbEntity
  8
0
100
AcDbLine
 62
7
  6
CONTINUOUS
 10
-9.0375000134
 20
15.8644924764
 11
-8.8968750268
 21
15.8357690756
  0
LINE
  5
412
100
AcDbEntity
  8
0
100
AcDbLine
 62
7
  6
CONTINUOUS
 10
-6.6187501073
 20
15.8644924764
 11
-6.478125
 21
15.8357690756
  0
LINE
  5
413
100
AcDbEntity
  8
0
100
AcDbLine
 62
7
  6
CONTINUOUS
 10
-7.9406250536
 20
14.8017265048
 11
-8.0531249464
 21
14.8304499056
  0
LINE
  5
414
100
AcDbEntity
  8
0
100
AcDbLine
 62
7
  6
CONTINUOUS
 10
-7.7718750536
 20
15.3761945818
 11
-7.659375
 21
15.347471181
  0
LINE
  5
415
100
AcDbEntity
  8
0
100
AcDbLine
 62
7
  6
CONTINUOUS
 10
-7.5953125241
 20
18.271939278
 11
-7.6965625
 21
18.3293860797
  0
LINE
  5
416
100
AcDbEntity
  8
0
100
AcDbLine
 62
7
  6
CONTINUOUS
 10
6.59
 20
16.0740669433
 11
6.52
 21
16.1932158653
  0
LINE
  5
417
100
AcDbEntity
  8
0
100
AcDbLine
 62
7
  6
CONTINUOUS
 10
6.59
 20
16.6698116366
 11
6.52
 21
16.7889605586
  0
LINE
  5
418
100
AcDbEntity
  8
0
100
AcDbLine
 62
7
  6
CONTINUOUS
 10
7.6866666222
 20
15.5081094805
 11
7.4766666222
 21
16.1932158653
  0
LINE
  5
419
100
AcDbEntity
  8
0
100
AcDbLine
 62
7
  6
CONTINUOUS
 10
7.3366666222
 20
16.1336414043
 11
7.5233333778
 21
15.5081094805
  0
LINE
  5
41A
100
AcDbEntity
  8
0
100
AcDbLine
 62
7
  6
CONTINUOUS
 10
9.3666667557
 20
15.6868328844
 11
9.04
 21
16.9081094805
  0
LINE
  5
41B
100
AcDbEntity
  8
0
100
AcDbLine
 62
7
  6
CONTINUOUS
 10
8.9
 20
16.9081094805
 11
9.2733332443
 21
15.5081094805
  0
LINE
  5
41C
100
AcDbEntity
  8
0
100
AcDbLine
 62
7
  6
CONTINUOUS
 10
7.6633333778
 20
16.5804499451
 11
7.64
 21
16.6698116366
  0
LINE
  5
41D
100
AcDbEntity
  8
RACCORDO
100
AcDbLine
 62
253
  6
CONTINUOUS
 10
14.49322194
 20
-4.4987028489
 11
14.49322194
 21
-4.6987001074
  0
LINE
  5
41E
100
AcDbEntity
  8
RACCORDO
100
AcDbLine
 62
253
  6
CONTINUOUS
 10
16.6931917829
 20
-19.28507819
 11
16.6931917829
 21
-19.0850809316
  0
LINE
  5
41F
100
AcDbEntity
  8
RACCORDO
100
AcDbLine
 62
253
  6
CONTINUOUS
 10
16.7931904121
 20
-6.9986685795
 11
16.7931904121
 21
-18.9850823024
  0
LINE
  5
420
100
AcDbEntity
  8
RACCORDO
100
AcDbLine
 62
7
  6
CONTINUOUS
 10
16.9931876706
 20
-6.9986685795
 11
16.9931876706
 21
-18.9850823024
  0
LINE
  5
421
100
AcDbEntity
  8
RACCORDO
100
AcDbLine
 62
7
  6
CONTINUOUS
 10
17.0
 20
-19.4918905195
 11
17.0
 21
-18.9918946318
  0
LINE
  5
422
100
AcDbEntity
  8
0
100
AcDbLine
 62
7
  6
CONTINUOUS
 10
-7.659375
 20
14.8304499056
 11
-7.7718750536
 21
14.8017265048
  0
LINE
  5
423
100
AcDbEntity
  8
0
100
AcDbLine
 62
7
  6
CONTINUOUS
 10
-8.0531249464
 20
15.347471181
 11
-7.9406250536
 21
15.3761945818
  0
LINE
  5
424
100
AcDbEntity
  8
0
100
AcDbLine
 62
7
  6
CONTINUOUS
 10
-6.478125
 20
14.8304499056
 11
-6.6187501073
 21
14.8017265048
  0
LINE
  5
425
100
AcDbEntity
  8
0
100
AcDbLine
 62
7
  6
CONTINUOUS
 10
-7.7718750536
 20
14.6581094805
 11
-7.6312499464
 21
14.6868328839
  0
LINE
  5
426
100
AcDbEntity
  8
0
100
AcDbLine
 62
7
  6
CONTINUOUS
 10
-7.9406250536
 20
15.5198115859
 11
-8.08125
 21
15.4910881851
  0
LINE
  5
427
100
AcDbEntity
  8
0
100
AcDbLine
 62
7
  6
CONTINUOUS
 10
-6.7593748927
 20
15.8357690756
 11
-6.6187501073
 21
15.8644924764
  0
LINE
  5
428
100
AcDbEntity
  8
0
100
AcDbLine
 62
7
  6
CONTINUOUS
 10
-6.6187501073
 20
14.6581094805
 11
-6.4500001073
 21
14.6868328839
  0
LINE
  5
429
100
AcDbEntity
  8
0
100
AcDbLine
 62
7
  6
CONTINUOUS
 10
-6.6187501073
 20
16.0081094805
 11
-6.7875001073
 21
15.9793860797
  0
LINE
  5
42A
100
AcDbEntity
  8
0
100
AcDbLine
 62
7
  6
CONTINUOUS
 10
-9.6
 20
14.6581094805
 11
-8.5875
 21
14.6581094805
  0
LINE
  5
42B
100
AcDbEntity
  8
0
100
AcDbLine
 62
7
  6
CONTINUOUS
 10
-7.9406250536
 20
14.6581094805
 11
-7.7718750536
 21
14.6581094805
  0
LINE
  5
42C
100
AcDbEntity
  8
0
100
AcDbLine
 62
7
  6
CONTINUOUS
 10
-7.7718750536
 20
14.8017265048
 11
-7.9406250536
 21
14.8017265048
  0
LINE
  5
42D
100
AcDbEntity
  8
0
100
AcDbLine
 62
7
  6
CONTINUOUS
 10
-8.5875
 20
14.8017265048
 11
-9.3749999933
 21
14.8017265048
  0
LINE
  5
42E
100
AcDbEntity
  8
0
100
AcDbLine
 62
7
  6
CONTINUOUS
 10
-8.1937500536
 20
15.0027903307
 11
-8.3624999732
 21
15.0027903307
  0
LINE
  5
42F
100
AcDbEntity
  8
0
100
AcDbLine
 62
7
  6
CONTINUOUS
 10
-8.3624999732
 20
15.2613009785
 11
-8.165625
 21
15.2613009785
  0
LINE
  5
430
100
AcDbEntity
  8
0
100
AcDbLine
 62
7
  6
CONTINUOUS
 10
-7.9406250536
 20
15.3761945818
 11
-7.7718750536
 21
15.3761945818
  0
LINE
  5
431
100
AcDbEntity
  8
0
100
AcDbLine
 62
7
  6
CONTINUOUS
 10
5.75
 20
15.5081094805
 11
6.31
 21
15.5081094805
  0
LINE
  5
432
100
AcDbEntity
  8
0
100
AcDbLine
 62
7
  6
CONTINUOUS
 10
6.8
 20
15.5081094805
 11
6.94
 21
15.5081094805
  0
LINE
  5
433
100
AcDbEntity
  8
0
100
AcDbLine
 62
7
  6
CONTINUOUS
 10
7.5233333778
 20
15.5081094805
 11
7.6866666222
 21
15.5081094805
  0
LINE
  5
434
100
AcDbEntity
  8
0
100
AcDbLine
 62
7
  6
CONTINUOUS
 10
7.8733333778
 20
15.5081094805
 11
8.7133332443
 21
15.5081094805
  0
LINE
  5
435
100
AcDbEntity
  8
0
100
AcDbLine
 62
7
  6
CONTINUOUS
 10
9.2733332443
 20
15.5081094805
 11
9.46
 21
15.5081094805
  0
LINE
  5
436
100
AcDbEntity
  8
0
100
AcDbLine
 62
7
  6
CONTINUOUS
 10
10.02
 20
15.5081094805
 11
10.1366667557
 21
15.5081094805
  0
LINE
  5
437
100
AcDbEntity
  8
0
100
AcDbLine
 62
7
  6
CONTINUOUS
 10
-7.7718750536
 20
15.5198115859
 11
-7.9406250536
 21
15.5198115859
  0
LINE
  5
438
100
AcDbEntity
  8
0
100
AcDbLine
 62
7
  6
CONTINUOUS
 10
10.1366667557
 20
15.6570456539
 11
10.02
 21
15.6570456539
  0
LINE
  5
439
100
AcDbEntity
  8
0
100
AcDbLine
 62
7
  6
CONTINUOUS
 10
8.7133332443
 20
15.6868328844
 11
8.0133332443
 21
15.6868328844
  0
LINE
  5
43A
100
AcDbEntity
  8
0
100
AcDbLine
 62
7
  6
CONTINUOUS
 10
6.3333333111
 20
15.6868328844
 11
5.89
 21
15.6868328844
  0
LINE
  5
43B
100
AcDbEntity
  8
0
100
AcDbLine
 62
7
  6
CONTINUOUS
 10
-9.5718749992
 20
15.6921520714
 11
-9.43125
 21
15.6921520714
  0
LINE
  5
43C
100
AcDbEntity
  8
0
100
AcDbLine
 62
7
  6
CONTINUOUS
 10
-9.1499999866
 20
15.8644924764
 11
-9.0375000134
 21
15.8644924764
  0
LINE
  5
43D
100
AcDbEntity
  8
0
100
AcDbLine
 62
7
  6
CONTINUOUS
 10
-8.2218749464
 20
15.8644924764
 11
-7.40625
 21
15.8644924764
  0
LINE
  5
43E
100
AcDbEntity
  8
0
100
AcDbLine
 62
7
  6
CONTINUOUS
 10
-7.40625
 20
16.0081094805
 11
-8.3624999732
 21
16.0081094805
  0
LINE
  5
43F
100
AcDbEntity
  8
0
100
AcDbLine
 62
7
  6
CONTINUOUS
 10
-9.009375
 20
16.0081094805
 11
-9.1218750134
 21
16.0081094805
  0
LINE
  5
440
100
AcDbEntity
  8
0
100
AcDbLine
 62
7
  6
CONTINUOUS
 10
5.89
 20
16.1336414043
 11
6.3333333111
 21
16.1336414043
  0
LINE
  5
441
100
AcDbEntity
  8
0
100
AcDbLine
 62
7
  6
CONTINUOUS
 10
6.94
 20
16.1336414043
 11
7.3366666222
 21
16.1336414043
  0
LINE
  5
442
100
AcDbEntity
  8
0
100
AcDbLine
 62
7
  6
CONTINUOUS
 10
8.0133332443
 20
16.1634286348
 11
8.62
 21
16.1634286348
  0
LINE
  5
443
100
AcDbEntity
  8
0
100
AcDbLine
 62
7
  6
CONTINUOUS
 10
7.3833333778
 20
16.3123647873
 11
6.94
 21
16.3123647873
  0
LINE
  5
444
100
AcDbEntity
  8
0
100
AcDbLine
 62
7
  6
CONTINUOUS
 10
6.3333333111
 20
16.3123647873
 11
5.89
 21
16.3123647873
  0
LINE
  5
445
100
AcDbEntity
  8
0
100
AcDbLine
 62
7
  6
CONTINUOUS
 10
8.62
 20
16.3421520178
 11
8.0133332443
 21
16.3421520178
  0
LINE
  5
446
100
AcDbEntity
  8
0
100
AcDbLine
 62
7
  6
CONTINUOUS
 10
-9.7
 20
16.4081094805
 11
-6.2
 21
16.4081094805
  0
LINE
  5
447
100
AcDbEntity
  8
0
100
AcDbLine
 62
7
  6
CONTINUOUS
 10
-6.2
 20
16.6081094805
 11
-9.7
 21
16.6081094805
  0
LINE
  5
448
100
AcDbEntity
  8
0
100
AcDbLine
 62
7
  6
CONTINUOUS
 10
5.89
 20
16.7293860976
 11
6.3333333111
 21
16.7293860976
  0
LINE
  5
449
100
AcDbEntity
  8
0
100
AcDbLine
 62
7
  6
CONTINUOUS
 10
8.0133332443
 20
16.7293860976
 11
8.7133332443
 21
16.7293860976
  0
LINE
  5
44A
100
AcDbEntity
  8
0
100
AcDbLine
 62
7
  6
CONTINUOUS
 10
6.94
 20
16.7591733281
 11
7.3833333778
 21
16.7591733281
  0
LINE
  5
44B
100
AcDbEntity
  8
0
100
AcDbLine
 62
7
  6
CONTINUOUS
 10
9.8333332443
 20
16.9081094805
 11
9.6933332443
 21
16.9081094805
  0
LINE
  5
44C
100
AcDbEntity
  8
0
100
AcDbLine
 62
7
  6
CONTINUOUS
 10
9.04
 20
16.9081094805
 11
8.9
 21
16.9081094805
  0
LINE
  5
44D
100
AcDbEntity
  8
0
100
AcDbLine
 62
7
  6
CONTINUOUS
 10
8.7133332443
 20
16.9081094805
 11
7.8733333778
 21
16.9081094805
  0
LINE
  5
44E
100
AcDbEntity
  8
0
100
AcDbLine
 62
7
  6
CONTINUOUS
 10
7.36
 20
16.9081094805
 11
6.8
 21
16.9081094805
  0
LINE
  5
44F
100
AcDbEntity
  8
0
100
AcDbLine
 62
7
  6
CONTINUOUS
 10
6.31
 20
16.9081094805
 11
5.75
 21
16.9081094805
  0
LINE
  5
450
100
AcDbEntity
  8
0
100
AcDbLine
 62
7
  6
CONTINUOUS
 10
-8.38
 20
17.0081094805
 11
-7.46875
 21
17.0081094805
  0
LINE
  5
451
100
AcDbEntity
  8
0
100
AcDbLine
 62
7
  6
CONTINUOUS
 10
-8.840625
 20
15.9793860797
 11
-9.009375
 21
16.0081094805
  0
LINE
  5
452
100
AcDbEntity
  8
0
100
AcDbLine
 62
7
  6
CONTINUOUS
 10
-6.4500001073
 20
15.9793860797
 11
-6.6187501073
 21
16.0081094805
  0
LINE
  5
453
100
AcDbEntity
  8
0
100
AcDbLine
 62
7
  6
CONTINUOUS
 10
-7.6965625
 20
18.3293860797
 11
-7.8484375
 21
18.3581094805
  0
LINE
  5
454
100
AcDbEntity
  8
0
100
AcDbLine
 62
7
  6
CONTINUOUS
 10
-7.8737500121
 20
18.2144924764
 11
-7.7471875241
 21
18.1857690756
  0
LINE
  5
455
100
AcDbEntity
  8
0
100
AcDbLine
 62
7
  6
CONTINUOUS
 10
6.52
 20
16.7889605586
 11
6.4266666889
 21
16.8783222501
  0
LINE
  5
456
100
AcDbEntity
  8
0
100
AcDbLine
 62
7
  6
CONTINUOUS
 10
6.4033333111
 20
16.1038541738
 11
6.45
 21
16.0442797128
  0
LINE
  5
457
100
AcDbEntity
  8
0
100
AcDbLine
 62
7
  6
CONTINUOUS
 10
6.4033333111
 20
16.6995988671
 11
6.45
 21
16.6400244061
  0
LINE
  5
458
100
AcDbEntity
  8
0
100
AcDbLine
 62
7
  6
CONTINUOUS
 10
7.4533333778
 20
16.7293860976
 11
7.5
 21
16.6698116366
  0
LINE
  5
459
100
AcDbEntity
  8
0
100
AcDbLine
 62
7
  6
CONTINUOUS
 10
2.1425001621
 20
25.9896752938
 11
2.0787501621
 21
26.0918029412
  0
LINE
  5
45A
100
AcDbEntity
  8
0
100
AcDbLine
 62
7
  6
CONTINUOUS
 10
7.64
 20
16.6698116366
 11
7.57
 21
16.7889605586
  0
LWPOLYLINE
  5
45B
100
AcDbEntity
  8
RACCORDO
100
AcDbPolyline
 62
253
  6
CONTINUOUS
 90
16
 70
0
 10
16.7931904121
 20
-18.9850823024
 10
16.7929330305
 20
-18.9936010107
 10
16.7918134336
 20
-19.0021672834
 10
16.7898316216
 20
-19.0107811203
 10
16.7870335561
 20
-19.0195437813
 10
16.7833732755
 20
-19.0283540065
 10
16.7787128947
 20
-19.0369080168
 10
16.7730089685
 20
-19.0452510557
 10
16.7663049422
 20
-19.0533378798
 10
16.7585932662
 20
-19.0607289794
 10
16.7497957088
 20
-19.0674447188
 10
16.7399905019
 20
-19.0734647337
 10
16.7294047912
 20
-19.0782884226
 10
16.7181142921
 20
-19.0817489183
 10
16.7060432894
 20
-19.084013088
 10
16.6931917829
 20
-19.0850809316
  0
LWPOLYLINE
  5
45C
100
AcDbEntity
  8
RACCORDO
100
AcDbPolyline
 62
253
  6
CONTINUOUS
 90
16
 70
0
 10
16.9931876706
 20
-18.9850823024
 10
16.9921292659
 20
-19.0102546701
 10
16.9888252326
 20
-19.0360515908
 10
16.9830910411
 20
-19.0622520874
 10
16.974773251
 20
-19.0885637468
 10
16.9637222664
 20
-19.1147341475
 10
16.9497650561
 20
-19.1405375849
 10
16.9327819457
 20
-19.1656166093
 10
16.9127242625
 20
-19.1895365119
 10
16.889554381
 20
-19.2118812736
 10
16.8633198963
 20
-19.232170433
 10
16.8341473496
 20
-19.249898837
 10
16.8022110176
 20
-19.2645662826
 10
16.7677914095
 20
-19.2756535881
 10
16.7312880799
 20
-19.2826487657
 10
16.6931917829
 20
-19.28507819
  0
LINE
  5
45D
100
AcDbEntity
  8
0
100
AcDbLine
 62
7
  6
CONTINUOUS
 10
-8.101562494
 20
18.1857690756
 11
-7.9749999879
 21
18.2144924764
  0
LINE
  5
45E
100
AcDbEntity
  8
0
100
AcDbLine
 62
7
  6
CONTINUOUS
 10
-9.2906249933
 20
15.8357690756
 11
-9.1499999866
 21
15.8644924764
  0
LINE
  5
45F
100
AcDbEntity
  8
0
100
AcDbLine
 62
7
  6
CONTINUOUS
 10
-7.9496875121
 20
18.3581094805
 11
-8.126875006
 21
18.3293860797
  0
LINE
  5
460
100
AcDbEntity
  8
0
100
AcDbLine
 62
7
  6
CONTINUOUS
 10
-9.1218750134
 20
16.0081094805
 11
-9.3187500067
 21
15.9793860797
  0
LINE
  5
461
100
AcDbEntity
  8
0
100
AcDbLine
 62
7
  6
CONTINUOUS
 10
-7.46875
 20
17.1517265048
 11
-8.177499994
 21
17.1517265048
  0
LINE
  5
462
100
AcDbEntity
  8
ASSI
100
AcDbLine
 62
7
  6
CONTINUOUS
 10
1.637055
 20
17.9631094805
 11
3.097556
 21
17.9631094805
  0
LINE
  5
463
100
AcDbEntity
  8
0
100
AcDbLine
 62
7
  6
CONTINUOUS
 10
-8.3546874992
 20
18.0421520714
 11
-8.228125
 21
18.0421520714
  0
LINE
  5
464
100
AcDbEntity
  8
0
100
AcDbLine
 62
7
  6
CONTINUOUS
 10
-7.9749999879
 20
18.2144924764
 11
-7.8737500121
 21
18.2144924764
  0
LINE
  5
465
100
AcDbEntity
  8
0
100
AcDbLine
 62
7
  6
CONTINUOUS
 10
-7.8484375
 20
18.3581094805
 11
-7.9496875121
 21
18.3581094805
  0
LINE
  5
466
100
AcDbEntity
  8
ASSI
100
AcDbLine
 62
7
  6
CONTINUOUS
 10
3.097556
 20
18.7131094805
 11
1.6370520275
 21
18.7131094805
  0
LINE
  5
467
100
AcDbEntity
  8
0
100
AcDbLine
 62
7
  6
CONTINUOUS
 10
6.4266666889
 20
16.8783222501
 11
6.31
 21
16.9081094805
  0
LINE
  5
468
100
AcDbEntity
  8
0
100
AcDbLine
 62
7
  6
CONTINUOUS
 10
7.4766666222
 20
16.8783222501
 11
7.36
 21
16.9081094805
  0
LINE
  5
469
100
AcDbEntity
  8
0
100
AcDbLine
 62
7
  6
CONTINUOUS
 10
6.3333333111
 20
16.1336414043
 11
6.4033333111
 21
16.1038541738
  0
LINE
  5
46A
100
AcDbEntity
  8
0
100
AcDbLine
 62
7
  6
CONTINUOUS
 10
6.3333333111
 20
16.7293860976
 11
6.4033333111
 21
16.6995988671
  0
LINE
  5
46B
100
AcDbEntity
  8
0
100
AcDbLine
 62
7
  6
CONTINUOUS
 10
7.3833333778
 20
16.7591733281
 11
7.4533333778
 21
16.7293860976
  0
LINE
  5
46C
100
AcDbEntity
  8
0
100
AcDbLine
 62
7
  6
CONTINUOUS
 10
6.52
 20
16.1932158653
 11
6.4733333111
 21
16.2230030958
  0
LINE
  5
46D
100
AcDbEntity
  8
0
100
AcDbLine
 62
7
  6
CONTINUOUS
 10
7.57
 20
16.7889605586
 11
7.4766666222
 21
16.8783222501
  0
LINE
  5
46E
100
AcDbEntity
  8
0
100
AcDbLine
 62
7
  6
CONTINUOUS
 10
1.9724998379
 20
26.0407391175
 11
2.0150001621
 21
25.9896752938
  0
LINE
  5
46F
100
AcDbEntity
  8
0
100
AcDbLine
 62
7
  6
CONTINUOUS
 10
2.0787501621
 20
26.0918029412
 11
1.99375
 21
26.1683986768
  0
LINE
  5
470
100
AcDbEntity
  8
0
100
AcDbLine
 62
7
  6
CONTINUOUS
 10
-1.8099999899
 20
24.9939305886
 11
-1.64
 21
24.9939305886
  0
LINE
  5
471
100
AcDbEntity
  8
0
100
AcDbLine
 62
7
  6
CONTINUOUS
 10
-1.13
 20
24.9939305886
 11
-1.0025
 21
24.9939305886
  0
LINE
  5
472
100
AcDbEntity
  8
0
100
AcDbLine
 62
7
  6
CONTINUOUS
 10
-0.8325000405
 20
24.9939305886
 11
-0.7050000405
 21
24.9939305886
  0
LINE
  5
473
100
AcDbEntity
  8
0
100
AcDbLine
 62
7
  6
CONTINUOUS
 10
0.3574999189
 20
24.9939305886
 11
0.4849999189
 21
24.9939305886
  0
LINE
  5
474
100
AcDbEntity
  8
0
100
AcDbLine
 62
7
  6
CONTINUOUS
 10
0.0600000811
 20
24.9939305886
 11
0.1875000811
 21
24.9939305886
  0
LINE
  5
475
100
AcDbEntity
  8
0
100
AcDbLine
 62
7
  6
CONTINUOUS
 10
-0.4074999595
 20
24.9939305886
 11
-0.2375
 21
24.9939305886
  0
LINE
  5
476
100
AcDbEntity
  8
0
100
AcDbLine
 62
7
  6
CONTINUOUS
 10
1.0800000811
 20
24.9939305886
 11
1.2075000811
 21
24.9939305886
  0
LINE
  5
477
100
AcDbEntity
  8
0
100
AcDbLine
 62
7
  6
CONTINUOUS
 10
1.3774999189
 20
24.9939305886
 11
1.5049999189
 21
24.9939305886
  0
LINE
  5
478
100
AcDbEntity
  8
0
100
AcDbLine
 62
7
  6
CONTINUOUS
 10
2.0362498379
 20
24.9939305886
 11
2.185
 21
24.9939305886
  0
LINE
  5
479
100
AcDbEntity
  8
0
100
AcDbLine
 62
7
  6
CONTINUOUS
 10
0.5700000811
 20
25.3003135666
 11
0.9949999189
 21
25.3003135666
  0
LINE
  5
47A
100
AcDbEntity
  8
0
100
AcDbLine
 62
7
  6
CONTINUOUS
 10
1.9087500811
 20
26.0662710294
 11
1.9724998379
 21
26.0407391175
  0
LINE
  5
47B
100
AcDbEntity
  8
0
100
AcDbLine
 62
7
  6
CONTINUOUS
 10
0.97375
 20
25.402441214
 11
0.59125
 21
25.402441214
  0
LINE
  5
47C
100
AcDbEntity
  8
RACCORDO
100
AcDbLine
 62
253
  6
CONTINUOUS
 10
-12.2931904121
 20
25.5081094805
 11
-12.4931876706
 21
25.5081094805
  0
LINE
  5
47D
100
AcDbEntity
  8
RACCORDO
100
AcDbLine
 62
253
  6
CONTINUOUS
 10
12.2931904121
 20
25.5081094805
 11
12.4931876706
 21
25.5081094241
  0
LINE
  5
47E
100
AcDbEntity
  8
0
100
AcDbLine
 62
7
  6
CONTINUOUS
 10
1.5049999189
 20
25.530100809
 11
1.86625
 21
25.530100809
  0
LINE
  5
47F
100
AcDbEntity
  8
0
100
AcDbLine
 62
7
  6
CONTINUOUS
 10
1.9087500811
 20
25.6832922801
 11
1.5049999189
 21
25.6832922801
  0
LINE
  5
480
100
AcDbEntity
  8
0
100
AcDbLine
 62
7
  6
CONTINUOUS
 10
1.5049999189
 20
26.0662710294
 11
1.9087500811
 21
26.0662710294
  0
LINE
  5
481
100
AcDbEntity
  8
0
100
AcDbLine
 62
7
  6
CONTINUOUS
 10
1.8874999189
 20
26.1939305886
 11
1.3774999189
 21
26.1939305886
  0
LINE
  5
482
100
AcDbEntity
  8
0
100
AcDbLine
 62
7
  6
CONTINUOUS
 10
0.8674999189
 20
26.1939305886
 11
0.6975000811
 21
26.1939305886
  0
LINE
  5
483
100
AcDbEntity
  8
0
100
AcDbLine
 62
7
  6
CONTINUOUS
 10
0.1875000811
 20
26.1939305886
 11
-0.0037499189
 21
26.1939305886
  0
LINE
  5
484
100
AcDbEntity
  8
0
100
AcDbLine
 62
7
  6
CONTINUOUS
 10
-0.6412500405
 20
26.1939305886
 11
-0.8325000405
 21
26.1939305886
  0
LINE
  5
485
100
AcDbEntity
  8
0
100
AcDbLine
 62
7
  6
CONTINUOUS
 10
-1.0025
 20
26.1939305886
 11
-1.13
 21
26.1939305886
  0
LINE
  5
486
100
AcDbEntity
  8
0
100
AcDbLine
 62
7
  6
CONTINUOUS
 10
-1.3000000203
 20
26.1939305886
 11
-1.4275000203
 21
26.1939305886
  0
LINE
  5
487
100
AcDbEntity
  8
0
100
AcDbLine
 62
7
  6
CONTINUOUS
 10
-2.0225
 20
26.1939305886
 11
-2.15
 21
26.1939305886
  0
LINE
  5
488
100
AcDbEntity
  8
0
100
AcDbLine
 62
7
  6
CONTINUOUS
 10
1.99375
 20
26.1683986768
 11
1.8874999189
 21
26.1939305886
  0
LINE
  5
489
100
AcDbEntity
  8
RACCORDO
100
AcDbLine
 62
253
  6
CONTINUOUS
 10
9.0744434153
 20
33.8012998927
 11
-9.0744434153
 21
33.8012998927
  0
LINE
  5
48A
100
AcDbEntity
  8
RACCORDO
100
AcDbLine
 62
7
  6
CONTINUOUS
 10
9.1621777632
 20
34.0012971511
 11
-9.1621777632
 21
34.0012971511
  0
LINE
  5
48B
100
AcDbEntity
  8
0
100
AcDbLine
 62
7
  6
CONTINUOUS
 10
-8.6746757864
 20
34.5081094805
 11
8.6746757864
 21
34.5081094805
  0
CIRCLE
  5
48C
100
AcDbEntity
  8
ASSI
100
AcDbCircle
 62
7
  6
CONTINUOUS
 10
-13.0
 20
-15.2918905195
 40
2.5
  0
ARC
  5
48D
100
AcDbEntity
  8
RACCORDO
100
AcDbCircle
 62
7
  6
CONTINUOUS
 10
-14.5
 20
-6.9918905195
 40
2.5
100
AcDbArc
 50
93.7765854973
 51
180.0
  0
CIRCLE
  5
48E
100
AcDbEntity
  8
ASSI
100
AcDbCircle
 62
7
  6
CONTINUOUS
 10
-6.0
 20
-8.4918905195
 40
2.5
  0
CIRCLE
  5
48F
100
AcDbEntity
  8
ASSI
100
AcDbCircle
 62
7
  6
CONTINUOUS
 10
-7.94
 20
3.7081094805
 40
2.5
  0
ARC
  5
490
100
AcDbEntity
  8
ASSI
100
AcDbCircle
 62
7
  6
CONTINUOUS
 10
-0.987554
 20
18.3381094805
 40
2.5499985399
100
AcDbArc
 50
87.7525290943
 51
272.2474708775
  0
CIRCLE
  5
491
100
AcDbEntity
  8
ASSI
100
AcDbCircle
 62
7
  6
CONTINUOUS
 10
-7.94
 20
16.2081094805
 40
2.5
  0
ARC
  5
492
100
AcDbEntity
  8
ASSI
100
AcDbCircle
 62
7
  6
CONTINUOUS
 10
-0.987554
 20
18.3381094805
 40
1.7999999246
100
AcDbArc
 50
86.8152613297
 51
273.1847386165
  0
CIRCLE
  5
493
100
AcDbEntity
  8
ASSI
100
AcDbCircle
 62
7
  6
CONTINUOUS
 10
7.94
 20
3.7081094805
 40
2.5
  0
CIRCLE
  5
494
100
AcDbEntity
  8
ASSI
100
AcDbCircle
 62
7
  6
CONTINUOUS
 10
6.0
 20
-8.4918905195
 40
2.5
  0
CIRCLE
  5
495
100
AcDbEntity
  8
ASSI
100
AcDbCircle
 62
7
  6
CONTINUOUS
 10
13.0
 20
-15.2918905195
 40
2.5
  0
CIRCLE
  5
496
100
AcDbEntity
  8
ASSI
100
AcDbCircle
 62
7
  6
CONTINUOUS
 10
-0.0
 20
-15.2918905195
 40
2.5
  0
ARC
  5
497
100
AcDbEntity
  8
RACCORDO
100
AcDbCircle
 62
7
  6
CONTINUOUS
 10
14.5
 20
-6.9918905195
 40
2.5
100
AcDbArc
 50
3.7765854973
 51
90.0
  0
CIRCLE
  5
498
100
AcDbEntity
  8
0
100
AcDbCircle
 62
7
  6
CONTINUOUS
 10
-0.0
 20
8.5081094805
 40
2.75
  0
CIRCLE
  5
499
100
AcDbEntity
  8
0
100
AcDbCircle
 62
7
  6
CONTINUOUS
 10
-0.0
 20
8.5081094805
 40
1.65
  0
CIRCLE
  5
49A
100
AcDbEntity
  8
0
100
AcDbCircle
 62
7
  6
CONTINUOUS
 10
-0.0
 20
8.5081094805
 40
1.5
  0
CIRCLE
  5
49B
100
AcDbEntity
  8
0
100
AcDbCircle
 62
7
  6
CONTINUOUS
 10
-0.0
 20
8.5081094805
 40
1.3
  0
CIRCLE
  5
49C
100
AcDbEntity
  8
0
100
AcDbCircle
 62
7
  6
CONTINUOUS
 10
-0.0
 20
8.5081094805
 40
1.0
  0
ARC
  5
49D
100
AcDbEntity
  8
DRAFT
100
AcDbCircle
 62
7
  6
CONTINUOUS
 10
-0.0
 20
25.5081094805
 40
12.5
100
AcDbArc
 50
137.1563569564
 51
180.0
  0
ARC
  5
49E
100
AcDbEntity
  8
DRAFT
100
AcDbCircle
 62
7
  6
CONTINUOUS
 10
-0.0
 20
25.5081094805
 40
12.5
100
AcDbArc
 50
0.0
 51
42.8436430436
  0
ARC
  5
49F
100
AcDbEntity
  8
0
100
AcDbCircle
 62
7
  6
CONTINUOUS
 10
-0.0
 20
25.5081094805
 40
12.5
100
AcDbArc
 50
139.0688653204
 51
180.0
  0
ARC
  5
4A0
100
AcDbEntity
  8
0
100
AcDbCircle
 62
7
  6
CONTINUOUS
 10
-0.0
 20
25.5081094805
 40
12.5
100
AcDbArc
 50
0.0
 51
9.2939135799
  0
ARC
  5
4A1
100
AcDbEntity
  8
0
100
AcDbCircle
 62
7
  6
CONTINUOUS
 10
-0.0
 20
25.5081094805
 40
12.5
100
AcDbArc
 50
42.853124701
 51
137.146875299
  0
ARC
  5
4A2
100
AcDbEntity
  8
RACCORDO
100
AcDbCircle
 62
7
  6
CONTINUOUS
 10
-0.0
 20
25.5081094805
 40
12.4931876706
100
AcDbArc
 50
137.1699907729
 51
180.0
  0
ARC
  5
4A3
100
AcDbEntity
  8
RACCORDO
100
AcDbCircle
 62
7
  6
CONTINUOUS
 10
-0.0
 20
25.5081094805
 40
12.4931876706
100
AcDbArc
 50
0.0
 51
42.8300092271
  0
ARC
  5
4A4
100
AcDbEntity
  8
RACCORDO
100
AcDbCircle
 62
253
  6
CONTINUOUS
 10
-0.0
 20
25.5081094805
 40
12.2931904121
100
AcDbArc
 50
0.0
 51
42.4243846553
  0
ARC
  5
4A5
100
AcDbEntity
  8
RACCORDO
100
AcDbCircle
 62
253
  6
CONTINUOUS
 10
-0.0
 20
25.5081094805
 40
12.2931904121
100
AcDbArc
 50
137.5756153447
 51
180.0
  0
ARC
  5
4A6
100
AcDbEntity
  8
0
100
AcDbCircle
 62
7
  6
CONTINUOUS
 10
-0.0
 20
25.5081094805
 40
10.5
100
AcDbArc
 50
121.0027191339
 51
125.9252001558
  0
ARC
  5
4A7
100
AcDbEntity
  8
0
100
AcDbCircle
 62
7
  6
CONTINUOUS
 10
-0.0
 20
25.5081094805
 40
10.5
100
AcDbArc
 50
54.0747998442
 51
58.9972808661
  0
ARC
  5
4A8
100
AcDbEntity
  8
0
100
AcDbCircle
 62
7
  6
CONTINUOUS
 10
-0.0
 20
25.5081094805
 40
9.0
100
AcDbArc
 50
70.8619918413
 51
77.8125258646
  0
ARC
  5
4A9
100
AcDbEntity
  8
0
100
AcDbCircle
 62
7
  6
CONTINUOUS
 10
-0.0
 20
25.5081094805
 40
9.0
100
AcDbArc
 50
102.1874741354
 51
109.1380081587
  0
ARC
  5
4AA
100
AcDbEntity
  8
ASSI
100
AcDbCircle
 62
7
  6
CONTINUOUS
 10
3.397556
 20
18.3381094805
 40
2.5499986575
100
AcDbArc
 50
87.7525284778
 51
272.2474707748
  0
CIRCLE
  5
4AB
100
AcDbEntity
  8
ASSI
100
AcDbCircle
 62
7
  6
CONTINUOUS
 10
-0.0
 20
25.5081094805
 40
2.5
  0
ARC
  5
4AC
100
AcDbEntity
  8
ASSI
100
AcDbCircle
 62
7
  6
CONTINUOUS
 10
3.397556
 20
18.3381094805
 40
1.7999999246
100
AcDbArc
 50
86.8152613297
 51
167.9752993829
  0
ARC
  5
4AD
100
AcDbEntity
  8
ASSI
100
AcDbCircle
 62
7
  6
CONTINUOUS
 10
3.397556
 20
18.3381094805
 40
1.7999968808
100
AcDbArc
 50
192.0247203293
 51
273.184745226
  0
CIRCLE
  5
4AE
100
AcDbEntity
  8
ASSI
100
AcDbCircle
 62
7
  6
CONTINUOUS
 10
7.94
 20
16.2081094805
 40
2.5
  0
ELLIPSE
  5
4AF
100
AcDbEntity
  8
RACCORDO
100
AcDbEllipse
 62
7
  6
CONTINUOUS
 10
-14.4999657301
 20
-6.9919247893
 30
0.0
 11
1.7678154175
 21
-1.7678154175
 31
0.0
 40
0.9999725851
 41
2.3562081979
 42
3.9269771093
  0
ELLIPSE
  5
4B0
100
AcDbEntity
  8
RACCORDO
100
AcDbEllipse
 62
7
  6
CONTINUOUS
 10
-16.6999958876
 20
-18.9918864071
 30
0.0
 11
0.2121378501
 21
0.2121378501
 31
0.0
 40
0.9999725851
 41
-3.9269771093
 42
-2.3562081979
  0
ELLIPSE
  5
4B1
100
AcDbEntity
  8
RACCORDO
100
AcDbEllipse
 62
7
  6
CONTINUOUS
 10
16.6999958876
 20
-18.9918864071
 30
0.0
 11
0.2121378501
 21
-0.2121378501
 31
0.0
 40
0.9999725851
 41
-0.7853844557
 42
0.7853844557
  0
ELLIPSE
  5
4B2
100
AcDbEntity
  8
RACCORDO
100
AcDbEllipse
 62
7
  6
CONTINUOUS
 10
14.4999657301
 20
-6.9919247893
 30
0.0
 11
1.7678154175
 21
1.7678154175
 31
0.0
 40
0.9999725851
 41
-0.7853844557
 42
0.7853844557
  0
ENDSEC
  0
SECTION
  2
OBJECTS
  0
DICTIONARY
  5
C
100
AcDbDictionary
280
0
281
1
  3
ACAD_GROUP
350
D
  3
ACAD_MLINESTYLE
350
17
  3
ACAD_LAYOUT
350
1A
  3
ACAD_PLOTSETTINGS
350
19
  3
ACAD_PLOTSTYLENAME
350
E
  0
DICTIONARY
  5
D
102
{ACAD_REACTORS
330
C
102
}
100
AcDbDictionary
280
0
281
1
  0
ACDBDICTIONARYWDFLT
  5
E
102
{ACAD_REACTORS
330
C
102
}
100
AcDbDictionary
281
1
  3
Normal
350
F
100
AcDbDictionaryWithDefault
340
F
  0
DICTIONARY
  5
17
102
{ACAD_REACTORS
330
C
102
}
100
AcDbDictionary
280
0
281
1
  3
Standard
350
18
  0
DICTIONARY
  5
19
102
{ACAD_REACTORS
330
C
102
}
100
AcDbDictionary
281
1
  0
DICTIONARY
  5
1A
102
{ACAD_REACTORS
330
C
102
}
100
AcDbDictionary
281
1
  3
Model
350
4B3
  3
Layout1
350
4B4
  0
ACDBPLACEHOLDER
  5
F
102
{ACAD_REACTORS
330
E
102
}
  0
MLINESTYLE
  5
18
102
{ACAD_REACTORS
330
17
102
}
100
AcDbMlineStyle
  2
STANDARD
 70
0
  3

 62
256
 51
90.0
 52
90.0
 71
2
 49
0.5
 62
256
  6
BYLAYER
 49
-0.5
 62
256
  6
BYLAYER
  0
LAYOUT
  5
4B3
102
{ACAD_REACTORS
330
1A
102
}
100
AcDbPlotSettings
  1

  2
none_device
  4
ANSI_C_(22.00_x_17.00_Inches)
  6

 40
0.0
 41
0.0
 42
0.0
 43
0.0
 44
558.8
 45
431.8
 46
0.0
 47
0.0
 48
0.0
 49
0.0
140
0.0
141
0.0
142
1.0
143
1.0
 70
1024
 72
1
 73
0
 74
0
  7

 75
0
147
1.0
148
0.0
149
0.0
100
AcDbLayout
  1
Model
 70
0
 71
0
 10
0.0
 20
0.0
 11
558.8
 21
431.8
 12
0.0
 22
0.0
 32
0.0
 14
0.0
 24
0.0
 34
0.0
 15
0.0
 25
0.0
 35
0.0
146
0.0
 13
0.0
 23
0.0
 33
0.0
 16
1.0
 26
0.0
 36
0.0
 17
0.0
 27
1.0
 37
0.0
 76
0
330
214
345
0
346
0
  0
LAYOUT
  5
4B4
102
{ACAD_REACTORS
330
1A
102
}
100
AcDbPlotSettings
  1

  2
none_device
  4
ANSI_C_(22.00_x_17.00_Inches)
  6

 40
0.0
 41
0.0
 42
0.0
 43
0.0
 44
558.8
 45
431.8
 46
0.0
 47
0.0
 48
0.0
 49
0.0
140
0.0
141
0.0
142
1.0
143
1.0
 70
0
 72
1
 73
0
 74
0
  7

 75
0
147
1.0
148
0.0
149
0.0
100
AcDbLayout
  1
Layout1
 70
0
 71
1
 10
0.0
 20
0.0
 11
558.8
 21
431.8
 12
0.0
 22
0.0
 32
0.0
 14
0.0
 24
0.0
 34
0.0
 15
0.0
 25
0.0
 35
0.0
146
0.0
 13
0.0
 23
0.0
 33
0.0
 16
1.0
 26
0.0
 36
0.0
 17
0.0
 27
1.0
 37
0.0
 76
0
330
215
345
0
346
0
  0
ENDSEC
  0
EOF
