  0
SECTION
  2
HEADER
  9
$ACADVER
  1
AC1021
  9
$DWGCODEPAGE
  3
ANSI_1252
  9
$EXTMAX
 10
558.8
 20
431.8
 30
0.0
  9
$EXTMIN
 10
0.0
 20
0.0
 30
0.0
  9
$LIMMIN
 10
0.0
 20
0.0
  9
$LIMMAX
 10
558.8
 20
431.8
  9
$VIEWCTR
 10
279.4
 20
215.9
  9
$VIEWSIZE
 40
431.8
  9
$CLAYER
  8
0
  9
$LTSCALE
 40
30.734
  9
$CELTYPE
  6
BYLAYER
  9
$DIMSCALE
 40
1.0
  9
$DIMASZ
 40
3.0
  9
$DIMEXO
 40
0.5
  9
$DIMDLI
 40
21.2344
  9
$DIMEXE
 40
1.5
  9
$DIMCEN
 40
5.0292
  9
$DIMLFAC
 40
1.0
  9
$DIMBLK
  1
_FILLED
  9
$DIMALT
 70
0
  9
$DIMALTF
 40
25.4
  9
$DIMTXT
 40
3.0
  9
$DIMTOL
 70
1
  9
$DIMLIM
 70
0
  9
$DIMTFAC
 40
1.0
  9
$DIMTP
 40
0.01
  9
$DIMTM
 40
0.01
  9
$DIMGAP
 40
0.625
  9
$DIMDSEP
 70
44
  9
$AUNITS
 70
0
  9
$PDMODE
 70
3
  9
$PDSIZE
 40
3.0
  9
$HANDSEED
  5
49E
  9
$TILEMODE
 70
1
  9
$MEASUREMENT
 70
1
  9
$INSUNITS
 70
4
  0
ENDSEC
  0
SECTION
  2
CLASSES
  0
CLASS
  1
ACDBDICTIONARYWDFLT
  2
AcDbDictionaryWithDefault
  3
AutoCAD 2000
 90
0
 91
1
280
0
281
0
  0
CLASS
  1
ACDBPLACEHOLDER
  2
AcDbPlaceHolder
  3
AutoCAD 2000
 90
0
 91
1
280
0
281
0
  0
CLASS
  1
LAYOUT
  2
AcDbLayout
  3
AutoCAD 2000
 90
0
 91
0
280
0
281
0
  0
ENDSEC
  0
SECTION
  2
TABLES
  0
TABLE
  2
VPORT
  5
8
100
AcDbSymbolTable
 70
2
  0
VPORT
  5
1F4
100
AcDbSymbolTableRecord
100
AcDbViewportTableRecord
  2
*ACTIVE
 70
0
 10
0.0
 20
0.0
 11
1.0
 21
1.0
 12
279.4
 22
215.9
 13
0.0
 23
0.0
 14
1.0
 24
1.0
 15
0.0
 25
0.0
 16
0.0
 26
0.0
 36
1.0
 17
0.0
 27
0.0
 37
0.0
 40
431.8
 41
1.2941176471
 42
50.0
 43
0.0
 44
0.0
 50
0.0
 51
0.0
 71
0
 72
100
 73
1
 74
1
 75
0
 76
0
 77
0
 78
0
  0
ENDTAB
  0
TABLE
  2
LTYPE
  5
5
100
AcDbSymbolTable
 70
6
  0
LTYPE
  5
14
100
AcDbSymbolTableRecord
100
AcDbLinetypeTableRecord
  2
BYBLOCK
 70
0
  3

 72
65
 73
0
 40
0.0
  0
LTYPE
  5
15
100
AcDbSymbolTableRecord
100
AcDbLinetypeTableRecord
  2
BYLAYER
 70
0
  3

 72
65
 73
0
 40
0.0
  0
LTYPE
  5
16
100
AcDbSymbolTableRecord
100
AcDbLinetypeTableRecord
  2
CONTINUOUS
 70
64
  3
Solid line
 72
65
 73
0
 40
0.0
  0
LTYPE
  5
1F5
100
AcDbSymbolTableRecord
100
AcDbLinetypeTableRecord
  2
CENTER
 70
64
  3
____ _ ____ _ ____ _ ____ _ ____ _ ____ _ ____
 72
65
 73
4
 40
0.6
 49
0.375
 74
0
 49
-0.075
 74
0
 49
0.075
 74
0
 49
-0.075
 74
0
  0
LTYPE
  5
1F6
100
AcDbSymbolTableRecord
100
AcDbLinetypeTableRecord
  2
HIDDEN
 70
64
  3
- - - - - - - - - - - - - - - - - - - -
 72
65
 73
2
 40
0.2
 49
0.1
 74
0
 49
-0.1
 74
0
  0
LTYPE
  5
1F7
100
AcDbSymbolTableRecord
100
AcDbLinetypeTableRecord
  2
PHANTOM
 70
64
  3
_____ _ _ _____ _ _ _____ _ _ _____
 72
65
 73
6
 40
0.8
 49
0.45
 74
0
 49
-0.05
 74
0
 49
0.1
 74
0
 49
-0.05
 74
0
 49
0.1
 74
0
 49
-0.05
 74
0
  0
LTYPE
  5
1F8
100
AcDbSymbolTableRecord
100
AcDbLinetypeTableRecord
  2
DOT
 70
64
  3
. . . . . . . . . . . . . . . . . . . .
 72
65
 73
2
 40
0.2
 49
0.1
 74
0
 49
-0.1
 74
0
  0
LTYPE
  5
1F9
100
AcDbSymbolTableRecord
100
AcDbLinetypeTableRecord
  2
DASHED
 70
64
  3
- - - - - - - - - - - - - - - - - - - -
 72
65
 73
2
 40
0.2
 49
0.1
 74
0
 49
-0.1
 74
0
  0
ENDTAB
  0
TABLE
  2
LAYER
  5
2
100
AcDbSymbolTable
 70
36
  0
LAYER
  5
10
100
AcDbSymbolTableRecord
100
AcDbLayerTableRecord
  2
0
 70
0
 62
7
  6
CONTINUOUS
370
-3
390
F
  0
LAYER
  5
1FA
100
AcDbSymbolTableRecord
100
AcDbLayerTableRecord
  2
DEFAULT_1
 70
0
 62
7
  6
CENTER
370
-3
390
F
  0
LAYER
  5
1FB
100
AcDbSymbolTableRecord
100
AcDbLayerTableRecord
  2
DEFAULT_2
 70
0
 62
7
  6
HIDDEN
370
-3
390
F
  0
LAYER
  5
1FC
100
AcDbSymbolTableRecord
100
AcDbLayerTableRecord
  2
DEFAULT_3
 70
0
 62
7
  6
PHANTOM
370
-3
390
F
  0
LAYER
  5
1FD
100
AcDbSymbolTableRecord
100
AcDbLayerTableRecord
  2
ASSI
 70
0
 62
7
  6
CONTINUOUS
370
-3
390
F
  0
LAYER
  5
1FE
100
AcDbSymbolTableRecord
100
AcDbLayerTableRecord
  2
COORDINATE
 70
0
 62
7
  6
CONTINUOUS
370
-3
390
F
  0
LAYER
  5
1FF
100
AcDbSymbolTableRecord
100
AcDbLayerTableRecord
  2
COORD_ORIGINE
 70
0
 62
7
  6
CONTINUOUS
370
-3
390
F
  0
LAYER
  5
200
100
AcDbSymbolTableRecord
100
AcDbLayerTableRecord
  2
COPY_PUBLISH
 70
0
 62
7
  6
CONTINUOUS
370
-3
390
F
  0
LAYER
  5
201
100
AcDbSymbolTableRecord
100
AcDbLayerTableRecord
  2
COSMETIC
 70
0
 62
7
  6
CONTINUOUS
370
-3
390
F
  0
LAYER
  5
202
100
AcDbSymbolTableRecord
100
AcDbLayerTableRecord
  2
COSMETICHE
 70
0
 62
7
  6
CONTINUOUS
370
-3
390
F
  0
LAYER
  5
203
100
AcDbSymbolTableRecord
100
AcDbLayerTableRecord
  2
COSMETICI
 70
0
 62
7
  6
CONTINUOUS
370
-3
390
F
  0
LAYER
  5
204
100
AcDbSymbolTableRecord
100
AcDbLayerTableRecord
  2
CURVE
 70
0
 62
7
  6
CONTINUOUS
370
-3
390
F
  0
LAYER
  5
205
100
AcDbSymbolTableRecord
100
AcDbLayerTableRecord
  2
DRAFT
 70
0
 62
7
  6
CONTINUOUS
370
-3
390
F
  0
LAYER
  5
206
100
AcDbSymbolTableRecord
100
AcDbLayerTableRecord
  2
IMPORT_IGES
 70
0
 62
7
  6
CONTINUOUS
370
-3
390
F
  0
LAYER
  5
207
100
AcDbSymbolTableRecord
100
AcDbLayerTableRecord
  2
NOTE
 70
0
 62
7
  6
CONTINUOUS
370
-3
390
F
  0
LAYER
  5
208
100
AcDbSymbolTableRecord
100
AcDbLayerTableRecord
  2
PIANI
 70
0
 62
7
  6
CONTINUOUS
370
-3
390
F
  0
LAYER
  5
209
100
AcDbSymbolTableRecord
100
AcDbLayerTableRecord
  2
PIANI_ORIGINE
 70
0
 62
7
  6
CONTINUOUS
370
-3
390
F
  0
LAYER
  5
20A
100
AcDbSymbolTableRecord
100
AcDbLayerTableRecord
  2
PUNTI
 70
0
 62
7
  6
CONTINUOUS
370
-3
390
F
  0
LAYER
  5
20B
100
AcDbSymbolTableRecord
100
AcDbLayerTableRecord
  2
RACCORDO
 70
0
 62
7
  6
CONTINUOUS
370
-3
390
F
  0
LAYER
  5
20C
100
AcDbSymbolTableRecord
100
AcDbLayerTableRecord
  2
SIMBOLI
 70
0
 62
7
  6
CONTINUOUS
370
-3
390
F
  0
LAYER
  5
20D
100
AcDbSymbolTableRecord
100
AcDbLayerTableRecord
  2
SMUSSO
 70
0
 62
7
  6
CONTINUOUS
370
-3
390
F
  0
LAYER
  5
20E
100
AcDbSymbolTableRecord
100
AcDbLayerTableRecord
  2
SNAPLINE
 70
0
 62
7
  6
CONTINUOUS
370
-3
390
F
  0
LAYER
  5
20F
100
AcDbSymbolTableRecord
100
AcDbLayerTableRecord
  2
SUPERFICI
 70
0
 62
7
  6
CONTINUOUS
370
-3
390
F
  0
LAYER
  5
210
100
AcDbSymbolTableRecord
100
AcDbLayerTableRecord
  2
TRASH
 70
0
 62
7
  6
CONTINUOUS
370
-3
390
F
  0
LAYER
  5
211
100
AcDbSymbolTableRecord
100
AcDbLayerTableRecord
  2
XSEC_DATUMS
 70
0
 62
7
  6
CONTINUOUS
370
-3
390
F
  0
ENDTAB
  0
TABLE
  2
STYLE
  5
3
100
AcDbSymbolTable
 70
1
  0
STYLE
  5
11
100
AcDbSymbolTableRecord
100
AcDbTextStyleTableRecord
  2
STANDARD
 70
0
 40
0.0
 41
0.8
 50
0.0
 71
0
 42
0.2
  3
txt
  4

  0
STYLE
  5
212
100
AcDbSymbolTableRecord
100
AcDbTextStyleTableRecord
  2
TEXTSTYLE_1
 70
0
 40
0.0
 41
0.8
 50
0.0
 71
0
 42
0.2
  3
gdt
  4

  0
ENDTAB
  0
TABLE
  2
VIEW
  5
6
100
AcDbSymbolTable
 70
0
  0
ENDTAB
  0
TABLE
  2
UCS
  5
7
100
AcDbSymbolTable
 70
0
  0
ENDTAB
  0
TABLE
  2
APPID
  5
9
100
AcDbSymbolTable
 70
1
  0
APPID
  5
213
100
AcDbSymbolTableRecord
100
AcDbRegAppTableRecord
  2
ACAD
 70
0
  0
ENDTAB
  0
TABLE
  2
BLOCK_RECORD
  5
1
100
AcDbSymbolTable
 70
0
  0
BLOCK_RECORD
  5
214
100
AcDbSymbolTableRecord
100
AcDbBlockTableRecord
  2
*Model_Space
  0
BLOCK_RECORD
  5
215
100
AcDbSymbolTableRecord
100
AcDbBlockTableRecord
  2
*Paper_Space
  0
BLOCK_RECORD
  5
216
100
AcDbSymbolTableRecord
100
AcDbBlockTableRecord
  2
_FILLED
  0
ENDTAB
  0
TABLE
  2
DIMSTYLE
  5
A
100
AcDbSymbolTable
 70
1
100
AcDbDimStyleTable
 71
0
  0
DIMSTYLE
105
217
100
AcDbSymbolTableRecord
100
AcDbDimStyleTableRecord
  2
STANDARD
 70
0
  3

  4

 40
1.0
 41
3.0
 42
0.5
 43
0.38
 44
1.5
 45
0.0
 46
0.0
 47
0.01
 48
0.01
140
3.0
141
0.09
142
0.0
143
25.4
144
1.0
145
0.0
146
1.0
147
0.625
 71
1.0
 72
0.0
 73
0
 74
0
 75
0
 76
0
 77
1
 78
8
 79
2
170
0
171
1
172
0
173
0
174
0
175
0
176
0
177
0
178
0
270
2
179
2
271
2
272
2
273
2
274
2
275
0
280
0
281
0
282
0
283
1
284
8
285
0
286
0
287
3
288
0
340
11
278
44
341
216
342
216
343
216
344
216
  0
ENDTAB
  0
ENDSEC
  0
SECTION
  2
BLOCKS
  0
BLOCK
  5
20
100
AcDbEntity
  8
0
100
AcDbBlockBegin
  2
*Model_Space
 70
0
 10
0.0
 20
0.0
 30
0.0
  3
*Model_Space
  1

  0
ENDBLK
  5
21
100
AcDbEntity
  8
0
100
AcDbBlockEnd
  0
BLOCK
  5
1C
100
AcDbEntity
  8
0
100
AcDbBlockBegin
  2
*Paper_Space
 70
0
 10
0.0
 20
0.0
 30
0.0
  3
*Paper_Space
  1

  0
ENDBLK
  5
1D
100
AcDbEntity
  8
0
100
AcDbBlockEnd
  0
BLOCK
  5
218
100
AcDbEntity
  8
0
100
AcDbBlockBegin
  2
_FILLED
 70
64
 10
0.0
 20
0.0
  3
_FILLED
  1

  0
SOLID
  5
219
100
AcDbEntity
  8
0
  6
BYBLOCK
 62
0
100
AcDbTrace
 10
0.0
 20
0.0
 11
-1.0
 21
0.3166666667
 12
-1.0
 22
-0.3166666667
 13
-1.0
 23
-0.3166666667
  0
ENDBLK
  5
21A
100
AcDbEntity
  8
0
  6
BYBLOCK
 62
0
100
AcDbBlockEnd
  0
ENDSEC
  0
SECTION
  2
ENTITIES
  0
LINE
  5
21B
100
AcDbEntity
  8
0
100
AcDbLine
 62
7
  6
CONTINUOUS
 10
17.0
 20
-28.7418905195
 11
10.25
 21
-28.7418905195
  0
LINE
  5
21C
100
AcDbEntity
  8
ASSI
100
AcDbLine
 62
7
  6
CONTINUOUS
 10
-10.25
 20
-28.7418905195
 11
-9.0
 21
-28.7418905195
  0
LINE
  5
21D
100
AcDbEntity
  8
ASSI
100
AcDbLine
 62
7
  6
CONTINUOUS
 10
-5.0
 20
-28.7418905195
 11
5.0
 21
-28.7418905195
  0
LINE
  5
21E
100
AcDbEntity
  8
ASSI
100
AcDbLine
 62
7
  6
CONTINUOUS
 10
9.0
 20
-28.7418905195
 11
10.25
 21
-28.7418905195
  0
LINE
  5
21F
100
AcDbEntity
  8
0
100
AcDbLine
 62
7
  6
CONTINUOUS
 10
-10.25
 20
-28.7418905195
 11
-17.0
 21
-28.7418905195
  0
LWPOLYLINE
  5
220
100
AcDbEntity
  8
RACCORDO
100
AcDbPolyline
 62
253
  6
CONTINUOUS
 90
16
 70
0
 10
-16.6931917829
 20
-28.3350809316
 10
-16.7017104913
 20
-28.3348235499
 10
-16.7102767639
 20
-28.3337039531
 10
-16.7188906009
 20
-28.3317221411
 10
-16.7276532618
 20
-28.3289240756
 10
-16.736463487
 20
-28.3252637949
 10
-16.7450174974
 20
-28.3206034141
 10
-16.7533605363
 20
-28.3148994879
 10
-16.7614473603
 20
-28.3081954616
 10
-16.76883846
 20
-28.3004837857
 10
-16.7755541993
 20
-28.2916862283
 10
-16.7815742142
 20
-28.2818810213
 10
-16.7863979032
 20
-28.2712953107
 10
-16.7898583988
 20
-28.2600048116
 10
-16.7921225685
 20
-28.2479338088
 10
-16.7931904121
 20
-28.2350823024
  0
LWPOLYLINE
  5
221
100
AcDbEntity
  8
RACCORDO
100
AcDbPolyline
 62
253
  6
CONTINUOUS
 90
16
 70
0
 10
-16.6931917829
 20
-28.53507819
 10
-16.7183641506
 20
-28.5340197854
 10
-16.7441610713
 20
-28.5307157521
 10
-16.7703615679
 20
-28.5249815606
 10
-16.7966732273
 20
-28.5166637705
 10
-16.822843628
 20
-28.5056127859
 10
-16.8486470654
 20
-28.4916555756
 10
-16.8737260898
 20
-28.4746724652
 10
-16.8976459924
 20
-28.454614782
 10
-16.9199907542
 20
-28.4314449004
 10
-16.9402799135
 20
-28.4052104158
 10
-16.9580083175
 20
-28.376037869
 10
-16.9726757631
 20
-28.3441015371
 10
-16.9837630687
 20
-28.309681929
 10
-16.9907582462
 20
-28.2731785993
 10
-16.9931876706
 20
-28.2350823024
  0
LINE
  5
222
100
AcDbEntity
  8
RACCORDO
100
AcDbLine
 62
7
  6
CONTINUOUS
 10
16.6931917829
 20
-28.53507819
 11
-16.6931917829
 21
-28.53507819
  0
LINE
  5
223
100
AcDbEntity
  8
RACCORDO
100
AcDbLine
 62
253
  6
CONTINUOUS
 10
16.6931917829
 20
-28.3350809316
 11
-16.6931917829
 21
-28.3350809316
  0
LINE
  5
224
100
AcDbEntity
  8
RACCORDO
100
AcDbLine
 62
253
  6
CONTINUOUS
 10
-16.9931876706
 20
-28.2350823024
 11
-16.7931904121
 21
-28.2350823024
  0
LINE
  5
225
100
AcDbEntity
  8
RACCORDO
100
AcDbLine
 62
253
  6
CONTINUOUS
 10
16.9931876706
 20
-28.2350823024
 11
16.7931904121
 21
-28.2350823024
  0
LWPOLYLINE
  5
226
100
AcDbEntity
  8
0
100
AcDbPolyline
 62
7
  6
CONTINUOUS
 90
3
 70
0
 10
-4.0564375404
 20
-17.8416048831
 10
-4.0247300623
 20
-17.8393921432
 10
-3.9958136332
 20
-17.8417451823
  0
LWPOLYLINE
  5
227
100
AcDbEntity
  8
0
100
AcDbPolyline
 62
7
  6
CONTINUOUS
 90
12
 70
0
 10
-4.8394538098
 20
-18.331035896
 10
-4.7795357078
 20
-18.3272694223
 10
-4.723972163
 20
-18.3139568875
 10
-4.6727631753
 20
-18.2910982915
 10
-4.6251577502
 20
-18.2578950681
 10
-4.5819068823
 20
-18.2151457836
 10
-4.5452635552
 20
-18.1652461368
 10
-4.516395721
 20
-18.1078320706
 10
-4.4941354277
 20
-18.043267642
 10
-4.4772318032
 20
-17.9750407214
 10
-4.4652678903
 20
-17.904313932
 10
-4.4586606462
 20
-17.8299246506
  0
LINE
  5
228
100
AcDbEntity
  8
0
100
AcDbLine
 62
7
  6
CONTINUOUS
 10
-7.0481725404
 20
-19.4511395195
 11
-4.4222815404
 21
-19.4511395195
  0
LINE
  5
229
100
AcDbEntity
  8
0
100
AcDbLine
 62
7
  6
CONTINUOUS
 10
-7.0245105404
 20
-19.3610435195
 11
-5.9819445404
 21
-19.3610435195
  0
LINE
  5
22A
100
AcDbEntity
  8
0
100
AcDbLine
 62
7
  6
CONTINUOUS
 10
-6.1981755404
 20
-19.0927575195
 11
-6.9593505404
 21
-19.0927575195
  0
LINE
  5
22B
100
AcDbEntity
  8
0
100
AcDbLine
 62
7
  6
CONTINUOUS
 10
-5.0043567931
 20
-18.8413985195
 11
-5.2913901323
 21
-18.8413985195
  0
LINE
  5
22C
100
AcDbEntity
  8
0
100
AcDbLine
 62
7
  6
CONTINUOUS
 10
-7.2760515404
 20
-18.6999745195
 11
-6.6067925404
 21
-18.6999745195
  0
LINE
  5
22D
100
AcDbEntity
  8
0
100
AcDbLine
 62
7
  6
CONTINUOUS
 10
-6.8228415404
 20
-18.4318705195
 11
-7.4922825404
 21
-18.4318705195
  0
LINE
  5
22E
100
AcDbEntity
  8
0
100
AcDbLine
 62
7
  6
CONTINUOUS
 10
-5.6947294885
 20
-18.3410465195
 11
-5.4078781582
 21
-18.3410465195
  0
LINE
  5
22F
100
AcDbEntity
  8
0
100
AcDbLine
 62
7
  6
CONTINUOUS
 10
-7.7492835404
 20
-18.1129855195
 11
-7.0206885404
 21
-18.1129855195
  0
LINE
  5
230
100
AcDbEntity
  8
0
100
AcDbLine
 62
7
  6
CONTINUOUS
 10
-4.1350664115
 20
-17.9284245195
 11
-4.3796908911
 21
-17.9284245195
  0
LINE
  5
231
100
AcDbEntity
  8
0
100
AcDbLine
 62
7
  6
CONTINUOUS
 10
-7.2369195404
 20
-17.8448815195
 11
-8.2467235404
 21
-17.8448815195
  0
LINE
  5
232
100
AcDbEntity
  8
0
100
AcDbLine
 62
7
  6
CONTINUOUS
 10
-8.2476335404
 20
-17.6615945195
 11
-7.1837715404
 21
-17.6615945195
  0
LINE
  5
233
100
AcDbEntity
  8
0
100
AcDbLine
 62
7
  6
CONTINUOUS
 10
-6.9593505404
 20
-17.6615945195
 11
-6.6861505404
 21
-17.6615945195
  0
LINE
  5
234
100
AcDbEntity
  8
0
100
AcDbLine
 62
7
  6
CONTINUOUS
 10
-6.1102635404
 20
-17.6615945195
 11
-5.8175875404
 21
-17.6615945195
  0
LINE
  5
235
100
AcDbEntity
  8
0
100
AcDbLine
 62
7
  6
CONTINUOUS
 10
-4.3523889365
 20
-17.5582115195
 11
-4.1175930315
 21
-17.5582115195
  0
LWPOLYLINE
  5
236
100
AcDbEntity
  8
0
100
AcDbPolyline
 62
7
  6
CONTINUOUS
 90
8
 70
0
 10
-3.9975426686
 20
-18.088596597
 10
-4.0280200936
 20
-18.0882528656
 10
-4.0581022433
 20
-18.078474047
 10
-4.0876128211
 20
-18.0604388355
 10
-4.1106542814
 20
-18.0362100001
 10
-4.1252607756
 20
-18.0064751304
 10
-4.1333981523
 20
-17.9705466369
 10
-4.1350664115
 20
-17.9284245195
  0
LWPOLYLINE
  5
237
100
AcDbEntity
  8
0
100
AcDbPolyline
 62
7
  6
CONTINUOUS
 90
13
 70
0
 10
-4.8394538098
 20
-18.0893236115
 10
-4.8682401626
 20
-18.0820290407
 10
-4.8926791547
 20
-18.0693704637
 10
-4.912770786
 20
-18.0513478804
 10
-4.9278711645
 20
-18.0267433862
 10
-4.9386241822
 20
-17.9967748857
 10
-4.9469615158
 20
-17.9650960935
 10
-4.9531001115
 20
-17.9327227575
 10
-4.9568230231
 20
-17.8986391298
 10
-4.9594110882
 20
-17.8634516808
 10
-4.9612912527
 20
-17.8273625674
 10
-4.9620365707
 20
-17.7901696329
 10
-4.9616470422
 20
-17.751872877
  0
LWPOLYLINE
  5
238
100
AcDbEntity
  8
0
100
AcDbPolyline
 62
7
  6
CONTINUOUS
 90
13
 70
0
 10
-4.8394538098
 20
-17.4144221425
 10
-4.8106674571
 20
-17.4217167134
 10
-4.786228465
 20
-17.4343752904
 10
-4.7661368337
 20
-17.4523978736
 10
-4.7510364552
 20
-17.4770023679
 10
-4.7402834375
 20
-17.5069708683
 10
-4.7319461039
 20
-17.5386496606
 10
-4.7258075082
 20
-17.5710229965
 10
-4.7220845965
 20
-17.6051066243
 10
-4.7194965314
 20
-17.6402940732
 10
-4.717616367
 20
-17.6763831866
 10
-4.716871049
 20
-17.7135761212
 10
-4.7172605775
 20
-17.751872877
  0
LWPOLYLINE
  5
239
100
AcDbEntity
  8
0
100
AcDbPolyline
 62
7
  6
CONTINUOUS
 90
6
 70
0
 10
-3.9958136332
 20
-17.8417451823
 10
-3.969688253
 20
-17.8486640004
 10
-3.94546173
 20
-17.8602738735
 10
-3.9240262559
 20
-17.8764495256
 10
-3.9080584062
 20
-17.8968151281
 10
-3.8981608471
 20
-17.922736436
  0
LWPOLYLINE
  5
23A
100
AcDbEntity
  8
0
100
AcDbPolyline
 62
7
  6
CONTINUOUS
 90
31
 70
0
 10
-6.0289885631
 20
-17.8943843532
 10
-6.0895394658
 20
-17.8702710999
 10
-6.1493027176
 20
-17.8499468263
 10
-6.2083864508
 20
-17.8335096529
 10
-6.266682533
 20
-17.8208614592
 10
-6.3236860829
 20
-17.8120225331
 10
-6.3796030966
 20
-17.8067042401
 10
-6.434227578
 20
-17.8051952146
 10
-6.4864366584
 20
-17.8083816488
 10
-6.5372890984
 20
-17.8156491089
 10
-6.5857261373
 20
-17.8276120287
 10
-6.627448624
 20
-17.8469999014
 10
-6.6617060521
 20
-17.8757164564
 10
-6.689248928
 20
-17.9118579643
 10
-6.7080296204
 20
-17.9524427314
 10
-6.7165716556
 20
-17.9976737098
 10
-6.7163515074
 20
-18.0473479473
 10
-6.7097509657
 20
-18.0978748931
 10
-6.6967254666
 20
-18.1481634144
 10
-6.6773195741
 20
-18.1993046439
 10
-6.65404877
 20
-18.2509814296
 10
-6.6275668544
 20
-18.3030050995
 10
-6.5972200272
 20
-18.3555643257
 10
-6.5635623706
 20
-18.4089079715
 10
-6.5267725163
 20
-18.4629871543
 10
-6.4866718326
 20
-18.5178507569
 10
-6.4432785058
 20
-18.5738942906
 10
-6.3967952129
 20
-18.6311799663
 10
-6.347019277
 20
-18.6896455732
 10
-6.2933608536
 20
-18.7494999898
 10
-6.2353305118
 20
-18.8118837745
  0
LWPOLYLINE
  5
23B
100
AcDbEntity
  8
0
100
AcDbPolyline
 62
7
  6
CONTINUOUS
 90
6
 70
0
 10
-5.7180495406
 20
-18.0671820845
 10
-5.7808937639
 20
-18.0252660294
 10
-5.8435195533
 20
-17.9871145883
 10
-5.9059786068
 20
-17.9528060974
 10
-5.9678304931
 20
-17.9219719376
 10
-6.0289885631
 20
-17.8943843532
  0
LWPOLYLINE
  5
23C
100
AcDbEntity
  8
0
100
AcDbPolyline
 62
7
  6
CONTINUOUS
 90
30
 70
0
 10
-6.2353305118
 20
-18.8118837745
 10
-6.1734176826
 20
-18.875656369
 10
-6.1085008143
 20
-18.9376049772
 10
-6.0398381472
 20
-18.9974587001
 10
-5.968171441
 20
-19.0554884367
 10
-5.8966044243
 20
-19.1092940882
 10
-5.8260642465
 20
-19.1581356638
 10
-5.7556237582
 20
-19.2027531542
 10
-5.6856052391
 20
-19.2429664327
 10
-5.6159867956
 20
-19.2787428518
 10
-5.5467903213
 20
-19.310115059
 10
-5.4784037777
 20
-19.3370008692
 10
-5.4107598029
 20
-19.3596150313
 10
-5.3439257589
 20
-19.3777427963
 10
-5.2784916922
 20
-19.3906577325
 10
-5.2140931075
 20
-19.3986199234
 10
-5.1510945003
 20
-19.4013692853
 10
-5.0911794032
 20
-19.3973991352
 10
-5.032454664
 20
-19.3873847318
 10
-4.9768134349
 20
-19.3706508162
 10
-4.9316187055
 20
-19.3436649296
 10
-4.8987463153
 20
-19.3030049957
 10
-4.8763204247
 20
-19.2520930907
 10
-4.8660765046
 20
-19.197662984
 10
-4.8707985455
 20
-19.1408210851
 10
-4.8877025569
 20
-19.0804609845
 10
-4.9101720374
 20
-19.0199972235
 10
-4.9360014868
 20
-18.9605679825
 10
-4.9673964054
 20
-18.9010350812
 10
-5.0043567931
 20
-18.8413985195
  0
LINE
  5
23D
100
AcDbEntity
  8
0
100
AcDbLine
 62
7
  6
CONTINUOUS
 10
-8.4181785404
 20
-17.7518725195
 11
-7.0481725404
 21
-19.4511395195
  0
LINE
  5
23E
100
AcDbEntity
  8
0
100
AcDbLine
 62
7
  6
CONTINUOUS
 10
-8.2467235404
 20
-17.8448815195
 11
-7.0245105404
 21
-19.3610435195
  0
LINE
  5
23F
100
AcDbEntity
  8
RACCORDO
100
AcDbLine
 62
7
  6
CONTINUOUS
 10
-17.0
 20
-28.2418946318
 11
-17.0
 21
-28.7418905195
  0
LINE
  5
240
100
AcDbEntity
  8
RACCORDO
100
AcDbLine
 62
7
  6
CONTINUOUS
 10
-16.9931876706
 20
-28.2350823024
 11
-16.9931876706
 21
-16.2491469104
  0
LINE
  5
241
100
AcDbEntity
  8
RACCORDO
100
AcDbLine
 62
253
  6
CONTINUOUS
 10
-16.7931904121
 20
-28.2350823024
 11
-16.7931904121
 21
-16.2486685795
  0
LINE
  5
242
100
AcDbEntity
  8
RACCORDO
100
AcDbLine
 62
253
  6
CONTINUOUS
 10
-16.6931917829
 20
-28.53507819
 11
-16.6931917829
 21
-28.3350809316
  0
LINE
  5
243
100
AcDbEntity
  8
RACCORDO
100
AcDbLine
 62
253
  6
CONTINUOUS
 10
-16.7931904121
 20
-16.2486685795
 11
-16.7848901096
 21
-16.0282911901
  0
LWPOLYLINE
  5
244
100
AcDbEntity
  8
RACCORDO
100
AcDbPolyline
 62
253
  6
CONTINUOUS
 90
16
 70
0
 10
-16.9931876278
 20
-16.2491469073
 10
-16.9821401255
 20
-16.013903696
 10
-16.9478014606
 20
-15.7744657125
 10
-16.8886623179
 20
-15.5333393332
 10
-16.8029870989
 20
-15.2922072566
 10
-16.6900665751
 20
-15.0554750965
 10
-16.5514561833
 20
-14.8296859469
 10
-16.388189146
 20
-14.6180427583
 10
-16.2013169783
 20
-14.4232226107
 10
-15.9946702829
 20
-14.249795499
 10
-15.7715228526
 20
-14.1002307762
 10
-15.5337775261
 20
-13.9755476291
 10
-15.2841457496
 20
-13.8771140205
 10
-15.0254979916
 20
-13.8060242608
 10
-14.7608400024
 20
-13.7630683629
 10
-14.49322194
 20
-13.7487028489
  0
LWPOLYLINE
  5
245
100
AcDbEntity
  8
0
100
AcDbPolyline
 62
7
  6
CONTINUOUS
 90
13
 70
0
 10
-4.8394538098
 20
-17.1727098581
 10
-4.8993719119
 20
-17.1764763318
 10
-4.9549354567
 20
-17.1897888666
 10
-5.0061444444
 20
-17.2126474625
 10
-5.0537498695
 20
-17.2458506859
 10
-5.0970007374
 20
-17.2885999704
 10
-5.1336440645
 20
-17.3384996173
 10
-5.1625118987
 20
-17.3959136835
 10
-5.184772192
 20
-17.460478112
 10
-5.2016758165
 20
-17.5287050327
 10
-5.2136397294
 20
-17.599431822
 10
-5.2202469734
 20
-17.6738211035
 10
-5.2214975486
 20
-17.751872877
  0
LINE
  5
246
100
AcDbEntity
  8
0
100
AcDbLine
 62
7
  6
CONTINUOUS
 10
-6.9675415404
 20
-17.3934905195
 11
-7.7445515404
 21
-17.3934905195
  0
LINE
  5
247
100
AcDbEntity
  8
0
100
AcDbLine
 62
7
  6
CONTINUOUS
 10
-7.4278505404
 20
-17.0007085195
 11
-6.7447585404
 21
-17.0007085195
  0
LINE
  5
248
100
AcDbEntity
  8
0
100
AcDbLine
 62
7
  6
CONTINUOUS
 10
-6.5285275404
 20
-16.7326045195
 11
-7.2118015404
 21
-16.7326045195
  0
LINE
  5
249
100
AcDbEntity
  8
0
100
AcDbLine
 62
7
  6
CONTINUOUS
 10
-6.9546185404
 20
-16.4139005195
 11
-6.2110985404
 21
-16.4139005195
  0
LINE
  5
24A
100
AcDbEntity
  8
RACCORDO
100
AcDbLine
 62
253
  6
CONTINUOUS
 10
-16.9931876706
 20
-16.2486685795
 11
-16.7931904121
 21
-16.2486685795
  0
LINE
  5
24B
100
AcDbEntity
  8
RACCORDO
100
AcDbLine
 62
253
  6
CONTINUOUS
 10
16.9931876706
 20
-16.2486685795
 11
16.7931904121
 21
-16.2486685795
  0
LINE
  5
24C
100
AcDbEntity
  8
0
100
AcDbLine
 62
7
  6
CONTINUOUS
 10
-4.5953755404
 20
-16.1456145195
 11
-4.8685755404
 21
-16.1456145195
  0
LINE
  5
24D
100
AcDbEntity
  8
0
100
AcDbLine
 62
7
  6
CONTINUOUS
 10
-5.4288095404
 20
-16.1456145195
 11
-5.7371385404
 21
-16.1456145195
  0
LINE
  5
24E
100
AcDbEntity
  8
0
100
AcDbLine
 62
7
  6
CONTINUOUS
 10
-5.9948675404
 20
-16.1456145195
 11
-7.0252395404
 21
-16.1456145195
  0
LINE
  5
24F
100
AcDbEntity
  8
0
100
AcDbLine
 62
7
  6
CONTINUOUS
 10
-4.4222815404
 20
-16.0524245195
 11
-7.0481725404
 21
-16.0524245195
  0
LWPOLYLINE
  5
250
100
AcDbEntity
  8
0
100
AcDbPolyline
 62
7
  6
CONTINUOUS
 90
6
 70
0
 10
-4.5848662483
 20
-17.2850014073
 10
-4.6284302762
 20
-17.2434144781
 10
-4.6759285869
 20
-17.2112004602
 10
-4.7265027117
 20
-17.1889973482
 10
-4.7810111193
 20
-17.1761671475
 10
-4.8394538098
 20
-17.1727098581
  0
LWPOLYLINE
  5
251
100
AcDbEntity
  8
0
100
AcDbPolyline
 62
7
  6
CONTINUOUS
 90
6
 70
0
 10
-5.4078781582
 20
-18.3410465195
 10
-5.4689754536
 20
-18.2772999927
 10
-5.530501538
 20
-18.2180000439
 10
-5.5924564112
 20
-18.1631466732
 10
-5.6550385815
 20
-18.1129410898
 10
-5.7180495406
 20
-18.0671820845
  0
LINE
  5
252
100
AcDbEntity
  8
0
100
AcDbLine
 62
7
  6
CONTINUOUS
 10
-6.9593505404
 20
-19.0927575195
 11
-7.2760515404
 21
-18.6999745195
  0
LINE
  5
253
100
AcDbEntity
  8
0
100
AcDbLine
 62
7
  6
CONTINUOUS
 10
-7.0206885404
 20
-18.1129855195
 11
-7.2369195404
 21
-17.8448815195
  0
LINE
  5
254
100
AcDbEntity
  8
0
100
AcDbLine
 62
7
  6
CONTINUOUS
 10
-5.9819445404
 20
-19.3610435195
 11
-6.1981755404
 21
-19.0927575195
  0
LINE
  5
255
100
AcDbEntity
  8
0
100
AcDbLine
 62
7
  6
CONTINUOUS
 10
-4.4222815404
 20
-19.4511395195
 11
-5.7922875404
 21
-17.7518725195
  0
LINE
  5
256
100
AcDbEntity
  8
0
100
AcDbLine
 62
7
  6
CONTINUOUS
 10
-7.4922825404
 20
-18.4318705195
 11
-7.7492835404
 21
-18.1129855195
  0
LINE
  5
257
100
AcDbEntity
  8
0
100
AcDbLine
 62
7
  6
CONTINUOUS
 10
-6.6067925404
 20
-18.6999745195
 11
-6.8228415404
 21
-18.4318705195
  0
LWPOLYLINE
  5
258
100
AcDbEntity
  8
RACCORDO
100
AcDbPolyline
 62
7
  6
CONTINUOUS
 90
10
 70
0
 10
-12.4963292919
 20
-12.3418905195
 10
-12.4941163644
 20
-12.3704894047
 10
-12.4874860442
 20
-12.3996904726
 10
-12.4760437253
 20
-12.428719121
 10
-12.4597593061
 20
-12.4563215312
 10
-12.4384220211
 20
-12.4818887036
 10
-12.4111518052
 20
-12.5050442809
 10
-12.3775943627
 20
-12.5242153327
 10
-12.3385807565
 20
-12.5371569778
 10
-12.2952848264
 20
-12.5418905195
  0
LINE
  5
259
100
AcDbEntity
  8
RACCORDO
100
AcDbLine
 62
253
  6
CONTINUOUS
 10
-14.49322194
 20
-13.7487028489
 11
-14.49322194
 21
-13.9487001073
  0
LWPOLYLINE
  5
25A
100
AcDbEntity
  8
RACCORDO
100
AcDbPolyline
 62
253
  6
CONTINUOUS
 90
15
 70
0
 10
-16.7848901096
 20
-16.0282911901
 10
-16.7528831287
 20
-15.8091360495
 10
-16.6971694695
 20
-15.5912031577
 10
-16.6174409727
 20
-15.370804395
 10
-16.5140057976
 20
-15.1516278812
 10
-16.387788422
 20
-14.944737975
 10
-16.2366959628
 20
-14.7507648098
 10
-16.0628213031
 20
-14.5690782522
 10
-15.8733675703
 20
-14.4088522603
 10
-15.6681679902
 20
-14.2719528196
 10
-15.447389337
 20
-14.1565139446
 10
-15.2187350604
 20
-14.0661116358
 10
-14.9847729769
 20
-14.0019378934
 10
-14.7429352701
 20
-13.9628007173
 10
-14.49322194
 20
-13.9487001073
  0
LINE
  5
25B
100
AcDbEntity
  8
0
100
AcDbLine
 62
7
  6
CONTINUOUS
 10
1.9724998379
 20
16.4588241919
 11
1.9087500811
 21
16.4332922801
  0
LINE
  5
25C
100
AcDbEntity
  8
RACCORDO
100
AcDbLine
 62
253
  6
CONTINUOUS
 10
-14.49322194
 20
-13.9487001073
 11
14.49322194
 21
-13.9487001073
  0
LINE
  5
25D
100
AcDbEntity
  8
RACCORDO
100
AcDbLine
 62
7
  6
CONTINUOUS
 10
-14.49322194
 20
-13.7487028489
 11
14.492743609
 21
-13.7487028489
  0
LINE
  5
25E
100
AcDbEntity
  8
RACCORDO
100
AcDbLine
 62
253
  6
CONTINUOUS
 10
14.49322194
 20
-13.9487001073
 11
14.7135993294
 21
-13.9570004099
  0
LWPOLYLINE
  5
25F
100
AcDbEntity
  8
RACCORDO
100
AcDbPolyline
 62
253
  6
CONTINUOUS
 90
10
 70
0
 10
-12.2931904121
 20
-12.5418905195
 10
-12.3279195716
 20
-12.5388520701
 10
-12.3615935031
 20
-12.5298290436
 10
-12.3931890413
 20
-12.5150956002
 10
-12.4217461718
 20
-12.4950994081
 10
-12.4463972006
 20
-12.4704480414
 10
-12.4663931186
 20
-12.4418905195
 10
-12.4811263601
 20
-12.4102945481
 10
-12.4901492628
 20
-12.376620155
 10
-12.4931876706
 20
-12.3418905195
  0
LWPOLYLINE
  5
260
100
AcDbEntity
  8
0
100
AcDbPolyline
 62
7
  6
CONTINUOUS
 90
18
 70
0
 10
-4.3267537307
 20
-18.1663108274
 10
-4.2813061043
 20
-18.2249624792
 10
-4.2233541719
 20
-18.2728469429
 10
-4.161277816
 20
-18.307292443
 10
-4.0953449512
 20
-18.3257589789
 10
-4.0252876629
 20
-18.3307865511
 10
-3.9586820904
 20
-18.3273233859
 10
-3.8968569474
 20
-18.3164509446
 10
-3.8384835203
 20
-18.2970877659
 10
-3.7871518068
 20
-18.2709376922
 10
-3.7438985081
 20
-18.2371161298
 10
-3.7076869231
 20
-18.1965076724
 10
-3.6789969469
 20
-18.1534699432
 10
-3.6586537952
 20
-18.109304751
 10
-3.6458322522
 20
-18.0627102871
 10
-3.638536566
 20
-18.0141387484
 10
-3.6341001815
 20
-17.9623025173
 10
-3.6351896537
 20
-17.9084892116
  0
LWPOLYLINE
  5
261
100
AcDbEntity
  8
0
100
AcDbPolyline
 62
7
  6
CONTINUOUS
 90
7
 70
0
 10
-5.1310957099
 20
-18.1696984907
 10
-5.0940413714
 20
-18.2187443467
 10
-5.0504773435
 20
-18.2603312759
 10
-5.0029790327
 20
-18.2925452939
 10
-4.952404908
 20
-18.3147484058
 10
-4.8978965003
 20
-18.3275786065
 10
-4.8394538098
 20
-18.331035896
  0
LWPOLYLINE
  5
262
100
AcDbEntity
  8
0
100
AcDbPolyline
 62
7
  6
CONTINUOUS
 90
10
 70
0
 10
-5.2913901323
 20
-18.8413985195
 10
-5.2714321051
 20
-18.8732084958
 10
-5.2548400899
 20
-18.9050204687
 10
-5.2416140868
 20
-18.936834438
 10
-5.2303751985
 20
-18.9693933703
 10
-5.2225023223
 20
-19.0019542991
 10
-5.2221321496
 20
-19.0322883249
 10
-5.2312077859
 20
-19.0610111549
 10
-5.2477861258
 20
-19.0875070819
 10
-5.270174545
 20
-19.1077000844
  0
LWPOLYLINE
  5
263
100
AcDbEntity
  8
0
100
AcDbPolyline
 62
7
  6
CONTINUOUS
 90
28
 70
0
 10
-6.2489571573
 20
-18.4367879724
 10
-6.2704105828
 20
-18.4015636473
 10
-6.2899438971
 20
-18.3665541393
 10
-6.307093678
 20
-18.3317437568
 10
-6.3227338904
 20
-18.2969439885
 10
-6.3359905694
 20
-18.2623433457
 10
-6.3437783986
 20
-18.2284916711
 10
-6.3456793398
 20
-18.1940542025
 10
-6.3421114312
 20
-18.1603657021
 10
-6.3312434705
 20
-18.1319802988
 10
-6.3109985388
 20
-18.1103836833
 10
-6.2834535552
 20
-18.0940901649
 10
-6.2530080746
 20
-18.0831968001
 10
-6.2204376545
 20
-18.0785518612
 10
-6.1849667374
 20
-18.0793070761
 10
-6.1486682061
 20
-18.0830146842
 10
-6.1120620547
 20
-18.0888580258
 10
-6.0746282889
 20
-18.0976537607
 10
-6.0368798096
 20
-18.1094041081
 10
-5.9988658046
 20
-18.1241516304
 10
-5.960537086
 20
-18.1418537651
 10
-5.9222589902
 20
-18.162385044
 10
-5.8841405065
 20
-18.1858402108
 10
-5.8460726456
 20
-18.2121245218
 10
-5.8080937765
 20
-18.240828278
 10
-5.7702166887
 20
-18.2718149132
 10
-5.7324285927
 20
-18.3052209937
 10
-5.6947294885
 20
-18.3410465195
  0
LINE
  5
264
100
AcDbEntity
  8
RACCORDO
100
AcDbLine
 62
7
  6
CONTINUOUS
 10
-12.4963292919
 20
-13.7455612275
 11
-12.4963292919
 21
-12.3418905195
  0
LINE
  5
265
100
AcDbEntity
  8
RACCORDO
100
AcDbLine
 62
7
  6
CONTINUOUS
 10
-12.4931876706
 20
16.2581094805
 11
-12.4931876706
 21
-12.3418905195
  0
LINE
  5
266
100
AcDbEntity
  8
RACCORDO
100
AcDbLine
 62
253
  6
CONTINUOUS
 10
-12.2963320335
 20
-13.7466029515
 11
-12.2963320335
 21
-12.5418905195
  0
LINE
  5
267
100
AcDbEntity
  8
RACCORDO
100
AcDbLine
 62
253
  6
CONTINUOUS
 10
-12.2931904121
 20
16.2581094805
 11
-12.2931904121
 21
-12.5418905195
  0
LINE
  5
268
100
AcDbEntity
  8
0
100
AcDbLine
 62
7
  6
CONTINUOUS
 10
-8.228125
 20
8.7921520714
 11
-8.177499994
 21
8.8783222739
  0
LINE
  5
269
100
AcDbEntity
  8
0
100
AcDbLine
 62
7
  6
CONTINUOUS
 10
-9.43125
 20
6.4421520714
 11
-9.3749999933
 21
6.5283222739
  0
LINE
  5
26A
100
AcDbEntity
  8
0
100
AcDbLine
 62
7
  6
CONTINUOUS
 10
-8.228125
 20
9.021939278
 11
-8.3293749985
 21
8.9070456747
  0
LINE
  5
26B
100
AcDbEntity
  8
0
100
AcDbLine
 62
7
  6
CONTINUOUS
 10
-9.43125
 20
6.671939278
 11
-9.5437499983
 21
6.5570456747
  0
LINE
  5
26C
100
AcDbEntity
  8
0
100
AcDbLine
 62
7
  6
CONTINUOUS
 10
-7.6712500241
 20
8.6198115859
 11
-8.38
 21
7.9017265048
  0
LINE
  5
26D
100
AcDbEntity
  8
0
100
AcDbLine
 62
7
  6
CONTINUOUS
 10
-8.177499994
 20
7.9017265048
 11
-7.5446875
 21
8.5336413835
  0
LINE
  5
26E
100
AcDbEntity
  8
0
100
AcDbLine
 62
7
  6
CONTINUOUS
 10
-8.177499994
 20
8.8783222739
 11
-8.101562494
 21
8.9357690756
  0
LINE
  5
26F
100
AcDbEntity
  8
0
100
AcDbLine
 62
7
  6
CONTINUOUS
 10
1.99375
 20
16.3311646327
 11
2.0787501621
 21
16.3822284564
  0
LINE
  5
270
100
AcDbEntity
  8
0
100
AcDbLine
 62
7
  6
CONTINUOUS
 10
-8.126875006
 20
9.0793860797
 11
-8.228125
 21
9.021939278
  0
LINE
  5
271
100
AcDbEntity
  8
RACCORDO
100
AcDbLine
 62
7
  6
CONTINUOUS
 10
-12.2931904121
 20
-12.5418905195
 11
12.2931904121
 21
-12.5418905195
  0
LINE
  5
272
100
AcDbEntity
  8
RACCORDO
100
AcDbLine
 62
253
  6
CONTINUOUS
 10
-12.4931876706
 20
-12.3418905195
 11
12.4931876706
 21
-12.3418905195
  0
LWPOLYLINE
  5
273
100
AcDbEntity
  8
RACCORDO
100
AcDbPolyline
 62
253
  6
CONTINUOUS
 90
16
 70
0
 10
14.4927436122
 20
-13.7487028917
 10
14.7279868235
 20
-13.759750394
 10
14.9674248069
 20
-13.7940890588
 10
15.2085511862
 20
-13.8532282015
 10
15.4496832628
 20
-13.9389034206
 10
15.686415423
 20
-14.0518239443
 10
15.9122045726
 20
-14.1904343362
 10
16.1238477611
 20
-14.3537013734
 10
16.3186679087
 20
-14.5405735412
 10
16.4920950205
 20
-14.7472202366
 10
16.6416597433
 20
-14.9703676669
 10
16.7663428904
 20
-15.2081129934
 10
16.864776499
 20
-15.4577447698
 10
16.9358662587
 20
-15.7163925278
 10
16.9788221566
 20
-15.9810505171
 10
16.9931876706
 20
-16.2486685795
  0
LWPOLYLINE
  5
274
100
AcDbEntity
  8
RACCORDO
100
AcDbPolyline
 62
253
  6
CONTINUOUS
 90
15
 70
0
 10
14.7135993294
 20
-13.9570004099
 10
14.93275447
 20
-13.9890073907
 10
15.1506873618
 20
-14.0447210499
 10
15.3710861244
 20
-14.1244495467
 10
15.5902626382
 20
-14.2278847219
 10
15.7971525445
 20
-14.3541020975
 10
15.9911257096
 20
-14.5051945567
 10
16.1728122672
 20
-14.6790692163
 10
16.3330382592
 20
-14.8685229491
 10
16.4699376998
 20
-15.0737225292
 10
16.5853765749
 20
-15.2945011825
 10
16.6757788837
 20
-15.5231554591
 10
16.739952626
 20
-15.7571175425
 10
16.7790898022
 20
-15.9989552493
 10
16.7931904121
 20
-16.2486685795
  0
LINE
  5
275
100
AcDbEntity
  8
0
100
AcDbLine
 62
7
  6
CONTINUOUS
 10
-4.3569037569
 20
-18.0977825794
 11
-4.3267537307
 21
-18.1663108274
  0
LINE
  5
276
100
AcDbEntity
  8
0
100
AcDbLine
 62
7
  6
CONTINUOUS
 10
-10.25
 20
-28.7418905195
 11
-10.25
 21
-28.5418905195
  0
LINE
  5
277
100
AcDbEntity
  8
0
100
AcDbLine
 62
7
  6
CONTINUOUS
 10
-10.2
 20
-6.082316048
 11
-10.2
 21
-6.2418905195
  0
LINE
  5
278
100
AcDbEntity
  8
0
100
AcDbLine
 62
7
  6
CONTINUOUS
 10
-9.7
 20
7.3581094805
 11
-9.7
 21
7.1581094805
  0
LINE
  5
279
100
AcDbEntity
  8
0
100
AcDbLine
 62
7
  6
CONTINUOUS
 10
-9.6
 20
5.5517265048
 11
-9.6
 21
5.4081094805
  0
LINE
  5
27A
100
AcDbEntity
  8
0
100
AcDbLine
 62
7
  6
CONTINUOUS
 10
-9.403125
 20
-5.0929543074
 11
-9.403125
 21
-5.1567841764
  0
LINE
  5
27B
100
AcDbEntity
  8
0
100
AcDbLine
 62
7
  6
CONTINUOUS
 10
-9.24375
 20
-6.2418905195
 11
-9.24375
 21
-6.082316048
  0
LINE
  5
27C
100
AcDbEntity
  8
0
100
AcDbLine
 62
7
  6
CONTINUOUS
 10
-9.24375
 20
-5.1567841764
 11
-9.24375
 21
-5.0929543074
  0
LINE
  5
27D
100
AcDbEntity
  8
0
100
AcDbLine
 62
7
  6
CONTINUOUS
 10
-9.0312499747
 20
-5.6035926338
 11
-9.0312499747
 21
-5.7950820174
  0
LINE
  5
27E
100
AcDbEntity
  8
ASSI
100
AcDbLine
 62
7
  6
CONTINUOUS
 10
-9.0
 20
-28.7418905195
 11
-9.0
 21
-28.5418905195
  0
LINE
  5
27F
100
AcDbEntity
  8
0
100
AcDbLine
 62
7
  6
CONTINUOUS
 10
-8.75625
 20
6.4421520714
 11
-8.75625
 21
6.3847051893
  0
LINE
  5
280
100
AcDbEntity
  8
0
100
AcDbLine
 62
7
  6
CONTINUOUS
 10
-10.1468749984
 20
-4.9652947481
 11
-10.1734374992
 21
-5.0929543074
  0
LINE
  5
281
100
AcDbEntity
  8
0
100
AcDbLine
 62
7
  6
CONTINUOUS
 10
-8.3293749985
 20
8.9070456747
 11
-8.3546874992
 21
8.7921520714
  0
LINE
  5
282
100
AcDbEntity
  8
0
100
AcDbLine
 62
7
  6
CONTINUOUS
 10
-7.4940624759
 20
8.6198115859
 11
-7.46875
 21
8.7347051893
  0
LINE
  5
283
100
AcDbEntity
  8
0
100
AcDbLine
 62
7
  6
CONTINUOUS
 10
-9.5437499983
 20
6.5570456747
 11
-9.5718749992
 21
6.4421520714
  0
LINE
  5
284
100
AcDbEntity
  8
0
100
AcDbLine
 62
7
  6
CONTINUOUS
 10
-8.6156249732
 20
6.2698115859
 11
-8.5875
 21
6.3847051893
  0
LINE
  5
285
100
AcDbEntity
  8
0
100
AcDbLine
 62
7
  6
CONTINUOUS
 10
-7.490625
 20
5.8102371324
 11
-7.5187500536
 21
5.7240669299
  0
LINE
  5
286
100
AcDbEntity
  8
0
100
AcDbLine
 62
7
  6
CONTINUOUS
 10
-7.06875
 20
6.4421520714
 11
-7.0968750536
 21
6.3559817884
  0
LINE
  5
287
100
AcDbEntity
  8
0
100
AcDbLine
 62
7
  6
CONTINUOUS
 10
-7.40625
 20
5.6378967073
 11
-7.3500000536
 21
5.7815137316
  0
LINE
  5
288
100
AcDbEntity
  8
0
100
AcDbLine
 62
7
  6
CONTINUOUS
 10
-7.620625
 20
8.7347051893
 11
-7.6712500241
 21
8.6198115859
  0
LINE
  5
289
100
AcDbEntity
  8
0
100
AcDbLine
 62
7
  6
CONTINUOUS
 10
-8.75625
 20
6.3847051893
 11
-8.8125000268
 21
6.2698115859
  0
LINE
  5
28A
100
AcDbEntity
  8
0
100
AcDbLine
 62
7
  6
CONTINUOUS
 10
-7.0125000536
 20
6.5570456747
 11
-7.06875
 21
6.4421520714
  0
LINE
  5
28B
100
AcDbEntity
  8
0
100
AcDbLine
 62
7
  6
CONTINUOUS
 10
-7.5446875
 20
8.5336413835
 11
-7.4940624759
 21
8.6198115859
  0
LINE
  5
28C
100
AcDbEntity
  8
0
100
AcDbLine
 62
7
  6
CONTINUOUS
 10
-8.671875
 20
6.1836413835
 11
-8.6156249732
 21
6.2698115859
  0
LINE
  5
28D
100
AcDbEntity
  8
0
100
AcDbLine
 62
7
  6
CONTINUOUS
 10
-7.5187500536
 20
5.7240669299
 11
-7.575
 21
5.6378967073
  0
LINE
  5
28E
100
AcDbEntity
  8
0
100
AcDbLine
 62
7
  6
CONTINUOUS
 10
-6.9562499464
 20
6.3559817884
 11
-6.8437498927
 21
6.5283222739
  0
LINE
  5
28F
100
AcDbEntity
  8
0
100
AcDbLine
 62
7
  6
CONTINUOUS
 10
-7.490625
 20
5.5230030939
 11
-7.40625
 21
5.6378967073
  0
LINE
  5
290
100
AcDbEntity
  8
0
100
AcDbLine
 62
7
  6
CONTINUOUS
 10
2.0150001621
 20
16.5098880156
 11
1.9724998379
 21
16.4588241919
  0
LINE
  5
291
100
AcDbEntity
  8
0
100
AcDbLine
 62
7
  6
CONTINUOUS
 10
-6.9281250536
 20
6.6432158772
 11
-7.0125000536
 21
6.5570456747
  0
LINE
  5
292
100
AcDbEntity
  8
0
100
AcDbLine
 62
7
  6
CONTINUOUS
 10
-8.8125000268
 20
6.2698115859
 11
-9.6
 21
5.5517265048
  0
LINE
  5
293
100
AcDbEntity
  8
0
100
AcDbLine
 62
7
  6
CONTINUOUS
 10
-9.3749999933
 20
5.5517265048
 11
-8.671875
 21
6.1836413835
  0
LINE
  5
294
100
AcDbEntity
  8
0
100
AcDbLine
 62
7
  6
CONTINUOUS
 10
-8.165625
 20
6.0113009785
 11
-8.0531249464
 21
6.097471181
  0
LINE
  5
295
100
AcDbEntity
  8
0
100
AcDbLine
 62
7
  6
CONTINUOUS
 10
-9.3749999933
 20
6.5283222739
 11
-9.2906249933
 21
6.5857690756
  0
LINE
  5
296
100
AcDbEntity
  8
0
100
AcDbLine
 62
7
  6
CONTINUOUS
 10
-6.8437498927
 20
6.5283222739
 11
-6.7593748927
 21
6.5857690756
  0
LINE
  5
297
100
AcDbEntity
  8
0
100
AcDbLine
 62
7
  6
CONTINUOUS
 10
-7.575
 20
5.6378967073
 11
-7.659375
 21
5.5804499056
  0
LINE
  5
298
100
AcDbEntity
  8
0
100
AcDbLine
 62
7
  6
CONTINUOUS
 10
-8.08125
 20
6.2410881851
 11
-8.2218749464
 21
6.1549179826
  0
LINE
  5
299
100
AcDbEntity
  8
0
100
AcDbLine
 62
7
  6
CONTINUOUS
 10
-6.7875001073
 20
6.7293860797
 11
-6.9281250536
 21
6.6432158772
  0
LINE
  5
29A
100
AcDbEntity
  8
0
100
AcDbLine
 62
7
  6
CONTINUOUS
 10
-7.6312499464
 20
5.4368328839
 11
-7.490625
 21
5.5230030939
  0
LINE
  5
29B
100
AcDbEntity
  8
0
100
AcDbLine
 62
7
  6
CONTINUOUS
 10
-9.3187500067
 20
6.7293860797
 11
-9.43125
 21
6.671939278
  0
LINE
  5
29C
100
AcDbEntity
  8
0
100
AcDbLine
 62
7
  6
CONTINUOUS
 10
-9.3765625253
 20
-4.8376351889
 11
-9.4828125
 21
-4.7738054093
  0
LINE
  5
29D
100
AcDbEntity
  8
0
100
AcDbLine
 62
7
  6
CONTINUOUS
 10
-7.5968748987
 20
-6.114230949
 11
-7.4640626013
 21
-6.2099756269
  0
LINE
  5
29E
100
AcDbEntity
  8
0
100
AcDbLine
 62
7
  6
CONTINUOUS
 10
-9.5359375253
 20
-4.9333798583
 11
-9.4562500253
 21
-4.997209638
  0
LINE
  5
29F
100
AcDbEntity
  8
0
100
AcDbLine
 62
7
  6
CONTINUOUS
 10
-7.4374998987
 20
-6.0504011582
 11
-7.5171873987
 21
-5.9865713786
  0
LINE
  5
2A0
100
AcDbEntity
  8
0
100
AcDbLine
 62
7
  6
CONTINUOUS
 10
-6.5078126013
 20
-6.082316048
 11
-6.4281251013
 21
-6.1461458388
  0
LINE
  5
2A1
100
AcDbEntity
  8
0
100
AcDbLine
 62
7
  6
CONTINUOUS
 10
-7.0921875
 20
-5.4759330746
 11
-7.0125
 21
-5.5397628542
  0
LINE
  5
2A2
100
AcDbEntity
  8
0
100
AcDbLine
 62
7
  6
CONTINUOUS
 10
-9.2703124747
 20
-4.9652947481
 11
-9.3765625253
 21
-4.8376351889
  0
LINE
  5
2A3
100
AcDbEntity
  8
0
100
AcDbLine
 62
7
  6
CONTINUOUS
 10
-7.0125
 20
-5.5397628542
 11
-6.9593748987
 21
-5.6035926338
  0
LINE
  5
2A4
100
AcDbEntity
  8
0
100
AcDbLine
 62
7
  6
CONTINUOUS
 10
-6.853125
 20
-5.5078479644
 11
-6.9328125
 21
-5.4121032949
  0
LINE
  5
2A5
100
AcDbEntity
  8
0
100
AcDbLine
 62
7
  6
CONTINUOUS
 10
-6.375
 20
-6.0184862684
 11
-6.4281251013
 21
-5.9546564664
  0
LINE
  5
2A6
100
AcDbEntity
  8
0
100
AcDbLine
 62
7
  6
CONTINUOUS
 10
-7.6765625507
 20
-5.9865713786
 11
-7.5968748987
 21
-6.114230949
  0
LINE
  5
2A7
100
AcDbEntity
  8
0
100
AcDbLine
 62
7
  6
CONTINUOUS
 10
-9.4562500253
 20
-4.997209638
 11
-9.403125
 21
-5.0929543074
  0
LINE
  5
2A8
100
AcDbEntity
  8
0
100
AcDbLine
 62
7
  6
CONTINUOUS
 10
-7.5171873987
 20
-5.9865713786
 11
-7.5703125
 21
-5.8908266868
  0
LINE
  5
2A9
100
AcDbEntity
  8
0
100
AcDbLine
 62
7
  6
CONTINUOUS
 10
-6.5609373987
 20
-5.9865713786
 11
-6.5078126013
 21
-6.082316048
  0
LINE
  5
2AA
100
AcDbEntity
  8
0
100
AcDbLine
 62
7
  6
CONTINUOUS
 10
-7.7296875
 20
-5.8269969072
 11
-7.6765625507
 21
-5.9865713786
  0
LINE
  5
2AB
100
AcDbEntity
  8
0
100
AcDbLine
 62
7
  6
CONTINUOUS
 10
-7.5703125
 20
-5.8908266868
 11
-7.5968748987
 21
-5.7950820174
  0
LINE
  5
2AC
100
AcDbEntity
  8
0
100
AcDbLine
 62
7
  6
CONTINUOUS
 10
-9.24375
 20
-5.0929543074
 11
-9.2703124747
 21
-4.9652947481
  0
LINE
  5
2AD
100
AcDbEntity
  8
0
100
AcDbLine
 62
7
  6
CONTINUOUS
 10
-8.5875
 20
5.4081094805
 11
-8.5875
 21
5.5517265048
  0
LINE
  5
2AE
100
AcDbEntity
  8
0
100
AcDbLine
 62
7
  6
CONTINUOUS
 10
-8.5875
 20
6.3847051893
 11
-8.5875
 21
6.4421520714
  0
LINE
  5
2AF
100
AcDbEntity
  8
0
100
AcDbLine
 62
7
  6
CONTINUOUS
 10
-8.3937500507
 20
-4.997209638
 11
-8.3937500507
 21
-5.6035926338
  0
LINE
  5
2B0
100
AcDbEntity
  8
0
100
AcDbLine
 62
7
  6
CONTINUOUS
 10
-8.3937500507
 20
-5.7950820174
 11
-8.3937500507
 21
-6.2418905195
  0
LINE
  5
2B1
100
AcDbEntity
  8
0
100
AcDbLine
 62
7
  6
CONTINUOUS
 10
-8.38
 20
7.9017265048
 11
-8.38
 21
7.7581094805
  0
LINE
  5
2B2
100
AcDbEntity
  8
0
100
AcDbLine
 62
7
  6
CONTINUOUS
 10
-8.3624999732
 20
6.7581094805
 11
-8.3624999732
 21
6.0113009785
  0
LINE
  5
2B3
100
AcDbEntity
  8
0
100
AcDbLine
 62
7
  6
CONTINUOUS
 10
-8.2343750507
 20
-6.2418905195
 11
-8.2343750507
 21
-5.7950820174
  0
LINE
  5
2B4
100
AcDbEntity
  8
0
100
AcDbLine
 62
7
  6
CONTINUOUS
 10
-8.2343750507
 20
-5.6035926338
 11
-8.2343750507
 21
-4.7418905195
  0
LINE
  5
2B5
100
AcDbEntity
  8
0
100
AcDbLine
 62
7
  6
CONTINUOUS
 10
-8.2218749464
 20
6.1549179826
 11
-8.2218749464
 21
6.6144924764
  0
LINE
  5
2B6
100
AcDbEntity
  8
0
100
AcDbLine
 62
7
  6
CONTINUOUS
 10
-7.96875
 20
-5.7950820174
 11
-7.96875
 21
-5.6035926338
  0
LINE
  5
2B7
100
AcDbEntity
  8
0
100
AcDbLine
 62
7
  6
CONTINUOUS
 10
-7.7562500507
 20
-5.3801884051
 11
-7.7562500507
 21
-5.6035926338
  0
LINE
  5
2B8
100
AcDbEntity
  8
0
100
AcDbLine
 62
7
  6
CONTINUOUS
 10
-7.6234376013
 20
-5.4440181847
 11
-7.6234376013
 21
-5.3801884051
  0
LINE
  5
2B9
100
AcDbEntity
  8
0
100
AcDbLine
 62
7
  6
CONTINUOUS
 10
-7.620625
 20
8.7921520714
 11
-7.620625
 21
8.7347051893
  0
LINE
  5
2BA
100
AcDbEntity
  8
0
100
AcDbLine
 62
7
  6
CONTINUOUS
 10
-7.5968748987
 20
-5.7950820174
 11
-7.5968748987
 21
-5.6993373479
  0
LINE
  5
2BB
100
AcDbEntity
  8
0
100
AcDbLine
 62
7
  6
CONTINUOUS
 10
-7.490625
 20
5.8676839341
 11
-7.490625
 21
5.8102371324
  0
LINE
  5
2BC
100
AcDbEntity
  8
0
100
AcDbLine
 62
7
  6
CONTINUOUS
 10
-7.46875
 20
7.7581094805
 11
-7.46875
 21
7.9017265048
  0
LINE
  5
2BD
100
AcDbEntity
  8
0
100
AcDbLine
 62
7
  6
CONTINUOUS
 10
-7.46875
 20
8.7347051893
 11
-7.46875
 21
8.7921520714
  0
LINE
  5
2BE
100
AcDbEntity
  8
0
100
AcDbLine
 62
7
  6
CONTINUOUS
 10
-7.40625
 20
6.6144924764
 11
-7.40625
 21
6.7581094805
  0
LINE
  5
2BF
100
AcDbEntity
  8
0
100
AcDbLine
 62
7
  6
CONTINUOUS
 10
-7.3500000536
 20
5.7815137316
 11
-7.3500000536
 21
5.8964073349
  0
LINE
  5
2C0
100
AcDbEntity
  8
0
100
AcDbLine
 62
7
  6
CONTINUOUS
 10
-7.1249999464
 20
6.2123647843
 11
-7.1249999464
 21
5.9538541768
  0
LINE
  5
2C1
100
AcDbEntity
  8
0
100
AcDbLine
 62
7
  6
CONTINUOUS
 10
-6.984375
 20
5.9825775776
 11
-6.984375
 21
6.1836413835
  0
LINE
  5
2C2
100
AcDbEntity
  8
0
100
AcDbLine
 62
7
  6
CONTINUOUS
 10
-6.9328125
 20
-5.6993373479
 11
-6.9328125
 21
-5.7950820174
  0
LINE
  5
2C3
100
AcDbEntity
  8
0
100
AcDbLine
 62
7
  6
CONTINUOUS
 10
-6.7999998987
 20
-5.8269969072
 11
-6.7999998987
 21
-5.6674224134
  0
LINE
  5
2C4
100
AcDbEntity
  8
0
100
AcDbLine
 62
7
  6
CONTINUOUS
 10
-7.7296875
 20
-5.1567841764
 11
-7.7562500507
 21
-5.3801884051
  0
LINE
  5
2C5
100
AcDbEntity
  8
0
100
AcDbLine
 62
7
  6
CONTINUOUS
 10
-7.6234376013
 20
-5.3801884051
 11
-7.5968748987
 21
-5.1886990662
  0
LINE
  5
2C6
100
AcDbEntity
  8
0
100
AcDbLine
 62
7
  6
CONTINUOUS
 10
-6.984375
 20
6.1836413835
 11
-6.9562499464
 21
6.3559817884
  0
LINE
  5
2C7
100
AcDbEntity
  8
0
100
AcDbLine
 62
7
  6
CONTINUOUS
 10
-6.2531248927
 20
5.9825775776
 11
-6.2812501073
 21
5.8102371324
  0
LINE
  5
2C8
100
AcDbEntity
  8
0
100
AcDbLine
 62
7
  6
CONTINUOUS
 10
-7.0968750536
 20
6.3559817884
 11
-7.1249999464
 21
6.2123647843
  0
LINE
  5
2C9
100
AcDbEntity
  8
0
100
AcDbLine
 62
7
  6
CONTINUOUS
 10
-6.140625
 20
5.8102371324
 11
-6.1125001073
 21
5.9538541768
  0
LINE
  5
2CA
100
AcDbEntity
  8
0
100
AcDbLine
 62
7
  6
CONTINUOUS
 10
-9.2703124747
 20
-5.2844437357
 11
-9.24375
 21
-5.1567841764
  0
LINE
  5
2CB
100
AcDbEntity
  8
0
100
AcDbLine
 62
7
  6
CONTINUOUS
 10
-6.1687498927
 20
5.7240669299
 11
-6.140625
 21
5.8102371324
  0
LINE
  5
2CC
100
AcDbEntity
  8
0
100
AcDbLine
 62
7
  6
CONTINUOUS
 10
-9.403125
 20
-5.1567841764
 11
-9.4562500253
 21
-5.2844437357
  0
LINE
  5
2CD
100
AcDbEntity
  8
0
100
AcDbLine
 62
7
  6
CONTINUOUS
 10
-6.225
 20
5.6091733065
 11
-6.1687498927
 21
5.7240669299
  0
LINE
  5
2CE
100
AcDbEntity
  8
0
100
AcDbLine
 62
7
  6
CONTINUOUS
 10
2.0787501621
 20
16.3822284564
 11
2.1425001621
 21
16.4843561038
  0
LINE
  5
2CF
100
AcDbEntity
  8
0
100
AcDbLine
 62
7
  6
CONTINUOUS
 10
-6.2812501073
 20
5.8102371324
 11
-6.39375
 21
5.6378967073
  0
LINE
  5
2D0
100
AcDbEntity
  8
0
100
AcDbLine
 62
7
  6
CONTINUOUS
 10
-6.309375
 20
5.5230030939
 11
-6.225
 21
5.6091733065
  0
LINE
  5
2D1
100
AcDbEntity
  8
0
100
AcDbLine
 62
7
  6
CONTINUOUS
 10
-6.39375
 20
5.6378967073
 11
-6.478125
 21
5.5804499056
  0
LINE
  5
2D2
100
AcDbEntity
  8
0
100
AcDbLine
 62
7
  6
CONTINUOUS
 10
-6.4500001073
 20
5.4368328839
 11
-6.309375
 21
5.5230030939
  0
LINE
  5
2D3
100
AcDbEntity
  8
0
100
AcDbLine
 62
7
  6
CONTINUOUS
 10
-6.05625
 20
-5.5397628542
 11
-5.896875
 21
-5.571677744
  0
LINE
  5
2D4
100
AcDbEntity
  8
0
100
AcDbLine
 62
7
  6
CONTINUOUS
 10
-9.4828125
 20
-4.7738054093
 11
-9.6421875
 21
-4.7418905195
  0
LINE
  5
2D5
100
AcDbEntity
  8
0
100
AcDbLine
 62
7
  6
CONTINUOUS
 10
-7.4640626013
 20
-6.2099756269
 11
-7.33125
 21
-6.2418905195
  0
LINE
  5
2D6
100
AcDbEntity
  8
0
100
AcDbLine
 62
7
  6
CONTINUOUS
 10
-6.1890626013
 20
-6.082316048
 11
-6.3218748987
 21
-6.0504011582
  0
LINE
  5
2D7
100
AcDbEntity
  8
0
100
AcDbLine
 62
7
  6
CONTINUOUS
 10
-9.6687500127
 20
-4.9014649685
 11
-9.5359375253
 21
-4.9333798583
  0
LINE
  5
2D8
100
AcDbEntity
  8
0
100
AcDbLine
 62
7
  6
CONTINUOUS
 10
-7.0656251013
 20
-5.3163586255
 11
-7.1984373987
 21
-5.2844437357
  0
LINE
  5
2D9
100
AcDbEntity
  8
0
100
AcDbLine
 62
7
  6
CONTINUOUS
 10
-6.3218748987
 20
-6.2099756269
 11
-6.215625
 21
-6.2418905195
  0
LINE
  5
2DA
100
AcDbEntity
  8
0
100
AcDbLine
 62
7
  6
CONTINUOUS
 10
-7.3578123987
 20
-6.082316048
 11
-7.4374998987
 21
-6.0504011582
  0
LINE
  5
2DB
100
AcDbEntity
  8
0
100
AcDbLine
 62
7
  6
CONTINUOUS
 10
-7.171875
 20
-5.4440181847
 11
-7.0921875
 21
-5.4759330746
  0
LINE
  5
2DC
100
AcDbEntity
  8
0
100
AcDbLine
 62
7
  6
CONTINUOUS
 10
-7.1984373987
 20
-4.9014649685
 11
-7.1187498987
 21
-4.9333798583
  0
LINE
  5
2DD
100
AcDbEntity
  8
0
100
AcDbLine
 62
7
  6
CONTINUOUS
 10
-5.7109376013
 20
-5.5397628542
 11
-5.8437498987
 21
-5.4759330746
  0
LINE
  5
2DE
100
AcDbEntity
  8
0
100
AcDbLine
 62
7
  6
CONTINUOUS
 10
-6.4281251013
 20
-6.1461458388
 11
-6.3218748987
 21
-6.2099756269
  0
LINE
  5
2DF
100
AcDbEntity
  8
0
100
AcDbLine
 62
7
  6
CONTINUOUS
 10
-6.3218748987
 20
-6.0504011582
 11
-6.375
 21
-6.0184862684
  0
LINE
  5
2E0
100
AcDbEntity
  8
0
100
AcDbLine
 62
7
  6
CONTINUOUS
 10
-5.7906251013
 20
-4.8376351889
 11
-5.896875
 21
-4.7738054093
  0
LINE
  5
2E1
100
AcDbEntity
  8
0
100
AcDbLine
 62
7
  6
CONTINUOUS
 10
-6.9328125
 20
-5.4121032949
 11
-7.0656251013
 21
-5.3163586255
  0
LINE
  5
2E2
100
AcDbEntity
  8
0
100
AcDbLine
 62
7
  6
CONTINUOUS
 10
-6.9593748987
 20
-4.8695500787
 11
-7.0921875
 21
-4.7738054093
  0
LINE
  5
2E3
100
AcDbEntity
  8
0
100
AcDbLine
 62
7
  6
CONTINUOUS
 10
-7.1187498987
 20
-4.9333798583
 11
-7.0390623987
 21
-4.997209638
  0
LINE
  5
2E4
100
AcDbEntity
  8
0
100
AcDbLine
 62
7
  6
CONTINUOUS
 10
-5.896875
 20
-5.571677744
 11
-5.8171875
 21
-5.6355075236
  0
LINE
  5
2E5
100
AcDbEntity
  8
0
100
AcDbLine
 62
7
  6
CONTINUOUS
 10
-5.9234373987
 20
-4.9333798583
 11
-5.8437498987
 21
-4.997209638
  0
LINE
  5
2E6
100
AcDbEntity
  8
0
100
AcDbLine
 62
7
  6
CONTINUOUS
 10
-5.6843748987
 20
-4.9652947481
 11
-5.7906251013
 21
-4.8376351889
  0
LINE
  5
2E7
100
AcDbEntity
  8
0
100
AcDbLine
 62
7
  6
CONTINUOUS
 10
-6.8796873987
 20
-4.997209638
 11
-6.9593748987
 21
-4.8695500787
  0
LINE
  5
2E8
100
AcDbEntity
  8
0
100
AcDbLine
 62
7
  6
CONTINUOUS
 10
-7.0390623987
 20
-4.997209638
 11
-6.9859376013
 21
-5.0929543074
  0
LINE
  5
2E9
100
AcDbEntity
  8
0
100
AcDbLine
 62
7
  6
CONTINUOUS
 10
-5.6578125
 20
-5.6355075236
 11
-5.7109376013
 21
-5.5397628542
  0
LINE
  5
2EA
100
AcDbEntity
  8
0
100
AcDbLine
 62
7
  6
CONTINUOUS
 10
-5.8437498987
 20
-4.997209638
 11
-5.7906251013
 21
-5.0929543074
  0
LINE
  5
2EB
100
AcDbEntity
  8
0
100
AcDbLine
 62
7
  6
CONTINUOUS
 10
-6.4281251013
 20
-5.9546564664
 11
-6.4546875
 21
-5.8908266868
  0
LINE
  5
2EC
100
AcDbEntity
  8
0
100
AcDbLine
 62
7
  6
CONTINUOUS
 10
-5.8171875
 20
-5.6355075236
 11
-5.7640623987
 21
-5.7631671276
  0
LINE
  5
2ED
100
AcDbEntity
  8
0
100
AcDbLine
 62
7
  6
CONTINUOUS
 10
-6.7999998987
 20
-5.6674224134
 11
-6.853125
 21
-5.5078479644
  0
LINE
  5
2EE
100
AcDbEntity
  8
0
100
AcDbLine
 62
7
  6
CONTINUOUS
 10
-6.9593748987
 20
-5.6035926338
 11
-6.9328125
 21
-5.6993373479
  0
LINE
  5
2EF
100
AcDbEntity
  8
0
100
AcDbLine
 62
7
  6
CONTINUOUS
 10
-6.853125
 20
-5.0929543074
 11
-6.8796873987
 21
-4.997209638
  0
LINE
  5
2F0
100
AcDbEntity
  8
0
100
AcDbLine
 62
7
  6
CONTINUOUS
 10
-6.5875001013
 20
-5.8908266868
 11
-6.5609373987
 21
-5.9865713786
  0
LWPOLYLINE
  5
2F1
100
AcDbEntity
  8
0
100
AcDbPolyline
 62
7
  6
CONTINUOUS
 90
5
 70
0
 10
-3.6351896537
 20
-17.9084892116
 10
-3.6478088947
 20
-17.8570138812
 10
-3.6739592086
 20
-17.8093148762
 10
-3.7116392913
 20
-17.7639538466
 10
-3.7608491429
 20
-17.7209307924
  0
LINE
  5
2F2
100
AcDbEntity
  8
0
100
AcDbLine
 62
7
  6
CONTINUOUS
 10
-8.5875
 20
6.4421520714
 11
-8.6156249732
 21
6.5570456747
  0
LINE
  5
2F3
100
AcDbEntity
  8
0
100
AcDbLine
 62
7
  6
CONTINUOUS
 10
-5.6312501013
 20
-5.7631671276
 11
-5.6578125
 21
-5.6355075236
  0
LINE
  5
2F4
100
AcDbEntity
  8
0
100
AcDbLine
 62
7
  6
CONTINUOUS
 10
-5.6578125
 20
-5.0929543074
 11
-5.6843748987
 21
-4.9652947481
  0
LWPOLYLINE
  5
2F5
100
AcDbEntity
  8
0
100
AcDbPolyline
 62
7
  6
CONTINUOUS
 90
8
 70
0
 10
-3.8981608471
 20
-17.922736436
 10
-3.8937309125
 20
-17.9528476943
 10
-3.8956371786
 20
-17.9826758087
 10
-3.9046822101
 20
-18.0128963931
 10
-3.9200634425
 20
-18.0428338335
 10
-3.9402417587
 20
-18.0659881946
 10
-3.9664936717
 20
-18.0806839355
 10
-3.9975426686
 20
-18.088596597
  0
LINE
  5
2F6
100
AcDbEntity
  8
0
100
AcDbLine
 62
7
  6
CONTINUOUS
 10
-7.7562500507
 20
-5.6035926338
 11
-7.7296875
 21
-5.8269969072
  0
LWPOLYLINE
  5
2F7
100
AcDbEntity
  8
0
100
AcDbPolyline
 62
7
  6
CONTINUOUS
 90
7
 70
0
 10
-4.4589611811
 20
-17.6717154623
 10
-4.4659186364
 20
-17.5957659726
 10
-4.4782824369
 20
-17.5240244078
 10
-4.4956848012
 20
-17.4554071007
 10
-4.5184935109
 20
-17.3909977186
 10
-4.5478119098
 20
-17.3340472633
 10
-4.5848662483
 20
-17.2850014073
  0
LWPOLYLINE
  5
2F8
100
AcDbEntity
  8
0
100
AcDbPolyline
 62
7
  6
CONTINUOUS
 90
3
 70
0
 10
-4.3796908911
 20
-17.9284245195
 10
-4.374549477
 20
-18.0184871435
 10
-4.3569037569
 20
-18.0977825794
  0
LWPOLYLINE
  5
2F9
100
AcDbEntity
  8
0
100
AcDbPolyline
 62
7
  6
CONTINUOUS
 90
7
 70
0
 10
-5.2214975486
 20
-17.751872877
 10
-5.2199464386
 20
-17.8320302918
 10
-5.2129889833
 20
-17.9079797815
 10
-5.2006251828
 20
-17.9797213463
 10
-5.1832228184
 20
-18.0483386533
 10
-5.1604141088
 20
-18.1127480354
 10
-5.1310957099
 20
-18.1696984907
  0
LINE
  5
2FA
100
AcDbEntity
  8
0
100
AcDbLine
 62
7
  6
CONTINUOUS
 10
-4.4574100711
 20
-17.751872877
 11
-4.4589611811
 21
-17.6717154623
  0
LWPOLYLINE
  5
2FB
100
AcDbEntity
  8
0
100
AcDbPolyline
 62
7
  6
CONTINUOUS
 90
13
 70
0
 10
-4.9616470422
 20
-17.751872877
 10
-4.9620387961
 20
-17.7136641513
 10
-4.9612968771
 20
-17.6765336967
 10
-4.9594212852
 20
-17.6404815131
 10
-4.9568398407
 20
-17.6052986948
 10
-4.9531247234
 20
-17.5711941475
 10
-4.9469924723
 20
-17.5387945887
 10
-4.9386603941
 20
-17.5070879347
 10
-4.9279111822
 20
-17.477086269
 10
-4.9128094559
 20
-17.4524525602
 10
-4.8927100883
 20
-17.4344077975
 10
-4.8682582063
 20
-17.4217309916
 10
-4.8394538098
 20
-17.4144221425
  0
LWPOLYLINE
  5
2FC
100
AcDbEntity
  8
0
100
AcDbPolyline
 62
7
  6
CONTINUOUS
 90
13
 70
0
 10
-4.7172605775
 20
-17.751872877
 10
-4.7168688236
 20
-17.7900816027
 10
-4.7176107426
 20
-17.8272120574
 10
-4.7194863345
 20
-17.863264241
 10
-4.7220677789
 20
-17.8984470593
 10
-4.7257828963
 20
-17.9325516065
 10
-4.7319151474
 20
-17.9649511653
 10
-4.7402472256
 20
-17.9966578194
 10
-4.7509964375
 20
-18.026659485
 10
-4.7660981638
 20
-18.0512931939
 10
-4.7861975314
 20
-18.0693379565
 10
-4.8106494134
 20
-18.0820147624
 10
-4.8394538098
 20
-18.0893236115
  0
LINE
  5
2FD
100
AcDbEntity
  8
0
100
AcDbLine
 62
7
  6
CONTINUOUS
 10
-6.2531248927
 20
6.1836413835
 11
-6.2531248927
 21
5.9825775776
  0
LINE
  5
2FE
100
AcDbEntity
  8
0
100
AcDbLine
 62
7
  6
CONTINUOUS
 10
-6.2
 20
7.1581094805
 11
-6.2
 21
7.3581094805
  0
LINE
  5
2FF
100
AcDbEntity
  8
0
100
AcDbLine
 62
7
  6
CONTINUOUS
 10
-6.1624998987
 20
-5.4121032949
 11
-6.1624998987
 21
-5.5397628542
  0
LINE
  5
300
100
AcDbEntity
  8
0
100
AcDbLine
 62
7
  6
CONTINUOUS
 10
-6.1125001073
 20
5.9538541768
 11
-6.1125001073
 21
6.2123647843
  0
LINE
  5
301
100
AcDbEntity
  8
0
100
AcDbLine
 62
7
  6
CONTINUOUS
 10
-5.7906251013
 20
-5.0929543074
 11
-5.7906251013
 21
-5.1567841764
  0
LINE
  5
302
100
AcDbEntity
  8
0
100
AcDbLine
 62
7
  6
CONTINUOUS
 10
-5.7640623987
 20
-5.7631671276
 11
-5.7640623987
 21
-5.8908266868
  0
LINE
  5
303
100
AcDbEntity
  8
0
100
AcDbLine
 62
7
  6
CONTINUOUS
 10
-5.6578125
 20
-5.1567841764
 11
-5.6578125
 21
-5.0929543074
  0
LINE
  5
304
100
AcDbEntity
  8
0
100
AcDbLine
 62
7
  6
CONTINUOUS
 10
-5.6312501013
 20
-5.8908266868
 11
-5.6312501013
 21
-5.7631671276
  0
LINE
  5
305
100
AcDbEntity
  8
ASSI
100
AcDbLine
 62
7
  6
CONTINUOUS
 10
-5.0
 20
-28.7418905195
 11
-5.0
 21
-28.5418905195
  0
LINE
  5
306
100
AcDbEntity
  8
0
100
AcDbLine
 62
7
  6
CONTINUOUS
 10
-4.4586606462
 20
-17.8299246506
 11
-4.4574100711
 21
-17.751872877
  0
LINE
  5
307
100
AcDbEntity
  8
0
100
AcDbLine
 62
7
  6
CONTINUOUS
 10
-6.534375
 20
-4.9652947481
 11
-6.5609373987
 21
-5.0929543074
  0
LINE
  5
308
100
AcDbEntity
  8
0
100
AcDbLine
 62
7
  6
CONTINUOUS
 10
-5.6843748987
 20
-5.2844437357
 11
-5.6578125
 21
-5.1567841764
  0
LINE
  5
309
100
AcDbEntity
  8
0
100
AcDbLine
 62
7
  6
CONTINUOUS
 10
-7.5968748987
 20
-5.1886990662
 11
-7.5703125
 21
-5.0929543074
  0
LINE
  5
30A
100
AcDbEntity
  8
0
100
AcDbLine
 62
7
  6
CONTINUOUS
 10
-7.5968748987
 20
-5.6993373479
 11
-7.5703125
 21
-5.6035926338
  0
LINE
  5
30B
100
AcDbEntity
  8
0
100
AcDbLine
 62
7
  6
CONTINUOUS
 10
-6.9328125
 20
-5.7950820174
 11
-6.9593748987
 21
-5.8908266868
  0
LINE
  5
30C
100
AcDbEntity
  8
0
100
AcDbLine
 62
7
  6
CONTINUOUS
 10
-1.64
 20
15.7439305886
 11
-1.3000000203
 21
16.9439305886
  0
LINE
  5
30D
100
AcDbEntity
  8
0
100
AcDbLine
 62
7
  6
CONTINUOUS
 10
-1.4275000203
 20
16.9439305886
 11
-1.7250000101
 21
15.8971220776
  0
LINE
  5
30E
100
AcDbEntity
  8
0
100
AcDbLine
 62
7
  6
CONTINUOUS
 10
-0.0037499189
 20
16.9439305886
 11
-0.3225000405
 21
15.8715901658
  0
LINE
  5
30F
100
AcDbEntity
  8
0
100
AcDbLine
 62
7
  6
CONTINUOUS
 10
-0.2375
 20
15.7439305886
 11
0.0600000811
 21
16.6886114701
  0
LINE
  5
310
100
AcDbEntity
  8
0
100
AcDbLine
 62
7
  6
CONTINUOUS
 10
-7.6765625507
 20
-4.997209638
 11
-7.7296875
 21
-5.1567841764
  0
LINE
  5
311
100
AcDbEntity
  8
0
100
AcDbLine
 62
7
  6
CONTINUOUS
 10
-6.853125
 20
-5.9865713786
 11
-6.7999998987
 21
-5.8269969072
  0
LINE
  5
312
100
AcDbEntity
  8
0
100
AcDbLine
 62
7
  6
CONTINUOUS
 10
-10.040625
 20
-5.0929543074
 11
-9.9874999937
 21
-4.997209638
  0
LINE
  5
313
100
AcDbEntity
  8
0
100
AcDbLine
 62
7
  6
CONTINUOUS
 10
-9.3234375
 20
-5.3801884051
 11
-9.2703124747
 21
-5.2844437357
  0
LWPOLYLINE
  5
314
100
AcDbEntity
  8
RACCORDO
100
AcDbPolyline
 62
7
  6
CONTINUOUS
 90
10
 70
0
 10
9.1621777632
 20
24.7512971511
 10
9.1600947644
 20
24.7477325076
 10
9.1558113357
 20
24.7377296441
 10
9.149327477
 20
24.7218836408
 10
9.1402643692
 20
24.7009613736
 10
9.1290008315
 20
24.6758177725
 10
9.1166733214
 20
24.6473260367
 10
9.1036606583
 20
24.6164212093
 10
9.0895840229
 20
24.5840948469
 10
9.0744434153
 20
24.5512998927
  0
LINE
  5
315
100
AcDbEntity
  8
0
100
AcDbLine
 62
7
  6
CONTINUOUS
 10
-10.040625
 20
-4.8376351889
 11
-10.1468749984
 21
-4.9652947481
  0
LINE
  5
316
100
AcDbEntity
  8
0
100
AcDbLine
 62
7
  6
CONTINUOUS
 10
-5.896875
 20
-6.0504011582
 11
-6.0296876013
 21
-6.082316048
  0
LINE
  5
317
100
AcDbEntity
  8
0
100
AcDbLine
 62
7
  6
CONTINUOUS
 10
-7.1984373987
 20
-6.2418905195
 11
-7.0656251013
 21
-6.2099756269
  0
LINE
  5
318
100
AcDbEntity
  8
0
100
AcDbLine
 62
7
  6
CONTINUOUS
 10
-10.2
 20
-6.2418905195
 11
-9.24375
 21
-6.2418905195
  0
LINE
  5
319
100
AcDbEntity
  8
0
100
AcDbLine
 62
7
  6
CONTINUOUS
 10
-8.3937500507
 20
-6.2418905195
 11
-8.2343750507
 21
-6.2418905195
  0
LINE
  5
31A
100
AcDbEntity
  8
0
100
AcDbLine
 62
7
  6
CONTINUOUS
 10
-7.33125
 20
-6.2418905195
 11
-7.1984373987
 21
-6.2418905195
  0
LINE
  5
31B
100
AcDbEntity
  8
0
100
AcDbLine
 62
7
  6
CONTINUOUS
 10
-6.215625
 20
-6.2418905195
 11
-6.0031248987
 21
-6.2418905195
  0
LINE
  5
31C
100
AcDbEntity
  8
0
100
AcDbLine
 62
7
  6
CONTINUOUS
 10
-6.0296876013
 20
-6.082316048
 11
-6.1890626013
 21
-6.082316048
  0
LINE
  5
31D
100
AcDbEntity
  8
0
100
AcDbLine
 62
7
  6
CONTINUOUS
 10
-7.171875
 20
-6.082316048
 11
-7.3578123987
 21
-6.082316048
  0
LINE
  5
31E
100
AcDbEntity
  8
0
100
AcDbLine
 62
7
  6
CONTINUOUS
 10
-9.24375
 20
-6.082316048
 11
-9.9874999937
 21
-6.082316048
  0
LINE
  5
31F
100
AcDbEntity
  8
0
100
AcDbLine
 62
7
  6
CONTINUOUS
 10
-6.4546875
 20
-5.8908266868
 11
-6.5875001013
 21
-5.8908266868
  0
LINE
  5
320
100
AcDbEntity
  8
0
100
AcDbLine
 62
7
  6
CONTINUOUS
 10
-9.0312499747
 20
-5.7950820174
 11
-8.3937500507
 21
-5.7950820174
  0
LINE
  5
321
100
AcDbEntity
  8
0
100
AcDbLine
 62
7
  6
CONTINUOUS
 10
-8.2343750507
 20
-5.7950820174
 11
-7.96875
 21
-5.7950820174
  0
LINE
  5
322
100
AcDbEntity
  8
0
100
AcDbLine
 62
7
  6
CONTINUOUS
 10
-7.96875
 20
-5.6035926338
 11
-8.2343750507
 21
-5.6035926338
  0
LINE
  5
323
100
AcDbEntity
  8
0
100
AcDbLine
 62
7
  6
CONTINUOUS
 10
-8.3937500507
 20
-5.6035926338
 11
-8.8453125
 21
-5.6035926338
  0
LINE
  5
324
100
AcDbEntity
  8
0
100
AcDbLine
 62
7
  6
CONTINUOUS
 10
-6.1624998987
 20
-5.5397628542
 11
-6.05625
 21
-5.5397628542
  0
LINE
  5
325
100
AcDbEntity
  8
0
100
AcDbLine
 62
7
  6
CONTINUOUS
 10
-7.3578123987
 20
-5.4440181847
 11
-7.171875
 21
-5.4440181847
  0
LINE
  5
326
100
AcDbEntity
  8
0
100
AcDbLine
 62
7
  6
CONTINUOUS
 10
-6.05625
 20
-5.4121032949
 11
-6.1624998987
 21
-5.4121032949
  0
LINE
  5
327
100
AcDbEntity
  8
0
100
AcDbLine
 62
7
  6
CONTINUOUS
 10
-7.1984373987
 20
-5.2844437357
 11
-7.33125
 21
-5.2844437357
  0
LINE
  5
328
100
AcDbEntity
  8
0
100
AcDbLine
 62
7
  6
CONTINUOUS
 10
-10.1734374992
 20
-5.0929543074
 11
-10.040625
 21
-5.0929543074
  0
LINE
  5
329
100
AcDbEntity
  8
0
100
AcDbLine
 62
7
  6
CONTINUOUS
 10
-6.9859376013
 20
-5.0929543074
 11
-6.853125
 21
-5.0929543074
  0
LINE
  5
32A
100
AcDbEntity
  8
0
100
AcDbLine
 62
7
  6
CONTINUOUS
 10
-6.5609373987
 20
-5.0929543074
 11
-6.4281251013
 21
-5.0929543074
  0
LINE
  5
32B
100
AcDbEntity
  8
0
100
AcDbLine
 62
7
  6
CONTINUOUS
 10
-9.7749999873
 20
-4.9014649685
 11
-9.6687500127
 21
-4.9014649685
  0
LINE
  5
32C
100
AcDbEntity
  8
0
100
AcDbLine
 62
7
  6
CONTINUOUS
 10
-7.3578123987
 20
-4.9014649685
 11
-7.1984373987
 21
-4.9014649685
  0
LINE
  5
32D
100
AcDbEntity
  8
0
100
AcDbLine
 62
7
  6
CONTINUOUS
 10
-6.1624998987
 20
-4.9014649685
 11
-6.05625
 21
-4.9014649685
  0
LINE
  5
32E
100
AcDbEntity
  8
0
100
AcDbLine
 62
7
  6
CONTINUOUS
 10
-6.0828123987
 20
-4.7418905195
 11
-6.1359375
 21
-4.7418905195
  0
LINE
  5
32F
100
AcDbEntity
  8
0
100
AcDbLine
 62
7
  6
CONTINUOUS
 10
-7.2250001013
 20
-4.7418905195
 11
-7.33125
 21
-4.7418905195
  0
LINE
  5
330
100
AcDbEntity
  8
0
100
AcDbLine
 62
7
  6
CONTINUOUS
 10
-8.2343750507
 20
-4.7418905195
 11
-8.3937500507
 21
-4.7418905195
  0
LINE
  5
331
100
AcDbEntity
  8
0
100
AcDbLine
 62
7
  6
CONTINUOUS
 10
-9.6421875
 20
-4.7418905195
 11
-9.7484375127
 21
-4.7418905195
  0
LINE
  5
332
100
AcDbEntity
  8
0
100
AcDbLine
 62
7
  6
CONTINUOUS
 10
-5.896875
 20
-4.7738054093
 11
-6.0828123987
 21
-4.7418905195
  0
LINE
  5
333
100
AcDbEntity
  8
0
100
AcDbLine
 62
7
  6
CONTINUOUS
 10
-7.0921875
 20
-4.7738054093
 11
-7.2250001013
 21
-4.7418905195
  0
LINE
  5
334
100
AcDbEntity
  8
0
100
AcDbLine
 62
7
  6
CONTINUOUS
 10
-6.05625
 20
-4.9014649685
 11
-5.9234373987
 21
-4.9333798583
  0
LINE
  5
335
100
AcDbEntity
  8
0
100
AcDbLine
 62
7
  6
CONTINUOUS
 10
-8.3624999732
 20
5.7527903307
 11
-8.3062500268
 21
5.6378967073
  0
LINE
  5
336
100
AcDbEntity
  8
0
100
AcDbLine
 62
7
  6
CONTINUOUS
 10
-8.1374999464
 20
5.6378967073
 11
-8.1937500536
 21
5.7527903307
  0
LINE
  5
337
100
AcDbEntity
  8
0
100
AcDbLine
 62
7
  6
CONTINUOUS
 10
-7.3500000536
 20
5.8964073349
 11
-7.40625
 21
6.0400243793
  0
LINE
  5
338
100
AcDbEntity
  8
0
100
AcDbLine
 62
7
  6
CONTINUOUS
 10
-7.5187500536
 20
5.9538541768
 11
-7.490625
 21
5.8676839341
  0
LINE
  5
339
100
AcDbEntity
  8
0
100
AcDbLine
 62
7
  6
CONTINUOUS
 10
-7.0968750536
 20
5.8102371324
 11
-7.06875
 21
5.7240669299
  0
LINE
  5
33A
100
AcDbEntity
  8
0
100
AcDbLine
 62
7
  6
CONTINUOUS
 10
-7.46875
 20
8.7921520714
 11
-7.4940624759
 21
8.9070456747
  0
LINE
  5
33B
100
AcDbEntity
  8
0
100
AcDbLine
 62
7
  6
CONTINUOUS
 10
-7.1249999464
 20
5.9538541768
 11
-7.0968750536
 21
5.8102371324
  0
LINE
  5
33C
100
AcDbEntity
  8
0
100
AcDbLine
 62
7
  6
CONTINUOUS
 10
-6.1125001073
 20
6.2123647843
 11
-6.140625
 21
6.3559817884
  0
LINE
  5
33D
100
AcDbEntity
  8
0
100
AcDbLine
 62
7
  6
CONTINUOUS
 10
-6.9562499464
 20
5.8102371324
 11
-6.984375
 21
5.9825775776
  0
LINE
  5
33E
100
AcDbEntity
  8
0
100
AcDbLine
 62
7
  6
CONTINUOUS
 10
-6.2812501073
 20
6.3559817884
 11
-6.2531248927
 21
6.1836413835
  0
LINE
  5
33F
100
AcDbEntity
  8
0
100
AcDbLine
 62
7
  6
CONTINUOUS
 10
-4.0564375404
 20
-17.6512201605
 11
-4.0564375404
 21
-17.8416048831
  0
LINE
  5
340
100
AcDbEntity
  8
0
100
AcDbLine
 62
7
  6
CONTINUOUS
 10
-4.3508248667
 20
-17.5062042988
 11
-4.3523889365
 21
-17.5582115195
  0
LINE
  5
341
100
AcDbEntity
  8
0
100
AcDbLine
 62
7
  6
CONTINUOUS
 10
-5.6578125
 20
-5.9865713786
 11
-5.6312501013
 21
-5.8908266868
  0
LINE
  5
342
100
AcDbEntity
  8
0
100
AcDbLine
 62
7
  6
CONTINUOUS
 10
0.59125
 20
16.152441214
 11
0.7825
 21
16.8418029412
  0
LINE
  5
343
100
AcDbEntity
  8
0
100
AcDbLine
 62
7
  6
CONTINUOUS
 10
0.4849999189
 20
15.7439305886
 11
0.5700000811
 21
16.0503135666
  0
LINE
  5
344
100
AcDbEntity
  8
0
100
AcDbLine
 62
7
  6
CONTINUOUS
 10
2.0362498379
 20
16.5864837512
 11
2.0150001621
 21
16.5098880156
  0
LINE
  5
345
100
AcDbEntity
  8
0
100
AcDbLine
 62
7
  6
CONTINUOUS
 10
2.1425001621
 20
16.4843561038
 11
2.1637498379
 21
16.5609518393
  0
LINE
  5
346
100
AcDbEntity
  8
0
100
AcDbLine
 62
7
  6
CONTINUOUS
 10
0.6975000811
 20
16.9439305886
 11
0.3574999189
 21
15.7439305886
  0
LINE
  5
347
100
AcDbEntity
  8
0
100
AcDbLine
 62
7
  6
CONTINUOUS
 10
-5.7906251013
 20
-5.1567841764
 11
-5.8437498987
 21
-5.2844437357
  0
LINE
  5
348
100
AcDbEntity
  8
0
100
AcDbLine
 62
7
  6
CONTINUOUS
 10
-5.7640623987
 20
-5.8908266868
 11
-5.7906251013
 21
-5.9546564664
  0
LINE
  5
349
100
AcDbEntity
  8
0
100
AcDbLine
 62
7
  6
CONTINUOUS
 10
-7.5703125
 20
-5.0929543074
 11
-7.5171873987
 21
-4.997209638
  0
LINE
  5
34A
100
AcDbEntity
  8
0
100
AcDbLine
 62
7
  6
CONTINUOUS
 10
-6.9593748987
 20
-5.8908266868
 11
-7.0125
 21
-5.9865713786
  0
LINE
  5
34B
100
AcDbEntity
  8
0
100
AcDbLine
 62
7
  6
CONTINUOUS
 10
-6.4281251013
 20
-5.0929543074
 11
-6.375
 21
-4.997209638
  0
LINE
  5
34C
100
AcDbEntity
  8
0
100
AcDbLine
 62
7
  6
CONTINUOUS
 10
-5.7375
 20
-5.3801884051
 11
-5.6843748987
 21
-5.2844437357
  0
LINE
  5
34D
100
AcDbEntity
  8
0
100
AcDbLine
 62
7
  6
CONTINUOUS
 10
-5.7109376013
 20
-6.082316048
 11
-5.6578125
 21
-5.9865713786
  0
LINE
  5
34E
100
AcDbEntity
  8
0
100
AcDbLine
 62
7
  6
CONTINUOUS
 10
-7.5968748987
 20
-4.8695500787
 11
-7.6765625507
 21
-4.997209638
  0
LINE
  5
34F
100
AcDbEntity
  8
0
100
AcDbLine
 62
7
  6
CONTINUOUS
 10
-6.9328125
 20
-6.114230949
 11
-6.853125
 21
-5.9865713786
  0
LINE
  5
350
100
AcDbEntity
  8
0
100
AcDbLine
 62
7
  6
CONTINUOUS
 10
-8.3937500507
 20
-4.7418905195
 11
-9.0312499747
 21
-5.6035926338
  0
LINE
  5
351
100
AcDbEntity
  8
0
100
AcDbLine
 62
7
  6
CONTINUOUS
 10
-8.8453125
 20
-5.6035926338
 11
-8.3937500507
 21
-4.997209638
  0
LINE
  5
352
100
AcDbEntity
  8
0
100
AcDbLine
 62
7
  6
CONTINUOUS
 10
-7.5703125
 20
-5.6035926338
 11
-7.5171873987
 21
-5.5397628542
  0
LINE
  5
353
100
AcDbEntity
  8
0
100
AcDbLine
 62
7
  6
CONTINUOUS
 10
-9.4562500253
 20
-5.2844437357
 11
-10.2
 21
-6.082316048
  0
LINE
  5
354
100
AcDbEntity
  8
0
100
AcDbLine
 62
7
  6
CONTINUOUS
 10
-9.9874999937
 20
-6.082316048
 11
-9.3234375
 21
-5.3801884051
  0
LINE
  5
355
100
AcDbEntity
  8
0
100
AcDbLine
 62
7
  6
CONTINUOUS
 10
-9.9874999937
 20
-4.997209638
 11
-9.9078124937
 21
-4.9333798583
  0
LINE
  5
356
100
AcDbEntity
  8
0
100
AcDbLine
 62
7
  6
CONTINUOUS
 10
6.4733333111
 20
6.9730030958
 11
6.52
 21
7.0027903263
  0
LINE
  5
357
100
AcDbEntity
  8
0
100
AcDbLine
 62
7
  6
CONTINUOUS
 10
6.4033333111
 20
7.0921520178
 11
6.3333333111
 21
7.0623647873
  0
LINE
  5
358
100
AcDbEntity
  8
0
100
AcDbLine
 62
7
  6
CONTINUOUS
 10
7.4533333778
 20
7.0921520178
 11
7.3833333778
 21
7.0623647873
  0
LINE
  5
359
100
AcDbEntity
  8
0
100
AcDbLine
 62
7
  6
CONTINUOUS
 10
6.4033333111
 20
6.4666201148
 11
6.3333333111
 21
6.4368328844
  0
LINE
  5
35A
100
AcDbEntity
  8
0
100
AcDbLine
 62
7
  6
CONTINUOUS
 10
-7.33125
 20
-5.2844437357
 11
-7.4640626013
 21
-5.3163586255
  0
LINE
  5
35B
100
AcDbEntity
  8
0
100
AcDbLine
 62
7
  6
CONTINUOUS
 10
-6.2953125
 20
-4.9333798583
 11
-6.1624998987
 21
-4.9014649685
  0
LINE
  5
35C
100
AcDbEntity
  8
0
100
AcDbLine
 62
7
  6
CONTINUOUS
 10
-7.33125
 20
-4.7418905195
 11
-7.4640626013
 21
-4.7738054093
  0
LINE
  5
35D
100
AcDbEntity
  8
0
100
AcDbLine
 62
7
  6
CONTINUOUS
 10
-9.9078124937
 20
-4.9333798583
 11
-9.7749999873
 21
-4.9014649685
  0
LINE
  5
35E
100
AcDbEntity
  8
0
100
AcDbLine
 62
7
  6
CONTINUOUS
 10
-6.1359375
 20
-4.7418905195
 11
-6.3218748987
 21
-4.7738054093
  0
LINE
  5
35F
100
AcDbEntity
  8
0
100
AcDbLine
 62
7
  6
CONTINUOUS
 10
-9.7484375127
 20
-4.7418905195
 11
-9.9343750063
 21
-4.7738054093
  0
LINE
  5
360
100
AcDbEntity
  8
0
100
AcDbLine
 62
7
  6
CONTINUOUS
 10
-8.3062500268
 20
5.6378967073
 11
-8.2218749464
 21
5.5230030939
  0
LINE
  5
361
100
AcDbEntity
  8
0
100
AcDbLine
 62
7
  6
CONTINUOUS
 10
-7.40625
 20
6.0400243793
 11
-7.490625
 21
6.1549179826
  0
LINE
  5
362
100
AcDbEntity
  8
0
100
AcDbLine
 62
7
  6
CONTINUOUS
 10
-8.8125000268
 20
6.5283222739
 11
-8.75625
 21
6.4421520714
  0
LINE
  5
363
100
AcDbEntity
  8
0
100
AcDbLine
 62
7
  6
CONTINUOUS
 10
-7.575
 20
6.0400243793
 11
-7.5187500536
 21
5.9538541768
  0
LINE
  5
364
100
AcDbEntity
  8
0
100
AcDbLine
 62
7
  6
CONTINUOUS
 10
-6.8437498927
 20
5.6378967073
 11
-6.9562499464
 21
5.8102371324
  0
LINE
  5
365
100
AcDbEntity
  8
0
100
AcDbLine
 62
7
  6
CONTINUOUS
 10
-7.6712500241
 20
8.8783222739
 11
-7.620625
 21
8.7921520714
  0
LINE
  5
366
100
AcDbEntity
  8
0
100
AcDbLine
 62
7
  6
CONTINUOUS
 10
-7.06875
 20
5.7240669299
 11
-7.0125000536
 21
5.6091733065
  0
LINE
  5
367
100
AcDbEntity
  8
0
100
AcDbLine
 62
7
  6
CONTINUOUS
 10
-6.1687498927
 20
6.4421520714
 11
-6.225
 21
6.5570456747
  0
LINE
  5
368
100
AcDbEntity
  8
0
100
AcDbLine
 62
7
  6
CONTINUOUS
 10
-6.140625
 20
6.3559817884
 11
-6.1687498927
 21
6.4421520714
  0
LINE
  5
369
100
AcDbEntity
  8
RACCORDO
100
AcDbLine
 62
7
  6
CONTINUOUS
 10
-1.9
 20
25.0552681127
 11
-1.9
 21
24.7780860063
  0
LINE
  5
36A
100
AcDbEntity
  8
0
100
AcDbLine
 62
7
  6
CONTINUOUS
 10
-1.9
 20
25.2581094805
 11
-1.9
 21
25.0552681127
  0
LINE
  5
36B
100
AcDbEntity
  8
0
100
AcDbLine
 62
7
  6
CONTINUOUS
 10
-1.13
 20
16.9439305886
 11
-1.13
 21
15.7439305886
  0
LINE
  5
36C
100
AcDbEntity
  8
0
100
AcDbLine
 62
7
  6
CONTINUOUS
 10
-1.0025
 20
15.7439305886
 11
-1.0025
 21
16.9439305886
  0
LINE
  5
36D
100
AcDbEntity
  8
ASSI
100
AcDbLine
 62
7
  6
CONTINUOUS
 10
-0.887554
 20
6.5400724485
 11
-0.887554
 21
7.2908894501
  0
LINE
  5
36E
100
AcDbEntity
  8
ASSI
100
AcDbLine
 62
7
  6
CONTINUOUS
 10
-0.887554
 20
10.8853294805
 11
-0.887554
 21
11.6361464805
  0
LINE
  5
36F
100
AcDbEntity
  8
0
100
AcDbLine
 62
7
  6
CONTINUOUS
 10
-0.8325000405
 20
16.9439305886
 11
-0.8325000405
 21
15.7439305886
  0
LINE
  5
370
100
AcDbEntity
  8
0
100
AcDbLine
 62
7
  6
CONTINUOUS
 10
-0.7050000405
 20
15.7439305886
 11
-0.7050000405
 21
16.6886114701
  0
LINE
  5
371
100
AcDbEntity
  8
0
100
AcDbLine
 62
7
  6
CONTINUOUS
 10
0.0600000811
 20
16.6886114701
 11
0.0600000811
 21
15.7439305886
  0
LINE
  5
372
100
AcDbEntity
  8
0
100
AcDbLine
 62
7
  6
CONTINUOUS
 10
0.1875000811
 20
15.7439305886
 11
0.1875000811
 21
16.9439305886
  0
LWPOLYLINE
  5
373
100
AcDbEntity
  8
0
100
AcDbPolyline
 62
7
  6
CONTINUOUS
 90
4
 70
0
 10
-4.1175930315
 20
-17.5582115195
 10
-4.108053501
 20
-17.5189095581
 10
-4.093394057
 20
-17.4876784624
 10
-4.0736146996
 20
-17.4645182321
  0
LINE
  5
374
100
AcDbEntity
  8
0
100
AcDbLine
 62
7
  6
CONTINUOUS
 10
-5.8085735404
 20
-16.5730555195
 11
-6.1102635404
 21
-17.6615945195
  0
LINE
  5
375
100
AcDbEntity
  8
0
100
AcDbLine
 62
7
  6
CONTINUOUS
 10
-5.7255115404
 20
-17.2085375195
 11
-5.4288095404
 21
-16.1456145195
  0
LINE
  5
376
100
AcDbEntity
  8
0
100
AcDbLine
 62
7
  6
CONTINUOUS
 10
-6.4281251013
 20
-4.8376351889
 11
-6.534375
 21
-4.9652947481
  0
LINE
  5
377
100
AcDbEntity
  8
0
100
AcDbLine
 62
7
  6
CONTINUOUS
 10
-5.8437498987
 20
-5.2844437357
 11
-5.896875
 21
-5.3482735153
  0
LINE
  5
378
100
AcDbEntity
  8
0
100
AcDbLine
 62
7
  6
CONTINUOUS
 10
-5.7906251013
 20
-5.9546564664
 11
-5.8437498987
 21
-6.0184862684
  0
LINE
  5
379
100
AcDbEntity
  8
0
100
AcDbLine
 62
7
  6
CONTINUOUS
 10
6.4266666889
 20
6.2878967136
 11
6.52
 21
6.3772584129
  0
LINE
  5
37A
100
AcDbEntity
  8
0
100
AcDbLine
 62
7
  6
CONTINUOUS
 10
-5.8437498987
 20
-5.4759330746
 11
-5.7375
 21
-5.3801884051
  0
LINE
  5
37B
100
AcDbEntity
  8
0
100
AcDbLine
 62
7
  6
CONTINUOUS
 10
-7.5171873987
 20
-4.997209638
 11
-7.4374998987
 21
-4.9333798583
  0
LINE
  5
37C
100
AcDbEntity
  8
0
100
AcDbLine
 62
7
  6
CONTINUOUS
 10
-7.4640626013
 20
-5.3163586255
 11
-7.6234376013
 21
-5.4440181847
  0
LINE
  5
37D
100
AcDbEntity
  8
0
100
AcDbLine
 62
7
  6
CONTINUOUS
 10
-7.5171873987
 20
-5.5397628542
 11
-7.4374998987
 21
-5.4759330746
  0
LINE
  5
37E
100
AcDbEntity
  8
0
100
AcDbLine
 62
7
  6
CONTINUOUS
 10
-6.375
 20
-4.997209638
 11
-6.2953125
 21
-4.9333798583
  0
LINE
  5
37F
100
AcDbEntity
  8
0
100
AcDbLine
 62
7
  6
CONTINUOUS
 10
-7.0125
 20
-5.9865713786
 11
-7.0921875
 21
-6.0504011582
  0
LINE
  5
380
100
AcDbEntity
  8
0
100
AcDbLine
 62
7
  6
CONTINUOUS
 10
-7.4640626013
 20
-4.7738054093
 11
-7.5968748987
 21
-4.8695500787
  0
LINE
  5
381
100
AcDbEntity
  8
0
100
AcDbLine
 62
7
  6
CONTINUOUS
 10
7.4766666222
 20
6.9432158653
 11
7.57
 21
7.0027903263
  0
LINE
  5
382
100
AcDbEntity
  8
0
100
AcDbLine
 62
7
  6
CONTINUOUS
 10
-9.9343750063
 20
-4.7738054093
 11
-10.040625
 21
-4.8376351889
  0
LINE
  5
383
100
AcDbEntity
  8
0
100
AcDbLine
 62
7
  6
CONTINUOUS
 10
-8.0531249464
 20
5.5804499056
 11
-8.1374999464
 21
5.6378967073
  0
LINE
  5
384
100
AcDbEntity
  8
0
100
AcDbLine
 62
7
  6
CONTINUOUS
 10
-8.6156249732
 20
6.5570456747
 11
-8.7281250268
 21
6.671939278
  0
LINE
  5
385
100
AcDbEntity
  8
0
100
AcDbLine
 62
7
  6
CONTINUOUS
 10
-7.0125000536
 20
5.6091733065
 11
-6.9281250536
 21
5.5230030939
  0
LINE
  5
386
100
AcDbEntity
  8
0
100
AcDbLine
 62
7
  6
CONTINUOUS
 10
-6.225
 20
6.5570456747
 11
-6.309375
 21
6.6432158772
  0
LINE
  5
387
100
AcDbEntity
  8
0
100
AcDbLine
 62
7
  6
CONTINUOUS
 10
-7.4940624759
 20
8.9070456747
 11
-7.5953125241
 21
9.021939278
  0
LINE
  5
388
100
AcDbEntity
  8
0
100
AcDbLine
 62
7
  6
CONTINUOUS
 10
-6.39375
 20
6.5283222739
 11
-6.2812501073
 21
6.3559817884
  0
LINE
  5
389
100
AcDbEntity
  8
0
100
AcDbLine
 62
7
  6
CONTINUOUS
 10
1.3774999189
 20
16.9439305886
 11
1.3774999189
 21
15.7439305886
  0
LINE
  5
38A
100
AcDbEntity
  8
0
100
AcDbLine
 62
7
  6
CONTINUOUS
 10
1.5049999189
 20
15.7439305886
 11
1.5049999189
 21
16.280100809
  0
LINE
  5
38B
100
AcDbEntity
  8
0
100
AcDbLine
 62
7
  6
CONTINUOUS
 10
1.5049999189
 20
16.4332922801
 11
1.5049999189
 21
16.8162710294
  0
LINE
  5
38C
100
AcDbEntity
  8
RACCORDO
100
AcDbLine
 62
7
  6
CONTINUOUS
 10
1.9
 20
25.0552681127
 11
1.9
 21
24.7780860063
  0
LINE
  5
38D
100
AcDbEntity
  8
0
100
AcDbLine
 62
7
  6
CONTINUOUS
 10
1.9
 20
25.2581094805
 11
1.9
 21
25.0552681127
  0
LINE
  5
38E
100
AcDbEntity
  8
0
100
AcDbLine
 62
7
  6
CONTINUOUS
 10
2.0362498379
 20
16.6630795583
 11
2.0362498379
 21
16.5864837512
  0
LINE
  5
38F
100
AcDbEntity
  8
0
100
AcDbLine
 62
7
  6
CONTINUOUS
 10
2.1637498379
 20
16.5609518393
 11
2.1637498379
 21
16.6630795583
  0
LINE
  5
390
100
AcDbEntity
  8
0
100
AcDbLine
 62
7
  6
CONTINUOUS
 10
6.52
 20
7.0027903263
 11
6.59
 21
7.1219392482
  0
LINE
  5
391
100
AcDbEntity
  8
0
100
AcDbLine
 62
7
  6
CONTINUOUS
 10
6.52
 20
6.3772584129
 11
6.59
 21
6.4964073453
  0
LINE
  5
392
100
AcDbEntity
  8
0
100
AcDbLine
 62
7
  6
CONTINUOUS
 10
6.45
 20
7.1517264787
 11
6.4033333111
 21
7.0921520178
  0
LINE
  5
393
100
AcDbEntity
  8
0
100
AcDbLine
 62
7
  6
CONTINUOUS
 10
6.45
 20
6.5261945967
 11
6.4033333111
 21
6.4666201148
  0
LINE
  5
394
100
AcDbEntity
  8
0
100
AcDbLine
 62
7
  6
CONTINUOUS
 10
7.5
 20
7.1517264787
 11
7.4533333778
 21
7.0921520178
  0
LINE
  5
395
100
AcDbEntity
  8
0
100
AcDbLine
 62
7
  6
CONTINUOUS
 10
-5.7906251013
 20
-6.1461458388
 11
-5.7109376013
 21
-6.082316048
  0
LINE
  5
396
100
AcDbEntity
  8
0
100
AcDbLine
 62
7
  6
CONTINUOUS
 10
-7.0656251013
 20
-6.2099756269
 11
-6.9328125
 21
-6.114230949
  0
LINE
  5
397
100
AcDbEntity
  8
0
100
AcDbLine
 62
7
  6
CONTINUOUS
 10
-6.3218748987
 20
-4.7738054093
 11
-6.4281251013
 21
-4.8376351889
  0
LINE
  5
398
100
AcDbEntity
  8
0
100
AcDbLine
 62
7
  6
CONTINUOUS
 10
-5.8437498987
 20
-6.0184862684
 11
-5.896875
 21
-6.0504011582
  0
LINE
  5
399
100
AcDbEntity
  8
0
100
AcDbLine
 62
7
  6
CONTINUOUS
 10
-5.896875
 20
-6.2099756269
 11
-5.7906251013
 21
-6.1461458388
  0
LINE
  5
39A
100
AcDbEntity
  8
0
100
AcDbLine
 62
7
  6
CONTINUOUS
 10
-7.4374998987
 20
-4.9333798583
 11
-7.3578123987
 21
-4.9014649685
  0
LINE
  5
39B
100
AcDbEntity
  8
0
100
AcDbLine
 62
7
  6
CONTINUOUS
 10
-7.4374998987
 20
-5.4759330746
 11
-7.3578123987
 21
-5.4440181847
  0
LINE
  5
39C
100
AcDbEntity
  8
0
100
AcDbLine
 62
7
  6
CONTINUOUS
 10
-8.7281250268
 20
6.671939278
 11
-8.840625
 21
6.7293860797
  0
LINE
  5
39D
100
AcDbEntity
  8
0
100
AcDbLine
 62
7
  6
CONTINUOUS
 10
-8.2218749464
 20
5.5230030939
 11
-8.08125
 21
5.4368328839
  0
LINE
  5
39E
100
AcDbEntity
  8
0
100
AcDbLine
 62
7
  6
CONTINUOUS
 10
-6.9281250536
 20
5.5230030939
 11
-6.7875001073
 21
5.4368328839
  0
LINE
  5
39F
100
AcDbEntity
  8
0
100
AcDbLine
 62
7
  6
CONTINUOUS
 10
-7.490625
 20
6.1549179826
 11
-7.6312499464
 21
6.2410881851
  0
LINE
  5
3A0
100
AcDbEntity
  8
0
100
AcDbLine
 62
7
  6
CONTINUOUS
 10
-6.309375
 20
6.6432158772
 11
-6.4500001073
 21
6.7293860797
  0
LINE
  5
3A1
100
AcDbEntity
  8
0
100
AcDbLine
 62
7
  6
CONTINUOUS
 10
-8.8968750268
 20
6.5857690756
 11
-8.8125000268
 21
6.5283222739
  0
LINE
  5
3A2
100
AcDbEntity
  8
0
100
AcDbLine
 62
7
  6
CONTINUOUS
 10
-7.659375
 20
6.097471181
 11
-7.575
 21
6.0400243793
  0
LINE
  5
3A3
100
AcDbEntity
  8
0
100
AcDbLine
 62
7
  6
CONTINUOUS
 10
-6.7593748927
 20
5.5804499056
 11
-6.8437498927
 21
5.6378967073
  0
LINE
  5
3A4
100
AcDbEntity
  8
0
100
AcDbLine
 62
7
  6
CONTINUOUS
 10
-6.478125
 20
6.5857690756
 11
-6.39375
 21
6.5283222739
  0
LINE
  5
3A5
100
AcDbEntity
  8
0
100
AcDbLine
 62
7
  6
CONTINUOUS
 10
-7.7471875241
 20
8.9357690756
 11
-7.6712500241
 21
8.8783222739
  0
LINE
  5
3A6
100
AcDbEntity
  8
ASSI
100
AcDbLine
 62
7
  6
CONTINUOUS
 10
3.097556
 20
8.7131094805
 11
3.097556
 21
9.4631094805
  0
LINE
  5
3A7
100
AcDbEntity
  8
ASSI
100
AcDbLine
 62
7
  6
CONTINUOUS
 10
3.497556
 20
6.540072332
 11
3.497556
 21
7.2908931877
  0
LINE
  5
3A8
100
AcDbEntity
  8
ASSI
100
AcDbLine
 62
7
  6
CONTINUOUS
 10
3.497556
 20
10.8853294805
 11
3.497556
 21
11.6361457809
  0
LINE
  5
3A9
100
AcDbEntity
  8
0
100
AcDbLine
 62
7
  6
CONTINUOUS
 10
6.4733333111
 20
7.2410881702
 11
6.45
 21
7.1517264787
  0
LINE
  5
3AA
100
AcDbEntity
  8
0
100
AcDbLine
 62
7
  6
CONTINUOUS
 10
6.59
 20
7.1219392482
 11
6.6133333111
 21
7.2113009397
  0
LINE
  5
3AB
100
AcDbEntity
  8
0
100
AcDbLine
 62
7
  6
CONTINUOUS
 10
6.4733333111
 20
6.6155562882
 11
6.45
 21
6.5261945967
  0
LINE
  5
3AC
100
AcDbEntity
  8
0
100
AcDbLine
 62
7
  6
CONTINUOUS
 10
6.59
 20
6.4964073453
 11
6.6133333111
 21
6.5857690577
  0
LWPOLYLINE
  5
3AD
100
AcDbEntity
  8
0
100
AcDbPolyline
 62
7
  6
CONTINUOUS
 90
7
 70
0
 10
-3.9059135099
 20
-17.5730610808
 10
-3.9182438535
 20
-17.5983655819
 10
-3.9376883059
 20
-17.6213896803
 10
-3.9615041706
 20
-17.6385459318
 10
-3.988777215
 20
-17.6486385217
 10
-4.0204216716
 20
-17.6528632645
 10
-4.0564375404
 20
-17.6512201605
  0
LINE
  5
3AE
100
AcDbEntity
  8
0
100
AcDbLine
 62
7
  6
CONTINUOUS
 10
7.57
 20
7.0027903263
 11
7.64
 21
7.1219392482
  0
LINE
  5
3AF
100
AcDbEntity
  8
0
100
AcDbLine
 62
7
  6
CONTINUOUS
 10
-7.0481725404
 20
-16.0524245195
 11
-8.4181785404
 21
-17.7518725195
  0
LINE
  5
3B0
100
AcDbEntity
  8
0
100
AcDbLine
 62
7
  6
CONTINUOUS
 10
-7.0252395404
 20
-16.1456145195
 11
-8.2476335404
 21
-17.6615945195
  0
LINE
  5
3B1
100
AcDbEntity
  8
0
100
AcDbLine
 62
7
  6
CONTINUOUS
 10
-5.896875
 20
-5.3482735153
 11
-6.05625
 21
-5.4121032949
  0
LINE
  5
3B2
100
AcDbEntity
  8
0
100
AcDbLine
 62
7
  6
CONTINUOUS
 10
-7.0921875
 20
-6.0504011582
 11
-7.171875
 21
-6.082316048
  0
LINE
  5
3B3
100
AcDbEntity
  8
0
100
AcDbLine
 62
7
  6
CONTINUOUS
 10
-6.0031248987
 20
-6.2418905195
 11
-5.896875
 21
-6.2099756269
  0
LINE
  5
3B4
100
AcDbEntity
  8
0
100
AcDbLine
 62
7
  6
CONTINUOUS
 10
6.31
 20
6.2581094805
 11
6.4266666889
 21
6.2878967136
  0
LINE
  5
3B5
100
AcDbEntity
  8
0
100
AcDbLine
 62
7
  6
CONTINUOUS
 10
-6.7875001073
 20
5.4368328839
 11
-6.6187501073
 21
5.4081094805
  0
LINE
  5
3B6
100
AcDbEntity
  8
0
100
AcDbLine
 62
7
  6
CONTINUOUS
 10
-8.08125
 20
5.4368328839
 11
-7.9406250536
 21
5.4081094805
  0
LINE
  5
3B7
100
AcDbEntity
  8
0
100
AcDbLine
 62
7
  6
CONTINUOUS
 10
-6.6187501073
 20
5.5517265048
 11
-6.7593748927
 21
5.5804499056
  0
LINE
  5
3B8
100
AcDbEntity
  8
0
100
AcDbLine
 62
7
  6
CONTINUOUS
 10
-7.6312499464
 20
6.2410881851
 11
-7.7718750536
 21
6.2698115859
  0
LINE
  5
3B9
100
AcDbEntity
  8
0
100
AcDbLine
 62
7
  6
CONTINUOUS
 10
-9.0375000134
 20
6.6144924764
 11
-8.8968750268
 21
6.5857690756
  0
LINE
  5
3BA
100
AcDbEntity
  8
0
100
AcDbLine
 62
7
  6
CONTINUOUS
 10
-7.9406250536
 20
5.5517265048
 11
-8.0531249464
 21
5.5804499056
  0
LINE
  5
3BB
100
AcDbEntity
  8
0
100
AcDbLine
 62
7
  6
CONTINUOUS
 10
-7.7718750536
 20
6.1261945818
 11
-7.659375
 21
6.097471181
  0
LINE
  5
3BC
100
AcDbEntity
  8
0
100
AcDbLine
 62
7
  6
CONTINUOUS
 10
-7.5953125241
 20
9.021939278
 11
-7.6965625
 21
9.0793860797
  0
LWPOLYLINE
  5
3BD
100
AcDbEntity
  8
RACCORDO
100
AcDbPolyline
 62
7
  6
CONTINUOUS
 90
10
 70
0
 10
-9.1621777632
 20
24.7512971511
 10
-9.1600947644
 20
24.7477325076
 10
-9.1558113357
 20
24.7377296441
 10
-9.149327477
 20
24.7218836408
 10
-9.1402643692
 20
24.7009613736
 10
-9.1290008315
 20
24.6758177725
 10
-9.1166733214
 20
24.6473260367
 10
-9.1036606583
 20
24.6164212093
 10
-9.0895840229
 20
24.5840948469
 10
-9.0744434153
 20
24.5512998927
  0
LINE
  5
3BE
100
AcDbEntity
  8
0
100
AcDbLine
 62
7
  6
CONTINUOUS
 10
-0.7050000405
 20
16.6886114701
 11
-0.4074999595
 21
15.7439305886
  0
LINE
  5
3BF
100
AcDbEntity
  8
0
100
AcDbLine
 62
7
  6
CONTINUOUS
 10
-0.3225000405
 20
15.8715901658
 11
-0.6412500405
 21
16.9439305886
  0
LINE
  5
3C0
100
AcDbEntity
  8
0
100
AcDbLine
 62
7
  6
CONTINUOUS
 10
-1.7250000101
 20
15.8971220776
 11
-2.0225
 21
16.9439305886
  0
LINE
  5
3C1
100
AcDbEntity
  8
0
100
AcDbLine
 62
7
  6
CONTINUOUS
 10
-2.15
 20
16.9439305886
 11
-1.8099999899
 21
15.7439305886
  0
LINE
  5
3C2
100
AcDbEntity
  8
ASSI
100
AcDbLine
 62
7
  6
CONTINUOUS
 10
5.0
 20
-28.7418905195
 11
5.0
 21
-28.5418905195
  0
LINE
  5
3C3
100
AcDbEntity
  8
0
100
AcDbLine
 62
7
  6
CONTINUOUS
 10
5.75
 20
7.6581094805
 11
5.75
 21
6.2581094805
  0
LINE
  5
3C4
100
AcDbEntity
  8
0
100
AcDbLine
 62
7
  6
CONTINUOUS
 10
5.89
 20
6.4368328844
 11
5.89
 21
6.8836414043
  0
LINE
  5
3C5
100
AcDbEntity
  8
0
100
AcDbLine
 62
7
  6
CONTINUOUS
 10
5.89
 20
7.0623647873
 11
5.89
 21
7.4793860976
  0
LINE
  5
3C6
100
AcDbEntity
  8
0
100
AcDbLine
 62
7
  6
CONTINUOUS
 10
6.4733333111
 20
7.3006626312
 11
6.4733333111
 21
7.2410881702
  0
LINE
  5
3C7
100
AcDbEntity
  8
0
100
AcDbLine
 62
7
  6
CONTINUOUS
 10
6.4733333111
 20
6.7049179796
 11
6.4733333111
 21
6.6155562882
  0
LINE
  5
3C8
100
AcDbEntity
  8
0
100
AcDbLine
 62
7
  6
CONTINUOUS
 10
6.6133333111
 20
6.5857690577
 11
6.6133333111
 21
6.7347052101
  0
LINE
  5
3C9
100
AcDbEntity
  8
0
100
AcDbLine
 62
7
  6
CONTINUOUS
 10
6.6133333111
 20
7.2113009397
 11
6.6133333111
 21
7.3304499451
  0
LINE
  5
3CA
100
AcDbEntity
  8
0
100
AcDbLine
 62
7
  6
CONTINUOUS
 10
6.8
 20
7.6581094805
 11
6.8
 21
6.2581094805
  0
LINE
  5
3CB
100
AcDbEntity
  8
0
100
AcDbLine
 62
7
  6
CONTINUOUS
 10
6.94
 20
6.2581094805
 11
6.94
 21
6.8836414043
  0
LINE
  5
3CC
100
AcDbEntity
  8
0
100
AcDbLine
 62
7
  6
CONTINUOUS
 10
6.94
 20
7.0623647873
 11
6.94
 21
7.5091733281
  0
LINE
  5
3CD
100
AcDbEntity
  8
0
100
AcDbLine
 62
7
  6
CONTINUOUS
 10
7.5233333778
 20
7.2410881702
 11
7.5
 21
7.1517264787
  0
LINE
  5
3CE
100
AcDbEntity
  8
0
100
AcDbLine
 62
7
  6
CONTINUOUS
 10
7.64
 20
7.1219392482
 11
7.6633333778
 21
7.2113009397
  0
LINE
  5
3CF
100
AcDbEntity
  8
0
100
AcDbLine
 62
7
  6
CONTINUOUS
 10
-6.2110985404
 20
-16.4139005195
 11
-5.9948675404
 21
-16.1456145195
  0
LINE
  5
3D0
100
AcDbEntity
  8
0
100
AcDbLine
 62
7
  6
CONTINUOUS
 10
-7.7445515404
 20
-17.3934905195
 11
-7.4278505404
 21
-17.0007085195
  0
LINE
  5
3D1
100
AcDbEntity
  8
0
100
AcDbLine
 62
7
  6
CONTINUOUS
 10
-5.7371385404
 20
-16.1456145195
 11
-6.9593505404
 21
-17.6615945195
  0
LINE
  5
3D2
100
AcDbEntity
  8
0
100
AcDbLine
 62
7
  6
CONTINUOUS
 10
-6.6861505404
 20
-17.6615945195
 11
-5.8085735404
 21
-16.5730555195
  0
LINE
  5
3D3
100
AcDbEntity
  8
0
100
AcDbLine
 62
7
  6
CONTINUOUS
 10
-4.8685755404
 20
-16.1456145195
 11
-5.7255115404
 21
-17.2085375195
  0
LINE
  5
3D4
100
AcDbEntity
  8
0
100
AcDbLine
 62
7
  6
CONTINUOUS
 10
-5.8175875404
 20
-17.6615945195
 11
-4.5953755404
 21
-16.1456145195
  0
LINE
  5
3D5
100
AcDbEntity
  8
0
100
AcDbLine
 62
7
  6
CONTINUOUS
 10
-5.7922875404
 20
-17.7518725195
 11
-4.4222815404
 21
-16.0524245195
  0
LINE
  5
3D6
100
AcDbEntity
  8
0
100
AcDbLine
 62
7
  6
CONTINUOUS
 10
-6.7447585404
 20
-17.0007085195
 11
-6.5285275404
 21
-16.7326045195
  0
LINE
  5
3D7
100
AcDbEntity
  8
0
100
AcDbLine
 62
7
  6
CONTINUOUS
 10
-7.1837715404
 20
-17.6615945195
 11
-6.9675415404
 21
-17.3934905195
  0
LINE
  5
3D8
100
AcDbEntity
  8
0
100
AcDbLine
 62
7
  6
CONTINUOUS
 10
-7.2118015404
 20
-16.7326045195
 11
-6.9546185404
 21
-16.4139005195
  0
LINE
  5
3D9
100
AcDbEntity
  8
0
100
AcDbLine
 62
7
  6
CONTINUOUS
 10
-6.478125
 20
5.5804499056
 11
-6.6187501073
 21
5.5517265048
  0
LINE
  5
3DA
100
AcDbEntity
  8
0
100
AcDbLine
 62
7
  6
CONTINUOUS
 10
-7.7718750536
 20
5.4081094805
 11
-7.6312499464
 21
5.4368328839
  0
LINE
  5
3DB
100
AcDbEntity
  8
0
100
AcDbLine
 62
7
  6
CONTINUOUS
 10
-6.6187501073
 20
5.4081094805
 11
-6.4500001073
 21
5.4368328839
  0
LINE
  5
3DC
100
AcDbEntity
  8
0
100
AcDbLine
 62
7
  6
CONTINUOUS
 10
-9.6
 20
5.4081094805
 11
-8.5875
 21
5.4081094805
  0
LINE
  5
3DD
100
AcDbEntity
  8
0
100
AcDbLine
 62
7
  6
CONTINUOUS
 10
-7.9406250536
 20
5.4081094805
 11
-7.7718750536
 21
5.4081094805
  0
LINE
  5
3DE
100
AcDbEntity
  8
0
100
AcDbLine
 62
7
  6
CONTINUOUS
 10
-7.7718750536
 20
5.5517265048
 11
-7.9406250536
 21
5.5517265048
  0
LINE
  5
3DF
100
AcDbEntity
  8
0
100
AcDbLine
 62
7
  6
CONTINUOUS
 10
-8.5875
 20
5.5517265048
 11
-9.3749999933
 21
5.5517265048
  0
LINE
  5
3E0
100
AcDbEntity
  8
0
100
AcDbLine
 62
7
  6
CONTINUOUS
 10
-8.1937500536
 20
5.7527903307
 11
-8.3624999732
 21
5.7527903307
  0
LINE
  5
3E1
100
AcDbEntity
  8
0
100
AcDbLine
 62
7
  6
CONTINUOUS
 10
-8.3624999732
 20
6.0113009785
 11
-8.165625
 21
6.0113009785
  0
LINE
  5
3E2
100
AcDbEntity
  8
0
100
AcDbLine
 62
7
  6
CONTINUOUS
 10
-7.9406250536
 20
6.1261945818
 11
-7.7718750536
 21
6.1261945818
  0
LINE
  5
3E3
100
AcDbEntity
  8
0
100
AcDbLine
 62
7
  6
CONTINUOUS
 10
5.75
 20
6.2581094805
 11
6.31
 21
6.2581094805
  0
LINE
  5
3E4
100
AcDbEntity
  8
0
100
AcDbLine
 62
7
  6
CONTINUOUS
 10
6.8
 20
6.2581094805
 11
6.94
 21
6.2581094805
  0
LINE
  5
3E5
100
AcDbEntity
  8
0
100
AcDbLine
 62
7
  6
CONTINUOUS
 10
7.5233333778
 20
6.2581094805
 11
7.6866666222
 21
6.2581094805
  0
LINE
  5
3E6
100
AcDbEntity
  8
0
100
AcDbLine
 62
7
  6
CONTINUOUS
 10
7.8733333778
 20
6.2581094805
 11
8.7133332443
 21
6.2581094805
  0
LINE
  5
3E7
100
AcDbEntity
  8
0
100
AcDbLine
 62
7
  6
CONTINUOUS
 10
9.2733332443
 20
6.2581094805
 11
9.46
 21
6.2581094805
  0
LINE
  5
3E8
100
AcDbEntity
  8
0
100
AcDbLine
 62
7
  6
CONTINUOUS
 10
10.02
 20
6.2581094805
 11
10.1366667557
 21
6.2581094805
  0
LINE
  5
3E9
100
AcDbEntity
  8
0
100
AcDbLine
 62
7
  6
CONTINUOUS
 10
-7.7718750536
 20
6.2698115859
 11
-7.9406250536
 21
6.2698115859
  0
LINE
  5
3EA
100
AcDbEntity
  8
0
100
AcDbLine
 62
7
  6
CONTINUOUS
 10
10.1366667557
 20
6.4070456539
 11
10.02
 21
6.4070456539
  0
LINE
  5
3EB
100
AcDbEntity
  8
0
100
AcDbLine
 62
7
  6
CONTINUOUS
 10
8.7133332443
 20
6.4368328844
 11
8.0133332443
 21
6.4368328844
  0
LINE
  5
3EC
100
AcDbEntity
  8
0
100
AcDbLine
 62
7
  6
CONTINUOUS
 10
6.3333333111
 20
6.4368328844
 11
5.89
 21
6.4368328844
  0
LINE
  5
3ED
100
AcDbEntity
  8
0
100
AcDbLine
 62
7
  6
CONTINUOUS
 10
-9.5718749992
 20
6.4421520714
 11
-9.43125
 21
6.4421520714
  0
LINE
  5
3EE
100
AcDbEntity
  8
0
100
AcDbLine
 62
7
  6
CONTINUOUS
 10
-9.1499999866
 20
6.6144924764
 11
-9.0375000134
 21
6.6144924764
  0
LINE
  5
3EF
100
AcDbEntity
  8
0
100
AcDbLine
 62
7
  6
CONTINUOUS
 10
-8.2218749464
 20
6.6144924764
 11
-7.40625
 21
6.6144924764
  0
LINE
  5
3F0
100
AcDbEntity
  8
0
100
AcDbLine
 62
7
  6
CONTINUOUS
 10
-7.40625
 20
6.7581094805
 11
-8.3624999732
 21
6.7581094805
  0
LINE
  5
3F1
100
AcDbEntity
  8
0
100
AcDbLine
 62
7
  6
CONTINUOUS
 10
-9.009375
 20
6.7581094805
 11
-9.1218750134
 21
6.7581094805
  0
LINE
  5
3F2
100
AcDbEntity
  8
0
100
AcDbLine
 62
7
  6
CONTINUOUS
 10
5.89
 20
6.8836414043
 11
6.3333333111
 21
6.8836414043
  0
LINE
  5
3F3
100
AcDbEntity
  8
0
100
AcDbLine
 62
7
  6
CONTINUOUS
 10
6.94
 20
6.8836414043
 11
7.3366666222
 21
6.8836414043
  0
LINE
  5
3F4
100
AcDbEntity
  8
0
100
AcDbLine
 62
7
  6
CONTINUOUS
 10
8.0133332443
 20
6.9134286348
 11
8.62
 21
6.9134286348
  0
LINE
  5
3F5
100
AcDbEntity
  8
0
100
AcDbLine
 62
7
  6
CONTINUOUS
 10
-8.840625
 20
6.7293860797
 11
-9.009375
 21
6.7581094805
  0
LINE
  5
3F6
100
AcDbEntity
  8
0
100
AcDbLine
 62
7
  6
CONTINUOUS
 10
-6.4500001073
 20
6.7293860797
 11
-6.6187501073
 21
6.7581094805
  0
LINE
  5
3F7
100
AcDbEntity
  8
0
100
AcDbLine
 62
7
  6
CONTINUOUS
 10
-6.6187501073
 20
6.6144924764
 11
-6.478125
 21
6.5857690756
  0
LINE
  5
3F8
100
AcDbEntity
  8
0
100
AcDbLine
 62
7
  6
CONTINUOUS
 10
2.185
 20
15.7439305886
 11
1.99375
 21
16.3311646327
  0
LINE
  5
3F9
100
AcDbEntity
  8
0
100
AcDbLine
 62
7
  6
CONTINUOUS
 10
1.86625
 20
16.280100809
 11
2.0362498379
 21
15.7439305886
  0
LINE
  5
3FA
100
AcDbEntity
  8
0
100
AcDbLine
 62
7
  6
CONTINUOUS
 10
1.2075000811
 20
15.7439305886
 11
0.8674999189
 21
16.9439305886
  0
LINE
  5
3FB
100
AcDbEntity
  8
0
100
AcDbLine
 62
7
  6
CONTINUOUS
 10
0.9949999189
 20
16.0503135666
 11
1.0800000811
 21
15.7439305886
  0
LINE
  5
3FC
100
AcDbEntity
  8
0
100
AcDbLine
 62
7
  6
CONTINUOUS
 10
0.7825
 20
16.8418029412
 11
0.97375
 21
16.152441214
  0
LINE
  5
3FD
100
AcDbEntity
  8
0
100
AcDbLine
 62
7
  6
CONTINUOUS
 10
2.0150001621
 20
16.7396752938
 11
2.0362498379
 21
16.6630795583
  0
LINE
  5
3FE
100
AcDbEntity
  8
0
100
AcDbLine
 62
7
  6
CONTINUOUS
 10
2.1637498379
 20
16.6630795583
 11
2.1425001621
 21
16.7396752938
  0
LINE
  5
3FF
100
AcDbEntity
  8
0
100
AcDbLine
 62
7
  6
CONTINUOUS
 10
7.5233333778
 20
7.3304499451
 11
7.5233333778
 21
7.2410881702
  0
LINE
  5
400
100
AcDbEntity
  8
0
100
AcDbLine
 62
7
  6
CONTINUOUS
 10
7.6633333778
 20
7.2113009397
 11
7.6633333778
 21
7.3304499451
  0
LINE
  5
401
100
AcDbEntity
  8
0
100
AcDbLine
 62
7
  6
CONTINUOUS
 10
7.8733333778
 20
7.6581094805
 11
7.8733333778
 21
6.2581094805
  0
LINE
  5
402
100
AcDbEntity
  8
0
100
AcDbLine
 62
7
  6
CONTINUOUS
 10
8.0133332443
 20
6.4368328844
 11
8.0133332443
 21
6.9134286348
  0
LINE
  5
403
100
AcDbEntity
  8
0
100
AcDbLine
 62
7
  6
CONTINUOUS
 10
8.0133332443
 20
7.0921520178
 11
8.0133332443
 21
7.4793860976
  0
LINE
  5
404
100
AcDbEntity
  8
0
100
AcDbLine
 62
7
  6
CONTINUOUS
 10
8.62
 20
6.9134286348
 11
8.62
 21
7.0921520178
  0
LINE
  5
405
100
AcDbEntity
  8
0
100
AcDbLine
 62
7
  6
CONTINUOUS
 10
8.7133332443
 20
6.2581094805
 11
8.7133332443
 21
6.4368328844
  0
LINE
  5
406
100
AcDbEntity
  8
0
100
AcDbLine
 62
7
  6
CONTINUOUS
 10
8.7133332443
 20
7.4793860976
 11
8.7133332443
 21
7.6581094805
  0
LINE
  5
407
100
AcDbEntity
  8
ASSI
100
AcDbLine
 62
7
  6
CONTINUOUS
 10
9.0
 20
-28.7418905195
 11
9.0
 21
-28.5418905195
  0
LINE
  5
408
100
AcDbEntity
  8
0
100
AcDbLine
 62
7
  6
CONTINUOUS
 10
9.46
 20
6.2581094805
 11
9.8333332443
 21
7.6581094805
  0
LINE
  5
409
100
AcDbEntity
  8
0
100
AcDbLine
 62
7
  6
CONTINUOUS
 10
9.6933332443
 20
7.6581094805
 11
9.3666667557
 21
6.4368328844
  0
LINE
  5
40A
100
AcDbEntity
  8
0
100
AcDbLine
 62
7
  6
CONTINUOUS
 10
-7.659375
 20
5.5804499056
 11
-7.7718750536
 21
5.5517265048
  0
LINE
  5
40B
100
AcDbEntity
  8
0
100
AcDbLine
 62
7
  6
CONTINUOUS
 10
-8.0531249464
 20
6.097471181
 11
-7.9406250536
 21
6.1261945818
  0
LINE
  5
40C
100
AcDbEntity
  8
0
100
AcDbLine
 62
7
  6
CONTINUOUS
 10
-7.9406250536
 20
6.2698115859
 11
-8.08125
 21
6.2410881851
  0
LINE
  5
40D
100
AcDbEntity
  8
0
100
AcDbLine
 62
7
  6
CONTINUOUS
 10
-6.7593748927
 20
6.5857690756
 11
-6.6187501073
 21
6.6144924764
  0
LINE
  5
40E
100
AcDbEntity
  8
0
100
AcDbLine
 62
7
  6
CONTINUOUS
 10
-9.2906249933
 20
6.5857690756
 11
-9.1499999866
 21
6.6144924764
  0
LINE
  5
40F
100
AcDbEntity
  8
0
100
AcDbLine
 62
7
  6
CONTINUOUS
 10
-6.6187501073
 20
6.7581094805
 11
-6.7875001073
 21
6.7293860797
  0
LINE
  5
410
100
AcDbEntity
  8
0
100
AcDbLine
 62
7
  6
CONTINUOUS
 10
-9.1218750134
 20
6.7581094805
 11
-9.3187500067
 21
6.7293860797
  0
LINE
  5
411
100
AcDbEntity
  8
0
100
AcDbLine
 62
7
  6
CONTINUOUS
 10
7.3833333778
 20
7.0623647873
 11
6.94
 21
7.0623647873
  0
LINE
  5
412
100
AcDbEntity
  8
0
100
AcDbLine
 62
7
  6
CONTINUOUS
 10
6.3333333111
 20
7.0623647873
 11
5.89
 21
7.0623647873
  0
LINE
  5
413
100
AcDbEntity
  8
0
100
AcDbLine
 62
7
  6
CONTINUOUS
 10
8.62
 20
7.0921520178
 11
8.0133332443
 21
7.0921520178
  0
LINE
  5
414
100
AcDbEntity
  8
0
100
AcDbLine
 62
7
  6
CONTINUOUS
 10
-9.7
 20
7.1581094805
 11
-6.2
 21
7.1581094805
  0
LINE
  5
415
100
AcDbEntity
  8
0
100
AcDbLine
 62
7
  6
CONTINUOUS
 10
-6.2
 20
7.3581094805
 11
-9.7
 21
7.3581094805
  0
LINE
  5
416
100
AcDbEntity
  8
0
100
AcDbLine
 62
7
  6
CONTINUOUS
 10
5.89
 20
7.4793860976
 11
6.3333333111
 21
7.4793860976
  0
LINE
  5
417
100
AcDbEntity
  8
0
100
AcDbLine
 62
7
  6
CONTINUOUS
 10
8.0133332443
 20
7.4793860976
 11
8.7133332443
 21
7.4793860976
  0
LINE
  5
418
100
AcDbEntity
  8
0
100
AcDbLine
 62
7
  6
CONTINUOUS
 10
6.94
 20
7.5091733281
 11
7.3833333778
 21
7.5091733281
  0
LINE
  5
419
100
AcDbEntity
  8
0
100
AcDbLine
 62
7
  6
CONTINUOUS
 10
9.8333332443
 20
7.6581094805
 11
9.6933332443
 21
7.6581094805
  0
LINE
  5
41A
100
AcDbEntity
  8
0
100
AcDbLine
 62
7
  6
CONTINUOUS
 10
9.04
 20
7.6581094805
 11
8.9
 21
7.6581094805
  0
LINE
  5
41B
100
AcDbEntity
  8
0
100
AcDbLine
 62
7
  6
CONTINUOUS
 10
8.7133332443
 20
7.6581094805
 11
7.8733333778
 21
7.6581094805
  0
LINE
  5
41C
100
AcDbEntity
  8
0
100
AcDbLine
 62
7
  6
CONTINUOUS
 10
7.36
 20
7.6581094805
 11
6.8
 21
7.6581094805
  0
LINE
  5
41D
100
AcDbEntity
  8
0
100
AcDbLine
 62
7
  6
CONTINUOUS
 10
6.31
 20
7.6581094805
 11
5.75
 21
7.6581094805
  0
LINE
  5
41E
100
AcDbEntity
  8
0
100
AcDbLine
 62
7
  6
CONTINUOUS
 10
-8.38
 20
7.7581094805
 11
-7.46875
 21
7.7581094805
  0
LINE
  5
41F
100
AcDbEntity
  8
0
100
AcDbLine
 62
7
  6
CONTINUOUS
 10
-7.46875
 20
7.9017265048
 11
-8.177499994
 21
7.9017265048
  0
LINE
  5
420
100
AcDbEntity
  8
ASSI
100
AcDbLine
 62
7
  6
CONTINUOUS
 10
1.637055
 20
8.7131094805
 11
3.097556
 21
8.7131094805
  0
LINE
  5
421
100
AcDbEntity
  8
0
100
AcDbLine
 62
7
  6
CONTINUOUS
 10
-8.3546874992
 20
8.7921520714
 11
-8.228125
 21
8.7921520714
  0
LINE
  5
422
100
AcDbEntity
  8
0
100
AcDbLine
 62
7
  6
CONTINUOUS
 10
-7.9749999879
 20
8.9644924764
 11
-7.8737500121
 21
8.9644924764
  0
LINE
  5
423
100
AcDbEntity
  8
0
100
AcDbLine
 62
7
  6
CONTINUOUS
 10
-7.8484375
 20
9.1081094805
 11
-7.9496875121
 21
9.1081094805
  0
LINE
  5
424
100
AcDbEntity
  8
0
100
AcDbLine
 62
7
  6
CONTINUOUS
 10
-7.6965625
 20
9.0793860797
 11
-7.8484375
 21
9.1081094805
  0
LINE
  5
425
100
AcDbEntity
  8
0
100
AcDbLine
 62
7
  6
CONTINUOUS
 10
-7.8737500121
 20
8.9644924764
 11
-7.7471875241
 21
8.9357690756
  0
LINE
  5
426
100
AcDbEntity
  8
0
100
AcDbLine
 62
7
  6
CONTINUOUS
 10
6.4266666889
 20
7.6283222501
 11
6.31
 21
7.6581094805
  0
LINE
  5
427
100
AcDbEntity
  8
0
100
AcDbLine
 62
7
  6
CONTINUOUS
 10
6.3333333111
 20
6.8836414043
 11
6.4033333111
 21
6.8538541738
  0
LINE
  5
428
100
AcDbEntity
  8
0
100
AcDbLine
 62
7
  6
CONTINUOUS
 10
6.59
 20
6.8240669433
 11
6.52
 21
6.9432158653
  0
LINE
  5
429
100
AcDbEntity
  8
0
100
AcDbLine
 62
7
  6
CONTINUOUS
 10
7.6866666222
 20
6.2581094805
 11
7.4766666222
 21
6.9432158653
  0
LINE
  5
42A
100
AcDbEntity
  8
0
100
AcDbLine
 62
7
  6
CONTINUOUS
 10
7.3366666222
 20
6.8836414043
 11
7.5233333778
 21
6.2581094805
  0
LINE
  5
42B
100
AcDbEntity
  8
0
100
AcDbLine
 62
7
  6
CONTINUOUS
 10
6.45
 20
6.7942797128
 11
6.4733333111
 21
6.7049179796
  0
LINE
  5
42C
100
AcDbEntity
  8
0
100
AcDbLine
 62
7
  6
CONTINUOUS
 10
6.6133333111
 20
6.7347052101
 11
6.59
 21
6.8240669433
  0
LINE
  5
42D
100
AcDbEntity
  8
0
100
AcDbLine
 62
7
  6
CONTINUOUS
 10
6.45
 20
7.3900244061
 11
6.4733333111
 21
7.3006626312
  0
LINE
  5
42E
100
AcDbEntity
  8
0
100
AcDbLine
 62
7
  6
CONTINUOUS
 10
6.6133333111
 20
7.3304499451
 11
6.59
 21
7.4198116366
  0
LINE
  5
42F
100
AcDbEntity
  8
0
100
AcDbLine
 62
7
  6
CONTINUOUS
 10
7.5
 20
7.4198116366
 11
7.5233333778
 21
7.3304499451
  0
LINE
  5
430
100
AcDbEntity
  8
0
100
AcDbLine
 62
7
  6
CONTINUOUS
 10
10.02
 20
6.4070456539
 11
10.02
 21
6.2581094805
  0
LINE
  5
431
100
AcDbEntity
  8
0
100
AcDbLine
 62
7
  6
CONTINUOUS
 10
10.1366667557
 20
6.2581094805
 11
10.1366667557
 21
6.4070456539
  0
LINE
  5
432
100
AcDbEntity
  8
0
100
AcDbLine
 62
7
  6
CONTINUOUS
 10
10.25
 20
-28.7418905195
 11
10.25
 21
-28.5418905195
  0
LWPOLYLINE
  5
433
100
AcDbEntity
  8
0
100
AcDbPolyline
 62
7
  6
CONTINUOUS
 90
6
 70
0
 10
-4.2223770868
 20
-17.2703185737
 10
-4.2639452398
 20
-17.3101315441
 10
-4.2977791548
 20
-17.3577707259
 10
-4.3235712409
 20
-17.4070199331
 10
-4.3412189682
 20
-17.4558071033
 10
-4.3508248667
 20
-17.5062042988
  0
LWPOLYLINE
  5
434
100
AcDbEntity
  8
0
100
AcDbPolyline
 62
7
  6
CONTINUOUS
 90
16
 70
0
 10
-3.7608491429
 20
-17.7209307924
 10
-3.7153350905
 20
-17.6776041023
 10
-3.6830058976
 20
-17.6283388632
 10
-3.6638615642
 20
-17.573135075
 10
-3.6571744718
 20
-17.507975192
 10
-3.6636722389
 20
-17.43687676
 10
-3.6855377209
 20
-17.3718924164
 10
-3.7269149639
 20
-17.3144632024
 10
-3.7836599218
 20
-17.2631480768
 10
-3.8455233116
 20
-17.2256765542
 10
-3.9121003748
 20
-17.2059845295
 10
-3.9837958699
 20
-17.2001361079
 10
-4.0515747893
 20
-17.2040531185
 10
-4.1136980183
 20
-17.2170225782
 10
-4.1719046716
 20
-17.2397574702
 10
-4.2223770868
 20
-17.2703185737
  0
LINE
  5
435
100
AcDbEntity
  8
0
100
AcDbLine
 62
7
  6
CONTINUOUS
 10
-8.101562494
 20
8.9357690756
 11
-7.9749999879
 21
8.9644924764
  0
LINE
  5
436
100
AcDbEntity
  8
0
100
AcDbLine
 62
7
  6
CONTINUOUS
 10
-7.9496875121
 20
9.1081094805
 11
-8.126875006
 21
9.0793860797
  0
LINE
  5
437
100
AcDbEntity
  8
ASSI
100
AcDbLine
 62
7
  6
CONTINUOUS
 10
3.097556
 20
9.4631094805
 11
1.6370520275
 21
9.4631094805
  0
LINE
  5
438
100
AcDbEntity
  8
0
100
AcDbLine
 62
7
  6
CONTINUOUS
 10
7.4766666222
 20
7.6283222501
 11
7.36
 21
7.6581094805
  0
LINE
  5
439
100
AcDbEntity
  8
0
100
AcDbLine
 62
7
  6
CONTINUOUS
 10
6.3333333111
 20
7.4793860976
 11
6.4033333111
 21
7.4495988671
  0
LINE
  5
43A
100
AcDbEntity
  8
0
100
AcDbLine
 62
7
  6
CONTINUOUS
 10
7.3833333778
 20
7.5091733281
 11
7.4533333778
 21
7.4793860976
  0
LINE
  5
43B
100
AcDbEntity
  8
0
100
AcDbLine
 62
7
  6
CONTINUOUS
 10
6.52
 20
6.9432158653
 11
6.4733333111
 21
6.9730030958
  0
LINE
  5
43C
100
AcDbEntity
  8
0
100
AcDbLine
 62
7
  6
CONTINUOUS
 10
6.52
 20
7.5389605586
 11
6.4266666889
 21
7.6283222501
  0
LINE
  5
43D
100
AcDbEntity
  8
0
100
AcDbLine
 62
7
  6
CONTINUOUS
 10
7.57
 20
7.5389605586
 11
7.4766666222
 21
7.6283222501
  0
LINE
  5
43E
100
AcDbEntity
  8
0
100
AcDbLine
 62
7
  6
CONTINUOUS
 10
6.4033333111
 20
6.8538541738
 11
6.45
 21
6.7942797128
  0
LINE
  5
43F
100
AcDbEntity
  8
0
100
AcDbLine
 62
7
  6
CONTINUOUS
 10
6.4033333111
 20
7.4495988671
 11
6.45
 21
7.3900244061
  0
LINE
  5
440
100
AcDbEntity
  8
0
100
AcDbLine
 62
7
  6
CONTINUOUS
 10
7.4533333778
 20
7.4793860976
 11
7.5
 21
7.4198116366
  0
LINE
  5
441
100
AcDbEntity
  8
0
100
AcDbLine
 62
7
  6
CONTINUOUS
 10
2.1425001621
 20
16.7396752938
 11
2.0787501621
 21
16.8418029412
  0
LINE
  5
442
100
AcDbEntity
  8
0
100
AcDbLine
 62
7
  6
CONTINUOUS
 10
6.59
 20
7.4198116366
 11
6.52
 21
7.5389605586
  0
LINE
  5
443
100
AcDbEntity
  8
0
100
AcDbLine
 62
7
  6
CONTINUOUS
 10
7.64
 20
7.4198116366
 11
7.57
 21
7.5389605586
  0
LINE
  5
444
100
AcDbEntity
  8
0
100
AcDbLine
 62
7
  6
CONTINUOUS
 10
9.3666667557
 20
6.4368328844
 11
9.04
 21
7.6581094805
  0
LINE
  5
445
100
AcDbEntity
  8
0
100
AcDbLine
 62
7
  6
CONTINUOUS
 10
8.9
 20
7.6581094805
 11
9.2733332443
 21
6.2581094805
  0
LINE
  5
446
100
AcDbEntity
  8
0
100
AcDbLine
 62
7
  6
CONTINUOUS
 10
7.6633333778
 20
7.3304499451
 11
7.64
 21
7.4198116366
  0
LINE
  5
447
100
AcDbEntity
  8
RACCORDO
100
AcDbLine
 62
253
  6
CONTINUOUS
 10
12.2931904121
 20
-12.5418905195
 11
12.2931904121
 21
16.2581094805
  0
LINE
  5
448
100
AcDbEntity
  8
RACCORDO
100
AcDbLine
 62
253
  6
CONTINUOUS
 10
12.2963320335
 20
-12.5418905195
 11
12.2963320335
 21
-13.7466029515
  0
LINE
  5
449
100
AcDbEntity
  8
RACCORDO
100
AcDbLine
 62
7
  6
CONTINUOUS
 10
12.4931876706
 20
-12.3418905195
 11
12.4931876706
 21
16.2581094805
  0
LINE
  5
44A
100
AcDbEntity
  8
RACCORDO
100
AcDbLine
 62
7
  6
CONTINUOUS
 10
12.4963292919
 20
-12.3418905195
 11
12.4963292919
 21
-13.7455612275
  0
LWPOLYLINE
  5
44B
100
AcDbEntity
  8
RACCORDO
100
AcDbPolyline
 62
7
  6
CONTINUOUS
 90
8
 70
0
 10
12.4963292919
 20
-12.3418905195
 10
12.4941119879
 20
-12.372070033
 10
12.4874563466
 20
-12.4010492719
 10
12.4759905283
 20
-12.4288282359
 10
12.4597098662
 20
-12.4564589893
 10
12.4384208213
 20
-12.4828894679
 10
12.4112661083
 20
-12.5049634794
 10
12.3990643968
 20
-12.5110614692
  0
LWPOLYLINE
  5
44C
100
AcDbEntity
  8
RACCORDO
100
AcDbPolyline
 62
7
  6
CONTINUOUS
 90
10
 70
0
 10
12.4931876706
 20
-12.3418905195
 10
12.4903644483
 20
-12.3753768387
 10
12.4818369045
 20
-12.4083098332
 10
12.4676485349
 20
-12.4396838166
 10
12.4479418888
 20
-12.468584339
 10
12.423185896
 20
-12.4938796995
 10
12.394345522
 20
-12.5144227287
 10
12.3624453118
 20
-12.5295168166
 10
12.3283737053
 20
-12.5387714529
 10
12.2931904121
 20
-12.5418905195
  0
LWPOLYLINE
  5
44D
100
AcDbEntity
  8
0
100
AcDbPolyline
 62
7
  6
CONTINUOUS
 90
10
 70
0
 10
-4.0736146996
 20
-17.4645182321
 10
-4.04623656
 20
-17.4497248831
 10
-4.0137385069
 20
-17.4430023995
 10
-3.9835571467
 20
-17.4434627348
 10
-3.9566928013
 20
-17.4516330867
 10
-3.9321451488
 20
-17.4669862574
 10
-3.9143498294
 20
-17.4870526062
 10
-3.9046647978
 20
-17.5133401132
 10
-3.9017320994
 20
-17.5443407983
 10
-3.9059135099
 20
-17.5730610808
  0
LINE
  5
44E
100
AcDbEntity
  8
0
100
AcDbLine
 62
7
  6
CONTINUOUS
 10
1.9724998379
 20
16.7907391175
 11
2.0150001621
 21
16.7396752938
  0
LINE
  5
44F
100
AcDbEntity
  8
RACCORDO
100
AcDbLine
 62
253
  6
CONTINUOUS
 10
14.49322194
 20
-13.7487028489
 11
14.49322194
 21
-13.9487001074
  0
LWPOLYLINE
  5
450
100
AcDbEntity
  8
0
100
AcDbPolyline
 62
7
  6
CONTINUOUS
 90
28
 70
0
 10
-5.270174545
 20
-19.1077000844
 10
-5.2992672629
 20
-19.1194659357
 10
-5.3341700601
 20
-19.1249288624
 10
-5.3705076542
 20
-19.1263855231
 10
-5.4070599472
 20
-19.1243650378
 10
-5.445047037
 20
-19.1183382864
 10
-5.4837539353
 20
-19.1090145668
 10
-5.5229875332
 20
-19.096551063
 10
-5.5629409396
 20
-19.080790591
 10
-5.6034784929
 20
-19.0619708963
 10
-5.6445268277
 20
-19.0401699633
 10
-5.6861593094
 20
-19.0153098076
 10
-5.7284603731
 20
-18.9873942209
 10
-5.7720133586
 20
-18.9559137248
 10
-5.8162349261
 20
-18.9213777977
 10
-5.8594594902
 20
-18.8853186667
 10
-5.9014753045
 20
-18.8476883143
 10
-5.9424941155
 20
-18.8085347579
 10
-5.9814855775
 20
-18.7695342773
 10
-6.0180047492
 20
-18.7311838916
 10
-6.052496572
 20
-18.6929865817
 10
-6.0852655241
 20
-18.6551275695
 10
-6.1163149782
 20
-18.6176189742
 10
-6.1456415616
 20
-18.5804486765
 10
-6.1735396352
 20
-18.5437655411
 10
-6.2002711862
 20
-18.507709971
 10
-6.2255742274
 20
-18.4721415632
 10
-6.2489571573
 20
-18.4367879724
  0
LINE
  5
451
100
AcDbEntity
  8
0
100
AcDbLine
 62
7
  6
CONTINUOUS
 10
-1.8099999899
 20
15.7439305886
 11
-1.64
 21
15.7439305886
  0
LINE
  5
452
100
AcDbEntity
  8
0
100
AcDbLine
 62
7
  6
CONTINUOUS
 10
-1.13
 20
15.7439305886
 11
-1.0025
 21
15.7439305886
  0
LINE
  5
453
100
AcDbEntity
  8
0
100
AcDbLine
 62
7
  6
CONTINUOUS
 10
-0.8325000405
 20
15.7439305886
 11
-0.7050000405
 21
15.7439305886
  0
LINE
  5
454
100
AcDbEntity
  8
0
100
AcDbLine
 62
7
  6
CONTINUOUS
 10
0.3574999189
 20
15.7439305886
 11
0.4849999189
 21
15.7439305886
  0
LINE
  5
455
100
AcDbEntity
  8
0
100
AcDbLine
 62
7
  6
CONTINUOUS
 10
0.0600000811
 20
15.7439305886
 11
0.1875000811
 21
15.7439305886
  0
LINE
  5
456
100
AcDbEntity
  8
0
100
AcDbLine
 62
7
  6
CONTINUOUS
 10
-0.4074999595
 20
15.7439305886
 11
-0.2375
 21
15.7439305886
  0
LINE
  5
457
100
AcDbEntity
  8
0
100
AcDbLine
 62
7
  6
CONTINUOUS
 10
1.0800000811
 20
15.7439305886
 11
1.2075000811
 21
15.7439305886
  0
LINE
  5
458
100
AcDbEntity
  8
0
100
AcDbLine
 62
7
  6
CONTINUOUS
 10
1.3774999189
 20
15.7439305886
 11
1.5049999189
 21
15.7439305886
  0
LINE
  5
459
100
AcDbEntity
  8
0
100
AcDbLine
 62
7
  6
CONTINUOUS
 10
2.0362498379
 20
15.7439305886
 11
2.185
 21
15.7439305886
  0
LINE
  5
45A
100
AcDbEntity
  8
0
100
AcDbLine
 62
7
  6
CONTINUOUS
 10
2.0787501621
 20
16.8418029412
 11
1.99375
 21
16.9183986768
  0
LINE
  5
45B
100
AcDbEntity
  8
RACCORDO
100
AcDbLine
 62
253
  6
CONTINUOUS
 10
16.6931917829
 20
-28.53507819
 11
16.6931917829
 21
-28.3350809316
  0
LINE
  5
45C
100
AcDbEntity
  8
RACCORDO
100
AcDbLine
 62
253
  6
CONTINUOUS
 10
16.7931904121
 20
-16.2486685795
 11
16.7931904121
 21
-28.2350823024
  0
LINE
  5
45D
100
AcDbEntity
  8
RACCORDO
100
AcDbLine
 62
7
  6
CONTINUOUS
 10
16.9931876706
 20
-16.2486685795
 11
16.9931876706
 21
-28.2350823024
  0
LINE
  5
45E
100
AcDbEntity
  8
RACCORDO
100
AcDbLine
 62
7
  6
CONTINUOUS
 10
17.0
 20
-28.7418905195
 11
17.0
 21
-28.2418946318
  0
LWPOLYLINE
  5
45F
100
AcDbEntity
  8
RACCORDO
100
AcDbPolyline
 62
253
  6
CONTINUOUS
 90
16
 70
0
 10
16.7931904121
 20
-28.2350823024
 10
16.7929330305
 20
-28.2436010107
 10
16.7918134336
 20
-28.2521672834
 10
16.7898316216
 20
-28.2607811203
 10
16.7870335561
 20
-28.2695437813
 10
16.7833732755
 20
-28.2783540065
 10
16.7787128947
 20
-28.2869080168
 10
16.7730089685
 20
-28.2952510557
 10
16.7663049422
 20
-28.3033378798
 10
16.7585932662
 20
-28.3107289794
 10
16.7497957088
 20
-28.3174447188
 10
16.7399905019
 20
-28.3234647337
 10
16.7294047912
 20
-28.3282884226
 10
16.7181142921
 20
-28.3317489183
 10
16.7060432894
 20
-28.334013088
 10
16.6931917829
 20
-28.3350809316
  0
LINE
  5
460
100
AcDbEntity
  8
0
100
AcDbLine
 62
7
  6
CONTINUOUS
 10
0.5700000811
 20
16.0503135666
 11
0.9949999189
 21
16.0503135666
  0
LINE
  5
461
100
AcDbEntity
  8
0
100
AcDbLine
 62
7
  6
CONTINUOUS
 10
0.97375
 20
16.152441214
 11
0.59125
 21
16.152441214
  0
LINE
  5
462
100
AcDbEntity
  8
RACCORDO
100
AcDbLine
 62
253
  6
CONTINUOUS
 10
-12.2931904121
 20
16.2581094805
 11
-12.4931876706
 21
16.2581094805
  0
LINE
  5
463
100
AcDbEntity
  8
RACCORDO
100
AcDbLine
 62
253
  6
CONTINUOUS
 10
12.2931904121
 20
16.2581094805
 11
12.4931876706
 21
16.2581094241
  0
LINE
  5
464
100
AcDbEntity
  8
0
100
AcDbLine
 62
7
  6
CONTINUOUS
 10
1.5049999189
 20
16.280100809
 11
1.86625
 21
16.280100809
  0
LINE
  5
465
100
AcDbEntity
  8
0
100
AcDbLine
 62
7
  6
CONTINUOUS
 10
1.9087500811
 20
16.4332922801
 11
1.5049999189
 21
16.4332922801
  0
LINE
  5
466
100
AcDbEntity
  8
0
100
AcDbLine
 62
7
  6
CONTINUOUS
 10
1.5049999189
 20
16.8162710294
 11
1.9087500811
 21
16.8162710294
  0
LINE
  5
467
100
AcDbEntity
  8
0
100
AcDbLine
 62
7
  6
CONTINUOUS
 10
1.8874999189
 20
16.9439305886
 11
1.3774999189
 21
16.9439305886
  0
LINE
  5
468
100
AcDbEntity
  8
0
100
AcDbLine
 62
7
  6
CONTINUOUS
 10
0.8674999189
 20
16.9439305886
 11
0.6975000811
 21
16.9439305886
  0
LINE
  5
469
100
AcDbEntity
  8
0
100
AcDbLine
 62
7
  6
CONTINUOUS
 10
0.1875000811
 20
16.9439305886
 11
-0.0037499189
 21
16.9439305886
  0
LINE
  5
46A
100
AcDbEntity
  8
0
100
AcDbLine
 62
7
  6
CONTINUOUS
 10
-0.6412500405
 20
16.9439305886
 11
-0.8325000405
 21
16.9439305886
  0
LINE
  5
46B
100
AcDbEntity
  8
0
100
AcDbLine
 62
7
  6
CONTINUOUS
 10
-1.0025
 20
16.9439305886
 11
-1.13
 21
16.9439305886
  0
LINE
  5
46C
100
AcDbEntity
  8
0
100
AcDbLine
 62
7
  6
CONTINUOUS
 10
-1.3000000203
 20
16.9439305886
 11
-1.4275000203
 21
16.9439305886
  0
LINE
  5
46D
100
AcDbEntity
  8
0
100
AcDbLine
 62
7
  6
CONTINUOUS
 10
-2.0225
 20
16.9439305886
 11
-2.15
 21
16.9439305886
  0
LINE
  5
46E
100
AcDbEntity
  8
0
100
AcDbLine
 62
7
  6
CONTINUOUS
 10
1.99375
 20
16.9183986768
 11
1.8874999189
 21
16.9439305886
  0
LINE
  5
46F
100
AcDbEntity
  8
0
100
AcDbLine
 62
7
  6
CONTINUOUS
 10
1.9087500811
 20
16.8162710294
 11
1.9724998379
 21
16.7907391175
  0
LWPOLYLINE
  5
470
100
AcDbEntity
  8
RACCORDO
100
AcDbPolyline
 62
253
  6
CONTINUOUS
 90
16
 70
0
 10
16.9931876706
 20
-28.2350823024
 10
16.9921292659
 20
-28.2602546701
 10
16.9888252326
 20
-28.2860515908
 10
16.9830910411
 20
-28.3122520874
 10
16.974773251
 20
-28.3385637468
 10
16.9637222664
 20
-28.3647341475
 10
16.9497650561
 20
-28.3905375849
 10
16.9327819457
 20
-28.4156166093
 10
16.9127242625
 20
-28.4395365119
 10
16.889554381
 20
-28.4618812736
 10
16.8633198963
 20
-28.482170433
 10
16.8341473496
 20
-28.499898837
 10
16.8022110176
 20
-28.5145662826
 10
16.7677914095
 20
-28.5256535881
 10
16.7312880799
 20
-28.5326487657
 10
16.6931917829
 20
-28.53507819
  0
LINE
  5
471
100
AcDbEntity
  8
RACCORDO
100
AcDbLine
 62
253
  6
CONTINUOUS
 10
9.0744434153
 20
24.5512998927
 11
-9.0744434153
 21
24.5512998927
  0
LINE
  5
472
100
AcDbEntity
  8
RACCORDO
100
AcDbLine
 62
7
  6
CONTINUOUS
 10
9.1621777632
 20
24.7512971511
 11
-9.1621777632
 21
24.7512971511
  0
LINE
  5
473
100
AcDbEntity
  8
0
100
AcDbLine
 62
7
  6
CONTINUOUS
 10
-8.6746757864
 20
25.2581094805
 11
8.6746757864
 21
25.2581094805
  0
CIRCLE
  5
474
100
AcDbEntity
  8
ASSI
100
AcDbCircle
 62
7
  6
CONTINUOUS
 10
-13.0
 20
-24.5418905195
 40
2.5
  0
ARC
  5
475
100
AcDbEntity
  8
RACCORDO
100
AcDbCircle
 62
7
  6
CONTINUOUS
 10
-14.5
 20
-16.2418905195
 40
2.5
100
AcDbArc
 50
93.7765854973
 51
180.0
  0
CIRCLE
  5
476
100
AcDbEntity
  8
ASSI
100
AcDbCircle
 62
7
  6
CONTINUOUS
 10
-6.0
 20
-17.7418905195
 40
2.5
  0
CIRCLE
  5
477
100
AcDbEntity
  8
ASSI
100
AcDbCircle
 62
7
  6
CONTINUOUS
 10
-7.94
 20
-5.5418905195
 40
2.5
  0
ARC
  5
478
100
AcDbEntity
  8
ASSI
100
AcDbCircle
 62
7
  6
CONTINUOUS
 10
-0.987554
 20
9.0881094805
 40
2.5499985399
100
AcDbArc
 50
87.7525290943
 51
272.2474708775
  0
CIRCLE
  5
479
100
AcDbEntity
  8
ASSI
100
AcDbCircle
 62
7
  6
CONTINUOUS
 10
-7.94
 20
6.9581094805
 40
2.5
  0
ARC
  5
47A
100
AcDbEntity
  8
ASSI
100
AcDbCircle
 62
7
  6
CONTINUOUS
 10
-0.987554
 20
9.0881094805
 40
1.7999999246
100
AcDbArc
 50
86.8152613297
 51
273.1847386165
  0
CIRCLE
  5
47B
100
AcDbEntity
  8
ASSI
100
AcDbCircle
 62
7
  6
CONTINUOUS
 10
7.94
 20
-5.5418905195
 40
2.5
  0
CIRCLE
  5
47C
100
AcDbEntity
  8
ASSI
100
AcDbCircle
 62
7
  6
CONTINUOUS
 10
6.0
 20
-17.7418905195
 40
2.5
  0
CIRCLE
  5
47D
100
AcDbEntity
  8
ASSI
100
AcDbCircle
 62
7
  6
CONTINUOUS
 10
13.0
 20
-24.5418905195
 40
2.5
  0
CIRCLE
  5
47E
100
AcDbEntity
  8
ASSI
100
AcDbCircle
 62
7
  6
CONTINUOUS
 10
0.0
 20
-24.5418905195
 40
2.5
  0
ARC
  5
47F
100
AcDbEntity
  8
RACCORDO
100
AcDbCircle
 62
7
  6
CONTINUOUS
 10
14.5
 20
-16.2418905195
 40
2.5
100
AcDbArc
 50
3.7765854973
 51
90.0
  0
CIRCLE
  5
480
100
AcDbEntity
  8
0
100
AcDbCircle
 62
7
  6
CONTINUOUS
 10
0.0
 20
-0.7418905195
 40
2.75
  0
CIRCLE
  5
481
100
AcDbEntity
  8
0
100
AcDbCircle
 62
7
  6
CONTINUOUS
 10
0.0
 20
-0.7418905195
 40
1.65
  0
CIRCLE
  5
482
100
AcDbEntity
  8
0
100
AcDbCircle
 62
7
  6
CONTINUOUS
 10
0.0
 20
-0.7418905195
 40
1.5
  0
CIRCLE
  5
483
100
AcDbEntity
  8
0
100
AcDbCircle
 62
7
  6
CONTINUOUS
 10
0.0
 20
-0.7418905195
 40
1.3
  0
CIRCLE
  5
484
100
AcDbEntity
  8
0
100
AcDbCircle
 62
7
  6
CONTINUOUS
 10
0.0
 20
-0.7418905195
 40
1.0
  0
ARC
  5
485
100
AcDbEntity
  8
DRAFT
100
AcDbCircle
 62
7
  6
CONTINUOUS
 10
0.0
 20
16.2581094805
 40
12.5
100
AcDbArc
 50
137.1563569564
 51
180.0
  0
ARC
  5
486
100
AcDbEntity
  8
DRAFT
100
AcDbCircle
 62
7
  6
CONTINUOUS
 10
0.0
 20
16.2581094805
 40
12.5
100
AcDbArc
 50
0.0
 51
42.8436430436
  0
ARC
  5
487
100
AcDbEntity
  8
0
100
AcDbCircle
 62
7
  6
CONTINUOUS
 10
0.0
 20
16.2581094805
 40
12.5
100
AcDbArc
 50
139.0688653204
 51
180.0
  0
ARC
  5
488
100
AcDbEntity
  8
0
100
AcDbCircle
 62
7
  6
CONTINUOUS
 10
0.0
 20
16.2581094805
 40
12.5
100
AcDbArc
 50
0.0
 51
9.2939135799
  0
ARC
  5
489
100
AcDbEntity
  8
0
100
AcDbCircle
 62
7
  6
CONTINUOUS
 10
0.0
 20
16.2581094805
 40
12.5
100
AcDbArc
 50
42.853124701
 51
137.146875299
  0
ARC
  5
48A
100
AcDbEntity
  8
RACCORDO
100
AcDbCircle
 62
7
  6
CONTINUOUS
 10
0.0
 20
16.2581094805
 40
12.4931876706
100
AcDbArc
 50
137.1699907729
 51
180.0
  0
ARC
  5
48B
100
AcDbEntity
  8
RACCORDO
100
AcDbCircle
 62
7
  6
CONTINUOUS
 10
0.0
 20
16.2581094805
 40
12.4931876706
100
AcDbArc
 50
0.0
 51
42.8300092271
  0
ARC
  5
48C
100
AcDbEntity
  8
RACCORDO
100
AcDbCircle
 62
253
  6
CONTINUOUS
 10
0.0
 20
16.2581094805
 40
12.2931904121
100
AcDbArc
 50
0.0
 51
42.4243846553
  0
ARC
  5
48D
100
AcDbEntity
  8
RACCORDO
100
AcDbCircle
 62
253
  6
CONTINUOUS
 10
0.0
 20
16.2581094805
 40
12.2931904121
100
AcDbArc
 50
137.5756153447
 51
180.0
  0
ARC
  5
48E
100
AcDbEntity
  8
0
100
AcDbCircle
 62
7
  6
CONTINUOUS
 10
0.0
 20
16.2581094805
 40
10.5
100
AcDbArc
 50
121.0027191339
 51
125.9252001558
  0
ARC
  5
48F
100
AcDbEntity
  8
0
100
AcDbCircle
 62
7
  6
CONTINUOUS
 10
0.0
 20
16.2581094805
 40
10.5
100
AcDbArc
 50
54.0747998442
 51
58.9972808661
  0
ARC
  5
490
100
AcDbEntity
  8
0
100
AcDbCircle
 62
7
  6
CONTINUOUS
 10
0.0
 20
16.2581094805
 40
9.0
100
AcDbArc
 50
70.8619918413
 51
77.8125258646
  0
ARC
  5
491
100
AcDbEntity
  8
0
100
AcDbCircle
 62
7
  6
CONTINUOUS
 10
0.0
 20
16.2581094805
 40
9.0
100
AcDbArc
 50
102.1874741354
 51
109.1380081587
  0
ARC
  5
492
100
AcDbEntity
  8
ASSI
100
AcDbCircle
 62
7
  6
CONTINUOUS
 10
3.397556
 20
9.0881094805
 40
2.5499986575
100
AcDbArc
 50
87.7525284778
 51
272.2474707748
  0
CIRCLE
  5
493
100
AcDbEntity
  8
ASSI
100
AcDbCircle
 62
7
  6
CONTINUOUS
 10
0.0
 20
16.2581094805
 40
2.5
  0
ARC
  5
494
100
AcDbEntity
  8
ASSI
100
AcDbCircle
 62
7
  6
CONTINUOUS
 10
3.397556
 20
9.0881094805
 40
1.7999999246
100
AcDbArc
 50
86.8152613297
 51
167.9752993829
  0
ARC
  5
495
100
AcDbEntity
  8
ASSI
100
AcDbCircle
 62
7
  6
CONTINUOUS
 10
3.397556
 20
9.0881094805
 40
1.7999968808
100
AcDbArc
 50
192.0247203293
 51
273.184745226
  0
CIRCLE
  5
496
100
AcDbEntity
  8
ASSI
100
AcDbCircle
 62
7
  6
CONTINUOUS
 10
7.94
 20
6.9581094805
 40
2.5
  0
ELLIPSE
  5
497
100
AcDbEntity
  8
RACCORDO
100
AcDbEllipse
 62
7
  6
CONTINUOUS
 10
-14.4999657301
 20
-16.2419247893
 30
0.0
 11
1.7678154175
 21
-1.7678154175
 31
0.0
 40
0.9999725851
 41
2.3562081979
 42
3.9269771093
  0
ELLIPSE
  5
498
100
AcDbEntity
  8
RACCORDO
100
AcDbEllipse
 62
7
  6
CONTINUOUS
 10
-16.6999958876
 20
-28.2418864071
 30
0.0
 11
0.2121378501
 21
0.2121378501
 31
0.0
 40
0.9999725851
 41
-3.9269771093
 42
-2.3562081979
  0
ELLIPSE
  5
499
100
AcDbEntity
  8
RACCORDO
100
AcDbEllipse
 62
7
  6
CONTINUOUS
 10
16.6999958876
 20
-28.2418864071
 30
0.0
 11
-0.2121378501
 21
0.2121378501
 31
0.0
 40
0.9999725851
 41
-2.8797989603
 42
-2.3562081979
  0
ELLIPSE
  5
49A
100
AcDbEntity
  8
RACCORDO
100
AcDbEllipse
 62
7
  6
CONTINUOUS
 10
16.6999958876
 20
-28.2418864071
 30
0.0
 11
0.2121378501
 21
-0.2121378501
 31
0.0
 40
0.9999725851
 41
-0.7853844557
 42
0.2617936933
  0
ELLIPSE
  5
49B
100
AcDbEntity
  8
RACCORDO
100
AcDbEllipse
 62
7
  6
CONTINUOUS
 10
14.4999657301
 20
-16.2419247893
 30
0.0
 11
1.7678154175
 21
1.7678154175
 31
0.0
 40
0.9999725851
 41
-0.7853844557
 42
0.7853844557
  0
ENDSEC
  0
SECTION
  2
OBJECTS
  0
DICTIONARY
  5
C
100
AcDbDictionary
280
0
281
1
  3
ACAD_GROUP
350
D
  3
ACAD_MLINESTYLE
350
17
  3
ACAD_LAYOUT
350
1A
  3
ACAD_PLOTSETTINGS
350
19
  3
ACAD_PLOTSTYLENAME
350
E
  0
DICTIONARY
  5
D
102
{ACAD_REACTORS
330
C
102
}
100
AcDbDictionary
280
0
281
1
  0
ACDBDICTIONARYWDFLT
  5
E
102
{ACAD_REACTORS
330
C
102
}
100
AcDbDictionary
281
1
  3
Normal
350
F
100
AcDbDictionaryWithDefault
340
F
  0
DICTIONARY
  5
17
102
{ACAD_REACTORS
330
C
102
}
100
AcDbDictionary
280
0
281
1
  3
Standard
350
18
  0
DICTIONARY
  5
19
102
{ACAD_REACTORS
330
C
102
}
100
AcDbDictionary
281
1
  0
DICTIONARY
  5
1A
102
{ACAD_REACTORS
330
C
102
}
100
AcDbDictionary
281
1
  3
Model
350
49C
  3
Layout1
350
49D
  0
ACDBPLACEHOLDER
  5
F
102
{ACAD_REACTORS
330
E
102
}
  0
MLINESTYLE
  5
18
102
{ACAD_REACTORS
330
17
102
}
100
AcDbMlineStyle
  2
STANDARD
 70
0
  3

 62
256
 51
90.0
 52
90.0
 71
2
 49
0.5
 62
256
  6
BYLAYER
 49
-0.5
 62
256
  6
BYLAYER
  0
LAYOUT
  5
49C
102
{ACAD_REACTORS
330
1A
102
}
100
AcDbPlotSettings
  1

  2
none_device
  4
ANSI_C_(22.00_x_17.00_Inches)
  6

 40
0.0
 41
0.0
 42
0.0
 43
0.0
 44
558.8
 45
431.8
 46
0.0
 47
0.0
 48
0.0
 49
0.0
140
0.0
141
0.0
142
1.0
143
1.0
 70
1024
 72
1
 73
0
 74
0
  7

 75
0
147
1.0
148
0.0
149
0.0
100
AcDbLayout
  1
Model
 70
0
 71
0
 10
0.0
 20
0.0
 11
558.8
 21
431.8
 12
0.0
 22
0.0
 32
0.0
 14
0.0
 24
0.0
 34
0.0
 15
0.0
 25
0.0
 35
0.0
146
0.0
 13
0.0
 23
0.0
 33
0.0
 16
1.0
 26
0.0
 36
0.0
 17
0.0
 27
1.0
 37
0.0
 76
0
330
214
345
0
346
0
  0
LAYOUT
  5
49D
102
{ACAD_REACTORS
330
1A
102
}
100
AcDbPlotSettings
  1

  2
none_device
  4
ANSI_C_(22.00_x_17.00_Inches)
  6

 40
0.0
 41
0.0
 42
0.0
 43
0.0
 44
558.8
 45
431.8
 46
0.0
 47
0.0
 48
0.0
 49
0.0
140
0.0
141
0.0
142
1.0
143
1.0
 70
0
 72
1
 73
0
 74
0
  7

 75
0
147
1.0
148
0.0
149
0.0
100
AcDbLayout
  1
Layout1
 70
0
 71
1
 10
0.0
 20
0.0
 11
558.8
 21
431.8
 12
0.0
 22
0.0
 32
0.0
 14
0.0
 24
0.0
 34
0.0
 15
0.0
 25
0.0
 35
0.0
146
0.0
 13
0.0
 23
0.0
 33
0.0
 16
1.0
 26
0.0
 36
0.0
 17
0.0
 27
1.0
 37
0.0
 76
0
330
215
345
0
346
0
  0
ENDSEC
  0
EOF
