  0
SECTION
  2
HEADER
  9
$ACADVER
  1
AC1015
  9
$DWGCODEPAGE
  3
ANSI_1252
  9
$EXTMAX
 10
297.0
 20
210.0
 30
0.0
  9
$EXTMIN
 10
0.0
 20
0.0
 30
0.0
  9
$LIMMIN
 10
0.0
 20
0.0
  9
$LIMMAX
 10
297.0
 20
210.0
  9
$VIEWCTR
 10
148.5
 20
105.0
  9
$VIEWSIZE
 40
210.0
  9
$CLAYER
  8
0
  9
$LTSCALE
 40
16.335
  9
$CELTYPE
  6
BYLAYER
  9
$DIMSCALE
 40
1.0
  9
$DIMASZ
 40
3.0
  9
$DIMEXO
 40
0.5
  9
$DIMDLI
 40
11.286
  9
$DIMEXE
 40
1.5
  9
$DIMCEN
 40
2.673
  9
$DIMLFAC
 40
1.0
  9
$DIMBLK
  1
_FILLED
  9
$DIMTXT
 40
3.0
  9
$DIMTOL
 70
1
  9
$DIMLIM
 70
0
  9
$DIMTFAC
 40
1.0
  9
$DIMTP
 40
0.01
  9
$DIMTM
 40
0.01
  9
$DIMGAP
 40
0.625
  9
$DIMDSEP
 70
44
  9
$PDMODE
 70
3
  9
$PDSIZE
 40
3.0
  9
$HANDSEED
  5
59B
  9
$TILEMODE
 70
1
  9
$MEASUREMENT
 70
1
  9
$INSUNITS
 70
4
  0
ENDSEC
  0
SECTION
  2
CLASSES
  0
CLASS
  1
ACDBDICTIONARYWDFLT
  2
AcDbDictionaryWithDefault
  3
AutoCAD 2000
 90
0
280
0
281
0
  0
CLASS
  1
ACDBPLACEHOLDER
  2
AcDbPlaceHolder
  3
AutoCAD 2000
 90
0
280
0
281
0
  0
CLASS
  1
LAYOUT
  2
AcDbLayout
  3
AutoCAD 2000
 90
0
280
0
281
0
  0
ENDSEC
  0
SECTION
  2
TABLES
  0
TABLE
  2
VPORT
  5
8
100
AcDbSymbolTable
 70
2
  0
VPORT
  5
1F4
100
AcDbSymbolTableRecord
100
AcDbViewportTableRecord
  2
*ACTIVE
 70
0
 10
0.0
 20
0.0
 11
1.0
 21
1.0
 12
148.5
 22
105.0
 13
0.0
 23
0.0
 14
1.0
 24
1.0
 15
0.0
 25
0.0
 16
0.0
 26
0.0
 36
1.0
 17
0.0
 27
0.0
 37
0.0
 40
210.0
 41
1.4142857143
 42
50.0
 43
0.0
 44
0.0
 50
0.0
 51
0.0
 71
0
 72
100
 73
1
 74
1
 75
0
 76
0
 77
0
 78
0
  0
ENDTAB
  0
TABLE
  2
LTYPE
  5
5
100
AcDbSymbolTable
 70
6
  0
LTYPE
  5
14
100
AcDbSymbolTableRecord
100
AcDbLinetypeTableRecord
  2
BYBLOCK
 70
0
  3

 72
65
 73
0
 40
0.0
  0
LTYPE
  5
15
100
AcDbSymbolTableRecord
100
AcDbLinetypeTableRecord
  2
BYLAYER
 70
0
  3

 72
65
 73
0
 40
0.0
  0
LTYPE
  5
16
100
AcDbSymbolTableRecord
100
AcDbLinetypeTableRecord
  2
CONTINUOUS
 70
64
  3
Solid line
 72
65
 73
0
 40
0.0
  0
LTYPE
  5
1F5
100
AcDbSymbolTableRecord
100
AcDbLinetypeTableRecord
  2
CENTER
 70
64
  3
____ _ ____ _ ____ _ ____ _ ____ _ ____ _ ____
 72
65
 73
4
 40
0.6
 49
0.375
 74
0
 49
-0.075
 74
0
 49
0.075
 74
0
 49
-0.075
 74
0
  0
LTYPE
  5
1F6
100
AcDbSymbolTableRecord
100
AcDbLinetypeTableRecord
  2
HIDDEN
 70
64
  3
- - - - - - - - - - - - - - - - - - - -
 72
65
 73
2
 40
0.2
 49
0.1
 74
0
 49
-0.1
 74
0
  0
LTYPE
  5
1F7
100
AcDbSymbolTableRecord
100
AcDbLinetypeTableRecord
  2
PHANTOM
 70
64
  3
_____ _ _ _____ _ _ _____ _ _ _____
 72
65
 73
6
 40
0.8
 49
0.45
 74
0
 49
-0.05
 74
0
 49
0.1
 74
0
 49
-0.05
 74
0
 49
0.1
 74
0
 49
-0.05
 74
0
  0
LTYPE
  5
1F8
100
AcDbSymbolTableRecord
100
AcDbLinetypeTableRecord
  2
DOT
 70
64
  3
. . . . . . . . . . . . . . . . . . . .
 72
65
 73
2
 40
0.2
 49
0.1
 74
0
 49
-0.1
 74
0
  0
LTYPE
  5
1F9
100
AcDbSymbolTableRecord
100
AcDbLinetypeTableRecord
  2
DASHED
 70
64
  3
- - - - - - - - - - - - - - - - - - - -
 72
65
 73
2
 40
0.2
 49
0.1
 74
0
 49
-0.1
 74
0
  0
ENDTAB
  0
TABLE
  2
LAYER
  5
2
100
AcDbSymbolTable
 70
36
  0
LAYER
  5
10
100
AcDbSymbolTableRecord
100
AcDbLayerTableRecord
  2
0
 70
0
 62
7
  6
CONTINUOUS
370
-3
390
F
  0
LAYER
  5
1FA
100
AcDbSymbolTableRecord
100
AcDbLayerTableRecord
  2
DEFAULT_1
 70
0
 62
7
  6
CENTER
370
-3
390
F
  0
LAYER
  5
1FB
100
AcDbSymbolTableRecord
100
AcDbLayerTableRecord
  2
DEFAULT_2
 70
0
 62
7
  6
HIDDEN
370
-3
390
F
  0
LAYER
  5
1FC
100
AcDbSymbolTableRecord
100
AcDbLayerTableRecord
  2
DEFAULT_3
 70
0
 62
7
  6
PHANTOM
370
-3
390
F
  0
LAYER
  5
1FD
100
AcDbSymbolTableRecord
100
AcDbLayerTableRecord
  2
1608-FL-RF-VIMAR_80000
 70
0
 62
7
  6
CONTINUOUS
370
-3
390
F
  0
LAYER
  5
1FE
100
AcDbSymbolTableRecord
100
AcDbLayerTableRecord
  2
1615-LED-1-1-VIMAR_110000
 70
0
 62
7
  6
CONTINUOUS
370
-3
390
F
  0
LAYER
  5
1FF
100
AcDbSymbolTableRecord
100
AcDbLayerTableRecord
  2
200A_170000
 70
0
 62
7
  6
CONTINUOUS
370
-3
390
F
  0
LAYER
  5
200
100
AcDbSymbolTableRecord
100
AcDbLayerTableRecord
  2
200A_170000_1
 70
0
 62
7
  6
CONTINUOUS
370
-3
390
F
  0
LAYER
  5
201
100
AcDbSymbolTableRecord
100
AcDbLayerTableRecord
  2
200A_170000_2
 70
0
 62
7
  6
CONTINUOUS
370
-3
390
F
  0
LAYER
  5
202
100
AcDbSymbolTableRecord
100
AcDbLayerTableRecord
  2
200A_170000_3
 70
0
 62
7
  6
CONTINUOUS
370
-3
390
F
  0
LAYER
  5
203
100
AcDbSymbolTableRecord
100
AcDbLayerTableRecord
  2
201A_260000
 70
0
 62
7
  6
CONTINUOUS
370
-3
390
F
  0
LAYER
  5
204
100
AcDbSymbolTableRecord
100
AcDbLayerTableRecord
  2
201A_260000_1
 70
0
 62
7
  6
CONTINUOUS
370
-3
390
F
  0
LAYER
  5
205
100
AcDbSymbolTableRecord
100
AcDbLayerTableRecord
  2
201A_260000_2
 70
0
 62
7
  6
CONTINUOUS
370
-3
390
F
  0
LAYER
  5
206
100
AcDbSymbolTableRecord
100
AcDbLayerTableRecord
  2
2125-CC-RF-VIMAR_65000
 70
0
 62
7
  6
CONTINUOUS
370
-3
390
F
  0
LAYER
  5
207
100
AcDbSymbolTableRecord
100
AcDbLayerTableRecord
  2
2125-CC-RF-VIMAR_65000_1
 70
0
 62
7
  6
CONTINUOUS
370
-3
390
F
  0
LAYER
  5
208
100
AcDbSymbolTableRecord
100
AcDbLayerTableRecord
  2
2125-CC-RF-VIMAR_65000_10
 70
0
 62
7
  6
CONTINUOUS
370
-3
390
F
  0
LAYER
  5
209
100
AcDbSymbolTableRecord
100
AcDbLayerTableRecord
  2
2125-CC-RF-VIMAR_65000_11
 70
0
 62
7
  6
CONTINUOUS
370
-3
390
F
  0
LAYER
  5
20A
100
AcDbSymbolTableRecord
100
AcDbLayerTableRecord
  2
2125-CC-RF-VIMAR_65000_12
 70
0
 62
7
  6
CONTINUOUS
370
-3
390
F
  0
LAYER
  5
20B
100
AcDbSymbolTableRecord
100
AcDbLayerTableRecord
  2
2125-CC-RF-VIMAR_65000_13
 70
0
 62
7
  6
CONTINUOUS
370
-3
390
F
  0
LAYER
  5
20C
100
AcDbSymbolTableRecord
100
AcDbLayerTableRecord
  2
2125-CC-RF-VIMAR_65000_14
 70
0
 62
7
  6
CONTINUOUS
370
-3
390
F
  0
LAYER
  5
20D
100
AcDbSymbolTableRecord
100
AcDbLayerTableRecord
  2
2125-CC-RF-VIMAR_65000_15
 70
0
 62
7
  6
CONTINUOUS
370
-3
390
F
  0
LAYER
  5
20E
100
AcDbSymbolTableRecord
100
AcDbLayerTableRecord
  2
2125-CC-RF-VIMAR_65000_16
 70
0
 62
7
  6
CONTINUOUS
370
-3
390
F
  0
LAYER
  5
20F
100
AcDbSymbolTableRecord
100
AcDbLayerTableRecord
  2
2125-CC-RF-VIMAR_65000_17
 70
0
 62
7
  6
CONTINUOUS
370
-3
390
F
  0
LAYER
  5
210
100
AcDbSymbolTableRecord
100
AcDbLayerTableRecord
  2
2125-CC-RF-VIMAR_65000_18
 70
0
 62
7
  6
CONTINUOUS
370
-3
390
F
  0
LAYER
  5
211
100
AcDbSymbolTableRecord
100
AcDbLayerTableRecord
  2
2125-CC-RF-VIMAR_65000_19
 70
0
 62
7
  6
CONTINUOUS
370
-3
390
F
  0
LAYER
  5
212
100
AcDbSymbolTableRecord
100
AcDbLayerTableRecord
  2
2125-CC-RF-VIMAR_65000_2
 70
0
 62
7
  6
CONTINUOUS
370
-3
390
F
  0
LAYER
  5
213
100
AcDbSymbolTableRecord
100
AcDbLayerTableRecord
  2
2125-CC-RF-VIMAR_65000_20
 70
0
 62
7
  6
CONTINUOUS
370
-3
390
F
  0
LAYER
  5
214
100
AcDbSymbolTableRecord
100
AcDbLayerTableRecord
  2
2125-CC-RF-VIMAR_65000_21
 70
0
 62
7
  6
CONTINUOUS
370
-3
390
F
  0
LAYER
  5
215
100
AcDbSymbolTableRecord
100
AcDbLayerTableRecord
  2
2125-CC-RF-VIMAR_65000_22
 70
0
 62
7
  6
CONTINUOUS
370
-3
390
F
  0
LAYER
  5
216
100
AcDbSymbolTableRecord
100
AcDbLayerTableRecord
  2
2125-CC-RF-VIMAR_65000_23
 70
0
 62
7
  6
CONTINUOUS
370
-3
390
F
  0
LAYER
  5
217
100
AcDbSymbolTableRecord
100
AcDbLayerTableRecord
  2
2125-CC-RF-VIMAR_65000_24
 70
0
 62
7
  6
CONTINUOUS
370
-3
390
F
  0
LAYER
  5
218
100
AcDbSymbolTableRecord
100
AcDbLayerTableRecord
  2
2125-CC-RF-VIMAR_65000_25
 70
0
 62
7
  6
CONTINUOUS
370
-3
390
F
  0
LAYER
  5
219
100
AcDbSymbolTableRecord
100
AcDbLayerTableRecord
  2
2125-CC-RF-VIMAR_65000_26
 70
0
 62
7
  6
CONTINUOUS
370
-3
390
F
  0
LAYER
  5
21A
100
AcDbSymbolTableRecord
100
AcDbLayerTableRecord
  2
2125-CC-RF-VIMAR_65000_27
 70
0
 62
7
  6
CONTINUOUS
370
-3
390
F
  0
LAYER
  5
21B
100
AcDbSymbolTableRecord
100
AcDbLayerTableRecord
  2
2125-CC-RF-VIMAR_65000_28
 70
0
 62
7
  6
CONTINUOUS
370
-3
390
F
  0
LAYER
  5
21C
100
AcDbSymbolTableRecord
100
AcDbLayerTableRecord
  2
2125-CC-RF-VIMAR_65000_29
 70
0
 62
7
  6
CONTINUOUS
370
-3
390
F
  0
LAYER
  5
21D
100
AcDbSymbolTableRecord
100
AcDbLayerTableRecord
  2
2125-CC-RF-VIMAR_65000_3
 70
0
 62
7
  6
CONTINUOUS
370
-3
390
F
  0
LAYER
  5
21E
100
AcDbSymbolTableRecord
100
AcDbLayerTableRecord
  2
2125-CC-RF-VIMAR_65000_30
 70
0
 62
7
  6
CONTINUOUS
370
-3
390
F
  0
LAYER
  5
21F
100
AcDbSymbolTableRecord
100
AcDbLayerTableRecord
  2
2125-CC-RF-VIMAR_65000_31
 70
0
 62
7
  6
CONTINUOUS
370
-3
390
F
  0
LAYER
  5
220
100
AcDbSymbolTableRecord
100
AcDbLayerTableRecord
  2
2125-CC-RF-VIMAR_65000_32
 70
0
 62
7
  6
CONTINUOUS
370
-3
390
F
  0
LAYER
  5
221
100
AcDbSymbolTableRecord
100
AcDbLayerTableRecord
  2
2125-CC-RF-VIMAR_65000_33
 70
0
 62
7
  6
CONTINUOUS
370
-3
390
F
  0
LAYER
  5
222
100
AcDbSymbolTableRecord
100
AcDbLayerTableRecord
  2
2125-CC-RF-VIMAR_65000_34
 70
0
 62
7
  6
CONTINUOUS
370
-3
390
F
  0
LAYER
  5
223
100
AcDbSymbolTableRecord
100
AcDbLayerTableRecord
  2
2125-CC-RF-VIMAR_65000_35
 70
0
 62
7
  6
CONTINUOUS
370
-3
390
F
  0
LAYER
  5
224
100
AcDbSymbolTableRecord
100
AcDbLayerTableRecord
  2
2125-CC-RF-VIMAR_65000_36
 70
0
 62
7
  6
CONTINUOUS
370
-3
390
F
  0
LAYER
  5
225
100
AcDbSymbolTableRecord
100
AcDbLayerTableRecord
  2
2125-CC-RF-VIMAR_65000_37
 70
0
 62
7
  6
CONTINUOUS
370
-3
390
F
  0
LAYER
  5
226
100
AcDbSymbolTableRecord
100
AcDbLayerTableRecord
  2
2125-CC-RF-VIMAR_65000_38
 70
0
 62
7
  6
CONTINUOUS
370
-3
390
F
  0
LAYER
  5
227
100
AcDbSymbolTableRecord
100
AcDbLayerTableRecord
  2
2125-CC-RF-VIMAR_65000_39
 70
0
 62
7
  6
CONTINUOUS
370
-3
390
F
  0
LAYER
  5
228
100
AcDbSymbolTableRecord
100
AcDbLayerTableRecord
  2
2125-CC-RF-VIMAR_65000_4
 70
0
 62
7
  6
CONTINUOUS
370
-3
390
F
  0
LAYER
  5
229
100
AcDbSymbolTableRecord
100
AcDbLayerTableRecord
  2
2125-CC-RF-VIMAR_65000_40
 70
0
 62
7
  6
CONTINUOUS
370
-3
390
F
  0
LAYER
  5
22A
100
AcDbSymbolTableRecord
100
AcDbLayerTableRecord
  2
2125-CC-RF-VIMAR_65000_41
 70
0
 62
7
  6
CONTINUOUS
370
-3
390
F
  0
LAYER
  5
22B
100
AcDbSymbolTableRecord
100
AcDbLayerTableRecord
  2
2125-CC-RF-VIMAR_65000_5
 70
0
 62
7
  6
CONTINUOUS
370
-3
390
F
  0
LAYER
  5
22C
100
AcDbSymbolTableRecord
100
AcDbLayerTableRecord
  2
2125-CC-RF-VIMAR_65000_6
 70
0
 62
7
  6
CONTINUOUS
370
-3
390
F
  0
LAYER
  5
22D
100
AcDbSymbolTableRecord
100
AcDbLayerTableRecord
  2
2125-CC-RF-VIMAR_65000_7
 70
0
 62
7
  6
CONTINUOUS
370
-3
390
F
  0
LAYER
  5
22E
100
AcDbSymbolTableRecord
100
AcDbLayerTableRecord
  2
2125-CC-RF-VIMAR_65000_8
 70
0
 62
7
  6
CONTINUOUS
370
-3
390
F
  0
LAYER
  5
22F
100
AcDbSymbolTableRecord
100
AcDbLayerTableRecord
  2
2125-CC-RF-VIMAR_65000_9
 70
0
 62
7
  6
CONTINUOUS
370
-3
390
F
  0
LAYER
  5
230
100
AcDbSymbolTableRecord
100
AcDbLayerTableRecord
  2
2125-DL-RF-FINE_VIMAR_110000
 70
0
 62
7
  6
CONTINUOUS
370
-3
390
F
  0
LAYER
  5
231
100
AcDbSymbolTableRecord
100
AcDbLayerTableRecord
  2
2125-R1-RF-VIMAR_60000
 70
0
 62
7
  6
CONTINUOUS
370
-3
390
F
  0
LAYER
  5
232
100
AcDbSymbolTableRecord
100
AcDbLayerTableRecord
  2
2125-R1-RF-VIMAR_60000_1
 70
0
 62
7
  6
CONTINUOUS
370
-3
390
F
  0
LAYER
  5
233
100
AcDbSymbolTableRecord
100
AcDbLayerTableRecord
  2
2125-R1-RF-VIMAR_60000_10
 70
0
 62
7
  6
CONTINUOUS
370
-3
390
F
  0
LAYER
  5
234
100
AcDbSymbolTableRecord
100
AcDbLayerTableRecord
  2
2125-R1-RF-VIMAR_60000_11
 70
0
 62
7
  6
CONTINUOUS
370
-3
390
F
  0
LAYER
  5
235
100
AcDbSymbolTableRecord
100
AcDbLayerTableRecord
  2
2125-R1-RF-VIMAR_60000_12
 70
0
 62
7
  6
CONTINUOUS
370
-3
390
F
  0
LAYER
  5
236
100
AcDbSymbolTableRecord
100
AcDbLayerTableRecord
  2
2125-R1-RF-VIMAR_60000_13
 70
0
 62
7
  6
CONTINUOUS
370
-3
390
F
  0
LAYER
  5
237
100
AcDbSymbolTableRecord
100
AcDbLayerTableRecord
  2
2125-R1-RF-VIMAR_60000_14
 70
0
 62
7
  6
CONTINUOUS
370
-3
390
F
  0
LAYER
  5
238
100
AcDbSymbolTableRecord
100
AcDbLayerTableRecord
  2
2125-R1-RF-VIMAR_60000_15
 70
0
 62
7
  6
CONTINUOUS
370
-3
390
F
  0
LAYER
  5
239
100
AcDbSymbolTableRecord
100
AcDbLayerTableRecord
  2
2125-R1-RF-VIMAR_60000_16
 70
0
 62
7
  6
CONTINUOUS
370
-3
390
F
  0
LAYER
  5
23A
100
AcDbSymbolTableRecord
100
AcDbLayerTableRecord
  2
2125-R1-RF-VIMAR_60000_17
 70
0
 62
7
  6
CONTINUOUS
370
-3
390
F
  0
LAYER
  5
23B
100
AcDbSymbolTableRecord
100
AcDbLayerTableRecord
  2
2125-R1-RF-VIMAR_60000_18
 70
0
 62
7
  6
CONTINUOUS
370
-3
390
F
  0
LAYER
  5
23C
100
AcDbSymbolTableRecord
100
AcDbLayerTableRecord
  2
2125-R1-RF-VIMAR_60000_19
 70
0
 62
7
  6
CONTINUOUS
370
-3
390
F
  0
LAYER
  5
23D
100
AcDbSymbolTableRecord
100
AcDbLayerTableRecord
  2
2125-R1-RF-VIMAR_60000_2
 70
0
 62
7
  6
CONTINUOUS
370
-3
390
F
  0
LAYER
  5
23E
100
AcDbSymbolTableRecord
100
AcDbLayerTableRecord
  2
2125-R1-RF-VIMAR_60000_20
 70
0
 62
7
  6
CONTINUOUS
370
-3
390
F
  0
LAYER
  5
23F
100
AcDbSymbolTableRecord
100
AcDbLayerTableRecord
  2
2125-R1-RF-VIMAR_60000_21
 70
0
 62
7
  6
CONTINUOUS
370
-3
390
F
  0
LAYER
  5
240
100
AcDbSymbolTableRecord
100
AcDbLayerTableRecord
  2
2125-R1-RF-VIMAR_60000_22
 70
0
 62
7
  6
CONTINUOUS
370
-3
390
F
  0
LAYER
  5
241
100
AcDbSymbolTableRecord
100
AcDbLayerTableRecord
  2
2125-R1-RF-VIMAR_60000_23
 70
0
 62
7
  6
CONTINUOUS
370
-3
390
F
  0
LAYER
  5
242
100
AcDbSymbolTableRecord
100
AcDbLayerTableRecord
  2
2125-R1-RF-VIMAR_60000_24
 70
0
 62
7
  6
CONTINUOUS
370
-3
390
F
  0
LAYER
  5
243
100
AcDbSymbolTableRecord
100
AcDbLayerTableRecord
  2
2125-R1-RF-VIMAR_60000_25
 70
0
 62
7
  6
CONTINUOUS
370
-3
390
F
  0
LAYER
  5
244
100
AcDbSymbolTableRecord
100
AcDbLayerTableRecord
  2
2125-R1-RF-VIMAR_60000_26
 70
0
 62
7
  6
CONTINUOUS
370
-3
390
F
  0
LAYER
  5
245
100
AcDbSymbolTableRecord
100
AcDbLayerTableRecord
  2
2125-R1-RF-VIMAR_60000_27
 70
0
 62
7
  6
CONTINUOUS
370
-3
390
F
  0
LAYER
  5
246
100
AcDbSymbolTableRecord
100
AcDbLayerTableRecord
  2
2125-R1-RF-VIMAR_60000_28
 70
0
 62
7
  6
CONTINUOUS
370
-3
390
F
  0
LAYER
  5
247
100
AcDbSymbolTableRecord
100
AcDbLayerTableRecord
  2
2125-R1-RF-VIMAR_60000_29
 70
0
 62
7
  6
CONTINUOUS
370
-3
390
F
  0
LAYER
  5
248
100
AcDbSymbolTableRecord
100
AcDbLayerTableRecord
  2
2125-R1-RF-VIMAR_60000_3
 70
0
 62
7
  6
CONTINUOUS
370
-3
390
F
  0
LAYER
  5
249
100
AcDbSymbolTableRecord
100
AcDbLayerTableRecord
  2
2125-R1-RF-VIMAR_60000_30
 70
0
 62
7
  6
CONTINUOUS
370
-3
390
F
  0
LAYER
  5
24A
100
AcDbSymbolTableRecord
100
AcDbLayerTableRecord
  2
2125-R1-RF-VIMAR_60000_31
 70
0
 62
7
  6
CONTINUOUS
370
-3
390
F
  0
LAYER
  5
24B
100
AcDbSymbolTableRecord
100
AcDbLayerTableRecord
  2
2125-R1-RF-VIMAR_60000_4
 70
0
 62
7
  6
CONTINUOUS
370
-3
390
F
  0
LAYER
  5
24C
100
AcDbSymbolTableRecord
100
AcDbLayerTableRecord
  2
2125-R1-RF-VIMAR_60000_5
 70
0
 62
7
  6
CONTINUOUS
370
-3
390
F
  0
LAYER
  5
24D
100
AcDbSymbolTableRecord
100
AcDbLayerTableRecord
  2
2125-R1-RF-VIMAR_60000_6
 70
0
 62
7
  6
CONTINUOUS
370
-3
390
F
  0
LAYER
  5
24E
100
AcDbSymbolTableRecord
100
AcDbLayerTableRecord
  2
2125-R1-RF-VIMAR_60000_7
 70
0
 62
7
  6
CONTINUOUS
370
-3
390
F
  0
LAYER
  5
24F
100
AcDbSymbolTableRecord
100
AcDbLayerTableRecord
  2
2125-R1-RF-VIMAR_60000_8
 70
0
 62
7
  6
CONTINUOUS
370
-3
390
F
  0
LAYER
  5
250
100
AcDbSymbolTableRecord
100
AcDbLayerTableRecord
  2
2125-R1-RF-VIMAR_60000_9
 70
0
 62
7
  6
CONTINUOUS
370
-3
390
F
  0
LAYER
  5
251
100
AcDbSymbolTableRecord
100
AcDbLayerTableRecord
  2
3216-CF-RF-VIMAR_100000
 70
0
 62
7
  6
CONTINUOUS
370
-3
390
F
  0
LAYER
  5
252
100
AcDbSymbolTableRecord
100
AcDbLayerTableRecord
  2
3216-CF-RF-VIMAR_100000_1
 70
0
 62
7
  6
CONTINUOUS
370
-3
390
F
  0
LAYER
  5
253
100
AcDbSymbolTableRecord
100
AcDbLayerTableRecord
  2
3216-CF-RF-VIMAR_100000_2
 70
0
 62
7
  6
CONTINUOUS
370
-3
390
F
  0
LAYER
  5
254
100
AcDbSymbolTableRecord
100
AcDbLayerTableRecord
  2
3216-CF-RF-VIMAR_100000_3
 70
0
 62
7
  6
CONTINUOUS
370
-3
390
F
  0
LAYER
  5
255
100
AcDbSymbolTableRecord
100
AcDbLayerTableRecord
  2
3216-CF-RF-VIMAR_100000_4
 70
0
 62
7
  6
CONTINUOUS
370
-3
390
F
  0
LAYER
  5
256
100
AcDbSymbolTableRecord
100
AcDbLayerTableRecord
  2
3216-CF-RF-VIMAR_100000_5
 70
0
 62
7
  6
CONTINUOUS
370
-3
390
F
  0
LAYER
  5
257
100
AcDbSymbolTableRecord
100
AcDbLayerTableRecord
  2
3216-CF-RF-VIMAR_100000_6
 70
0
 62
7
  6
CONTINUOUS
370
-3
390
F
  0
LAYER
  5
258
100
AcDbSymbolTableRecord
100
AcDbLayerTableRecord
  2
3216-CF-RF-VIMAR_100000_7
 70
0
 62
7
  6
CONTINUOUS
370
-3
390
F
  0
LAYER
  5
259
100
AcDbSymbolTableRecord
100
AcDbLayerTableRecord
  2
3216-CF-RF-VIMAR_100000_8
 70
0
 62
7
  6
CONTINUOUS
370
-3
390
F
  0
LAYER
  5
25A
100
AcDbSymbolTableRecord
100
AcDbLayerTableRecord
  2
3216-R1-RF-VIMAR_60000
 70
0
 62
7
  6
CONTINUOUS
370
-3
390
F
  0
LAYER
  5
25B
100
AcDbSymbolTableRecord
100
AcDbLayerTableRecord
  2
3216-R1-RF-VIMAR_60000_1
 70
0
 62
7
  6
CONTINUOUS
370
-3
390
F
  0
LAYER
  5
25C
100
AcDbSymbolTableRecord
100
AcDbLayerTableRecord
  2
3216-R1-RF-VIMAR_60000_10
 70
0
 62
7
  6
CONTINUOUS
370
-3
390
F
  0
LAYER
  5
25D
100
AcDbSymbolTableRecord
100
AcDbLayerTableRecord
  2
3216-R1-RF-VIMAR_60000_11
 70
0
 62
7
  6
CONTINUOUS
370
-3
390
F
  0
LAYER
  5
25E
100
AcDbSymbolTableRecord
100
AcDbLayerTableRecord
  2
3216-R1-RF-VIMAR_60000_12
 70
0
 62
7
  6
CONTINUOUS
370
-3
390
F
  0
LAYER
  5
25F
100
AcDbSymbolTableRecord
100
AcDbLayerTableRecord
  2
3216-R1-RF-VIMAR_60000_13
 70
0
 62
7
  6
CONTINUOUS
370
-3
390
F
  0
LAYER
  5
260
100
AcDbSymbolTableRecord
100
AcDbLayerTableRecord
  2
3216-R1-RF-VIMAR_60000_14
 70
0
 62
7
  6
CONTINUOUS
370
-3
390
F
  0
LAYER
  5
261
100
AcDbSymbolTableRecord
100
AcDbLayerTableRecord
  2
3216-R1-RF-VIMAR_60000_15
 70
0
 62
7
  6
CONTINUOUS
370
-3
390
F
  0
LAYER
  5
262
100
AcDbSymbolTableRecord
100
AcDbLayerTableRecord
  2
3216-R1-RF-VIMAR_60000_2
 70
0
 62
7
  6
CONTINUOUS
370
-3
390
F
  0
LAYER
  5
263
100
AcDbSymbolTableRecord
100
AcDbLayerTableRecord
  2
3216-R1-RF-VIMAR_60000_3
 70
0
 62
7
  6
CONTINUOUS
370
-3
390
F
  0
LAYER
  5
264
100
AcDbSymbolTableRecord
100
AcDbLayerTableRecord
  2
3216-R1-RF-VIMAR_60000_4
 70
0
 62
7
  6
CONTINUOUS
370
-3
390
F
  0
LAYER
  5
265
100
AcDbSymbolTableRecord
100
AcDbLayerTableRecord
  2
3216-R1-RF-VIMAR_60000_5
 70
0
 62
7
  6
CONTINUOUS
370
-3
390
F
  0
LAYER
  5
266
100
AcDbSymbolTableRecord
100
AcDbLayerTableRecord
  2
3216-R1-RF-VIMAR_60000_6
 70
0
 62
7
  6
CONTINUOUS
370
-3
390
F
  0
LAYER
  5
267
100
AcDbSymbolTableRecord
100
AcDbLayerTableRecord
  2
3216-R1-RF-VIMAR_60000_7
 70
0
 62
7
  6
CONTINUOUS
370
-3
390
F
  0
LAYER
  5
268
100
AcDbSymbolTableRecord
100
AcDbLayerTableRecord
  2
3216-R1-RF-VIMAR_60000_8
 70
0
 62
7
  6
CONTINUOUS
370
-3
390
F
  0
LAYER
  5
269
100
AcDbSymbolTableRecord
100
AcDbLayerTableRecord
  2
3216-R1-RF-VIMAR_60000_9
 70
0
 62
7
  6
CONTINUOUS
370
-3
390
F
  0
LAYER
  5
26A
100
AcDbSymbolTableRecord
100
AcDbLayerTableRecord
  2
3225-CF1-RF-VIMAR_260000
 70
0
 62
7
  6
CONTINUOUS
370
-3
390
F
  0
LAYER
  5
26B
100
AcDbSymbolTableRecord
100
AcDbLayerTableRecord
  2
3225-R-RF-VIMAR_180000
 70
0
 62
7
  6
CONTINUOUS
370
-3
390
F
  0
LAYER
  5
26C
100
AcDbSymbolTableRecord
100
AcDbLayerTableRecord
  2
3225-R-RF-VIMAR_180000_1
 70
0
 62
7
  6
CONTINUOUS
370
-3
390
F
  0
LAYER
  5
26D
100
AcDbSymbolTableRecord
100
AcDbLayerTableRecord
  2
3225-R-RF-VIMAR_180000_2
 70
0
 62
7
  6
CONTINUOUS
370
-3
390
F
  0
LAYER
  5
26E
100
AcDbSymbolTableRecord
100
AcDbLayerTableRecord
  2
3225-R-RF-VIMAR_180000_3
 70
0
 62
7
  6
CONTINUOUS
370
-3
390
F
  0
LAYER
  5
26F
100
AcDbSymbolTableRecord
100
AcDbLayerTableRecord
  2
3225-R-RF-VIMAR_180000_4
 70
0
 62
7
  6
CONTINUOUS
370
-3
390
F
  0
LAYER
  5
270
100
AcDbSymbolTableRecord
100
AcDbLayerTableRecord
  2
43000547A0
 70
0
 62
7
  6
CONTINUOUS
370
-3
390
F
  0
LAYER
  5
271
100
AcDbSymbolTableRecord
100
AcDbLayerTableRecord
  2
43000548A0
 70
0
 62
7
  6
CONTINUOUS
370
-3
390
F
  0
LAYER
  5
272
100
AcDbSymbolTableRecord
100
AcDbLayerTableRecord
  2
6032-CS-RF_280000
 70
0
 62
7
  6
CONTINUOUS
370
-3
390
F
  0
LAYER
  5
273
100
AcDbSymbolTableRecord
100
AcDbLayerTableRecord
  2
ASSI
 70
0
 62
7
  6
CONTINUOUS
370
-3
390
F
  0
LAYER
  5
274
100
AcDbSymbolTableRecord
100
AcDbLayerTableRecord
  2
AX-D100-1-VIMAR_300000
 70
0
 62
7
  6
CONTINUOUS
370
-3
390
F
  0
LAYER
  5
275
100
AcDbSymbolTableRecord
100
AcDbLayerTableRecord
  2
AX-D100-1-VIMAR_300000_1
 70
0
 62
7
  6
CONTINUOUS
370
-3
390
F
  0
LAYER
  5
276
100
AcDbSymbolTableRecord
100
AcDbLayerTableRecord
  2
AX-D100-1-VIMAR_300000_2
 70
0
 62
7
  6
CONTINUOUS
370
-3
390
F
  0
LAYER
  5
277
100
AcDbSymbolTableRecord
100
AcDbLayerTableRecord
  2
AX-D75-1-VIMAR_200000
 70
0
 62
7
  6
CONTINUOUS
370
-3
390
F
  0
LAYER
  5
278
100
AcDbSymbolTableRecord
100
AcDbLayerTableRecord
  2
AX-R100-2-VIMAR_230000
 70
0
 62
7
  6
CONTINUOUS
370
-3
390
F
  0
LAYER
  5
279
100
AcDbSymbolTableRecord
100
AcDbLayerTableRecord
  2
CAPC1608N_80000
 70
0
 62
7
  6
CONTINUOUS
370
-3
390
F
  0
LAYER
  5
27A
100
AcDbSymbolTableRecord
100
AcDbLayerTableRecord
  2
CAPC1608N_80000_1
 70
0
 62
7
  6
CONTINUOUS
370
-3
390
F
  0
LAYER
  5
27B
100
AcDbSymbolTableRecord
100
AcDbLayerTableRecord
  2
CAPC1608N_80000_2
 70
0
 62
7
  6
CONTINUOUS
370
-3
390
F
  0
LAYER
  5
27C
100
AcDbSymbolTableRecord
100
AcDbLayerTableRecord
  2
CAPC1608N_80000_3
 70
0
 62
7
  6
CONTINUOUS
370
-3
390
F
  0
LAYER
  5
27D
100
AcDbSymbolTableRecord
100
AcDbLayerTableRecord
  2
CAPC1608N_80000_4
 70
0
 62
7
  6
CONTINUOUS
370
-3
390
F
  0
LAYER
  5
27E
100
AcDbSymbolTableRecord
100
AcDbLayerTableRecord
  2
CAPC1608N_80000_5
 70
0
 62
7
  6
CONTINUOUS
370
-3
390
F
  0
LAYER
  5
27F
100
AcDbSymbolTableRecord
100
AcDbLayerTableRecord
  2
CAPC1608N_80000_6
 70
0
 62
7
  6
CONTINUOUS
370
-3
390
F
  0
LAYER
  5
280
100
AcDbSymbolTableRecord
100
AcDbLayerTableRecord
  2
CAPC1608N_80000_7
 70
0
 62
7
  6
CONTINUOUS
370
-3
390
F
  0
LAYER
  5
281
100
AcDbSymbolTableRecord
100
AcDbLayerTableRecord
  2
CAPC1608N_80000_8
 70
0
 62
7
  6
CONTINUOUS
370
-3
390
F
  0
LAYER
  5
282
100
AcDbSymbolTableRecord
100
AcDbLayerTableRecord
  2
CN-CSF_CSM_2-VIMAR_1150000
 70
0
 62
7
  6
CONTINUOUS
370
-3
390
F
  0
LAYER
  5
283
100
AcDbSymbolTableRecord
100
AcDbLayerTableRecord
  2
CN-MRT4P5_2-VIMAR_1750000
 70
0
 62
7
  6
CONTINUOUS
370
-3
390
F
  0
LAYER
  5
284
100
AcDbSymbolTableRecord
100
AcDbLayerTableRecord
  2
CN-MRT4P5_2-VIMAR_1750000_1
 70
0
 62
7
  6
CONTINUOUS
370
-3
390
F
  0
LAYER
  5
285
100
AcDbSymbolTableRecord
100
AcDbLayerTableRecord
  2
CN-MRT4P5_2-VIMAR_1750000_2
 70
0
 62
7
  6
CONTINUOUS
370
-3
390
F
  0
LAYER
  5
286
100
AcDbSymbolTableRecord
100
AcDbLayerTableRecord
  2
CN-MRT4P5_3-VIMAR_1750000
 70
0
 62
7
  6
CONTINUOUS
370
-3
390
F
  0
LAYER
  5
287
100
AcDbSymbolTableRecord
100
AcDbLayerTableRecord
  2
CN1-REF_RHOMBUSHOLE24_SPEA_0
 70
0
 62
7
  6
CONTINUOUS
370
-3
390
F
  0
LAYER
  5
288
100
AcDbSymbolTableRecord
100
AcDbLayerTableRecord
  2
CN1-REF_RHOMBUSHOLE24_SPEA_0_1
 70
0
 62
7
  6
CONTINUOUS
370
-3
390
F
  0
LAYER
  5
289
100
AcDbSymbolTableRecord
100
AcDbLayerTableRecord
  2
CN1-REF_RHOMBUSHOLE24_SPEA_0_2
 70
0
 62
7
  6
CONTINUOUS
370
-3
390
F
  0
LAYER
  5
28A
100
AcDbSymbolTableRecord
100
AcDbLayerTableRecord
  2
CN1-REF_RHOMBUSHOLE24_SPEA_0_3
 70
0
 62
7
  6
CONTINUOUS
370
-3
390
F
  0
LAYER
  5
28B
100
AcDbSymbolTableRecord
100
AcDbLayerTableRecord
  2
CN3-HEADER-PIH-P2_54_850000
 70
0
 62
7
  6
CONTINUOUS
370
-3
390
F
  0
LAYER
  5
28C
100
AcDbSymbolTableRecord
100
AcDbLayerTableRecord
  2
CN3-HEADER-PIH-P2_54_850000_1
 70
0
 62
7
  6
CONTINUOUS
370
-3
390
F
  0
LAYER
  5
28D
100
AcDbSymbolTableRecord
100
AcDbLayerTableRecord
  2
CN4-FSN-1_2540000
 70
0
 62
7
  6
CONTINUOUS
370
-3
390
F
  0
LAYER
  5
28E
100
AcDbSymbolTableRecord
100
AcDbLayerTableRecord
  2
CN4-FSN-1_2540000_1
 70
0
 62
7
  6
CONTINUOUS
370
-3
390
F
  0
LAYER
  5
28F
100
AcDbSymbolTableRecord
100
AcDbLayerTableRecord
  2
CN6-FSN-1_2540000
 70
0
 62
7
  6
CONTINUOUS
370
-3
390
F
  0
LAYER
  5
290
100
AcDbSymbolTableRecord
100
AcDbLayerTableRecord
  2
CN_STRIP_2_P2_54-VIMAR_0
 70
0
 62
7
  6
CONTINUOUS
370
-3
390
F
  0
LAYER
  5
291
100
AcDbSymbolTableRecord
100
AcDbLayerTableRecord
  2
CN_STRIP_2_P2_54-VIMAR_0_1
 70
0
 62
7
  6
CONTINUOUS
370
-3
390
F
  0
LAYER
  5
292
100
AcDbSymbolTableRecord
100
AcDbLayerTableRecord
  2
CN_STRIP_2_P2_54-VIMAR_0_2
 70
0
 62
7
  6
CONTINUOUS
370
-3
390
F
  0
LAYER
  5
293
100
AcDbSymbolTableRecord
100
AcDbLayerTableRecord
  2
COLOR1
 70
0
 62
7
  6
CONTINUOUS
370
-3
390
F
  0
LAYER
  5
294
100
AcDbSymbolTableRecord
100
AcDbLayerTableRecord
  2
COLOR14
 70
0
 62
7
  6
CONTINUOUS
370
-3
390
F
  0
LAYER
  5
295
100
AcDbSymbolTableRecord
100
AcDbLayerTableRecord
  2
COLOR5
 70
0
 62
7
  6
CONTINUOUS
370
-3
390
F
  0
LAYER
  5
296
100
AcDbSymbolTableRecord
100
AcDbLayerTableRecord
  2
COLOR6
 70
0
 62
7
  6
CONTINUOUS
370
-3
390
F
  0
LAYER
  5
297
100
AcDbSymbolTableRecord
100
AcDbLayerTableRecord
  2
COORDINATE
 70
0
 62
7
  6
CONTINUOUS
370
-3
390
F
  0
LAYER
  5
298
100
AcDbSymbolTableRecord
100
AcDbLayerTableRecord
  2
COORD_ORIGINE
 70
0
 62
7
  6
CONTINUOUS
370
-3
390
F
  0
LAYER
  5
299
100
AcDbSymbolTableRecord
100
AcDbLayerTableRecord
  2
COPY_PUBLISH
 70
0
 62
7
  6
CONTINUOUS
370
-3
390
F
  0
LAYER
  5
29A
100
AcDbSymbolTableRecord
100
AcDbLayerTableRecord
  2
COSMETIC
 70
0
 62
7
  6
CONTINUOUS
370
-3
390
F
  0
LAYER
  5
29B
100
AcDbSymbolTableRecord
100
AcDbLayerTableRecord
  2
COSMETICI
 70
0
 62
7
  6
CONTINUOUS
370
-3
390
F
  0
LAYER
  5
29C
100
AcDbSymbolTableRecord
100
AcDbLayerTableRecord
  2
CP-CE5-RF_650000
 70
0
 62
7
  6
CONTINUOUS
370
-3
390
F
  0
LAYER
  5
29D
100
AcDbSymbolTableRecord
100
AcDbLayerTableRecord
  2
CP-DO-214AB-D-VIMAR_260000
 70
0
 62
7
  6
CONTINUOUS
370
-3
390
F
  0
LAYER
  5
29E
100
AcDbSymbolTableRecord
100
AcDbLayerTableRecord
  2
CP-DO-214AC-D-VIMAR_240000
 70
0
 62
7
  6
CONTINUOUS
370
-3
390
F
  0
LAYER
  5
29F
100
AcDbSymbolTableRecord
100
AcDbLayerTableRecord
  2
CP-DO-214AC-D-VIMAR_240000_1
 70
0
 62
7
  6
CONTINUOUS
370
-3
390
F
  0
LAYER
  5
2A0
100
AcDbSymbolTableRecord
100
AcDbLayerTableRecord
  2
CP-DO-214AC-D-VIMAR_240000_2
 70
0
 62
7
  6
CONTINUOUS
370
-3
390
F
  0
LAYER
  5
2A1
100
AcDbSymbolTableRecord
100
AcDbLayerTableRecord
  2
CP-DO-214AC-D-VIMAR_240000_3
 70
0
 62
7
  6
CONTINUOUS
370
-3
390
F
  0
LAYER
  5
2A2
100
AcDbSymbolTableRecord
100
AcDbLayerTableRecord
  2
CP-DO-214AC-VIMAR_240000
 70
0
 62
7
  6
CONTINUOUS
370
-3
390
F
  0
LAYER
  5
2A3
100
AcDbSymbolTableRecord
100
AcDbLayerTableRecord
  2
CP-L3-RF-VIMAR_180000
 70
0
 62
7
  6
CONTINUOUS
370
-3
390
F
  0
LAYER
  5
2A4
100
AcDbSymbolTableRecord
100
AcDbLayerTableRecord
  2
CP-L3-RF-VIMAR_180000_1
 70
0
 62
7
  6
CONTINUOUS
370
-3
390
F
  0
LAYER
  5
2A5
100
AcDbSymbolTableRecord
100
AcDbLayerTableRecord
  2
CURVE
 70
0
 62
7
  6
CONTINUOUS
370
-3
390
F
  0
LAYER
  5
2A6
100
AcDbSymbolTableRecord
100
AcDbLayerTableRecord
  2
DRAFT
 70
0
 62
7
  6
CONTINUOUS
370
-3
390
F
  0
LAYER
  5
2A7
100
AcDbSymbolTableRecord
100
AcDbLayerTableRecord
  2
E2_MARK_10000
 70
0
 62
7
  6
CONTINUOUS
370
-3
390
F
  0
LAYER
  5
2A8
100
AcDbSymbolTableRecord
100
AcDbLayerTableRecord
  2
E2_MARK_10000_1
 70
0
 62
7
  6
CONTINUOUS
370
-3
390
F
  0
LAYER
  5
2A9
100
AcDbSymbolTableRecord
100
AcDbLayerTableRecord
  2
E4_MARK_10000
 70
0
 62
7
  6
CONTINUOUS
370
-3
390
F
  0
LAYER
  5
2AA
100
AcDbSymbolTableRecord
100
AcDbLayerTableRecord
  2
E4_MARK_10000_1
 70
0
 62
7
  6
CONTINUOUS
370
-3
390
F
  0
LAYER
  5
2AB
100
AcDbSymbolTableRecord
100
AcDbLayerTableRecord
  2
HEATSINK-PF720G-1-VIMAR_10000
 70
0
 62
7
  6
CONTINUOUS
370
-3
390
F
  0
LAYER
  5
2AC
100
AcDbSymbolTableRecord
100
AcDbLayerTableRecord
  2
HEATSINK-PF720G-1-VIMAR_10000_1
 70
0
 62
7
  6
CONTINUOUS
370
-3
390
F
  0
LAYER
  5
2AD
100
AcDbSymbolTableRecord
100
AcDbLayerTableRecord
  2
HETASINK-ALL_25X50X1_5FORO3_5-V
 70
0
 62
7
  6
CONTINUOUS
370
-3
390
F
  0
LAYER
  5
2AE
100
AcDbSymbolTableRecord
100
AcDbLayerTableRecord
  2
I3-TO-H12-VIMAR_1080000
 70
0
 62
7
  6
CONTINUOUS
370
-3
390
F
  0
LAYER
  5
2AF
100
AcDbSymbolTableRecord
100
AcDbLayerTableRecord
  2
I3-TO-H12-VIMAR_1080000_1
 70
0
 62
7
  6
CONTINUOUS
370
-3
390
F
  0
LAYER
  5
2B0
100
AcDbSymbolTableRecord
100
AcDbLayerTableRecord
  2
I3-TO-H2-7C-VIMAR_2040000
 70
0
 62
7
  6
CONTINUOUS
370
-3
390
F
  0
LAYER
  5
2B1
100
AcDbSymbolTableRecord
100
AcDbLayerTableRecord
  2
I3-TO-H2-VIMAR_1130000
 70
0
 62
7
  6
CONTINUOUS
370
-3
390
F
  0
LAYER
  5
2B2
100
AcDbSymbolTableRecord
100
AcDbLayerTableRecord
  2
I3-TO-H2-VIMAR_1130000_1
 70
0
 62
7
  6
CONTINUOUS
370
-3
390
F
  0
LAYER
  5
2B3
100
AcDbSymbolTableRecord
100
AcDbLayerTableRecord
  2
IMPORT_IGES
 70
0
 62
7
  6
CONTINUOUS
370
-3
390
F
  0
LAYER
  5
2B4
100
AcDbSymbolTableRecord
100
AcDbLayerTableRecord
  2
INDC3216X130N_130000
 70
0
 62
7
  6
CONTINUOUS
370
-3
390
F
  0
LAYER
  5
2B5
100
AcDbSymbolTableRecord
100
AcDbLayerTableRecord
  2
INDC3216X130N_130000_1
 70
0
 62
7
  6
CONTINUOUS
370
-3
390
F
  0
LAYER
  5
2B6
100
AcDbSymbolTableRecord
100
AcDbLayerTableRecord
  2
INTFCLR_1
 70
0
 62
7
  6
CONTINUOUS
370
-3
390
F
  0
LAYER
  5
2B7
100
AcDbSymbolTableRecord
100
AcDbLayerTableRecord
  2
INTFCLR_229
 70
0
 62
7
  6
CONTINUOUS
370
-3
390
F
  0
LAYER
  5
2B8
100
AcDbSymbolTableRecord
100
AcDbLayerTableRecord
  2
INTF_1
 70
0
 62
7
  6
CONTINUOUS
370
-3
390
F
  0
LAYER
  5
2B9
100
AcDbSymbolTableRecord
100
AcDbLayerTableRecord
  2
INTF_2
 70
0
 62
7
  6
CONTINUOUS
370
-3
390
F
  0
LAYER
  5
2BA
100
AcDbSymbolTableRecord
100
AcDbLayerTableRecord
  2
INTF_8
 70
0
 62
7
  6
CONTINUOUS
370
-3
390
F
  0
LAYER
  5
2BB
100
AcDbSymbolTableRecord
100
AcDbLayerTableRecord
  2
INTF_BLANK
 70
0
 62
7
  6
CONTINUOUS
370
-3
390
F
  0
LAYER
  5
2BC
100
AcDbSymbolTableRecord
100
AcDbLayerTableRecord
  2
INTF_YELLOW
 70
0
 62
7
  6
CONTINUOUS
370
-3
390
F
  0
LAYER
  5
2BD
100
AcDbSymbolTableRecord
100
AcDbLayerTableRecord
  2
LOGO_RESIST-RESTYLING_10000
 70
0
 62
7
  6
CONTINUOUS
370
-3
390
F
  0
LAYER
  5
2BE
100
AcDbSymbolTableRecord
100
AcDbLayerTableRecord
  2
LOGO_RESIST-RESTYLING_10000_1
 70
0
 62
7
  6
CONTINUOUS
370
-3
390
F
  0
LAYER
  5
2BF
100
AcDbSymbolTableRecord
100
AcDbLayerTableRecord
  2
MM2-SWITCH-1-VIMAR_150000
 70
0
 62
7
  6
CONTINUOUS
370
-3
390
F
  0
LAYER
  5
2C0
100
AcDbSymbolTableRecord
100
AcDbLayerTableRecord
  2
MM3-DPAK-1-VIMAR_240000
 70
0
 62
7
  6
CONTINUOUS
370
-3
390
F
  0
LAYER
  5
2C1
100
AcDbSymbolTableRecord
100
AcDbLayerTableRecord
  2
MM3-DPAK-1-VIMAR_240000_1
 70
0
 62
7
  6
CONTINUOUS
370
-3
390
F
  0
LAYER
  5
2C2
100
AcDbSymbolTableRecord
100
AcDbLayerTableRecord
  2
MM3-DPAK-1-VIMAR_240000_2
 70
0
 62
7
  6
CONTINUOUS
370
-3
390
F
  0
LAYER
  5
2C3
100
AcDbSymbolTableRecord
100
AcDbLayerTableRecord
  2
MM3-MPAK-RF-VIMAR_120000
 70
0
 62
7
  6
CONTINUOUS
370
-3
390
F
  0
LAYER
  5
2C4
100
AcDbSymbolTableRecord
100
AcDbLayerTableRecord
  2
MM3-MPAK-RF-VIMAR_120000_1
 70
0
 62
7
  6
CONTINUOUS
370
-3
390
F
  0
LAYER
  5
2C5
100
AcDbSymbolTableRecord
100
AcDbLayerTableRecord
  2
MM3-MPAK-RF-VIMAR_120000_2
 70
0
 62
7
  6
CONTINUOUS
370
-3
390
F
  0
LAYER
  5
2C6
100
AcDbSymbolTableRecord
100
AcDbLayerTableRecord
  2
MM3-MPAK-RF-VIMAR_120000_3
 70
0
 62
7
  6
CONTINUOUS
370
-3
390
F
  0
LAYER
  5
2C7
100
AcDbSymbolTableRecord
100
AcDbLayerTableRecord
  2
MM3-MPAK-RF-VIMAR_120000_4
 70
0
 62
7
  6
CONTINUOUS
370
-3
390
F
  0
LAYER
  5
2C8
100
AcDbSymbolTableRecord
100
AcDbLayerTableRecord
  2
MM3-SOT-223-RF-VIMAR_180000
 70
0
 62
7
  6
CONTINUOUS
370
-3
390
F
  0
LAYER
  5
2C9
100
AcDbSymbolTableRecord
100
AcDbLayerTableRecord
  2
MM3-SOT-89-RF-VIMAR_150000
 70
0
 62
7
  6
CONTINUOUS
370
-3
390
F
  0
LAYER
  5
2CA
100
AcDbSymbolTableRecord
100
AcDbLayerTableRecord
  2
MM4-MB-1-VIMAR_290000
 70
0
 62
7
  6
CONTINUOUS
370
-3
390
F
  0
LAYER
  5
2CB
100
AcDbSymbolTableRecord
100
AcDbLayerTableRecord
  2
MM4-SSOP-1-VIMAR_210000
 70
0
 62
7
  6
CONTINUOUS
370
-3
390
F
  0
LAYER
  5
2CC
100
AcDbSymbolTableRecord
100
AcDbLayerTableRecord
  2
MM5-FMT-RF_120000
 70
0
 62
7
  6
CONTINUOUS
370
-3
390
F
  0
LAYER
  5
2CD
100
AcDbSymbolTableRecord
100
AcDbLayerTableRecord
  2
NO-PB_MARK_10000
 70
0
 62
7
  6
CONTINUOUS
370
-3
390
F
  0
LAYER
  5
2CE
100
AcDbSymbolTableRecord
100
AcDbLayerTableRecord
  2
NO-PB_MARK_10000_1
 70
0
 62
7
  6
CONTINUOUS
370
-3
390
F
  0
LAYER
  5
2CF
100
AcDbSymbolTableRecord
100
AcDbLayerTableRecord
  2
NOTE
 70
0
 62
7
  6
CONTINUOUS
370
-3
390
F
  0
LAYER
  5
2D0
100
AcDbSymbolTableRecord
100
AcDbLayerTableRecord
  2
PIANI
 70
0
 62
7
  6
CONTINUOUS
370
-3
390
F
  0
LAYER
  5
2D1
100
AcDbSymbolTableRecord
100
AcDbLayerTableRecord
  2
PIANI_ORIGINE
 70
0
 62
7
  6
CONTINUOUS
370
-3
390
F
  0
LAYER
  5
2D2
100
AcDbSymbolTableRecord
100
AcDbLayerTableRecord
  2
PTC_RGEF250_1280000
 70
0
 62
7
  6
CONTINUOUS
370
-3
390
F
  0
LAYER
  5
2D3
100
AcDbSymbolTableRecord
100
AcDbLayerTableRecord
  2
PTC_RKEF110_1280000
 70
0
 62
7
  6
CONTINUOUS
370
-3
390
F
  0
LAYER
  5
2D4
100
AcDbSymbolTableRecord
100
AcDbLayerTableRecord
  2
PTC_RUEF135_1350000
 70
0
 62
7
  6
CONTINUOUS
370
-3
390
F
  0
LAYER
  5
2D5
100
AcDbSymbolTableRecord
100
AcDbLayerTableRecord
  2
PUNTI
 70
0
 62
7
  6
CONTINUOUS
370
-3
390
F
  0
LAYER
  5
2D6
100
AcDbSymbolTableRecord
100
AcDbLayerTableRecord
  2
QFP32-M_0
 70
0
 62
7
  6
CONTINUOUS
370
-3
390
F
  0
LAYER
  5
2D7
100
AcDbSymbolTableRecord
100
AcDbLayerTableRecord
  2
RACCORDO
 70
0
 62
7
  6
CONTINUOUS
370
-3
390
F
  0
LAYER
  5
2D8
100
AcDbSymbolTableRecord
100
AcDbLayerTableRecord
  2
RD-C100-5-VIMAR_1250000
 70
0
 62
7
  6
CONTINUOUS
370
-3
390
F
  0
LAYER
  5
2D9
100
AcDbSymbolTableRecord
100
AcDbLayerTableRecord
  2
RD-C100-5-VIMAR_1250000_1
 70
0
 62
7
  6
CONTINUOUS
370
-3
390
F
  0
LAYER
  5
2DA
100
AcDbSymbolTableRecord
100
AcDbLayerTableRecord
  2
RD-C150-2-VIMAR_1350000
 70
0
 62
7
  6
CONTINUOUS
370
-3
390
F
  0
LAYER
  5
2DB
100
AcDbSymbolTableRecord
100
AcDbLayerTableRecord
  2
RD-C150-2-VIMAR_1350000_1
 70
0
 62
7
  6
CONTINUOUS
370
-3
390
F
  0
LAYER
  5
2DC
100
AcDbSymbolTableRecord
100
AcDbLayerTableRecord
  2
RD-C150-4-VIMAR_1200000
 70
0
 62
7
  6
CONTINUOUS
370
-3
390
F
  0
LAYER
  5
2DD
100
AcDbSymbolTableRecord
100
AcDbLayerTableRecord
  2
RD-C150-8-VIMAR_1650000
 70
0
 62
7
  6
CONTINUOUS
370
-3
390
F
  0
LAYER
  5
2DE
100
AcDbSymbolTableRecord
100
AcDbLayerTableRecord
  2
RD-C150-8-VIMAR_1750000
 70
0
 62
7
  6
CONTINUOUS
370
-3
390
F
  0
LAYER
  5
2DF
100
AcDbSymbolTableRecord
100
AcDbLayerTableRecord
  2
RD-C50-1-VIMAR_800000
 70
0
 62
7
  6
CONTINUOUS
370
-3
390
F
  0
LAYER
  5
2E0
100
AcDbSymbolTableRecord
100
AcDbLayerTableRecord
  2
RD-C50-10-VIMAR_650000
 70
0
 62
7
  6
CONTINUOUS
370
-3
390
F
  0
LAYER
  5
2E1
100
AcDbSymbolTableRecord
100
AcDbLayerTableRecord
  2
RD-C50-10-VIMAR_650000_1
 70
0
 62
7
  6
CONTINUOUS
370
-3
390
F
  0
LAYER
  5
2E2
100
AcDbSymbolTableRecord
100
AcDbLayerTableRecord
  2
RD-C50-3-VIMAR_1100000
 70
0
 62
7
  6
CONTINUOUS
370
-3
390
F
  0
LAYER
  5
2E3
100
AcDbSymbolTableRecord
100
AcDbLayerTableRecord
  2
RD-CE15-VIMAR_700000
 70
0
 62
7
  6
CONTINUOUS
370
-3
390
F
  0
LAYER
  5
2E4
100
AcDbSymbolTableRecord
100
AcDbLayerTableRecord
  2
RD-CE20-1-VIMAR_1100000
 70
0
 62
7
  6
CONTINUOUS
370
-3
390
F
  0
LAYER
  5
2E5
100
AcDbSymbolTableRecord
100
AcDbLayerTableRecord
  2
RD-CE20-1-VIMAR_1100000_1
 70
0
 62
7
  6
CONTINUOUS
370
-3
390
F
  0
LAYER
  5
2E6
100
AcDbSymbolTableRecord
100
AcDbLayerTableRecord
  2
RD-CE20-1-VIMAR_1100000_2
 70
0
 62
7
  6
CONTINUOUS
370
-3
390
F
  0
LAYER
  5
2E7
100
AcDbSymbolTableRecord
100
AcDbLayerTableRecord
  2
RD-CE20-1-VIMAR_1100000_3
 70
0
 62
7
  6
CONTINUOUS
370
-3
390
F
  0
LAYER
  5
2E8
100
AcDbSymbolTableRecord
100
AcDbLayerTableRecord
  2
RD-CE20-1-VIMAR_1100000_4
 70
0
 62
7
  6
CONTINUOUS
370
-3
390
F
  0
LAYER
  5
2E9
100
AcDbSymbolTableRecord
100
AcDbLayerTableRecord
  2
RD-CE20-1-VIMAR_700000
 70
0
 62
7
  6
CONTINUOUS
370
-3
390
F
  0
LAYER
  5
2EA
100
AcDbSymbolTableRecord
100
AcDbLayerTableRecord
  2
RD-CE20-1-VIMAR_700000_1
 70
0
 62
7
  6
CONTINUOUS
370
-3
390
F
  0
LAYER
  5
2EB
100
AcDbSymbolTableRecord
100
AcDbLayerTableRecord
  2
RD-CE20-1-VIMAR_700000_2
 70
0
 62
7
  6
CONTINUOUS
370
-3
390
F
  0
LAYER
  5
2EC
100
AcDbSymbolTableRecord
100
AcDbLayerTableRecord
  2
RD-CE20-1-VIMAR_700000_3
 70
0
 62
7
  6
CONTINUOUS
370
-3
390
F
  0
LAYER
  5
2ED
100
AcDbSymbolTableRecord
100
AcDbLayerTableRecord
  2
RD-CE20-1-VIMAR_700000_4
 70
0
 62
7
  6
CONTINUOUS
370
-3
390
F
  0
LAYER
  5
2EE
100
AcDbSymbolTableRecord
100
AcDbLayerTableRecord
  2
RD-CE25-1-VIMAR_1100000
 70
0
 62
7
  6
CONTINUOUS
370
-3
390
F
  0
LAYER
  5
2EF
100
AcDbSymbolTableRecord
100
AcDbLayerTableRecord
  2
RD-CE25-1-VIMAR_1100000_1
 70
0
 62
7
  6
CONTINUOUS
370
-3
390
F
  0
LAYER
  5
2F0
100
AcDbSymbolTableRecord
100
AcDbLayerTableRecord
  2
RD-CE50-2-VIMAR_1600000
 70
0
 62
7
  6
CONTINUOUS
370
-3
390
F
  0
LAYER
  5
2F1
100
AcDbSymbolTableRecord
100
AcDbLayerTableRecord
  2
RD-CE50-2-VIMAR_1600000_1
 70
0
 62
7
  6
CONTINUOUS
370
-3
390
F
  0
LAYER
  5
2F2
100
AcDbSymbolTableRecord
100
AcDbLayerTableRecord
  2
RD-CE50-2-VIMAR_1600000_2
 70
0
 62
7
  6
CONTINUOUS
370
-3
390
F
  0
LAYER
  5
2F3
100
AcDbSymbolTableRecord
100
AcDbLayerTableRecord
  2
RD-CE50-3-VIMAR_2000000
 70
0
 62
7
  6
CONTINUOUS
370
-3
390
F
  0
LAYER
  5
2F4
100
AcDbSymbolTableRecord
100
AcDbLayerTableRecord
  2
RD-CE50-4-VIMAR_2000000
 70
0
 62
7
  6
CONTINUOUS
370
-3
390
F
  0
LAYER
  5
2F5
100
AcDbSymbolTableRecord
100
AcDbLayerTableRecord
  2
RD-CE50-5-VIMAR_2500000
 70
0
 62
7
  6
CONTINUOUS
370
-3
390
F
  0
LAYER
  5
2F6
100
AcDbSymbolTableRecord
100
AcDbLayerTableRecord
  2
RD-CE50-5-VIMAR_2500000_1
 70
0
 62
7
  6
CONTINUOUS
370
-3
390
F
  0
LAYER
  5
2F7
100
AcDbSymbolTableRecord
100
AcDbLayerTableRecord
  2
RD-CE50-5-VIMAR_2500000_2
 70
0
 62
7
  6
CONTINUOUS
370
-3
390
F
  0
LAYER
  5
2F8
100
AcDbSymbolTableRecord
100
AcDbLayerTableRecord
  2
RD-CE75-4-VIMAR_2000000
 70
0
 62
7
  6
CONTINUOUS
370
-3
390
F
  0
LAYER
  5
2F9
100
AcDbSymbolTableRecord
100
AcDbLayerTableRecord
  2
RD-CE75-4-VIMAR_2000000_1
 70
0
 62
7
  6
CONTINUOUS
370
-3
390
F
  0
LAYER
  5
2FA
100
AcDbSymbolTableRecord
100
AcDbLayerTableRecord
  2
RD-CE75-4-VIMAR_2000000_2
 70
0
 62
7
  6
CONTINUOUS
370
-3
390
F
  0
LAYER
  5
2FB
100
AcDbSymbolTableRecord
100
AcDbLayerTableRecord
  2
RD-CE75-4-VIMAR_2500000
 70
0
 62
7
  6
CONTINUOUS
370
-3
390
F
  0
LAYER
  5
2FC
100
AcDbSymbolTableRecord
100
AcDbLayerTableRecord
  2
RD-CE75-4-VIMAR_2500000_1
 70
0
 62
7
  6
CONTINUOUS
370
-3
390
F
  0
LAYER
  5
2FD
100
AcDbSymbolTableRecord
100
AcDbLayerTableRecord
  2
RD-D-D3P5-VIMAR_1500000
 70
0
 62
7
  6
CONTINUOUS
370
-3
390
F
  0
LAYER
  5
2FE
100
AcDbSymbolTableRecord
100
AcDbLayerTableRecord
  2
RD-D-D3P5-VIMAR_1500000_1
 70
0
 62
7
  6
CONTINUOUS
370
-3
390
F
  0
LAYER
  5
2FF
100
AcDbSymbolTableRecord
100
AcDbLayerTableRecord
  2
RD-D-D3P5-VIMAR_1500000_2
 70
0
 62
7
  6
CONTINUOUS
370
-3
390
F
  0
LAYER
  5
300
100
AcDbSymbolTableRecord
100
AcDbLayerTableRecord
  2
RD-D-D3P5-VIMAR_1500000_3
 70
0
 62
7
  6
CONTINUOUS
370
-3
390
F
  0
LAYER
  5
301
100
AcDbSymbolTableRecord
100
AcDbLayerTableRecord
  2
RD-D-D5_5P7_5_VIMAR_1800000
 70
0
 62
7
  6
CONTINUOUS
370
-3
390
F
  0
LAYER
  5
302
100
AcDbSymbolTableRecord
100
AcDbLayerTableRecord
  2
RD-D50-1-VIMAR_1100000
 70
0
 62
7
  6
CONTINUOUS
370
-3
390
F
  0
LAYER
  5
303
100
AcDbSymbolTableRecord
100
AcDbLayerTableRecord
  2
RD-L-D13H15P5-VIMAR_1500000
 70
0
 62
7
  6
CONTINUOUS
370
-3
390
F
  0
LAYER
  5
304
100
AcDbSymbolTableRecord
100
AcDbLayerTableRecord
  2
RD-L2-1-VIMAR_1850000
 70
0
 62
7
  6
CONTINUOUS
370
-3
390
F
  0
LAYER
  5
305
100
AcDbSymbolTableRecord
100
AcDbLayerTableRecord
  2
RD-L2-1-VIMAR_2030000
 70
0
 62
7
  6
CONTINUOUS
370
-3
390
F
  0
LAYER
  5
306
100
AcDbSymbolTableRecord
100
AcDbLayerTableRecord
  2
RD-L50-4-VIMAR_1000000
 70
0
 62
7
  6
CONTINUOUS
370
-3
390
F
  0
LAYER
  5
307
100
AcDbSymbolTableRecord
100
AcDbLayerTableRecord
  2
RD-L50-4-VIMAR_1000000_1
 70
0
 62
7
  6
CONTINUOUS
370
-3
390
F
  0
LAYER
  5
308
100
AcDbSymbolTableRecord
100
AcDbLayerTableRecord
  2
RD-L50-4-VIMAR_1000000_2
 70
0
 62
7
  6
CONTINUOUS
370
-3
390
F
  0
LAYER
  5
309
100
AcDbSymbolTableRecord
100
AcDbLayerTableRecord
  2
RD-L50-5-VIMAR_1300000
 70
0
 62
7
  6
CONTINUOUS
370
-3
390
F
  0
LAYER
  5
30A
100
AcDbSymbolTableRecord
100
AcDbLayerTableRecord
  2
RD-PT6V-VIMAR_400000
 70
0
 62
7
  6
CONTINUOUS
370
-3
390
F
  0
LAYER
  5
30B
100
AcDbSymbolTableRecord
100
AcDbLayerTableRecord
  2
RD-R50-1W-1-VIMAR_1700000
 70
0
 62
7
  6
CONTINUOUS
370
-3
390
F
  0
LAYER
  5
30C
100
AcDbSymbolTableRecord
100
AcDbLayerTableRecord
  2
RD-R50-1W-1-VIMAR_1700000_1
 70
0
 62
7
  6
CONTINUOUS
370
-3
390
F
  0
LAYER
  5
30D
100
AcDbSymbolTableRecord
100
AcDbLayerTableRecord
  2
RD-R50-3-VIMAR_1000000
 70
0
 62
7
  6
CONTINUOUS
370
-3
390
F
  0
LAYER
  5
30E
100
AcDbSymbolTableRecord
100
AcDbLayerTableRecord
  2
RD-R50-3-VIMAR_1000000_1
 70
0
 62
7
  6
CONTINUOUS
370
-3
390
F
  0
LAYER
  5
30F
100
AcDbSymbolTableRecord
100
AcDbLayerTableRecord
  2
RD-R50-3-VIMAR_1000000_2
 70
0
 62
7
  6
CONTINUOUS
370
-3
390
F
  0
LAYER
  5
310
100
AcDbSymbolTableRecord
100
AcDbLayerTableRecord
  2
RD-R75-1W-1-VIMAR_1400000
 70
0
 62
7
  6
CONTINUOUS
370
-3
390
F
  0
LAYER
  5
311
100
AcDbSymbolTableRecord
100
AcDbLayerTableRecord
  2
RD-ZNR75-1-VIMAR_1450000
 70
0
 62
7
  6
CONTINUOUS
370
-3
390
F
  0
LAYER
  5
312
100
AcDbSymbolTableRecord
100
AcDbLayerTableRecord
  2
RD-ZNR75-1-VIMAR_1450000_1
 70
0
 62
7
  6
CONTINUOUS
370
-3
390
F
  0
LAYER
  5
313
100
AcDbSymbolTableRecord
100
AcDbLayerTableRecord
  2
RESC1608N_45000
 70
0
 62
7
  6
CONTINUOUS
370
-3
390
F
  0
LAYER
  5
314
100
AcDbSymbolTableRecord
100
AcDbLayerTableRecord
  2
RESC1608N_45000_1
 70
0
 62
7
  6
CONTINUOUS
370
-3
390
F
  0
LAYER
  5
315
100
AcDbSymbolTableRecord
100
AcDbLayerTableRecord
  2
RESC1608N_45000_10
 70
0
 62
7
  6
CONTINUOUS
370
-3
390
F
  0
LAYER
  5
316
100
AcDbSymbolTableRecord
100
AcDbLayerTableRecord
  2
RESC1608N_45000_11
 70
0
 62
7
  6
CONTINUOUS
370
-3
390
F
  0
LAYER
  5
317
100
AcDbSymbolTableRecord
100
AcDbLayerTableRecord
  2
RESC1608N_45000_12
 70
0
 62
7
  6
CONTINUOUS
370
-3
390
F
  0
LAYER
  5
318
100
AcDbSymbolTableRecord
100
AcDbLayerTableRecord
  2
RESC1608N_45000_13
 70
0
 62
7
  6
CONTINUOUS
370
-3
390
F
  0
LAYER
  5
319
100
AcDbSymbolTableRecord
100
AcDbLayerTableRecord
  2
RESC1608N_45000_14
 70
0
 62
7
  6
CONTINUOUS
370
-3
390
F
  0
LAYER
  5
31A
100
AcDbSymbolTableRecord
100
AcDbLayerTableRecord
  2
RESC1608N_45000_15
 70
0
 62
7
  6
CONTINUOUS
370
-3
390
F
  0
LAYER
  5
31B
100
AcDbSymbolTableRecord
100
AcDbLayerTableRecord
  2
RESC1608N_45000_16
 70
0
 62
7
  6
CONTINUOUS
370
-3
390
F
  0
LAYER
  5
31C
100
AcDbSymbolTableRecord
100
AcDbLayerTableRecord
  2
RESC1608N_45000_17
 70
0
 62
7
  6
CONTINUOUS
370
-3
390
F
  0
LAYER
  5
31D
100
AcDbSymbolTableRecord
100
AcDbLayerTableRecord
  2
RESC1608N_45000_18
 70
0
 62
7
  6
CONTINUOUS
370
-3
390
F
  0
LAYER
  5
31E
100
AcDbSymbolTableRecord
100
AcDbLayerTableRecord
  2
RESC1608N_45000_19
 70
0
 62
7
  6
CONTINUOUS
370
-3
390
F
  0
LAYER
  5
31F
100
AcDbSymbolTableRecord
100
AcDbLayerTableRecord
  2
RESC1608N_45000_2
 70
0
 62
7
  6
CONTINUOUS
370
-3
390
F
  0
LAYER
  5
320
100
AcDbSymbolTableRecord
100
AcDbLayerTableRecord
  2
RESC1608N_45000_20
 70
0
 62
7
  6
CONTINUOUS
370
-3
390
F
  0
LAYER
  5
321
100
AcDbSymbolTableRecord
100
AcDbLayerTableRecord
  2
RESC1608N_45000_21
 70
0
 62
7
  6
CONTINUOUS
370
-3
390
F
  0
LAYER
  5
322
100
AcDbSymbolTableRecord
100
AcDbLayerTableRecord
  2
RESC1608N_45000_3
 70
0
 62
7
  6
CONTINUOUS
370
-3
390
F
  0
LAYER
  5
323
100
AcDbSymbolTableRecord
100
AcDbLayerTableRecord
  2
RESC1608N_45000_4
 70
0
 62
7
  6
CONTINUOUS
370
-3
390
F
  0
LAYER
  5
324
100
AcDbSymbolTableRecord
100
AcDbLayerTableRecord
  2
RESC1608N_45000_5
 70
0
 62
7
  6
CONTINUOUS
370
-3
390
F
  0
LAYER
  5
325
100
AcDbSymbolTableRecord
100
AcDbLayerTableRecord
  2
RESC1608N_45000_6
 70
0
 62
7
  6
CONTINUOUS
370
-3
390
F
  0
LAYER
  5
326
100
AcDbSymbolTableRecord
100
AcDbLayerTableRecord
  2
RESC1608N_45000_7
 70
0
 62
7
  6
CONTINUOUS
370
-3
390
F
  0
LAYER
  5
327
100
AcDbSymbolTableRecord
100
AcDbLayerTableRecord
  2
RESC1608N_45000_8
 70
0
 62
7
  6
CONTINUOUS
370
-3
390
F
  0
LAYER
  5
328
100
AcDbSymbolTableRecord
100
AcDbLayerTableRecord
  2
RESC1608N_45000_9
 70
0
 62
7
  6
CONTINUOUS
370
-3
390
F
  0
LAYER
  5
329
100
AcDbSymbolTableRecord
100
AcDbLayerTableRecord
  2
RESC5025X70N_70000
 70
0
 62
7
  6
CONTINUOUS
370
-3
390
F
  0
LAYER
  5
32A
100
AcDbSymbolTableRecord
100
AcDbLayerTableRecord
  2
RESC5025X70N_70000_1
 70
0
 62
7
  6
CONTINUOUS
370
-3
390
F
  0
LAYER
  5
32B
100
AcDbSymbolTableRecord
100
AcDbLayerTableRecord
  2
S-PB-4_5X6_5_H13_PIH_VIMAR_1480
 70
0
 62
7
  6
CONTINUOUS
370
-3
390
F
  0
LAYER
  5
32C
100
AcDbSymbolTableRecord
100
AcDbLayerTableRecord
  2
SIMBOLI
 70
0
 62
7
  6
CONTINUOUS
370
-3
390
F
  0
LAYER
  5
32D
100
AcDbSymbolTableRecord
100
AcDbLayerTableRecord
  2
SMUSSO
 70
0
 62
7
  6
CONTINUOUS
370
-3
390
F
  0
LAYER
  5
32E
100
AcDbSymbolTableRecord
100
AcDbLayerTableRecord
  2
SNAPLINE
 70
0
 62
7
  6
CONTINUOUS
370
-3
390
F
  0
LAYER
  5
32F
100
AcDbSymbolTableRecord
100
AcDbLayerTableRecord
  2
SOD323_125000
 70
0
 62
7
  6
CONTINUOUS
370
-3
390
F
  0
LAYER
  5
330
100
AcDbSymbolTableRecord
100
AcDbLayerTableRecord
  2
SOP4-T1-RF-VIMAR_350000
 70
0
 62
7
  6
CONTINUOUS
370
-3
390
F
  0
LAYER
  5
331
100
AcDbSymbolTableRecord
100
AcDbLayerTableRecord
  2
SOP4-T1-RF-VIMAR_350000_1
 70
0
 62
7
  6
CONTINUOUS
370
-3
390
F
  0
LAYER
  5
332
100
AcDbSymbolTableRecord
100
AcDbLayerTableRecord
  2
SOP4-T1-RF-VIMAR_350000_2
 70
0
 62
7
  6
CONTINUOUS
370
-3
390
F
  0
LAYER
  5
333
100
AcDbSymbolTableRecord
100
AcDbLayerTableRecord
  2
SOP8-EP-VIMAR_175000
 70
0
 62
7
  6
CONTINUOUS
370
-3
390
F
  0
LAYER
  5
334
100
AcDbSymbolTableRecord
100
AcDbLayerTableRecord
  2
SUPERFICI
 70
0
 62
7
  6
CONTINUOUS
370
-3
390
F
  0
LAYER
  5
335
100
AcDbSymbolTableRecord
100
AcDbLayerTableRecord
  2
TP10_SMD_0
 70
0
 62
7
  6
CONTINUOUS
370
-3
390
F
  0
LAYER
  5
336
100
AcDbSymbolTableRecord
100
AcDbLayerTableRecord
  2
TP10_SMD_0_1
 70
0
 62
7
  6
CONTINUOUS
370
-3
390
F
  0
LAYER
  5
337
100
AcDbSymbolTableRecord
100
AcDbLayerTableRecord
  2
TP10_SMD_0_2
 70
0
 62
7
  6
CONTINUOUS
370
-3
390
F
  0
LAYER
  5
338
100
AcDbSymbolTableRecord
100
AcDbLayerTableRecord
  2
TP10_SMD_0_3
 70
0
 62
7
  6
CONTINUOUS
370
-3
390
F
  0
LAYER
  5
339
100
AcDbSymbolTableRecord
100
AcDbLayerTableRecord
  2
TP10_SMD_0_4
 70
0
 62
7
  6
CONTINUOUS
370
-3
390
F
  0
LAYER
  5
33A
100
AcDbSymbolTableRecord
100
AcDbLayerTableRecord
  2
TP10_SMD_0_5
 70
0
 62
7
  6
CONTINUOUS
370
-3
390
F
  0
LAYER
  5
33B
100
AcDbSymbolTableRecord
100
AcDbLayerTableRecord
  2
TP10_SMD_0_6
 70
0
 62
7
  6
CONTINUOUS
370
-3
390
F
  0
LAYER
  5
33C
100
AcDbSymbolTableRecord
100
AcDbLayerTableRecord
  2
TP10_SMD_0_7
 70
0
 62
7
  6
CONTINUOUS
370
-3
390
F
  0
LAYER
  5
33D
100
AcDbSymbolTableRecord
100
AcDbLayerTableRecord
  2
TR-E32-1_2400000
 70
0
 62
7
  6
CONTINUOUS
370
-3
390
F
  0
LAYER
  5
33E
100
AcDbSymbolTableRecord
100
AcDbLayerTableRecord
  2
TRASH
 70
0
 62
7
  6
CONTINUOUS
370
-3
390
F
  0
LAYER
  5
33F
100
AcDbSymbolTableRecord
100
AcDbLayerTableRecord
  2
UMT-250_60000
 70
0
 62
7
  6
CONTINUOUS
370
-3
390
F
  0
LAYER
  5
340
100
AcDbSymbolTableRecord
100
AcDbLayerTableRecord
  2
UMT-250_60000_1
 70
0
 62
7
  6
CONTINUOUS
370
-3
390
F
  0
LAYER
  5
341
100
AcDbSymbolTableRecord
100
AcDbLayerTableRecord
  2
XSEC_DATUMS
 70
0
 62
7
  6
CONTINUOUS
370
-3
390
F
  0
LAYER
  5
342
100
AcDbSymbolTableRecord
100
AcDbLayerTableRecord
  2
___SHELL
 70
0
 62
7
  6
CONTINUOUS
370
-3
390
F
  0
ENDTAB
  0
TABLE
  2
STYLE
  5
3
100
AcDbSymbolTable
 70
1
  0
STYLE
  5
11
100
AcDbSymbolTableRecord
100
AcDbTextStyleTableRecord
  2
STANDARD
 70
0
 40
0.0
 41
0.8
 50
0.0
 71
0
 42
0.2
  3
txt
  4

  0
STYLE
  5
343
100
AcDbSymbolTableRecord
100
AcDbTextStyleTableRecord
  2
TEXTSTYLE_1
 70
0
 40
0.0
 41
0.8
 50
0.0
 71
0
 42
0.2
  3
gdt
  4

  0
ENDTAB
  0
TABLE
  2
VIEW
  5
6
100
AcDbSymbolTable
 70
0
  0
ENDTAB
  0
TABLE
  2
UCS
  5
7
100
AcDbSymbolTable
 70
0
  0
ENDTAB
  0
TABLE
  2
APPID
  5
9
100
AcDbSymbolTable
 70
1
  0
APPID
  5
344
100
AcDbSymbolTableRecord
100
AcDbRegAppTableRecord
  2
ACAD
 70
0
  0
ENDTAB
  0
TABLE
  2
BLOCK_RECORD
  5
1
100
AcDbSymbolTable
 70
0
  0
BLOCK_RECORD
  5
345
100
AcDbSymbolTableRecord
100
AcDbBlockTableRecord
  2
*Model_Space
  0
BLOCK_RECORD
  5
346
100
AcDbSymbolTableRecord
100
AcDbBlockTableRecord
  2
*Paper_Space
  0
ENDTAB
  0
TABLE
  2
DIMSTYLE
  5
A
100
AcDbSymbolTable
 70
1
100
AcDbDimStyleTable
 71
0
  0
DIMSTYLE
105
347
100
AcDbSymbolTableRecord
100
AcDbDimStyleTableRecord
  2
STANDARD
 70
0
  3

  4

 40
1.0
 41
3.0
 42
0.5
 43
0.38
 44
1.5
 45
0.0
 46
0.0
 47
0.01
 48
0.01
140
3.0
141
0.09
142
0.0
143
25.4
144
1.0
145
0.0
146
1.0
147
0.625
 71
1.0
 72
0.0
 73
0
 74
0
 75
0
 76
0
 77
1
 78
8
170
0
171
2
172
0
173
0
174
0
175
0
176
0
177
0
178
0
270
2
271
2
272
2
273
2
274
2
275
0
280
0
281
0
282
0
283
1
284
8
285
0
286
0
287
3
288
0
340
11
278
44
  0
ENDTAB
  0
ENDSEC
  0
SECTION
  2
BLOCKS
  0
BLOCK
  5
20
100
AcDbEntity
  8
0
100
AcDbBlockBegin
  2
*Model_Space
 70
0
 10
0.0
 20
0.0
 30
0.0
  3
*Model_Space
  1

  0
ENDBLK
  5
21
100
AcDbEntity
  8
0
100
AcDbBlockEnd
  0
BLOCK
  5
1C
100
AcDbEntity
  8
0
100
AcDbBlockBegin
  2
*Paper_Space
 70
0
 10
0.0
 20
0.0
 30
0.0
  3
*Paper_Space
  1

  0
ENDBLK
  5
1D
100
AcDbEntity
  8
0
100
AcDbBlockEnd
  0
ENDSEC
  0
SECTION
  2
ENTITIES
  0
LWPOLYLINE
  5
348
100
AcDbEntity
  8
RACCORDO
100
AcDbPolyline
 62
7
  6
CONTINUOUS
 90
31
 70
0
 10
-108.0598969098
 20
-24.0699475954
 10
-108.0499403547
 20
-24.2057119313
 10
-108.0337863536
 20
-24.3405915211
 10
-108.0114349064
 20
-24.4745863647
 10
-107.9827825716
 20
-24.6081288487
 10
-107.9479327907
 20
-24.7407865865
 10
-107.9071958889
 20
-24.8712624185
 10
-107.8605305818
 20
-24.9993965697
 10
-107.8079781537
 20
-25.1253488151
 10
-107.7499727831
 20
-25.248301319
 10
-107.6866294734
 20
-25.3680494519
 10
-107.6178332211
 20
-25.4847978434
 10
-107.5436731942
 20
-25.5983425473
 10
-107.4639463374
 20
-25.7089511514
 10
-107.378855706
 20
-25.8163560679
 10
-107.2890996341
 20
-25.9195505877
 10
-107.1945969661
 20
-26.0184634766
 10
-107.0954288576
 20
-26.1131659689
 10
-106.9925371095
 20
-26.2028650579
 10
-106.8861679362
 20
-26.2873335643
 10
-106.7760751233
 20
-26.3667986674
 10
-106.6624618291
 20
-26.4411488993
 10
-106.545139591
 20
-26.5105149405
 10
-106.4242968715
 20
-26.5747661105
 10
-106.3007022168
 20
-26.6333989002
 10
-106.1741901578
 20
-26.6863897449
 10
-106.0449261636
 20
-26.7337622092
 10
-105.9141751877
 20
-26.775083478
 10
-105.7823588813
 20
-26.8102092795
 10
-105.6490555933
 20
-26.8392838854
 10
-105.5142653236
 20
-26.8623072958
  0
LWPOLYLINE
  5
349
100
AcDbEntity
  8
ASSI
100
AcDbPolyline
 62
7
  6
CONTINUOUS
 90
31
 70
0
 10
-108.0598969098
 20
-24.0699475954
 10
-108.0499403547
 20
-24.2057119313
 10
-108.0337863536
 20
-24.3405915211
 10
-108.0114349064
 20
-24.4745863647
 10
-107.9827825716
 20
-24.6081288487
 10
-107.9479327907
 20
-24.7407865865
 10
-107.9071958889
 20
-24.8712624185
 10
-107.8605305818
 20
-24.9993965697
 10
-107.8079781537
 20
-25.1253488151
 10
-107.7499727831
 20
-25.248301319
 10
-107.6866294734
 20
-25.3680494519
 10
-107.6178332211
 20
-25.4847978434
 10
-107.5436731942
 20
-25.5983425473
 10
-107.4639463374
 20
-25.7089511514
 10
-107.378855706
 20
-25.8163560679
 10
-107.2890996341
 20
-25.9195505877
 10
-107.1945969661
 20
-26.0184634766
 10
-107.0954288576
 20
-26.1131659689
 10
-106.9925371095
 20
-26.2028650579
 10
-106.8861679362
 20
-26.2873335643
 10
-106.7760751233
 20
-26.3667986674
 10
-106.6624618291
 20
-26.4411488993
 10
-106.545139591
 20
-26.5105149405
 10
-106.4242968715
 20
-26.5747661105
 10
-106.3007022168
 20
-26.6333989002
 10
-106.1741901578
 20
-26.6863897449
 10
-106.0449261636
 20
-26.7337622092
 10
-105.9141751877
 20
-26.775083478
 10
-105.7823588813
 20
-26.8102092795
 10
-105.6490555933
 20
-26.8392838854
 10
-105.5142653236
 20
-26.8623072958
  0
LINE
  5
34A
100
AcDbEntity
  8
RACCORDO
100
AcDbLine
 62
7
  6
CONTINUOUS
 10
-108.353403136
 20
-24.6675606558
 11
-108.3529332448
 21
-24.6765135316
  0
LINE
  5
34B
100
AcDbEntity
  8
ASSI
100
AcDbLine
 62
7
  6
CONTINUOUS
 10
-108.353403136
 20
-24.6675606558
 11
-108.3529332448
 21
-24.6765135316
  0
LWPOLYLINE
  5
34C
100
AcDbEntity
  8
DRAFT
100
AcDbPolyline
 62
7
  6
CONTINUOUS
 90
13
 70
0
 10
-106.6556206403
 20
-24.2408448798
 10
-106.8524998622
 20
-20.0409102159
 10
-107.0135860192
 20
-15.8400694297
 10
-107.1388791116
 20
-11.6383225211
 10
-107.2283829982
 20
-7.4353674492
 10
-107.28209382
 20
-3.231506255
 10
-107.3
 20
0.9723549392
 10
-107.28209382
 20
5.1762161335
 10
-107.2283829982
 20
9.3800773277
 10
-107.1388791116
 20
13.5830323995
 10
-107.0135860192
 20
17.7847793081
 10
-106.8524998622
 20
21.9856200944
 10
-106.6556206403
 20
26.1855547582
  0
LINE
  5
34D
100
AcDbEntity
  8
RACCORDO
100
AcDbLine
 62
253
  6
CONTINUOUS
 10
-105.5483319009
 20
-25.4548614272
 11
-105.5420598652
 21
-25.6506102586
  0
LWPOLYLINE
  5
34E
100
AcDbEntity
  8
RACCORDO
100
AcDbPolyline
 62
7
  6
CONTINUOUS
 90
7
 70
0
 10
-107.5
 20
0.9723549392
 10
-107.4820853872
 20
-3.2332701409
 10
-107.428350694
 20
-7.4388952211
 10
-107.3388096378
 20
-11.6435720307
 10
-107.2134667912
 20
-15.8469844798
 10
-107.0523175817
 20
-20.0494486585
 10
-106.8553620092
 20
-24.2509645666
  0
LWPOLYLINE
  5
34F
100
AcDbEntity
  8
ASSI
100
AcDbPolyline
 62
7
  6
CONTINUOUS
 90
7
 70
0
 10
-107.5
 20
0.9723549392
 10
-107.4820853872
 20
-3.2332701409
 10
-107.428350694
 20
-7.4388952211
 10
-107.3388096378
 20
-11.6435720307
 10
-107.2134667912
 20
-15.8469844798
 10
-107.0523175817
 20
-20.0494486585
 10
-106.8553620092
 20
-24.2509645666
  0
LINE
  5
350
100
AcDbEntity
  8
RACCORDO
100
AcDbLine
 62
253
  6
CONTINUOUS
 10
-106.8553620092
 20
26.1956744451
 11
-106.8553620092
 21
25.5336873527
  0
LINE
  5
351
100
AcDbEntity
  8
ASSI
100
AcDbLine
 62
253
  6
CONTINUOUS
 10
-106.8553620092
 20
26.1956744451
 11
-106.8553620092
 21
25.5336873527
  0
LINE
  5
352
100
AcDbEntity
  8
RACCORDO
100
AcDbLine
 62
253
  6
CONTINUOUS
 10
-105.5777211561
 20
27.5964627691
 11
-105.5777211561
 21
27.3995713057
  0
LINE
  5
353
100
AcDbEntity
  8
ASSI
100
AcDbLine
 62
253
  6
CONTINUOUS
 10
-105.5777211561
 20
27.5964627691
 11
-105.5777211561
 21
27.3995713057
  0
LWPOLYLINE
  5
354
100
AcDbEntity
  8
0
100
AcDbPolyline
 62
7
  6
CONTINUOUS
 90
7
 70
0
 10
-106.8852151852
 20
25.0216616803
 10
-107.0730517005
 20
20.9183684182
 10
-107.226739264
 20
16.8142111472
 10
-107.3462778757
 20
12.7091898675
 10
-107.4316713757
 20
8.6030165761
 10
-107.4829159239
 20
4.4959792759
 10
-107.4975732144
 20
0.9723448445
  0
LWPOLYLINE
  5
355
100
AcDbEntity
  8
ASSI
100
AcDbPolyline
 62
7
  6
CONTINUOUS
 90
7
 70
0
 10
-106.8852151852
 20
25.0216616803
 10
-107.0730517005
 20
20.9183684182
 10
-107.226739264
 20
16.8142111472
 10
-107.3462778757
 20
12.7091898675
 10
-107.4316713757
 20
8.6030165761
 10
-107.4829159239
 20
4.4959792759
 10
-107.4975732144
 20
0.9723448445
  0
LWPOLYLINE
  5
356
100
AcDbEntity
  8
RACCORDO
100
AcDbPolyline
 62
7
  6
CONTINUOUS
 90
13
 70
0
 10
-108.353403136
 20
25.9316220769
 10
-108.5509448201
 20
21.7178016326
 10
-108.712589195
 20
17.5024659825
 10
-108.8383246451
 20
13.2859180372
 10
-108.9281421352
 20
9.0684607942
 10
-108.9820352111
 20
4.8503973165
 10
-109.0
 20
0.6320307105
 10
-108.9820352111
 20
-3.5863358955
 10
-108.9281421352
 20
-7.8043993732
 10
-108.8383246451
 20
-12.0218566162
 10
-108.712589195
 20
-16.2384045615
 10
-108.5509448201
 20
-20.4537402116
 10
-108.353403136
 20
-24.6675606559
  0
LWPOLYLINE
  5
357
100
AcDbEntity
  8
ASSI
100
AcDbPolyline
 62
7
  6
CONTINUOUS
 90
13
 70
0
 10
-108.353403136
 20
25.9316220769
 10
-108.5509448201
 20
21.7178016326
 10
-108.712589195
 20
17.5024659825
 10
-108.8383246451
 20
13.2859180372
 10
-108.9281421352
 20
9.0684607942
 10
-108.9820352111
 20
4.8503973165
 10
-109.0
 20
0.6320307105
 10
-108.9820352111
 20
-3.5863358955
 10
-108.9281421352
 20
-7.8043993732
 10
-108.8383246451
 20
-12.0218566162
 10
-108.712589195
 20
-16.2384045615
 10
-108.5509448201
 20
-20.4537402116
 10
-108.353403136
 20
-24.6675606559
  0
LWPOLYLINE
  5
358
100
AcDbEntity
  8
RACCORDO
100
AcDbPolyline
 62
7
  6
CONTINUOUS
 90
7
 70
0
 10
-106.8553620092
 20
26.1956744451
 10
-107.0523175817
 20
21.9941585369
 10
-107.2134667912
 20
17.7916943583
 10
-107.3388096378
 20
13.5882819092
 10
-107.428350694
 20
9.3836050995
 10
-107.4820853872
 20
5.1779800194
 10
-107.5
 20
0.9723549392
  0
LWPOLYLINE
  5
359
100
AcDbEntity
  8
ASSI
100
AcDbPolyline
 62
7
  6
CONTINUOUS
 90
7
 70
0
 10
-106.8553620092
 20
26.1956744451
 10
-107.0523175817
 20
21.9941585369
 10
-107.2134667912
 20
17.7916943583
 10
-107.3388096378
 20
13.5882819092
 10
-107.428350694
 20
9.3836050995
 10
-107.4820853872
 20
5.1779800194
 10
-107.5
 20
0.9723549392
  0
LWPOLYLINE
  5
35A
100
AcDbEntity
  8
RACCORDO
100
AcDbPolyline
 62
7
  6
CONTINUOUS
 90
25
 70
0
 10
-108.0598969098
 20
26.0146574738
 10
-108.1611265852
 20
23.9293272089
 10
-108.2535572488
 20
21.8436546072
 10
-108.3371889005
 20
19.7576396688
 10
-108.4120228917
 20
17.6712421033
 10
-108.4780578711
 20
15.5845022012
 10
-108.535289785
 20
13.4975408333
 10
-108.5837179897
 20
11.4103615734
 10
-108.6233431288
 20
9.3229608478
 10
-108.6541630795
 20
7.2354488065
 10
-108.6761773748
 20
5.1478250612
 10
-108.6893864816
 20
3.0600900002
 10
-108.6937896777
 20
0.9723549392
 10
-108.6893864816
 20
-1.1153801218
 10
-108.6761773748
 20
-3.2031151827
 10
-108.6541630795
 20
-5.2907389281
 10
-108.6233431288
 20
-7.3782509693
 10
-108.5837179897
 20
-9.4656516949
 10
-108.535289785
 20
-11.5528309549
 10
-108.4780578711
 20
-13.6397923227
 10
-108.4120228917
 20
-15.7265322249
 10
-108.3371889005
 20
-17.8129297903
 10
-108.2535572488
 20
-19.8989447287
 10
-108.1611265852
 20
-21.9846173304
 10
-108.0598969098
 20
-24.0699475954
  0
LWPOLYLINE
  5
35B
100
AcDbEntity
  8
ASSI
100
AcDbPolyline
 62
7
  6
CONTINUOUS
 90
25
 70
0
 10
-108.0598969098
 20
26.0146574738
 10
-108.1611265852
 20
23.9293272089
 10
-108.2535572488
 20
21.8436546072
 10
-108.3371889005
 20
19.7576396688
 10
-108.4120228917
 20
17.6712421033
 10
-108.4780578711
 20
15.5845022012
 10
-108.535289785
 20
13.4975408333
 10
-108.5837179897
 20
11.4103615734
 10
-108.6233431288
 20
9.3229608478
 10
-108.6541630795
 20
7.2354488065
 10
-108.6761773748
 20
5.1478250612
 10
-108.6893864816
 20
3.0600900002
 10
-108.6937896777
 20
0.9723549392
 10
-108.6893864816
 20
-1.1153801218
 10
-108.6761773748
 20
-3.2031151827
 10
-108.6541630795
 20
-5.2907389281
 10
-108.6233431288
 20
-7.3782509693
 10
-108.5837179897
 20
-9.4656516949
 10
-108.535289785
 20
-11.5528309549
 10
-108.4780578711
 20
-13.6397923227
 10
-108.4120228917
 20
-15.7265322249
 10
-108.3371889005
 20
-17.8129297903
 10
-108.2535572488
 20
-19.8989447287
 10
-108.1611265852
 20
-21.9846173304
 10
-108.0598969098
 20
-24.0699475954
  0
LINE
  5
35C
100
AcDbEntity
  8
0
100
AcDbLine
 62
7
  6
CONTINUOUS
 10
-106.8553620092
 20
25.5336873527
 11
-106.8812715046
 21
25.0216616803
  0
LINE
  5
35D
100
AcDbEntity
  8
ASSI
100
AcDbLine
 62
7
  6
CONTINUOUS
 10
-106.8553620092
 20
25.5336873527
 11
-106.8812715046
 21
25.0216616803
  0
LINE
  5
35E
100
AcDbEntity
  8
0
100
AcDbLine
 62
7
  6
CONTINUOUS
 10
-106.8308161681
 20
25.3203197453
 11
-106.8312337948
 21
25.3122203561
  0
LINE
  5
35F
100
AcDbEntity
  8
RACCORDO
100
AcDbLine
 62
7
  6
CONTINUOUS
 10
-108.3529332448
 20
25.9405999201
 11
-108.353403136
 21
25.9316220767
  0
LINE
  5
360
100
AcDbEntity
  8
ASSI
100
AcDbLine
 62
7
  6
CONTINUOUS
 10
-108.3529332448
 20
25.9405999201
 11
-108.353403136
 21
25.9316220767
  0
LWPOLYLINE
  5
361
100
AcDbEntity
  8
RACCORDO
100
AcDbPolyline
 62
7
  6
CONTINUOUS
 90
29
 70
0
 10
-108.3529332448
 20
25.9405999201
 10
-108.3425468177
 20
26.0765062663
 10
-108.3259596777
 20
26.2118603551
 10
-108.3031951687
 20
26.3463797716
 10
-108.2742678977
 20
26.4798753944
 10
-108.2392401869
 20
26.6119723472
 10
-108.1982639721
 20
26.7421219606
 10
-108.1515310703
 20
26.8698564498
 10
-108.0991024729
 20
26.9951330887
 10
-108.0409414083
 20
27.1180407548
 10
-107.9770380264
 20
27.238508412
 10
-107.9075943714
 20
27.3560715854
 10
-107.8328969492
 20
27.4702349775
 10
-107.7531938963
 20
27.5806634577
 10
-107.6685926971
 20
27.6872499375
 10
-107.5792058042
 20
27.7898647519
 10
-107.4852180558
 20
27.8882956485
 10
-107.3868239446
 20
27.9823389945
 10
-107.2841424352
 20
28.0718707364
 10
-107.1772698615
 20
28.1567745034
 10
-107.0665174574
 20
28.2367721516
 10
-106.9523531984
 20
28.3115317905
 10
-106.835220514
 20
28.3808102197
 10
-106.7151905954
 20
28.4446112231
 10
-106.5921794798
 20
28.5029782916
 10
-106.4662234318
 20
28.5558475235
 10
-106.3377706338
 20
28.6029850302
 10
-106.2073556243
 20
28.6441868534
 10
-106.1181825372
 20
28.6686490581
  0
LWPOLYLINE
  5
362
100
AcDbEntity
  8
ASSI
100
AcDbPolyline
 62
7
  6
CONTINUOUS
 90
29
 70
0
 10
-108.3529332448
 20
25.9405999201
 10
-108.3425468177
 20
26.0765062663
 10
-108.3259596777
 20
26.2118603551
 10
-108.3031951687
 20
26.3463797716
 10
-108.2742678977
 20
26.4798753944
 10
-108.2392401869
 20
26.6119723472
 10
-108.1982639721
 20
26.7421219606
 10
-108.1515310703
 20
26.8698564498
 10
-108.0991024729
 20
26.9951330887
 10
-108.0409414083
 20
27.1180407548
 10
-107.9770380264
 20
27.238508412
 10
-107.9075943714
 20
27.3560715854
 10
-107.8328969492
 20
27.4702349775
 10
-107.7531938963
 20
27.5806634577
 10
-107.6685926971
 20
27.6872499375
 10
-107.5792058042
 20
27.7898647519
 10
-107.4852180558
 20
27.8882956485
 10
-107.3868239446
 20
27.9823389945
 10
-107.2841424352
 20
28.0718707364
 10
-107.1772698615
 20
28.1567745034
 10
-107.0665174574
 20
28.2367721516
 10
-106.9523531984
 20
28.3115317905
 10
-106.835220514
 20
28.3808102197
 10
-106.7151905954
 20
28.4446112231
 10
-106.5921794798
 20
28.5029782916
 10
-106.4662234318
 20
28.5558475235
 10
-106.3377706338
 20
28.6029850302
 10
-106.2073556243
 20
28.6441868534
 10
-106.1181825372
 20
28.6686490581
  0
LWPOLYLINE
  5
363
100
AcDbEntity
  8
RACCORDO
100
AcDbPolyline
 62
7
  6
CONTINUOUS
 90
8
 70
0
 10
-106.8553620092
 20
25.5336873527
 10
-106.8485752512
 20
25.6186491307
 10
-106.8369324605
 20
25.7031426734
 10
-106.8204691765
 20
25.7868928909
 10
-106.7992364093
 20
25.8696286579
 10
-106.7733011769
 20
25.9510787747
 10
-106.7427468254
 20
26.0309730139
 10
-106.7076733626
 20
26.1090469947
  0
LWPOLYLINE
  5
364
100
AcDbEntity
  8
ASSI
100
AcDbPolyline
 62
7
  6
CONTINUOUS
 90
8
 70
0
 10
-106.8553620092
 20
25.5336873527
 10
-106.8485752512
 20
25.6186491307
 10
-106.8369324605
 20
25.7031426734
 10
-106.8204691765
 20
25.7868928909
 10
-106.7992364093
 20
25.8696286579
 10
-106.7733011769
 20
25.9510787747
 10
-106.7427468254
 20
26.0309730139
 10
-106.7076733626
 20
26.1090469947
  0
LWPOLYLINE
  5
365
100
AcDbEntity
  8
RACCORDO
100
AcDbPolyline
 62
7
  6
CONTINUOUS
 90
25
 70
0
 10
-106.8553620092
 20
26.1956744451
 10
-106.8484647698
 20
26.2812212782
 10
-106.8367947943
 20
26.3656938251
 10
-106.8203520828
 20
26.4490920856
 10
-106.799051857
 20
26.531681111
 10
-106.7729788952
 20
26.6131958501
 10
-106.742387532
 20
26.6928411492
 10
-106.7072335476
 20
26.7705987129
 10
-106.6675611618
 20
26.8464868365
 10
-106.6237573676
 20
26.9197652524
 10
-106.5757817329
 20
26.9904084206
 10
-106.5236746897
 20
27.058441881
 10
-106.4679445281
 20
27.1232019862
 10
-106.40855579
 20
27.1846567013
 10
-106.3455439334
 20
27.242838061
 10
-106.2795236215
 20
27.2971785224
 10
-106.2104654118
 20
27.3476404963
 10
-106.1383987468
 20
27.3942615719
 10
-106.0640266169
 20
27.4365869733
 10
-105.9873264595
 20
27.4745746609
 10
-105.9083208371
 20
27.5082666745
 10
-105.8277804278
 20
27.5373343577
 10
-105.7459621242
 20
27.5616681585
 10
-105.6626090336
 20
27.581377629
 10
-105.5777211561
 20
27.5964627691
  0
LWPOLYLINE
  5
366
100
AcDbEntity
  8
ASSI
100
AcDbPolyline
 62
7
  6
CONTINUOUS
 90
25
 70
0
 10
-106.8553620092
 20
26.1956744451
 10
-106.8484647698
 20
26.2812212782
 10
-106.8367947943
 20
26.3656938251
 10
-106.8203520828
 20
26.4490920856
 10
-106.799051857
 20
26.531681111
 10
-106.7729788952
 20
26.6131958501
 10
-106.742387532
 20
26.6928411492
 10
-106.7072335476
 20
26.7705987129
 10
-106.6675611618
 20
26.8464868365
 10
-106.6237573676
 20
26.9197652524
 10
-106.5757817329
 20
26.9904084206
 10
-106.5236746897
 20
27.058441881
 10
-106.4679445281
 20
27.1232019862
 10
-106.40855579
 20
27.1846567013
 10
-106.3455439334
 20
27.242838061
 10
-106.2795236215
 20
27.2971785224
 10
-106.2104654118
 20
27.3476404963
 10
-106.1383987468
 20
27.3942615719
 10
-106.0640266169
 20
27.4365869733
 10
-105.9873264595
 20
27.4745746609
 10
-105.9083208371
 20
27.5082666745
 10
-105.8277804278
 20
27.5373343577
 10
-105.7459621242
 20
27.5616681585
 10
-105.6626090336
 20
27.581377629
 10
-105.5777211561
 20
27.5964627691
  0
LWPOLYLINE
  5
367
100
AcDbEntity
  8
DRAFT
100
AcDbPolyline
 62
7
  6
CONTINUOUS
 90
25
 70
0
 10
-106.6556206403
 20
26.1855547582
 10
-106.6496430328
 20
26.2596953469
 10
-106.639529054
 20
26.3329048875
 10
-106.625278704
 20
26.40518338
 10
-106.6068185084
 20
26.4767605353
 10
-106.5842219415
 20
26.5474066426
 10
-106.5577094267
 20
26.6164325684
 10
-106.5272426403
 20
26.683822457
 10
-106.4928599059
 20
26.7495921641
 10
-106.4548966176
 20
26.8131001245
 10
-106.4133177341
 20
26.8743242036
 10
-106.3681582968
 20
26.933286536
 10
-106.3198588233
 20
26.9894119605
 10
-106.2683885837
 20
27.0426727136
 10
-106.2137783079
 20
27.0930965587
 10
-106.1565607043
 20
27.1401916252
 10
-106.0967102559
 20
27.183925336
 10
-106.0342524796
 20
27.2243302681
 10
-105.9697966336
 20
27.2610122827
 10
-105.9033231639
 20
27.2939349453
 10
-105.8348516245
 20
27.3231346904
 10
-105.7650499364
 20
27.3483266825
 10
-105.6941407399
 20
27.3694159765
 10
-105.6219013948
 20
27.3864975176
 10
-105.5483319009
 20
27.3995713057
  0
LWPOLYLINE
  5
368
100
AcDbEntity
  8
RACCORDO
100
AcDbPolyline
 62
7
  6
CONTINUOUS
 90
3
 70
0
 10
-106.7076733626
 20
26.1090469947
 10
-106.6681917575
 20
26.1850507245
 10
-106.6536931437
 20
26.2094616027
  0
LWPOLYLINE
  5
369
100
AcDbEntity
  8
ASSI
100
AcDbPolyline
 62
7
  6
CONTINUOUS
 90
3
 70
0
 10
-106.7076733626
 20
26.1090469947
 10
-106.6681917575
 20
26.1850507245
 10
-106.6536931437
 20
26.2094616027
  0
LWPOLYLINE
  5
36A
100
AcDbEntity
  8
0
100
AcDbPolyline
 62
7
  6
CONTINUOUS
 90
21
 70
0
 10
-108.2118966878
 20
-25.5167033891
 10
-108.1824778843
 20
-25.626662686
 10
-108.1488535036
 20
-25.7354075409
 10
-108.1110412126
 20
-25.8429569922
 10
-108.0692054674
 20
-25.9488423592
 10
-108.0233286859
 20
-26.0530562639
 10
-107.9734284502
 20
-26.1556060843
 10
-107.9197219637
 20
-26.256045273
 10
-107.8621927794
 20
-26.3543643797
 10
-107.8008573442
 20
-26.4505728547
 10
-107.7359822026
 20
-26.5442525021
 10
-107.6675520259
 20
-26.6353923047
 10
-107.5955821426
 20
-26.7240032797
 10
-107.5203850835
 20
-26.8097002827
 10
-107.4419466376
 20
-26.892470833
 10
-107.3602810158
 20
-26.9723274113
 10
-107.2757433814
 20
-27.0489223153
 10
-107.188320963
 20
-27.1222414506
 10
-107.0980265321
 20
-27.1922989117
 10
-107.0052535659
 20
-27.2587892799
 10
-106.9099912984
 20
-27.3216968521
  0
LWPOLYLINE
  5
36B
100
AcDbEntity
  8
RACCORDO
100
AcDbPolyline
 62
7
  6
CONTINUOUS
 90
3
 70
0
 10
-108.2392401869
 20
-25.3446603782
 10
-108.2742678977
 20
-25.2131151224
 10
-108.2978450997
 20
-25.1071653048
  0
LWPOLYLINE
  5
36C
100
AcDbEntity
  8
ASSI
100
AcDbPolyline
 62
7
  6
CONTINUOUS
 90
3
 70
0
 10
-108.2392401869
 20
-25.3446603782
 10
-108.2742678977
 20
-25.2131151224
 10
-108.2978450997
 20
-25.1071653048
  0
LWPOLYLINE
  5
36D
100
AcDbEntity
  8
ASSI
100
AcDbPolyline
 62
7
  6
CONTINUOUS
 90
20
 70
0
 10
-108.2284677236
 20
-25.4459750827
 10
-108.1990564993
 20
-25.5667664387
 10
-108.1646808317
 20
-25.6860661576
 10
-108.1252993579
 20
-25.8038934585
 10
-108.0809534408
 20
-25.9202291223
 10
-108.0319055474
 20
-26.0343912812
 10
-107.9781604237
 20
-26.1463096223
 10
-107.9197133236
 20
-26.2560544585
 10
-107.8568124766
 20
-26.3631548618
 10
-107.7893917446
 20
-26.4676643149
 10
-107.7175172657
 20
-26.569529335
 10
-107.6416356836
 20
-26.6681185455
 10
-107.561780977
 20
-26.7633474137
 10
-107.4779191672
 20
-26.8553004722
 10
-107.3903949621
 20
-26.9435999425
 10
-107.2991275471
 20
-27.0282873881
 10
-107.2041977367
 20
-27.1093212455
 10
-107.1061926826
 20
-27.1861990457
 10
-107.0051585924
 20
-27.2588507415
 10
-106.9010492585
 20
-27.3273463801
  0
LINE
  5
36E
100
AcDbEntity
  8
0
100
AcDbLine
 62
7
  6
CONTINUOUS
 10
-108.2391596172
 20
-25.3956491683
 11
-108.2118966878
 21
-25.5167033891
  0
LINE
  5
36F
100
AcDbEntity
  8
ASSI
100
AcDbLine
 62
7
  6
CONTINUOUS
 10
-108.2391639621
 20
-25.3956500441
 11
-108.2284677236
 21
-25.4459750827
  0
LINE
  5
370
100
AcDbEntity
  8
RACCORDO
100
AcDbLine
 62
7
  6
CONTINUOUS
 10
-108.2978453479
 20
-25.1071656856
 11
-108.2391722067
 21
-25.3956517063
  0
LINE
  5
371
100
AcDbEntity
  8
ASSI
100
AcDbLine
 62
7
  6
CONTINUOUS
 10
-108.2978453479
 20
-25.1071656856
 11
-108.2391722067
 21
-25.3956517063
  0
LINE
  5
372
100
AcDbEntity
  8
ASSI
100
AcDbLine
 62
253
  6
CONTINUOUS
 10
-105.7985107264
 20
-27.4687083653
 11
-105.740038283
 21
-27.7562075089
  0
LWPOLYLINE
  5
373
100
AcDbEntity
  8
RACCORDO
100
AcDbPolyline
 62
7
  6
CONTINUOUS
 90
5
 70
0
 10
-108.2978450997
 20
-25.1071653048
 10
-108.3031951687
 20
-25.0802211023
 10
-108.3259596777
 20
-24.9463508736
 10
-108.3425468177
 20
-24.8116888071
 10
-108.3529332448
 20
-24.6765135316
  0
LWPOLYLINE
  5
374
100
AcDbEntity
  8
ASSI
100
AcDbPolyline
 62
7
  6
CONTINUOUS
 90
5
 70
0
 10
-108.2978450997
 20
-25.1071653048
 10
-108.3031951687
 20
-25.0802211023
 10
-108.3259596777
 20
-24.9463508736
 10
-108.3425468177
 20
-24.8116888071
 10
-108.3529332448
 20
-24.6765135316
  0
LINE
  5
375
100
AcDbEntity
  8
DRAFT
100
AcDbLine
 62
7
  6
CONTINUOUS
 10
-106.6363852473
 20
-24.4062277849
 11
-106.5028967815
 21
-25.1378765499
  0
LWPOLYLINE
  5
376
100
AcDbEntity
  8
DRAFT
100
AcDbPolyline
 62
7
  6
CONTINUOUS
 90
4
 70
0
 10
-106.6363315549
 20
-24.4064764077
 10
-106.639529054
 20
-24.3881950091
 10
-106.6496430328
 20
-24.3149854685
 10
-106.6556206403
 20
-24.2408448798
  0
LINE
  5
377
100
AcDbEntity
  8
ASSI
100
AcDbLine
 62
7
  6
CONTINUOUS
 10
-103.2
 20
18.3894294778
 11
-103.2
 21
22.3704750867
  0
LINE
  5
378
100
AcDbEntity
  8
ASSI
100
AcDbLine
 62
7
  6
CONTINUOUS
 10
-99.2
 20
22.3704750867
 11
-99.2
 21
18.3894294778
  0
LWPOLYLINE
  5
379
100
AcDbEntity
  8
ASSI
100
AcDbPolyline
 62
7
  6
CONTINUOUS
 90
61
 70
0
 10
-103.2
 20
22.3704750867
 10
-103.1971967082
 20
22.4751224729
 10
-103.1889889352
 20
22.5789179296
 10
-103.1753766812
 20
22.6818614567
 10
-103.1562931315
 20
22.7842300384
 10
-103.1318051007
 20
22.8857466905
 10
-103.1021130326
 20
22.9855804609
 10
-103.0671742137
 20
23.0837175368
 10
-103.0270313574
 20
23.180171731
 10
-102.9820130484
 20
23.2741535294
 10
-102.9320792699
 20
23.365642639
 10
-102.8772700386
 20
23.4546593529
 10
-102.8180339887
 20
23.5404750354
 10
-102.7543347861
 20
23.6230634133
 10
-102.6862087649
 20
23.7024507599
 10
-102.6142135624
 20
23.7779872598
 10
-102.5383174213
 20
23.8496413059
 10
-102.4585520989
 20
23.9174445053
 10
-102.3755705046
 20
23.9808418631
 10
-102.2893462399
 20
24.0397972171
 10
-102.1999057034
 20
24.0943467295
 10
-102.1079809995
 20
24.1440438919
 10
-102.0135517388
 20
24.1888488773
 10
-101.9166383109
 20
24.2288015127
 10
-101.8180339887
 20
24.2635747706
 10
-101.7177248939
 20
24.29312614
 10
-101.6157249049
 20
24.3174981318
 10
-101.5128689301
 20
24.3364912523
 10
-101.4091499439
 20
24.3500613527
 10
-101.3045749719
 20
24.3582525818
 10
-101.2
 20
24.3609978911
 10
-101.0954250281
 20
24.3582525818
 10
-100.9908500561
 20
24.3500613527
 10
-100.8871310699
 20
24.3364912523
 10
-100.7842750951
 20
24.3174981318
 10
-100.6822751061
 20
24.29312614
 10
-100.5819660113
 20
24.2635747706
 10
-100.4833616891
 20
24.2288015127
 10
-100.3864482612
 20
24.1888488773
 10
-100.2920190005
 20
24.1440438919
 10
-100.2000942966
 20
24.0943467295
 10
-100.1106537601
 20
24.0397972171
 10
-100.0244294954
 20
23.9808418631
 10
-99.9414479011
 20
23.9174445053
 10
-99.8616825787
 20
23.8496413059
 10
-99.7857864376
 20
23.7779872598
 10
-99.7137912351
 20
23.7024507599
 10
-99.6456652139
 20
23.6230634133
 10
-99.5819660113
 20
23.5404750354
 10
-99.5227299614
 20
23.4546593529
 10
-99.4679207301
 20
23.365642639
 10
-99.4179869516
 20
23.2741535294
 10
-99.3729686426
 20
23.180171731
 10
-99.3328257863
 20
23.0837175368
 10
-99.2978869674
 20
22.9855804609
 10
-99.2681948993
 20
22.8857466905
 10
-99.2437068685
 20
22.7842300384
 10
-99.2246233188
 20
22.6818614567
 10
-99.2110110648
 20
22.5789179296
 10
-99.2028032918
 20
22.4751224729
 10
-99.2
 20
22.3704750867
  0
LINE
  5
37A
100
AcDbEntity
  8
ASSI
100
AcDbLine
 62
7
  6
CONTINUOUS
 10
-99.2
 20
18.3894294778
 11
-99.2028032918
 21
18.2847820916
  0
LWPOLYLINE
  5
37B
100
AcDbEntity
  8
ASSI
100
AcDbPolyline
 62
7
  6
CONTINUOUS
 90
59
 70
0
 10
-103.1971967082
 20
22.329269232
 10
-103.1889889352
 20
22.4330646887
 10
-103.1753766812
 20
22.5360082158
 10
-103.1562931315
 20
22.6383767975
 10
-103.1318051007
 20
22.7398934496
 10
-103.1021130326
 20
22.83972722
 10
-103.0671742137
 20
22.937864296
 10
-103.0270313574
 20
23.0343184901
 10
-102.9820130484
 20
23.1283002885
 10
-102.9320792699
 20
23.2197893982
 10
-102.8772700386
 20
23.308806112
 10
-102.8180339887
 20
23.3946217946
 10
-102.7543347861
 20
23.4772101725
 10
-102.6862087649
 20
23.5565975191
 10
-102.6142135624
 20
23.6321340189
 10
-102.5383174213
 20
23.7037880651
 10
-102.4585520989
 20
23.7715912645
 10
-102.3755705046
 20
23.8349886222
 10
-102.2893462399
 20
23.8939439763
 10
-102.1999057034
 20
23.9484934887
 10
-102.1079809995
 20
23.9981906511
 10
-102.0135517388
 20
24.0429956364
 10
-101.9166383109
 20
24.0829482718
 10
-101.8180339887
 20
24.1177215297
 10
-101.7177248939
 20
24.1472728991
 10
-101.6157249049
 20
24.1716448909
 10
-101.5128689301
 20
24.1906380114
 10
-101.4091499439
 20
24.2042081118
 10
-101.3045749719
 20
24.2123993409
 10
-101.2
 20
24.2151446502
 10
-101.0954250281
 20
24.2123993409
 10
-100.9908500561
 20
24.2042081118
 10
-100.8871310699
 20
24.1906380114
 10
-100.7842750951
 20
24.1716448909
 10
-100.6822751061
 20
24.1472728991
 10
-100.5819660113
 20
24.1177215297
 10
-100.4833616891
 20
24.0829482718
 10
-100.3864482612
 20
24.0429956364
 10
-100.2920190005
 20
23.9981906511
 10
-100.2000942966
 20
23.9484934887
 10
-100.1106537601
 20
23.8939439763
 10
-100.0244294954
 20
23.8349886222
 10
-99.9414479011
 20
23.7715912645
 10
-99.8616825787
 20
23.7037880651
 10
-99.7857864376
 20
23.6321340189
 10
-99.7137912351
 20
23.5565975191
 10
-99.6456652139
 20
23.4772101725
 10
-99.5819660113
 20
23.3946217946
 10
-99.5227299614
 20
23.308806112
 10
-99.4679207301
 20
23.2197893982
 10
-99.4179869516
 20
23.1283002885
 10
-99.3729686426
 20
23.0343184901
 10
-99.3328257863
 20
22.937864296
 10
-99.2978869674
 20
22.83972722
 10
-99.2681948993
 20
22.7398934496
 10
-99.2437068685
 20
22.6383767975
 10
-99.2246233188
 20
22.5360082158
 10
-99.2110110648
 20
22.4330646887
 10
-99.2028032918
 20
22.329269232
  0
LWPOLYLINE
  5
37C
100
AcDbEntity
  8
ASSI
100
AcDbPolyline
 62
7
  6
CONTINUOUS
 90
60
 70
0
 10
-99.2028032918
 20
18.2847820916
 10
-99.2110110648
 20
18.1809866349
 10
-99.2246233188
 20
18.0780431078
 10
-99.2437068685
 20
17.9756745261
 10
-99.2681948993
 20
17.874157874
 10
-99.2978869674
 20
17.7743241036
 10
-99.3328257863
 20
17.6761870277
 10
-99.3729686426
 20
17.5797328335
 10
-99.4179869516
 20
17.4857510351
 10
-99.4679207301
 20
17.3942619254
 10
-99.5227299614
 20
17.3052452116
 10
-99.5819660113
 20
17.219429529
 10
-99.6456652139
 20
17.1368411511
 10
-99.7137912351
 20
17.0574538046
 10
-99.7857864376
 20
16.9819173047
 10
-99.8616825787
 20
16.9102632586
 10
-99.9414479011
 20
16.8424600592
 10
-100.0244294954
 20
16.7790627014
 10
-100.1106537601
 20
16.7201073474
 10
-100.2000942966
 20
16.6655578349
 10
-100.2920190005
 20
16.6158606726
 10
-100.3864482612
 20
16.5710556872
 10
-100.4833616891
 20
16.5311030518
 10
-100.5819660113
 20
16.4963297939
 10
-100.6822751061
 20
16.4667784245
 10
-100.7842750951
 20
16.4424064327
 10
-100.8871310699
 20
16.4234133122
 10
-100.9908500561
 20
16.4098432118
 10
-101.0954250281
 20
16.4016519827
 10
-101.2
 20
16.3989066734
 10
-101.3045749719
 20
16.4016519827
 10
-101.4091499439
 20
16.4098432118
 10
-101.5128689301
 20
16.4234133122
 10
-101.6157249049
 20
16.4424064327
 10
-101.7177248939
 20
16.4667784245
 10
-101.8180339887
 20
16.4963297939
 10
-101.9166383109
 20
16.5311030518
 10
-102.0135517388
 20
16.5710556872
 10
-102.1079809995
 20
16.6158606726
 10
-102.1999057034
 20
16.6655578349
 10
-102.2893462399
 20
16.7201073474
 10
-102.3755705046
 20
16.7790627014
 10
-102.4585520989
 20
16.8424600592
 10
-102.5383174213
 20
16.9102632586
 10
-102.6142135624
 20
16.9819173047
 10
-102.6862087649
 20
17.0574538046
 10
-102.7543347861
 20
17.1368411511
 10
-102.8180339887
 20
17.219429529
 10
-102.8772700386
 20
17.3052452116
 10
-102.9320792699
 20
17.3942619254
 10
-102.9820130484
 20
17.4857510351
 10
-103.0270313574
 20
17.5797328335
 10
-103.0671742137
 20
17.6761870277
 10
-103.1021130326
 20
17.7743241036
 10
-103.1318051007
 20
17.874157874
 10
-103.1562931315
 20
17.9756745261
 10
-103.1753766812
 20
18.0780431078
 10
-103.1889889352
 20
18.1809866349
 10
-103.1971967082
 20
18.2847820916
 10
-103.2
 20
18.3894294778
  0
LWPOLYLINE
  5
37D
100
AcDbEntity
  8
RACCORDO
100
AcDbPolyline
 62
7
  6
CONTINUOUS
 90
12
 70
0
 10
-106.5236746897
 20
-25.1137320026
 10
-106.5757817329
 20
-25.0456985421
 10
-106.6237573676
 20
-24.9750553739
 10
-106.6675611618
 20
-24.901776958
 10
-106.7072335476
 20
-24.8258888344
 10
-106.742387532
 20
-24.7481312707
 10
-106.7729788952
 20
-24.6684859717
 10
-106.799051857
 20
-24.5869712326
 10
-106.8203520828
 20
-24.5043822071
 10
-106.8367947943
 20
-24.4209839466
 10
-106.8484647698
 20
-24.3365113998
 10
-106.8553620092
 20
-24.2509645666
  0
LWPOLYLINE
  5
37E
100
AcDbEntity
  8
ASSI
100
AcDbPolyline
 62
7
  6
CONTINUOUS
 90
12
 70
0
 10
-106.5236746897
 20
-25.1137320026
 10
-106.5757817329
 20
-25.0456985421
 10
-106.6237573676
 20
-24.9750553739
 10
-106.6675611618
 20
-24.901776958
 10
-106.7072335476
 20
-24.8258888344
 10
-106.742387532
 20
-24.7481312707
 10
-106.7729788952
 20
-24.6684859717
 10
-106.799051857
 20
-24.5869712326
 10
-106.8203520828
 20
-24.5043822071
 10
-106.8367947943
 20
-24.4209839466
 10
-106.8484647698
 20
-24.3365113998
 10
-106.8553620092
 20
-24.2509645666
  0
LINE
  5
37F
100
AcDbEntity
  8
ASSI
100
AcDbLine
 62
253
  6
CONTINUOUS
 10
-92.6191831126
 20
-29.417337852
 11
-92.6146699418
 21
-29.6968588474
  0
LINE
  5
380
100
AcDbEntity
  8
0
100
AcDbLine
 62
253
  6
CONTINUOUS
 10
-92.6146699418
 20
-29.6968588474
 11
-92.6112613429
 21
-29.9079687305
  0
LINE
  5
381
100
AcDbEntity
  8
ASSI
100
AcDbLine
 62
253
  6
CONTINUOUS
 10
-92.1784114271
 20
-29.4497451712
 11
-92.1738982563
 21
-29.7292661665
  0
LINE
  5
382
100
AcDbEntity
  8
0
100
AcDbLine
 62
253
  6
CONTINUOUS
 10
-92.1738982563
 20
-29.7292661665
 11
-92.1705075678
 21
-29.9392667786
  0
LINE
  5
383
100
AcDbEntity
  8
RACCORDO
100
AcDbLine
 62
7
  6
CONTINUOUS
 10
-91.8647165139
 20
-27.4780523828
 11
-91.8615072865
 21
-27.6768142912
  0
LINE
  5
384
100
AcDbEntity
  8
RACCORDO
100
AcDbLine
 62
253
  6
CONTINUOUS
 10
-92.5957613006
 20
-28.7723727104
 11
-92.6183823154
 21
-29.4174562539
  0
LINE
  5
385
100
AcDbEntity
  8
ASSI
100
AcDbLine
 62
253
  6
CONTINUOUS
 10
-92.5957613006
 20
-28.7723727104
 11
-92.6183823154
 21
-29.4174562539
  0
LINE
  5
386
100
AcDbEntity
  8
RACCORDO
100
AcDbLine
 62
253
  6
CONTINUOUS
 10
-92.156599998
 20
-28.8046616277
 11
-92.1792210128
 21
-29.4497451712
  0
LINE
  5
387
100
AcDbEntity
  8
ASSI
100
AcDbLine
 62
253
  6
CONTINUOUS
 10
-92.156599998
 20
-28.8046616277
 11
-92.1792210128
 21
-29.4497451712
  0
LINE
  5
388
100
AcDbEntity
  8
0
100
AcDbLine
 62
253
  6
CONTINUOUS
 10
-92.3746962347
 20
-30.2103514886
 11
-92.6051317386
 21
-29.9087956072
  0
LINE
  5
389
100
AcDbEntity
  8
0
100
AcDbLine
 62
253
  6
CONTINUOUS
 10
-91.9408579549
 20
-30.2397942157
 11
-92.1705075678
 21
-29.9392667786
  0
LINE
  5
38A
100
AcDbEntity
  8
0
100
AcDbLine
 62
253
  6
CONTINUOUS
 10
-82.85
 20
-30.936913475
 11
-82.85
 21
-30.9273339123
  0
LINE
  5
38B
100
AcDbEntity
  8
RACCORDO
100
AcDbLine
 62
253
  6
CONTINUOUS
 10
-108.0598969098
 20
-24.0699475954
 11
-108.3529332448
 21
-24.6765135316
  0
LINE
  5
38C
100
AcDbEntity
  8
ASSI
100
AcDbLine
 62
253
  6
CONTINUOUS
 10
-108.0598969098
 20
-24.0699475954
 11
-108.3529332448
 21
-24.6765135316
  0
LINE
  5
38D
100
AcDbEntity
  8
RACCORDO
100
AcDbLine
 62
253
  6
CONTINUOUS
 10
-105.5142653236
 20
-26.8623072958
 11
-105.8073780769
 21
-27.4673736394
  0
LINE
  5
38E
100
AcDbEntity
  8
ASSI
100
AcDbLine
 62
253
  6
CONTINUOUS
 10
-105.5142653236
 20
-26.8623072958
 11
-105.8073780769
 21
-27.4673736394
  0
LINE
  5
38F
100
AcDbEntity
  8
0
100
AcDbLine
 62
7
  6
CONTINUOUS
 10
-91.8794913357
 20
29.6218145417
 11
-92.1226586609
 21
29.384624225
  0
LINE
  5
390
100
AcDbEntity
  8
ASSI
100
AcDbLine
 62
7
  6
CONTINUOUS
 10
-91.8794913357
 20
29.6218145417
 11
-92.1226586609
 21
29.384624225
  0
LINE
  5
391
100
AcDbEntity
  8
0
100
AcDbLine
 62
7
  6
CONTINUOUS
 10
-105.6698823117
 20
-28.0635013909
 11
-105.19281929
 21
-28.3206085226
  0
LINE
  5
392
100
AcDbEntity
  8
0
100
AcDbLine
 62
253
  6
CONTINUOUS
 10
-104.6807789512
 20
-28.383414675
 11
-104.2033799347
 21
-28.6407028869
  0
LWPOLYLINE
  5
393
100
AcDbEntity
  8
ASSI
100
AcDbPolyline
 62
7
  6
CONTINUOUS
 90
10
 70
0
 10
-106.7943132087
 20
-27.3913936341
 10
-106.6848817914
 20
-27.4510033483
 10
-106.5728236583
 20
-27.506164678
 10
-106.4587932931
 20
-27.5565527612
 10
-106.3428038538
 20
-27.6021254536
 10
-106.2248421823
 20
-27.6429248996
 10
-106.1055232885
 20
-27.6787526709
 10
-105.9850521756
 20
-27.7095426249
 10
-105.8632238405
 20
-27.7353609042
 10
-105.740038283
 20
-27.7562075089
  0
LWPOLYLINE
  5
394
100
AcDbEntity
  8
0
100
AcDbPolyline
 62
7
  6
CONTINUOUS
 90
3
 70
0
 10
-105.6698761791
 20
-28.063504696
 10
-105.6969724567
 20
-28.0487133781
 10
-105.7636887561
 20
-28.01065567
  0
LWPOLYLINE
  5
395
100
AcDbEntity
  8
0
100
AcDbPolyline
 62
7
  6
CONTINUOUS
 90
9
 70
0
 10
-106.8122504956
 20
-27.3810373315
 10
-106.7124569337
 20
-27.4365524084
 10
-106.6106015669
 20
-27.4882253513
 10
-106.5066934409
 20
-27.5360728918
 10
-106.4011854689
 20
-27.5798869152
 10
-106.2940585633
 20
-27.6196515114
 10
-106.1853318117
 20
-27.6553825905
 10
-106.0755153902
 20
-27.6869197683
 10
-105.9647793577
 20
-27.7142095832
  0
LINE
  5
396
100
AcDbEntity
  8
0
100
AcDbLine
 62
7
  6
CONTINUOUS
 10
-106.8360046913
 20
-27.3798295426
 11
-105.7636888651
 21
-28.0106556086
  0
LINE
  5
397
100
AcDbEntity
  8
0
100
AcDbLine
 62
253
  6
CONTINUOUS
 10
-104.6829293634
 20
-28.383143047
 11
-105.7388702889
 21
-27.7619500918
  0
LINE
  5
398
100
AcDbEntity
  8
ASSI
100
AcDbLine
 62
7
  6
CONTINUOUS
 10
-106.9010492585
 20
-27.3273463801
 11
-106.7943132087
 21
-27.3913936341
  0
LWPOLYLINE
  5
399
100
AcDbEntity
  8
0
100
AcDbPolyline
 62
7
  6
CONTINUOUS
 90
21
 70
0
 10
-106.8360039479
 20
-27.3798299799
 10
-106.8966888875
 20
-27.3431459432
 10
-107.000508928
 20
-27.2756321536
 10
-107.1013992946
 20
-27.2038485512
 10
-107.1991877109
 20
-27.12791611
 10
-107.2937072672
 20
-27.0479629988
 10
-107.384790302
 20
-26.9641274085
 10
-107.4722807289
 20
-26.8765512302
 10
-107.5560287935
 20
-26.7853828264
 10
-107.6358849606
 20
-26.6907795313
 10
-107.711711744
 20
-26.5929021118
 10
-107.783378867
 20
-26.4919169654
 10
-107.8507573532
 20
-26.3879982537
 10
-107.913730468
 20
-26.281323275
 10
-107.9721894568
 20
-26.1720740109
 10
-108.0260280258
 20
-26.06043882
 10
-108.0751520317
 20
-25.946608949
 10
-108.1194759833
 20
-25.8307792265
 10
-108.158918062
 20
-25.7131492089
 10
-108.1934151807
 20
-25.5938948777
 10
-108.2228973208
 20
-25.4732467763
  0
LINE
  5
39A
100
AcDbEntity
  8
0
100
AcDbLine
 62
7
  6
CONTINUOUS
 10
-106.9099912984
 20
-27.3216968521
 11
-106.8122504956
 21
-27.3810373315
  0
LINE
  5
39B
100
AcDbEntity
  8
0
100
AcDbLine
 62
7
  6
CONTINUOUS
 10
-70.0
 20
-30.3839143375
 11
-70.0
 21
-30.9369134064
  0
LINE
  5
39C
100
AcDbEntity
  8
ASSI
100
AcDbLine
 62
7
  6
CONTINUOUS
 10
-69.8
 20
-30.9369134064
 11
-69.8
 21
-30.5438702101
  0
LWPOLYLINE
  5
39D
100
AcDbEntity
  8
0
100
AcDbPolyline
 62
253
  6
CONTINUOUS
 90
15
 70
0
 10
-104.2033799347
 20
-28.6407028869
 10
-104.0826663469
 20
-28.7007616438
 10
-103.9440896018
 20
-28.760455003
 10
-103.7877660333
 20
-28.8197327403
 10
-103.6138265972
 20
-28.8785450794
 10
-103.4224176352
 20
-28.9368424334
 10
-103.2137010481
 20
-28.9945754558
 10
-102.9878528223
 20
-29.0516954867
 10
-102.7450626739
 20
-29.1081545631
 10
-102.4855349911
 20
-29.163905165
 10
-102.2094883421
 20
-29.2189003556
 10
-101.917154843
 20
-29.2730939062
 10
-101.6087799809
 20
-29.3264403084
 10
-101.2846228653
 20
-29.3788947259
 10
-100.9449564407
 20
-29.4304129796
  0
LINE
  5
39E
100
AcDbEntity
  8
0
100
AcDbLine
 62
253
  6
CONTINUOUS
 10
-106.5523968994
 20
-25.0762309049
 11
-106.509972422
 21
-25.0990950448
  0
LINE
  5
39F
100
AcDbEntity
  8
DRAFT
100
AcDbLine
 62
7
  6
CONTINUOUS
 10
-63.5698202597
 20
-27.4780523828
 11
-63.5263149528
 21
-27.6771046632
  0
LINE
  5
3A0
100
AcDbEntity
  8
DRAFT
100
AcDbLine
 62
7
  6
CONTINUOUS
 10
-63.5698202597
 20
29.4227622612
 11
-63.5698202597
 21
27.2772926881
  0
LINE
  5
3A1
100
AcDbEntity
  8
DRAFT
100
AcDbLine
 62
7
  6
CONTINUOUS
 10
-63.5698202597
 20
-27.4780523828
 11
-63.5698202597
 21
-25.3325828097
  0
LINE
  5
3A2
100
AcDbEntity
  8
DRAFT
100
AcDbLine
 62
7
  6
CONTINUOUS
 10
-63.5
 20
28.9643308759
 11
-63.5
 21
27.2772926881
  0
LINE
  5
3A3
100
AcDbEntity
  8
DRAFT
100
AcDbLine
 62
7
  6
CONTINUOUS
 10
-63.5
 20
-27.6771046632
 11
-63.5
 21
-25.7910141949
  0
LINE
  5
3A4
100
AcDbEntity
  8
0
100
AcDbLine
 62
7
  6
CONTINUOUS
 10
-63.25
 20
29.6218145417
 11
-63.25
 21
27.4749179219
  0
LINE
  5
3A5
100
AcDbEntity
  8
ASSI
100
AcDbLine
 62
7
  6
CONTINUOUS
 10
-63.25
 20
29.6218145417
 11
-63.25
 21
27.4749179219
  0
LINE
  5
3A6
100
AcDbEntity
  8
0
100
AcDbLine
 62
7
  6
CONTINUOUS
 10
-63.25
 20
-26.1427916552
 11
-63.25
 21
-27.6771046632
  0
LINE
  5
3A7
100
AcDbEntity
  8
ASSI
100
AcDbLine
 62
7
  6
CONTINUOUS
 10
-63.25
 20
-26.1427916552
 11
-63.25
 21
-27.6771046632
  0
LINE
  5
3A8
100
AcDbEntity
  8
DRAFT
100
AcDbLine
 62
7
  6
CONTINUOUS
 10
-56.4301797403
 20
29.4227622612
 11
-56.5
 21
28.9643308759
  0
LWPOLYLINE
  5
3A9
100
AcDbEntity
  8
RACCORDO
100
AcDbPolyline
 62
7
  6
CONTINUOUS
 90
27
 70
0
 10
-106.0449851063
 20
28.6784517446
 10
-106.1742677494
 20
28.6310689908
 10
-106.3007976529
 20
28.5780661572
 10
-106.4244110352
 20
28.5194178392
 10
-106.5452716779
 20
28.4551494414
 10
-106.662603819
 20
28.3857703399
 10
-106.776213973
 20
28.3114142932
 10
-106.8862956252
 20
28.2319475428
 10
-106.9926534692
 20
28.147478189
 10
-107.0955354134
 20
28.0577791475
 10
-107.1946935493
 20
27.9630775025
 10
-107.2891888454
 20
27.8641626083
 10
-107.3789421972
 20
27.7609609805
 10
-107.4640327091
 20
27.6535461033
 10
-107.5437586629
 20
27.5429277832
 10
-107.6179167439
 20
27.4293719389
 10
-107.6867102668
 20
27.3126126517
 10
-107.7500474571
 20
27.192861972
 10
-107.8080407271
 20
27.0699205437
 10
-107.8605776647
 20
26.9439877229
 10
-107.9072292587
 20
26.8158736282
 10
-107.9479559013
 20
26.6854166349
 10
-107.9827972005
 20
26.5527783677
 10
-108.0114429696
 20
26.4192538188
 10
-108.0337898131
 20
26.2852746522
 10
-108.0499411265
 20
26.1504092039
 10
-108.0598969098
 20
26.0146574738
  0
LWPOLYLINE
  5
3AA
100
AcDbEntity
  8
ASSI
100
AcDbPolyline
 62
7
  6
CONTINUOUS
 90
27
 70
0
 10
-106.0449851063
 20
28.6784517446
 10
-106.1742677494
 20
28.6310689908
 10
-106.3007976529
 20
28.5780661572
 10
-106.4244110352
 20
28.5194178392
 10
-106.5452716779
 20
28.4551494414
 10
-106.662603819
 20
28.3857703399
 10
-106.776213973
 20
28.3114142932
 10
-106.8862956252
 20
28.2319475428
 10
-106.9926534692
 20
28.147478189
 10
-107.0955354134
 20
28.0577791475
 10
-107.1946935493
 20
27.9630775025
 10
-107.2891888454
 20
27.8641626083
 10
-107.3789421972
 20
27.7609609805
 10
-107.4640327091
 20
27.6535461033
 10
-107.5437586629
 20
27.5429277832
 10
-107.6179167439
 20
27.4293719389
 10
-107.6867102668
 20
27.3126126517
 10
-107.7500474571
 20
27.192861972
 10
-107.8080407271
 20
27.0699205437
 10
-107.8605776647
 20
26.9439877229
 10
-107.9072292587
 20
26.8158736282
 10
-107.9479559013
 20
26.6854166349
 10
-107.9827972005
 20
26.5527783677
 10
-108.0114429696
 20
26.4192538188
 10
-108.0337898131
 20
26.2852746522
 10
-108.0499411265
 20
26.1504092039
 10
-108.0598969098
 20
26.0146574738
  0
LWPOLYLINE
  5
3AB
100
AcDbEntity
  8
0
100
AcDbPolyline
 62
7
  6
CONTINUOUS
 90
6
 70
0
 10
-104.1672704673
 20
-28.7502314208
 10
-104.3876796147
 20
-28.6744940241
 10
-104.5991051993
 20
-28.5946810862
 10
-104.8035485631
 20
-28.5095862286
 10
-105.0011910741
 20
-28.4185628408
 10
-105.19281929
 20
-28.3206085226
  0
LINE
  5
3AC
100
AcDbEntity
  8
DRAFT
100
AcDbLine
 62
7
  6
CONTINUOUS
 10
-63.5
 20
-25.7910141949
 11
-63.5698202597
 21
-25.3325828097
  0
LINE
  5
3AD
100
AcDbEntity
  8
0
100
AcDbLine
 62
7
  6
CONTINUOUS
 10
-56.75
 20
29.6218145417
 11
-56.75
 21
27.4749179219
  0
LINE
  5
3AE
100
AcDbEntity
  8
ASSI
100
AcDbLine
 62
7
  6
CONTINUOUS
 10
-56.75
 20
29.6218145417
 11
-56.75
 21
27.4749179219
  0
LINE
  5
3AF
100
AcDbEntity
  8
0
100
AcDbLine
 62
7
  6
CONTINUOUS
 10
-56.75
 20
-26.1427916552
 11
-56.75
 21
-27.6771046632
  0
LINE
  5
3B0
100
AcDbEntity
  8
ASSI
100
AcDbLine
 62
7
  6
CONTINUOUS
 10
-56.75
 20
-26.1427916552
 11
-56.75
 21
-27.6771046632
  0
LINE
  5
3B1
100
AcDbEntity
  8
DRAFT
100
AcDbLine
 62
7
  6
CONTINUOUS
 10
-56.5
 20
28.9643308759
 11
-56.5
 21
27.2772926881
  0
LINE
  5
3B2
100
AcDbEntity
  8
DRAFT
100
AcDbLine
 62
7
  6
CONTINUOUS
 10
-56.5
 20
-27.6771046632
 11
-56.5
 21
-25.7910141949
  0
LINE
  5
3B3
100
AcDbEntity
  8
DRAFT
100
AcDbLine
 62
7
  6
CONTINUOUS
 10
-56.4301797403
 20
29.4227622612
 11
-56.4301797403
 21
27.2772926881
  0
LINE
  5
3B4
100
AcDbEntity
  8
DRAFT
100
AcDbLine
 62
7
  6
CONTINUOUS
 10
-56.4301797403
 20
-27.4780523828
 11
-56.4301797403
 21
-25.3325828097
  0
LINE
  5
3B5
100
AcDbEntity
  8
DRAFT
100
AcDbLine
 62
7
  6
CONTINUOUS
 10
-56.5
 20
-25.7910141949
 11
-56.4301797403
 21
-25.3325828097
  0
LINE
  5
3B6
100
AcDbEntity
  8
DRAFT
100
AcDbLine
 62
7
  6
CONTINUOUS
 10
-63.5698202597
 20
29.4227622612
 11
-63.5
 21
28.9643308759
  0
LINE
  5
3B7
100
AcDbEntity
  8
DRAFT
100
AcDbLine
 62
7
  6
CONTINUOUS
 10
-56.4301797403
 20
-27.4780523828
 11
-56.4736850472
 21
-27.6771046632
  0
LWPOLYLINE
  5
3B8
100
AcDbEntity
  8
0
100
AcDbPolyline
 62
7
  6
CONTINUOUS
 90
10
 70
0
 10
105.8529313891
 20
-27.7373105752
 10
105.9647396601
 20
-27.7142193091
 10
106.0754630961
 20
-27.6869337108
 10
106.1852733855
 20
-27.6554000519
 10
106.2939988399
 20
-27.6196720607
 10
106.4011243934
 20
-27.5799109217
 10
106.506629301
 20
-27.5361009725
 10
106.6105343078
 20
-27.4882578755
 10
106.7123865835
 20
-27.4365898023
 10
106.8121770522
 20
-27.3810800483
  0
LWPOLYLINE
  5
3B9
100
AcDbEntity
  8
RACCORDO
100
AcDbPolyline
 62
7
  6
CONTINUOUS
 90
26
 70
0
 10
105.8073780769
 20
-27.4673736394
 10
105.9419263012
 20
-27.4436414795
 10
106.0753451743
 20
-27.41384333
 10
106.2073556243
 20
-27.3780282877
 10
106.3377710189
 20
-27.3362263197
 10
106.4662234487
 20
-27.2885356978
 10
106.5921794798
 20
-27.2351636356
 10
106.7151906703
 20
-27.1763453058
 10
106.835220307
 20
-27.1121440607
 10
106.9523531984
 20
-27.0425168894
 10
107.0665177695
 20
-26.9674601429
 10
107.1772699887
 20
-26.8872179092
 10
107.2841424352
 20
-26.8021236506
 10
107.3868240101
 20
-26.7124560053
 10
107.4852180859
 20
-26.6183310145
 10
107.5792058042
 20
-26.5198728655
 10
107.6685927272
 20
-26.4172852974
 10
107.7531939619
 20
-26.3107804563
 10
107.8328969492
 20
-26.2004878731
 10
107.9075944985
 20
-26.0865149658
 10
107.9770383385
 20
-25.9691963706
 10
108.0409414083
 20
-25.8490258132
 10
108.0991022658
 20
-25.7264668808
 10
108.1515311453
 20
-25.6015904745
 10
108.1982639721
 20
-25.4743072366
 10
108.2392402038
 20
-25.3446604425
  0
LWPOLYLINE
  5
3BA
100
AcDbEntity
  8
ASSI
100
AcDbPolyline
 62
7
  6
CONTINUOUS
 90
26
 70
0
 10
105.8073780769
 20
-27.4673736394
 10
105.9419263012
 20
-27.4436414795
 10
106.0753451743
 20
-27.41384333
 10
106.2073556243
 20
-27.3780282877
 10
106.3377710189
 20
-27.3362263197
 10
106.4662234487
 20
-27.2885356978
 10
106.5921794798
 20
-27.2351636356
 10
106.7151906703
 20
-27.1763453058
 10
106.835220307
 20
-27.1121440607
 10
106.9523531984
 20
-27.0425168894
 10
107.0665177695
 20
-26.9674601429
 10
107.1772699887
 20
-26.8872179092
 10
107.2841424352
 20
-26.8021236506
 10
107.3868240101
 20
-26.7124560053
 10
107.4852180859
 20
-26.6183310145
 10
107.5792058042
 20
-26.5198728655
 10
107.6685927272
 20
-26.4172852974
 10
107.7531939619
 20
-26.3107804563
 10
107.8328969492
 20
-26.2004878731
 10
107.9075944985
 20
-26.0865149658
 10
107.9770383385
 20
-25.9691963706
 10
108.0409414083
 20
-25.8490258132
 10
108.0991022658
 20
-25.7264668808
 10
108.1515311453
 20
-25.6015904745
 10
108.1982639721
 20
-25.4743072366
 10
108.2392402038
 20
-25.3446604425
  0
LWPOLYLINE
  5
3BB
100
AcDbEntity
  8
ASSI
100
AcDbPolyline
 62
7
  6
CONTINUOUS
 90
10
 70
0
 10
105.740038283
 20
-27.7562075089
 10
105.8632237643
 20
-27.73536092
 10
105.9850520307
 20
-27.7095426598
 10
106.1055230824
 20
-27.6787527282
 10
106.2248419254
 20
-27.6429249816
 10
106.3428035535
 20
-27.6021255636
 10
106.4587929482
 20
-27.5565529051
 10
106.5728232638
 20
-27.5061648624
 10
106.6848813459
 20
-27.4510035792
 10
106.7943127133
 20
-27.3913939175
  0
LINE
  5
3BC
100
AcDbEntity
  8
0
100
AcDbLine
 62
7
  6
CONTINUOUS
 10
105.740038283
 20
-27.7562075089
 11
105.8529313891
 21
-27.7373105752
  0
LWPOLYLINE
  5
3BD
100
AcDbEntity
  8
0
100
AcDbPolyline
 62
253
  6
CONTINUOUS
 90
8
 70
0
 10
-104.2033799347
 20
-28.6407028869
 10
-104.3364780138
 20
-28.6198826695
 10
-104.4683897531
 20
-28.592909987
 10
-104.5988391195
 20
-28.5598412813
 10
-104.7275531397
 20
-28.5207457508
 10
-104.8542624722
 20
-28.4757052051
 10
-104.9787019701
 20
-28.4248138942
 10
-105.1006112363
 20
-28.3681783112
  0
LWPOLYLINE
  5
3BE
100
AcDbEntity
  8
RACCORDO
100
AcDbPolyline
 62
7
  6
CONTINUOUS
 90
26
 70
0
 10
-105.8073780769
 20
-27.4673736394
 10
-105.941927524
 20
-27.4436461484
 10
-106.0753461371
 20
-27.4138470064
 10
-106.2073556243
 20
-27.3780282877
 10
-106.3377706338
 20
-27.3362248491
 10
-106.4662234318
 20
-27.2885356333
 10
-106.5921794798
 20
-27.2351636356
 10
-106.7151905954
 20
-27.1763450195
 10
-106.835220514
 20
-27.1121448512
 10
-106.9523531984
 20
-27.0425168894
 10
-107.0665174574
 20
-26.9674589511
 10
-107.1772698615
 20
-26.8872174236
 10
-107.2841424352
 20
-26.8021236506
 10
-107.3868239446
 20
-26.7124557551
 10
-107.4852180558
 20
-26.6183308996
 10
-107.5792058042
 20
-26.5198728655
 10
-107.6685926971
 20
-26.4172851827
 10
-107.7531938963
 20
-26.3107802059
 10
-107.8328969492
 20
-26.2004878731
 10
-107.9075943714
 20
-26.0865144804
 10
-107.9770380264
 20
-25.9691951787
 10
-108.0409414083
 20
-25.8490258132
 10
-108.0991024729
 20
-25.7264676714
 10
-108.1515310703
 20
-25.6015901881
 10
-108.1982639721
 20
-25.4743072366
 10
-108.2392401869
 20
-25.3446603782
  0
LWPOLYLINE
  5
3BF
100
AcDbEntity
  8
ASSI
100
AcDbPolyline
 62
7
  6
CONTINUOUS
 90
26
 70
0
 10
-105.8073780769
 20
-27.4673736394
 10
-105.941927524
 20
-27.4436461484
 10
-106.0753461371
 20
-27.4138470064
 10
-106.2073556243
 20
-27.3780282877
 10
-106.3377706338
 20
-27.3362248491
 10
-106.4662234318
 20
-27.2885356333
 10
-106.5921794798
 20
-27.2351636356
 10
-106.7151905954
 20
-27.1763450195
 10
-106.835220514
 20
-27.1121448512
 10
-106.9523531984
 20
-27.0425168894
 10
-107.0665174574
 20
-26.9674589511
 10
-107.1772698615
 20
-26.8872174236
 10
-107.2841424352
 20
-26.8021236506
 10
-107.3868239446
 20
-26.7124557551
 10
-107.4852180558
 20
-26.6183308996
 10
-107.5792058042
 20
-26.5198728655
 10
-107.6685926971
 20
-26.4172851827
 10
-107.7531938963
 20
-26.3107802059
 10
-107.8328969492
 20
-26.2004878731
 10
-107.9075943714
 20
-26.0865144804
 10
-107.9770380264
 20
-25.9691951787
 10
-108.0409414083
 20
-25.8490258132
 10
-108.0991024729
 20
-25.7264676714
 10
-108.1515310703
 20
-25.6015901881
 10
-108.1982639721
 20
-25.4743072366
 10
-108.2392401869
 20
-25.3446603782
  0
LWPOLYLINE
  5
3C0
100
AcDbEntity
  8
0
100
AcDbPolyline
 62
7
  6
CONTINUOUS
 90
3
 70
0
 10
-105.9647793577
 20
-27.7142095832
 10
-105.8529536552
 20
-27.7373054968
 10
-105.740038283
 20
-27.7562075089
  0
LWPOLYLINE
  5
3C1
100
AcDbEntity
  8
RACCORDO
100
AcDbPolyline
 62
7
  6
CONTINUOUS
 90
31
 70
0
 10
105.5142653236
 20
-26.8623072958
 10
105.6490555933
 20
-26.8392838854
 10
105.7823588813
 20
-26.8102092795
 10
105.9141751877
 20
-26.775083478
 10
106.0449261636
 20
-26.7337622092
 10
106.1741901578
 20
-26.6863897449
 10
106.3007022168
 20
-26.6333989002
 10
106.4242968715
 20
-26.5747661105
 10
106.545139591
 20
-26.5105149405
 10
106.6624618291
 20
-26.4411488993
 10
106.7760751233
 20
-26.3667986674
 10
106.8861679362
 20
-26.2873335643
 10
106.9925371095
 20
-26.2028650579
 10
107.0954288576
 20
-26.1131659689
 10
107.1945969661
 20
-26.0184634766
 10
107.2890996341
 20
-25.9195505877
 10
107.378855706
 20
-25.8163560679
 10
107.4639463374
 20
-25.7089511514
 10
107.5436731942
 20
-25.5983425473
 10
107.6178332211
 20
-25.4847978434
 10
107.6866294734
 20
-25.3680494519
 10
107.7499727831
 20
-25.248301319
 10
107.8079781537
 20
-25.1253488151
 10
107.8605305818
 20
-24.9993965697
 10
107.9071958889
 20
-24.8712624185
 10
107.9479327907
 20
-24.7407865865
 10
107.9827825716
 20
-24.6081288487
 10
108.0114349064
 20
-24.4745863647
 10
108.0337863536
 20
-24.3405915211
 10
108.0499403547
 20
-24.2057119313
 10
108.0598969098
 20
-24.0699475954
  0
LWPOLYLINE
  5
3C2
100
AcDbEntity
  8
ASSI
100
AcDbPolyline
 62
7
  6
CONTINUOUS
 90
31
 70
0
 10
105.5142653236
 20
-26.8623072958
 10
105.6490555933
 20
-26.8392838854
 10
105.7823588813
 20
-26.8102092795
 10
105.9141751877
 20
-26.775083478
 10
106.0449261636
 20
-26.7337622092
 10
106.1741901578
 20
-26.6863897449
 10
106.3007022168
 20
-26.6333989002
 10
106.4242968715
 20
-26.5747661105
 10
106.545139591
 20
-26.5105149405
 10
106.6624618291
 20
-26.4411488993
 10
106.7760751233
 20
-26.3667986674
 10
106.8861679362
 20
-26.2873335643
 10
106.9925371095
 20
-26.2028650579
 10
107.0954288576
 20
-26.1131659689
 10
107.1945969661
 20
-26.0184634766
 10
107.2890996341
 20
-25.9195505877
 10
107.378855706
 20
-25.8163560679
 10
107.4639463374
 20
-25.7089511514
 10
107.5436731942
 20
-25.5983425473
 10
107.6178332211
 20
-25.4847978434
 10
107.6866294734
 20
-25.3680494519
 10
107.7499727831
 20
-25.248301319
 10
107.8079781537
 20
-25.1253488151
 10
107.8605305818
 20
-24.9993965697
 10
107.9071958889
 20
-24.8712624185
 10
107.9479327907
 20
-24.7407865865
 10
107.9827825716
 20
-24.6081288487
 10
108.0114349064
 20
-24.4745863647
 10
108.0337863536
 20
-24.3405915211
 10
108.0499403547
 20
-24.2057119313
 10
108.0598969098
 20
-24.0699475954
  0
LWPOLYLINE
  5
3C3
100
AcDbEntity
  8
0
100
AcDbPolyline
 62
7
  6
CONTINUOUS
 90
11
 70
0
 10
105.7388702889
 20
-27.7619500918
 10
105.8613835872
 20
-27.7421931017
 10
105.9829449219
 20
-27.7173723604
 10
106.1033442701
 20
-27.6875299299
 10
106.2223730661
 20
-27.6527180036
 10
106.3398257626
 20
-27.6129944614
 10
106.4555001721
 20
-27.5684227303
 10
106.5691959405
 20
-27.5190789034
 10
106.6807157601
 20
-27.4650475105
 10
106.7898669018
 20
-27.4064169836
 10
106.8360052279
 20
-27.3798287503
  0
LWPOLYLINE
  5
3C4
100
AcDbEntity
  8
0
100
AcDbPolyline
 62
253
  6
CONTINUOUS
 90
9
 70
0
 10
104.6807789512
 20
-28.383414675
 10
104.81416442
 20
-28.3625540628
 10
104.9462503678
 20
-28.3355367907
 10
105.0767625807
 20
-28.302434181
 10
105.2053939598
 20
-28.2633422357
 10
105.3319181294
 20
-28.2183483626
 10
105.456183643
 20
-28.1675136633
 10
105.5779660195
 20
-28.1109250397
 10
105.6698761791
 20
-28.063504696
  0
LINE
  5
3C5
100
AcDbEntity
  8
0
100
AcDbLine
 62
7
  6
CONTINUOUS
 10
92.6146699418
 20
-29.6968588474
 11
105.740038283
 21
-27.7562075089
  0
LINE
  5
3C6
100
AcDbEntity
  8
ASSI
100
AcDbLine
 62
7
  6
CONTINUOUS
 10
92.6146699418
 20
-29.6968588474
 11
105.740038283
 21
-27.7562075089
  0
LINE
  5
3C7
100
AcDbEntity
  8
RACCORDO
100
AcDbLine
 62
7
  6
CONTINUOUS
 10
105.8073780769
 20
-27.4673736394
 11
92.6191831126
 21
-29.417337852
  0
LINE
  5
3C8
100
AcDbEntity
  8
ASSI
100
AcDbLine
 62
7
  6
CONTINUOUS
 10
105.8073780769
 20
-27.4673736394
 11
92.6191831126
 21
-29.417337852
  0
LINE
  5
3C9
100
AcDbEntity
  8
RACCORDO
100
AcDbLine
 62
7
  6
CONTINUOUS
 10
92.5957613006
 20
-28.7723727104
 11
105.5142653236
 21
-26.8623072958
  0
LINE
  5
3CA
100
AcDbEntity
  8
ASSI
100
AcDbLine
 62
7
  6
CONTINUOUS
 10
92.5957613006
 20
-28.7723727104
 11
105.5142653236
 21
-26.8623072958
  0
LINE
  5
3CB
100
AcDbEntity
  8
RACCORDO
100
AcDbLine
 62
7
  6
CONTINUOUS
 10
105.5777211561
 20
-25.6517528906
 11
91.8794913357
 21
-27.6771046632
  0
LINE
  5
3CC
100
AcDbEntity
  8
ASSI
100
AcDbLine
 62
7
  6
CONTINUOUS
 10
105.5777211561
 20
-25.6517528906
 11
91.8794913357
 21
-27.6771046632
  0
LINE
  5
3CD
100
AcDbEntity
  8
DRAFT
100
AcDbLine
 62
7
  6
CONTINUOUS
 10
91.8647165139
 20
-27.4780523828
 11
105.5483319009
 21
-25.4548614272
  0
LINE
  5
3CE
100
AcDbEntity
  8
0
100
AcDbLine
 62
253
  6
CONTINUOUS
 10
92.3267741095
 20
-30.216735819
 11
104.2033799347
 21
-28.6407028869
  0
LINE
  5
3CF
100
AcDbEntity
  8
0
100
AcDbLine
 62
253
  6
CONTINUOUS
 10
90.7099564562
 20
-30.5649435579
 11
90.5388948119
 21
-30.587496837
  0
LINE
  5
3D0
100
AcDbEntity
  8
0
100
AcDbLine
 62
7
  6
CONTINUOUS
 10
92.6112613429
 20
-29.9079687305
 11
104.6829293634
 21
-28.383143047
  0
LWPOLYLINE
  5
3D1
100
AcDbEntity
  8
0
100
AcDbPolyline
 62
253
  6
CONTINUOUS
 90
28
 70
0
 10
90.5388948119
 20
-30.587496837
 10
90.3581274404
 20
-30.609508762
 10
90.1676146032
 20
-30.6309775463
 10
89.9673960388
 20
-30.6519049763
 10
89.7582663381
 20
-30.6722104295
 10
89.540188867
 20
-30.6918915283
 10
89.3132002597
 20
-30.7109506503
 10
89.0782050098
 20
-30.729314305
 10
88.8351680084
 20
-30.7469797919
 10
88.5841243644
 20
-30.7639498116
 10
88.3260838984
 20
-30.780158975
 10
88.0610360464
 20
-30.7956033678
 10
87.7889913724
 20
-30.8102869043
 10
87.5109913881
 20
-30.8241559382
 10
87.2270339791
 20
-30.8372070987
 10
86.93712126
 20
-30.8494437566
 10
86.6423010856
 20
-30.8608223784
 10
86.3424932983
 20
-30.8713417139
 10
86.0377780558
 20
-30.8810030134
 10
85.7294436866
 20
-30.8897664938
 10
85.4174190807
 20
-30.8976278323
 10
85.1017753479
 20
-30.9045913517
 10
84.7840141463
 20
-30.9106302376
 10
84.4641168953
 20
-30.9157377261
 10
84.1421021753
 20
-30.9199205811
 10
83.8195273859
 20
-30.9231722795
 10
83.4969116601
 20
-30.925490647
 10
83.1737358648
 20
-30.9268778579
  0
LWPOLYLINE
  5
3D2
100
AcDbEntity
  8
0
100
AcDbPolyline
 62
253
  6
CONTINUOUS
 90
3
 70
0
 10
99.8358232415
 20
-29.5789213654
 10
99.4371054727
 20
-29.6262697375
 10
99.1958943783
 20
-29.6536042397
  0
LWPOLYLINE
  5
3D3
100
AcDbEntity
  8
0
100
AcDbPolyline
 62
253
  6
CONTINUOUS
 90
9
 70
0
 10
92.3267741095
 20
-30.216735819
 10
92.2787551904
 20
-30.2223406359
 10
92.2306480911
 20
-30.2271696036
 10
92.1824653659
 20
-30.231221462
 10
92.1342195891
 20
-30.2344951535
 10
92.0859233512
 20
-30.2369898239
 10
92.037589256
 20
-30.2387048222
 10
91.9892299172
 20
-30.2396397008
 10
91.9408579549
 20
-30.2397942157
  0
LWPOLYLINE
  5
3D4
100
AcDbEntity
  8
0
100
AcDbPolyline
 62
7
  6
CONTINUOUS
 90
14
 70
0
 10
99.1958943783
 20
-29.6536042397
 10
99.7919209271
 20
-29.5843593341
 10
100.3431524718
 20
-29.5147258173
 10
100.8517722591
 20
-29.4449480569
 10
101.3199870761
 20
-29.3752461022
 10
101.7501434031
 20
-29.3057966137
 10
102.1448423048
 20
-29.2367035005
 10
102.5053425208
 20
-29.1682936121
 10
102.8354128066
 20
-29.1003983424
 10
103.1410968953
 20
-29.0321943123
 10
103.4244038159
 20
-28.9635424665
 10
103.6870856731
 20
-28.8943154348
 10
103.9341203292
 20
-28.8233754775
 10
104.1672704673
 20
-28.7502314208
  0
LINE
  5
3D5
100
AcDbEntity
  8
0
100
AcDbLine
 62
7
  6
CONTINUOUS
 10
99.1958943783
 20
-29.6536042397
 11
90.5660860101
 21
-30.6148254337
  0
LWPOLYLINE
  5
3D6
100
AcDbEntity
  8
0
100
AcDbPolyline
 62
7
  6
CONTINUOUS
 90
22
 70
0
 10
-90.4938399594
 20
-30.6227706996
 10
-90.1835471667
 20
-30.6547793919
 10
-89.8678196272
 20
-30.6842380799
 10
-89.5445421598
 20
-30.7116181876
 10
-89.2147903073
 20
-30.7370248982
 10
-88.8802024279
 20
-30.7605090025
 10
-88.5393540037
 20
-30.7823122352
 10
-88.1932395283
 20
-30.8024750859
 10
-87.842959369
 20
-30.8210327336
 10
-87.4869196101
 20
-30.8381428712
 10
-87.1259619093
 20
-30.8538163128
 10
-86.7608641446
 20
-30.8680688772
 10
-86.3896365572
 20
-30.8810062503
 10
-86.012911049
 20
-30.8926179721
 10
-85.6313573906
 20
-30.9028929253
 10
-85.2428387747
 20
-30.9118819976
 10
-84.8479479215
 20
-30.9195499643
 10
-84.4473115114
 20
-30.9258610114
 10
-84.0387229439
 20
-30.9308119709
 10
-83.6218496965
 20
-30.9343466743
 10
-83.1983784308
 20
-30.9363907402
 10
-70.0
 20
-30.936913475
  0
LINE
  5
3D7
100
AcDbEntity
  8
0
100
AcDbLine
 62
7
  6
CONTINUOUS
 10
-90.4938399594
 20
-30.6227706996
 11
-99.1958943783
 21
-29.6536042397
  0
LWPOLYLINE
  5
3D8
100
AcDbEntity
  8
0
100
AcDbPolyline
 62
253
  6
CONTINUOUS
 90
17
 70
0
 10
-90.5659765298
 20
-30.6148376223
 10
-90.6964775276
 20
-30.5999382417
 10
-90.8866555999
 20
-30.5767956979
 10
-91.0664650429
 20
-30.5531122043
 10
-91.2357810378
 20
-30.5289037712
 10
-91.3943277134
 20
-30.50420597
 10
-91.5418257059
 20
-30.4790584672
 10
-91.6781661037
 20
-30.4534824776
 10
-91.8031229414
 20
-30.4275145979
 10
-91.9164574604
 20
-30.4011984199
 10
-92.018081412
 20
-30.3745648524
 10
-92.1078172894
 20
-30.3476552573
 10
-92.1855023262
 20
-30.3205125932
 10
-92.2511240131
 20
-30.2931689949
 10
-92.3046140314
 20
-30.2656633592
 10
-92.3458318666
 20
-30.2380428135
 10
-92.3746965658
 20
-30.2103514446
  0
LWPOLYLINE
  5
3D9
100
AcDbEntity
  8
0
100
AcDbPolyline
 62
7
  6
CONTINUOUS
 90
14
 70
0
 10
-99.1958943783
 20
-29.6536042397
 10
-99.7919209271
 20
-29.5843593341
 10
-100.3431524718
 20
-29.5147258173
 10
-100.8517722591
 20
-29.4449480569
 10
-101.3199870761
 20
-29.3752461022
 10
-101.7501434031
 20
-29.3057966137
 10
-102.1448423048
 20
-29.2367035005
 10
-102.5053425208
 20
-29.1682936121
 10
-102.8354128066
 20
-29.1003983424
 10
-103.1410968953
 20
-29.0321943123
 10
-103.4244038159
 20
-28.9635424665
 10
-103.6870856731
 20
-28.8943154348
 10
-103.9341203292
 20
-28.8233754775
 10
-104.1672704673
 20
-28.7502314208
  0
LINE
  5
3DA
100
AcDbEntity
  8
0
100
AcDbLine
 62
253
  6
CONTINUOUS
 10
-99.8358253495
 20
-29.5789211075
 11
-99.7919209271
 21
-29.5843593341
  0
LWPOLYLINE
  5
3DB
100
AcDbEntity
  8
0
100
AcDbPolyline
 62
253
  6
CONTINUOUS
 90
3
 70
0
 10
-99.7047036445
 20
-29.5944920245
 10
-99.4371076681
 20
-29.6262694844
 10
-99.1958944092
 20
-29.6536042363
  0
LINE
  5
3DC
100
AcDbEntity
  8
0
100
AcDbLine
 62
7
  6
CONTINUOUS
 10
-104.6829293634
 20
-28.383143047
 11
-92.6112613429
 21
-29.9079687305
  0
LWPOLYLINE
  5
3DD
100
AcDbEntity
  8
0
100
AcDbPolyline
 62
253
  6
CONTINUOUS
 90
15
 70
0
 10
-90.5388948119
 20
-30.587496837
 10
-90.7099564562
 20
-30.5649435579
 10
-90.8706369969
 20
-30.5419349064
 10
-91.0209032836
 20
-30.5184676631
 10
-91.1607884668
 20
-30.4945450474
 10
-91.289716622
 20
-30.4702627004
 10
-91.4076454166
 20
-30.44561623
 10
-91.5146171833
 20
-30.4206100281
 10
-91.6101829953
 20
-30.3953529111
 10
-91.6942782848
 20
-30.3698427958
 10
-91.7669676195
 20
-30.3440817654
 10
-91.8279957763
 20
-30.3181848855
 10
-91.8772776805
 20
-30.2921905116
 10
-91.9148984068
 20
-30.2660602883
 10
-91.9408579549
 20
-30.2397942157
  0
LWPOLYLINE
  5
3DE
100
AcDbEntity
  8
0
100
AcDbPolyline
 62
253
  6
CONTINUOUS
 90
10
 70
0
 10
-104.2033799347
 20
-28.6407028869
 10
-92.32677411
 20
-30.2167358189
 10
-92.2787551913
 20
-30.2223406358
 10
-92.2306480922
 20
-30.2271696035
 10
-92.1824653672
 20
-30.2312214619
 10
-92.1342195904
 20
-30.2344951534
 10
-92.0859233524
 20
-30.2369898239
 10
-92.0375892569
 20
-30.2387048222
 10
-91.9892299177
 20
-30.2396397008
 10
-91.9408579549
 20
-30.2397942157
  0
LINE
  5
3DF
100
AcDbEntity
  8
0
100
AcDbLine
 62
253
  6
CONTINUOUS
 10
-100.5900668275
 20
-29.480951671
 11
-100.2202528116
 21
-29.530468257
  0
LINE
  5
3E0
100
AcDbEntity
  8
0
100
AcDbLine
 62
253
  6
CONTINUOUS
 10
-100.9449564407
 20
-29.4304129796
 11
-100.5900668275
 21
-29.480951671
  0
LINE
  5
3E1
100
AcDbEntity
  8
0
100
AcDbLine
 62
7
  6
CONTINUOUS
 10
-105.740038283
 20
-27.7562075089
 11
-92.6146699418
 21
-29.6968588474
  0
LINE
  5
3E2
100
AcDbEntity
  8
ASSI
100
AcDbLine
 62
7
  6
CONTINUOUS
 10
-105.740038283
 20
-27.7562075089
 11
-92.6146699418
 21
-29.6968588474
  0
LINE
  5
3E3
100
AcDbEntity
  8
RACCORDO
100
AcDbLine
 62
7
  6
CONTINUOUS
 10
-105.5142653236
 20
-26.8623072958
 11
-92.5957613006
 21
-28.7723727104
  0
LINE
  5
3E4
100
AcDbEntity
  8
ASSI
100
AcDbLine
 62
7
  6
CONTINUOUS
 10
-105.5142653236
 20
-26.8623072958
 11
-92.5957613006
 21
-28.7723727104
  0
LINE
  5
3E5
100
AcDbEntity
  8
RACCORDO
100
AcDbLine
 62
7
  6
CONTINUOUS
 10
-105.5777211561
 20
-25.6517528906
 11
-91.8794913357
 21
-27.6771046632
  0
LINE
  5
3E6
100
AcDbEntity
  8
ASSI
100
AcDbLine
 62
7
  6
CONTINUOUS
 10
-105.5777211561
 20
-25.6517528906
 11
-91.8794913357
 21
-27.6771046632
  0
LINE
  5
3E7
100
AcDbEntity
  8
DRAFT
100
AcDbLine
 62
7
  6
CONTINUOUS
 10
-105.5483319009
 20
-25.4548614272
 11
-91.8647165139
 21
-27.4780523828
  0
LINE
  5
3E8
100
AcDbEntity
  8
RACCORDO
100
AcDbLine
 62
7
  6
CONTINUOUS
 10
-105.8073780769
 20
-27.4673736394
 11
-92.6183823154
 21
-29.4174562539
  0
LINE
  5
3E9
100
AcDbEntity
  8
ASSI
100
AcDbLine
 62
7
  6
CONTINUOUS
 10
-105.8073780769
 20
-27.4673736394
 11
-92.6183823154
 21
-29.4174562539
  0
LWPOLYLINE
  5
3EA
100
AcDbEntity
  8
0
100
AcDbPolyline
 62
253
  6
CONTINUOUS
 90
9
 70
0
 10
-104.6807789512
 20
-28.383414675
 10
-104.81416442
 20
-28.3625540628
 10
-104.9462503678
 20
-28.3355367907
 10
-105.0767625807
 20
-28.302434181
 10
-105.2053939598
 20
-28.2633422357
 10
-105.3319181294
 20
-28.2183483626
 10
-105.456183643
 20
-28.1675136633
 10
-105.5779660195
 20
-28.1109250397
 10
-105.6698761791
 20
-28.063504696
  0
LWPOLYLINE
  5
3EB
100
AcDbEntity
  8
0
100
AcDbPolyline
 62
7
  6
CONTINUOUS
 90
11
 70
0
 10
-105.7388702889
 20
-27.7619500918
 10
-105.8614759963
 20
-27.7421717999
 10
-105.9831070582
 20
-27.7173323905
 10
-106.1035568926
 20
-27.6874725083
 10
-106.2226228553
 20
-27.6526400122
 10
-106.3401008053
 20
-27.6128943472
 10
-106.4557852906
 20
-27.5683059734
 10
-106.5694796582
 20
-27.5189492384
 10
-106.6809905781
 20
-27.4649067273
 10
-106.7901222786
 20
-27.4062728416
 10
-106.8360039479
 20
-27.3798299799
  0
LWPOLYLINE
  5
3EC
100
AcDbEntity
  8
RACCORDO
100
AcDbPolyline
 62
7
  6
CONTINUOUS
 90
14
 70
0
 10
-105.5777211561
 20
-25.6517528906
 10
-105.6626090336
 20
-25.6366677505
 10
-105.7459621242
 20
-25.6169582801
 10
-105.8277804278
 20
-25.5926244793
 10
-105.9083208371
 20
-25.563556796
 10
-105.9873264595
 20
-25.5298647825
 10
-106.0640266169
 20
-25.4918770949
 10
-106.1383987468
 20
-25.4495516934
 10
-106.2104654118
 20
-25.4029306179
 10
-106.2795236215
 20
-25.352468644
 10
-106.3455439334
 20
-25.2981281826
 10
-106.40855579
 20
-25.2399468228
 10
-106.4679445281
 20
-25.1784921078
 10
-106.5236746897
 20
-25.1137320026
  0
LWPOLYLINE
  5
3ED
100
AcDbEntity
  8
ASSI
100
AcDbPolyline
 62
7
  6
CONTINUOUS
 90
14
 70
0
 10
-105.5777211561
 20
-25.6517528906
 10
-105.6626090336
 20
-25.6366677505
 10
-105.7459621242
 20
-25.6169582801
 10
-105.8277804278
 20
-25.5926244793
 10
-105.9083208371
 20
-25.563556796
 10
-105.9873264595
 20
-25.5298647825
 10
-106.0640266169
 20
-25.4918770949
 10
-106.1383987468
 20
-25.4495516934
 10
-106.2104654118
 20
-25.4029306179
 10
-106.2795236215
 20
-25.352468644
 10
-106.3455439334
 20
-25.2981281826
 10
-106.40855579
 20
-25.2399468228
 10
-106.4679445281
 20
-25.1784921078
 10
-106.5236746897
 20
-25.1137320026
  0
LWPOLYLINE
  5
3EE
100
AcDbEntity
  8
DRAFT
100
AcDbPolyline
 62
7
  6
CONTINUOUS
 90
23
 70
0
 10
-105.5483319009
 20
-25.4548614272
 10
-105.6219013948
 20
-25.4417876391
 10
-105.6941407399
 20
-25.4247060981
 10
-105.7650499364
 20
-25.403616804
 10
-105.8348516245
 20
-25.3784248119
 10
-105.9033231639
 20
-25.3492250669
 10
-105.9697966336
 20
-25.3163024043
 10
-106.0342524796
 20
-25.2796203896
 10
-106.0967102559
 20
-25.2392154575
 10
-106.1565607043
 20
-25.1954817468
 10
-106.2137783079
 20
-25.1483866803
 10
-106.2683885837
 20
-25.0979628351
 10
-106.3198588233
 20
-25.0447020821
 10
-106.3681582968
 20
-24.9885766576
 10
-106.4133177341
 20
-24.9296143252
 10
-106.4548966176
 20
-24.8683902461
 10
-106.4928599059
 20
-24.8048822856
 10
-106.5272426403
 20
-24.7391125785
 10
-106.5577094267
 20
-24.67172269
 10
-106.5842219415
 20
-24.6026967641
 10
-106.6068185084
 20
-24.5320506569
 10
-106.625278704
 20
-24.4604735015
 10
-106.6363315549
 20
-24.4064764077
  0
LWPOLYLINE
  5
3EF
100
AcDbEntity
  8
RACCORDO
100
AcDbPolyline
 62
7
  6
CONTINUOUS
 90
10
 70
0
 10
92.1792210128
 20
-29.4497451712
 10
92.2279967543
 20
-29.4493284373
 10
92.276856717
 20
-29.4481213185
 10
92.3257878165
 20
-29.4461194618
 10
92.374841639
 20
-29.4433144791
 10
92.42393983
 20
-29.4397045813
 10
92.4728748793
 20
-29.4353050254
 10
92.5215695569
 20
-29.4301290395
 10
92.5700761332
 20
-29.4241773762
 10
92.6183823154
 20
-29.4174562539
  0
LWPOLYLINE
  5
3F0
100
AcDbEntity
  8
ASSI
100
AcDbPolyline
 62
7
  6
CONTINUOUS
 90
10
 70
0
 10
92.1792210128
 20
-29.4497451712
 10
92.2279967543
 20
-29.4493284373
 10
92.276856717
 20
-29.4481213185
 10
92.3257878165
 20
-29.4461194618
 10
92.374841639
 20
-29.4433144791
 10
92.42393983
 20
-29.4397045813
 10
92.4728748793
 20
-29.4353050254
 10
92.5215695569
 20
-29.4301290395
 10
92.5700761332
 20
-29.4241773762
 10
92.6183823154
 20
-29.4174562539
  0
LWPOLYLINE
  5
3F1
100
AcDbEntity
  8
0
100
AcDbPolyline
 62
7
  6
CONTINUOUS
 90
10
 70
0
 10
92.1705075678
 20
-29.9392667786
 10
92.2189677267
 20
-29.9389970701
 10
92.267415198
 20
-29.9379469648
 10
92.315837338
 20
-29.9361167688
 10
92.364221498
 20
-29.9335070226
 10
92.4125550625
 20
-29.9301184089
 10
92.4608254526
 20
-29.925951751
 10
92.5090200824
 20
-29.9210081352
 10
92.5571263626
 20
-29.915288913
 10
92.6051317386
 20
-29.9087956072
  0
LWPOLYLINE
  5
3F2
100
AcDbEntity
  8
0
100
AcDbPolyline
 62
7
  6
CONTINUOUS
 90
22
 70
0
 10
83.2047749595
 20
-30.936371377
 10
83.6279497741
 20
-30.9343058886
 10
84.0445190626
 20
-30.9307520822
 10
84.4528005014
 20
-30.9257843648
 10
84.8531278041
 20
-30.9194587682
 10
85.2477069902
 20
-30.9117783289
 10
85.6359127588
 20
-30.9027788262
 10
86.0171539108
 20
-30.8924954303
 10
86.3935669062
 20
-30.8808771858
 10
86.7644830319
 20
-30.8679351871
 10
87.129272105
 20
-30.8536798808
 10
87.4899239874
 20
-30.8380055154
 10
87.8456620649
 20
-30.8208962666
 10
88.1956463734
 20
-30.8023413297
 10
88.5414711797
 20
-30.782182964
 10
88.8820380837
 20
-30.7603859918
 10
89.2163538826
 20
-30.7369099421
 10
89.5458428249
 20
-30.7115131502
 10
89.8688686933
 20
-30.6841448682
 10
90.1843577281
 20
-30.6546999417
 10
90.4944245933
 20
-30.6227071951
 10
90.5659765298
 20
-30.6148376223
  0
LINE
  5
3F3
100
AcDbEntity
  8
0
100
AcDbLine
 62
7
  6
CONTINUOUS
 10
83.2047749595
 20
-30.936371377
 11
70.0
 21
-30.936913475
  0
LINE
  5
3F4
100
AcDbEntity
  8
RACCORDO
100
AcDbLine
 62
7
  6
CONTINUOUS
 10
69.8
 20
-30.936913475
 11
59.6568240814
 21
-30.936913475
  0
LINE
  5
3F5
100
AcDbEntity
  8
ASSI
100
AcDbLine
 62
7
  6
CONTINUOUS
 10
69.8
 20
-30.936913475
 11
59.6568240814
 21
-30.936913475
  0
LINE
  5
3F6
100
AcDbEntity
  8
RACCORDO
100
AcDbLine
 62
7
  6
CONTINUOUS
 10
58.3431759186
 20
-30.936913475
 11
55.6568240814
 21
-30.936913475
  0
LINE
  5
3F7
100
AcDbEntity
  8
ASSI
100
AcDbLine
 62
7
  6
CONTINUOUS
 10
58.3431759186
 20
-30.936913475
 11
55.6568240814
 21
-30.936913475
  0
LINE
  5
3F8
100
AcDbEntity
  8
RACCORDO
100
AcDbLine
 62
7
  6
CONTINUOUS
 10
54.3431759186
 20
-30.936913475
 11
51.6568240814
 21
-30.936913475
  0
LINE
  5
3F9
100
AcDbEntity
  8
ASSI
100
AcDbLine
 62
7
  6
CONTINUOUS
 10
54.3431759186
 20
-30.936913475
 11
51.6568240814
 21
-30.936913475
  0
LINE
  5
3FA
100
AcDbEntity
  8
RACCORDO
100
AcDbLine
 62
7
  6
CONTINUOUS
 10
50.3431759186
 20
-30.936913475
 11
47.6568240814
 21
-30.936913475
  0
LINE
  5
3FB
100
AcDbEntity
  8
ASSI
100
AcDbLine
 62
7
  6
CONTINUOUS
 10
50.3431759186
 20
-30.936913475
 11
47.6568240814
 21
-30.936913475
  0
LINE
  5
3FC
100
AcDbEntity
  8
RACCORDO
100
AcDbLine
 62
7
  6
CONTINUOUS
 10
46.3431759186
 20
-30.936913475
 11
43.6568240814
 21
-30.936913475
  0
LINE
  5
3FD
100
AcDbEntity
  8
ASSI
100
AcDbLine
 62
7
  6
CONTINUOUS
 10
46.3431759186
 20
-30.936913475
 11
43.6568240814
 21
-30.936913475
  0
LINE
  5
3FE
100
AcDbEntity
  8
RACCORDO
100
AcDbLine
 62
7
  6
CONTINUOUS
 10
42.3431759186
 20
-30.936913475
 11
39.6568240814
 21
-30.936913475
  0
LINE
  5
3FF
100
AcDbEntity
  8
ASSI
100
AcDbLine
 62
7
  6
CONTINUOUS
 10
42.3431759186
 20
-30.936913475
 11
39.6568240814
 21
-30.936913475
  0
LINE
  5
400
100
AcDbEntity
  8
RACCORDO
100
AcDbLine
 62
7
  6
CONTINUOUS
 10
38.3431759186
 20
-30.936913475
 11
35.6568240814
 21
-30.936913475
  0
LINE
  5
401
100
AcDbEntity
  8
ASSI
100
AcDbLine
 62
7
  6
CONTINUOUS
 10
38.3431759186
 20
-30.936913475
 11
35.6568240814
 21
-30.936913475
  0
LINE
  5
402
100
AcDbEntity
  8
RACCORDO
100
AcDbLine
 62
7
  6
CONTINUOUS
 10
34.3431759186
 20
-30.936913475
 11
31.6568240814
 21
-30.936913475
  0
LINE
  5
403
100
AcDbEntity
  8
ASSI
100
AcDbLine
 62
7
  6
CONTINUOUS
 10
34.3431759186
 20
-30.936913475
 11
31.6568240814
 21
-30.936913475
  0
LINE
  5
404
100
AcDbEntity
  8
RACCORDO
100
AcDbLine
 62
7
  6
CONTINUOUS
 10
30.3431759186
 20
-30.936913475
 11
27.6568240814
 21
-30.936913475
  0
LINE
  5
405
100
AcDbEntity
  8
ASSI
100
AcDbLine
 62
7
  6
CONTINUOUS
 10
30.3431759186
 20
-30.936913475
 11
27.6568240814
 21
-30.936913475
  0
LINE
  5
406
100
AcDbEntity
  8
RACCORDO
100
AcDbLine
 62
7
  6
CONTINUOUS
 10
26.3431759186
 20
-30.936913475
 11
23.6568240814
 21
-30.936913475
  0
LINE
  5
407
100
AcDbEntity
  8
ASSI
100
AcDbLine
 62
7
  6
CONTINUOUS
 10
26.3431759186
 20
-30.936913475
 11
23.6568240814
 21
-30.936913475
  0
LINE
  5
408
100
AcDbEntity
  8
RACCORDO
100
AcDbLine
 62
7
  6
CONTINUOUS
 10
22.3431759186
 20
-30.936913475
 11
19.6568240814
 21
-30.936913475
  0
LINE
  5
409
100
AcDbEntity
  8
ASSI
100
AcDbLine
 62
7
  6
CONTINUOUS
 10
22.3431759186
 20
-30.936913475
 11
19.6568240814
 21
-30.936913475
  0
LINE
  5
40A
100
AcDbEntity
  8
RACCORDO
100
AcDbLine
 62
7
  6
CONTINUOUS
 10
18.3431759186
 20
-30.936913475
 11
15.6568240814
 21
-30.936913475
  0
LINE
  5
40B
100
AcDbEntity
  8
ASSI
100
AcDbLine
 62
7
  6
CONTINUOUS
 10
18.3431759186
 20
-30.936913475
 11
15.6568240814
 21
-30.936913475
  0
LINE
  5
40C
100
AcDbEntity
  8
RACCORDO
100
AcDbLine
 62
7
  6
CONTINUOUS
 10
14.3431759186
 20
-30.936913475
 11
-69.8
 21
-30.936913475
  0
LINE
  5
40D
100
AcDbEntity
  8
ASSI
100
AcDbLine
 62
7
  6
CONTINUOUS
 10
14.3431759186
 20
-30.936913475
 11
-69.8
 21
-30.936913475
  0
LINE
  5
40E
100
AcDbEntity
  8
0
100
AcDbLine
 62
253
  6
CONTINUOUS
 10
83.1737358648
 20
-30.9268778579
 11
70.0
 21
-30.9273339123
  0
LINE
  5
40F
100
AcDbEntity
  8
DRAFT
100
AcDbLine
 62
253
  6
CONTINUOUS
 10
69.8
 20
-30.9273339123
 11
59.6547355943
 21
-30.9273339123
  0
LINE
  5
410
100
AcDbEntity
  8
ASSI
100
AcDbLine
 62
253
  6
CONTINUOUS
 10
69.8
 20
-30.9273339123
 11
59.6547355943
 21
-30.9273339123
  0
LINE
  5
411
100
AcDbEntity
  8
DRAFT
100
AcDbLine
 62
253
  6
CONTINUOUS
 10
58.3452644057
 20
-30.9273339123
 11
55.6547355943
 21
-30.9273339123
  0
LINE
  5
412
100
AcDbEntity
  8
ASSI
100
AcDbLine
 62
253
  6
CONTINUOUS
 10
58.3452644057
 20
-30.9273339123
 11
55.6547355943
 21
-30.9273339123
  0
LINE
  5
413
100
AcDbEntity
  8
DRAFT
100
AcDbLine
 62
253
  6
CONTINUOUS
 10
54.3452644057
 20
-30.9273339123
 11
51.6547355943
 21
-30.9273339123
  0
LINE
  5
414
100
AcDbEntity
  8
ASSI
100
AcDbLine
 62
253
  6
CONTINUOUS
 10
54.3452644057
 20
-30.9273339123
 11
51.6547355943
 21
-30.9273339123
  0
LINE
  5
415
100
AcDbEntity
  8
DRAFT
100
AcDbLine
 62
253
  6
CONTINUOUS
 10
50.3452644057
 20
-30.9273339123
 11
47.6547355943
 21
-30.9273339123
  0
LINE
  5
416
100
AcDbEntity
  8
ASSI
100
AcDbLine
 62
253
  6
CONTINUOUS
 10
50.3452644057
 20
-30.9273339123
 11
47.6547355943
 21
-30.9273339123
  0
LINE
  5
417
100
AcDbEntity
  8
DRAFT
100
AcDbLine
 62
253
  6
CONTINUOUS
 10
46.3452644057
 20
-30.9273339123
 11
43.6547355943
 21
-30.9273339123
  0
LINE
  5
418
100
AcDbEntity
  8
ASSI
100
AcDbLine
 62
253
  6
CONTINUOUS
 10
46.3452644057
 20
-30.9273339123
 11
43.6547355943
 21
-30.9273339123
  0
LINE
  5
419
100
AcDbEntity
  8
DRAFT
100
AcDbLine
 62
253
  6
CONTINUOUS
 10
42.3452644057
 20
-30.9273339123
 11
39.6547355943
 21
-30.9273339123
  0
LINE
  5
41A
100
AcDbEntity
  8
ASSI
100
AcDbLine
 62
253
  6
CONTINUOUS
 10
42.3452644057
 20
-30.9273339123
 11
39.6547355943
 21
-30.9273339123
  0
LINE
  5
41B
100
AcDbEntity
  8
DRAFT
100
AcDbLine
 62
253
  6
CONTINUOUS
 10
38.3452644057
 20
-30.9273339123
 11
35.6547355943
 21
-30.9273339123
  0
LINE
  5
41C
100
AcDbEntity
  8
ASSI
100
AcDbLine
 62
253
  6
CONTINUOUS
 10
38.3452644057
 20
-30.9273339123
 11
35.6547355943
 21
-30.9273339123
  0
LINE
  5
41D
100
AcDbEntity
  8
DRAFT
100
AcDbLine
 62
253
  6
CONTINUOUS
 10
34.3452644057
 20
-30.9273339123
 11
31.6547355943
 21
-30.9273339123
  0
LINE
  5
41E
100
AcDbEntity
  8
ASSI
100
AcDbLine
 62
253
  6
CONTINUOUS
 10
34.3452644057
 20
-30.9273339123
 11
31.6547355943
 21
-30.9273339123
  0
LINE
  5
41F
100
AcDbEntity
  8
DRAFT
100
AcDbLine
 62
253
  6
CONTINUOUS
 10
30.3452644057
 20
-30.9273339123
 11
27.6547355943
 21
-30.9273339123
  0
LINE
  5
420
100
AcDbEntity
  8
ASSI
100
AcDbLine
 62
253
  6
CONTINUOUS
 10
30.3452644057
 20
-30.9273339123
 11
27.6547355943
 21
-30.9273339123
  0
LINE
  5
421
100
AcDbEntity
  8
DRAFT
100
AcDbLine
 62
253
  6
CONTINUOUS
 10
26.3452644057
 20
-30.9273339123
 11
23.6547355943
 21
-30.9273339123
  0
LINE
  5
422
100
AcDbEntity
  8
ASSI
100
AcDbLine
 62
253
  6
CONTINUOUS
 10
26.3452644057
 20
-30.9273339123
 11
23.6547355943
 21
-30.9273339123
  0
LINE
  5
423
100
AcDbEntity
  8
DRAFT
100
AcDbLine
 62
253
  6
CONTINUOUS
 10
22.3452644057
 20
-30.9273339123
 11
19.6547355943
 21
-30.9273339123
  0
LINE
  5
424
100
AcDbEntity
  8
ASSI
100
AcDbLine
 62
253
  6
CONTINUOUS
 10
22.3452644057
 20
-30.9273339123
 11
19.6547355943
 21
-30.9273339123
  0
LINE
  5
425
100
AcDbEntity
  8
DRAFT
100
AcDbLine
 62
253
  6
CONTINUOUS
 10
18.3452644057
 20
-30.9273339123
 11
15.6547355943
 21
-30.9273339123
  0
LINE
  5
426
100
AcDbEntity
  8
ASSI
100
AcDbLine
 62
253
  6
CONTINUOUS
 10
18.3452644057
 20
-30.9273339123
 11
15.6547355943
 21
-30.9273339123
  0
LINE
  5
427
100
AcDbEntity
  8
DRAFT
100
AcDbLine
 62
253
  6
CONTINUOUS
 10
14.3452644057
 20
-30.9273339123
 11
-69.8
 21
-30.9273339123
  0
LINE
  5
428
100
AcDbEntity
  8
ASSI
100
AcDbLine
 62
253
  6
CONTINUOUS
 10
14.3452644057
 20
-30.9273339123
 11
-69.8
 21
-30.9273339123
  0
LINE
  5
429
100
AcDbEntity
  8
ASSI
100
AcDbLine
 62
7
  6
CONTINUOUS
 10
-92.1738982563
 20
-29.7292661665
 11
-80.0
 21
-29.7292661665
  0
LINE
  5
42A
100
AcDbEntity
  8
ASSI
100
AcDbLine
 62
7
  6
CONTINUOUS
 10
92.1738982563
 20
-29.7292661665
 11
80.0
 21
-29.7292661665
  0
LINE
  5
42B
100
AcDbEntity
  8
0
100
AcDbLine
 62
7
  6
CONTINUOUS
 10
80.4
 20
-29.7292661665
 11
92.1738982563
 21
-29.7292661665
  0
LINE
  5
42C
100
AcDbEntity
  8
0
100
AcDbLine
 62
7
  6
CONTINUOUS
 10
-80.4
 20
-29.7292661665
 11
-92.1738982563
 21
-29.7292661665
  0
LINE
  5
42D
100
AcDbEntity
  8
RACCORDO
100
AcDbLine
 62
7
  6
CONTINUOUS
 10
-92.1792210128
 20
-29.4497451712
 11
92.1792210128
 21
-29.4497451712
  0
LINE
  5
42E
100
AcDbEntity
  8
ASSI
100
AcDbLine
 62
7
  6
CONTINUOUS
 10
-92.1792210128
 20
-29.4497451712
 11
92.1792210128
 21
-29.4497451712
  0
LWPOLYLINE
  5
42F
100
AcDbEntity
  8
0
100
AcDbPolyline
 62
253
  6
CONTINUOUS
 90
29
 70
0
 10
-70.0
 20
-30.9273339123
 10
-83.1737358648
 20
-30.926877858
 10
-83.4969116601
 20
-30.9254906471
 10
-83.8195273859
 20
-30.9231722796
 10
-84.1421021753
 20
-30.9199205811
 10
-84.4641168952
 20
-30.9157377261
 10
-84.7840141462
 20
-30.9106302376
 10
-85.1017753479
 20
-30.9045913517
 10
-85.4174190807
 20
-30.8976278323
 10
-85.7294436866
 20
-30.8897664938
 10
-86.0377780559
 20
-30.8810030134
 10
-86.3424932983
 20
-30.8713417139
 10
-86.6423010856
 20
-30.8608223784
 10
-86.9371212599
 20
-30.8494437566
 10
-87.2270339791
 20
-30.8372070987
 10
-87.5109913881
 20
-30.8241559382
 10
-87.7889913724
 20
-30.8102869043
 10
-88.0610360464
 20
-30.7956033678
 10
-88.3260838984
 20
-30.780158975
 10
-88.5841243644
 20
-30.7639498116
 10
-88.8351680084
 20
-30.7469797919
 10
-89.0782050098
 20
-30.729314305
 10
-89.3132002597
 20
-30.7109506503
 10
-89.540188867
 20
-30.6918915283
 10
-89.7582663381
 20
-30.6722104295
 10
-89.9673960388
 20
-30.6519049763
 10
-90.1676146032
 20
-30.6309775463
 10
-90.3581274404
 20
-30.609508762
 10
-90.5388948119
 20
-30.587496837
  0
LWPOLYLINE
  5
430
100
AcDbEntity
  8
0
100
AcDbPolyline
 62
7
  6
CONTINUOUS
 90
10
 70
0
 10
-92.1705075678
 20
-29.9392667786
 10
-92.2189677658
 20
-29.9389969699
 10
-92.2674152293
 20
-29.9379468846
 10
-92.315837338
 20
-29.9361167688
 10
-92.3642214901
 20
-29.9335070427
 10
-92.4125550702
 20
-29.9301183891
 10
-92.4608254526
 20
-29.925951751
 10
-92.5090200513
 20
-29.921008215
 10
-92.5571263237
 20
-29.9152890127
 10
-92.6051317386
 20
-29.9087956072
  0
LWPOLYLINE
  5
431
100
AcDbEntity
  8
RACCORDO
100
AcDbPolyline
 62
7
  6
CONTINUOUS
 90
10
 70
0
 10
-92.1784114271
 20
-29.4497451712
 10
-92.2275605105
 20
-29.449335414
 10
-92.2766970971
 20
-29.4481264194
 10
-92.3258079961
 20
-29.4461184724
 10
-92.3748805222
 20
-29.4433120408
 10
-92.4239009999
 20
-29.4397078568
 10
-92.4728547729
 20
-29.4353069979
 10
-92.5217282061
 20
-29.4301107401
 10
-92.5705086825
 20
-29.4241204757
 10
-92.6191831126
 20
-29.417337852
  0
LWPOLYLINE
  5
432
100
AcDbEntity
  8
ASSI
100
AcDbPolyline
 62
7
  6
CONTINUOUS
 90
10
 70
0
 10
-92.1784114271
 20
-29.4497451712
 10
-92.2275605105
 20
-29.449335414
 10
-92.2766970971
 20
-29.4481264194
 10
-92.3258079961
 20
-29.4461184724
 10
-92.3748805222
 20
-29.4433120408
 10
-92.4239009999
 20
-29.4397078568
 10
-92.4728547729
 20
-29.4353069979
 10
-92.5217282061
 20
-29.4301107401
 10
-92.5705086825
 20
-29.4241204757
 10
-92.6191831126
 20
-29.417337852
  0
LINE
  5
433
100
AcDbEntity
  8
RACCORDO
100
AcDbLine
 62
7
  6
CONTINUOUS
 10
-92.156599998
 20
-28.8046616277
 11
92.1565999981
 21
-28.8046616277
  0
LINE
  5
434
100
AcDbEntity
  8
ASSI
100
AcDbLine
 62
7
  6
CONTINUOUS
 10
-92.156599998
 20
-28.8046616277
 11
92.1565999981
 21
-28.8046616277
  0
LINE
  5
435
100
AcDbEntity
  8
0
100
AcDbLine
 62
7
  6
CONTINUOUS
 10
91.8794913357
 20
-27.6771046632
 11
-91.8794913357
 21
-27.6771046632
  0
LINE
  5
436
100
AcDbEntity
  8
ASSI
100
AcDbLine
 62
7
  6
CONTINUOUS
 10
91.8794913357
 20
-27.6771046632
 11
-91.8794913357
 21
-27.6771046632
  0
LINE
  5
437
100
AcDbEntity
  8
DRAFT
100
AcDbLine
 62
7
  6
CONTINUOUS
 10
-91.8647165139
 20
-27.4780523828
 11
-63.5698202597
 21
-27.4780523828
  0
LINE
  5
438
100
AcDbEntity
  8
DRAFT
100
AcDbLine
 62
7
  6
CONTINUOUS
 10
-56.4301797403
 20
-27.4780523828
 11
56.4301797403
 21
-27.4780523828
  0
LINE
  5
439
100
AcDbEntity
  8
DRAFT
100
AcDbLine
 62
7
  6
CONTINUOUS
 10
63.5698202597
 20
-27.4780523828
 11
91.8647165139
 21
-27.4780523828
  0
LINE
  5
43A
100
AcDbEntity
  8
0
100
AcDbLine
 62
7
  6
CONTINUOUS
 10
56.75
 20
-26.1427916552
 11
63.25
 21
-26.1427916552
  0
LINE
  5
43B
100
AcDbEntity
  8
ASSI
100
AcDbLine
 62
7
  6
CONTINUOUS
 10
56.75
 20
-26.1427916552
 11
63.25
 21
-26.1427916552
  0
LINE
  5
43C
100
AcDbEntity
  8
0
100
AcDbLine
 62
7
  6
CONTINUOUS
 10
-56.75
 20
-26.1427916552
 11
-63.25
 21
-26.1427916552
  0
LINE
  5
43D
100
AcDbEntity
  8
ASSI
100
AcDbLine
 62
7
  6
CONTINUOUS
 10
-56.75
 20
-26.1427916552
 11
-63.25
 21
-26.1427916552
  0
LINE
  5
43E
100
AcDbEntity
  8
DRAFT
100
AcDbLine
 62
7
  6
CONTINUOUS
 10
-63.5
 20
-25.7910141949
 11
-56.5
 21
-25.7910141949
  0
LINE
  5
43F
100
AcDbEntity
  8
DRAFT
100
AcDbLine
 62
7
  6
CONTINUOUS
 10
63.5
 20
-25.7910141949
 11
56.5
 21
-25.7910141949
  0
LINE
  5
440
100
AcDbEntity
  8
DRAFT
100
AcDbLine
 62
7
  6
CONTINUOUS
 10
63.5698202597
 20
-25.3325828097
 11
56.4301797403
 21
-25.3325828097
  0
LINE
  5
441
100
AcDbEntity
  8
DRAFT
100
AcDbLine
 62
7
  6
CONTINUOUS
 10
-56.4301797403
 20
-25.3325828097
 11
-63.5698202597
 21
-25.3325828097
  0
LINE
  5
442
100
AcDbEntity
  8
RACCORDO
100
AcDbLine
 62
7
  6
CONTINUOUS
 10
106.8510709627
 20
-24.3410132228
 11
106.6460472698
 21
-24.3410132228
  0
LINE
  5
443
100
AcDbEntity
  8
ASSI
100
AcDbLine
 62
7
  6
CONTINUOUS
 10
106.8510709627
 20
-24.3410132228
 11
106.6460472698
 21
-24.3410132228
  0
LINE
  5
444
100
AcDbEntity
  8
RACCORDO
100
AcDbLine
 62
7
  6
CONTINUOUS
 10
-106.6460472698
 20
-24.3410132228
 11
-106.8510709627
 21
-24.3410132228
  0
LINE
  5
445
100
AcDbEntity
  8
ASSI
100
AcDbLine
 62
7
  6
CONTINUOUS
 10
-106.6460472698
 20
-24.3410132228
 11
-106.8510709627
 21
-24.3410132228
  0
LINE
  5
446
100
AcDbEntity
  8
RACCORDO
100
AcDbLine
 62
7
  6
CONTINUOUS
 10
106.8553620092
 20
-24.2437777289
 11
106.6556206403
 21
-24.2437777289
  0
LINE
  5
447
100
AcDbEntity
  8
ASSI
100
AcDbLine
 62
7
  6
CONTINUOUS
 10
106.8553620092
 20
-24.2437777289
 11
106.6556206403
 21
-24.2437777289
  0
LINE
  5
448
100
AcDbEntity
  8
RACCORDO
100
AcDbLine
 62
7
  6
CONTINUOUS
 10
-106.6556206403
 20
-24.2437777289
 11
-106.8553620092
 21
-24.2437777289
  0
LINE
  5
449
100
AcDbEntity
  8
ASSI
100
AcDbLine
 62
7
  6
CONTINUOUS
 10
-106.6556206403
 20
-24.2437777289
 11
-106.8553620092
 21
-24.2437777289
  0
LINE
  5
44A
100
AcDbEntity
  8
0
100
AcDbLine
 62
253
  6
CONTINUOUS
 10
-106.8207357928
 20
25.5150259876
 11
-106.690346935
 21
25.4447545482
  0
LINE
  5
44B
100
AcDbEntity
  8
RACCORDO
100
AcDbLine
 62
253
  6
CONTINUOUS
 10
-106.8553620092
 20
25.5336873527
 11
-106.8207357928
 21
25.5150259876
  0
LINE
  5
44C
100
AcDbEntity
  8
ASSI
100
AcDbLine
 62
253
  6
CONTINUOUS
 10
-106.8553620092
 20
25.5336873527
 11
-106.8207357928
 21
25.5150259876
  0
LWPOLYLINE
  5
44D
100
AcDbEntity
  8
ASSI
100
AcDbPolyline
 62
7
  6
CONTINUOUS
 90
31
 70
0
 10
101.2
 20
-22.4162880126
 10
101.0948543709
 20
-22.4134980044
 10
100.9905647276
 20
-22.4053291248
 10
100.8871310699
 20
-22.3917813738
 10
100.7842750951
 20
-22.3727882534
 10
100.6822751061
 20
-22.3484162615
 10
100.5819660113
 20
-22.3188648922
 10
100.4833616891
 20
-22.2840916343
 10
100.3864482612
 20
-22.2441389989
 10
100.2920190005
 20
-22.1993340135
 10
100.2000942966
 20
-22.1496368511
 10
100.1106537601
 20
-22.0950873387
 10
100.0244294954
 20
-22.0361319847
 10
99.9414479011
 20
-21.9727346269
 10
99.8616825787
 20
-21.9049314275
 10
99.7857864376
 20
-21.8332773813
 10
99.7137912351
 20
-21.7577408815
 10
99.6456652139
 20
-21.6783535349
 10
99.5819660113
 20
-21.595765157
 10
99.5227299614
 20
-21.5099494745
 10
99.4679207301
 20
-21.4209327606
 10
99.4179869516
 20
-21.3294436509
 10
99.3729686426
 20
-21.2354618526
 10
99.3328257863
 20
-21.1390076584
 10
99.2978869674
 20
-21.0408705825
 10
99.2681948993
 20
-20.9410368121
 10
99.2437068685
 20
-20.8395201599
 10
99.2246233188
 20
-20.7371515783
 10
99.2109886089
 20
-20.6339240746
 10
99.2027583802
 20
-20.5298446414
 10
99.2
 20
-20.4257652082
  0
LWPOLYLINE
  5
44E
100
AcDbEntity
  8
ASSI
100
AcDbPolyline
 62
7
  6
CONTINUOUS
 90
30
 70
0
 10
101.2
 20
-18.5810956447
 10
101.3051456291
 20
-18.5838856529
 10
101.4094352724
 20
-18.5920545325
 10
101.5128689301
 20
-18.6056022835
 10
101.6157249049
 20
-18.6245954039
 10
101.7177248939
 20
-18.6489673958
 10
101.8180339887
 20
-18.6785187651
 10
101.9166383109
 20
-18.7132920231
 10
102.0135517388
 20
-18.7532446584
 10
102.1079809995
 20
-18.7980496438
 10
102.1999057034
 20
-18.8477468062
 10
102.2893462399
 20
-18.9022963186
 10
102.3755705046
 20
-18.9612516726
 10
102.4585520989
 20
-19.0246490304
 10
102.5383174213
 20
-19.0924522298
 10
102.6142135624
 20
-19.164106276
 10
102.6862087649
 20
-19.2396427758
 10
102.7543347861
 20
-19.3190301224
 10
102.8180339887
 20
-19.4016185003
 10
102.8772700386
 20
-19.4874341829
 10
102.9320792699
 20
-19.5764508967
 10
102.9820130484
 20
-19.6679400064
 10
103.0270313574
 20
-19.7619218047
 10
103.0671742137
 20
-19.8583759989
 10
103.1021130326
 20
-19.9565130748
 10
103.1318051007
 20
-20.0563468452
 10
103.1562931315
 20
-20.1578634974
 10
103.1753766812
 20
-20.260232079
 10
103.1890113911
 20
-20.3634595827
 10
103.1972416198
 20
-20.4675390159
  0
LWPOLYLINE
  5
44F
100
AcDbEntity
  8
ASSI
100
AcDbPolyline
 62
7
  6
CONTINUOUS
 90
31
 70
0
 10
101.2
 20
-18.4352424038
 10
101.3051456291
 20
-18.438032412
 10
101.4094352724
 20
-18.4462012916
 10
101.5128689301
 20
-18.4597490426
 10
101.6157249049
 20
-18.478742163
 10
101.7177248939
 20
-18.5031141549
 10
101.8180339887
 20
-18.5326655242
 10
101.9166383109
 20
-18.5674387822
 10
102.0135517388
 20
-18.6073914175
 10
102.1079809995
 20
-18.6521964029
 10
102.1999057034
 20
-18.7018935653
 10
102.2893462399
 20
-18.7564430777
 10
102.3755705046
 20
-18.8153984318
 10
102.4585520989
 20
-18.8787957895
 10
102.5383174213
 20
-18.9465989889
 10
102.6142135624
 20
-19.0182530351
 10
102.6862087649
 20
-19.0937895349
 10
102.7543347861
 20
-19.1731768815
 10
102.8180339887
 20
-19.2557652594
 10
102.8772700386
 20
-19.341580942
 10
102.9320792699
 20
-19.4305976558
 10
102.9820130484
 20
-19.5220867655
 10
103.0270313574
 20
-19.6160685639
 10
103.0671742137
 20
-19.712522758
 10
103.1021130326
 20
-19.810659834
 10
103.1318051007
 20
-19.9104936043
 10
103.1562931315
 20
-20.0120102565
 10
103.1753766812
 20
-20.1143788382
 10
103.1890113911
 20
-20.2176063418
 10
103.1972416198
 20
-20.321685775
 10
103.2
 20
-20.4257652082
  0
LINE
  5
450
100
AcDbEntity
  8
RACCORDO
100
AcDbLine
 62
7
  6
CONTINUOUS
 10
107.4847963658
 20
-2.5968422309
 11
107.2847971463
 21
-2.5968422309
  0
LINE
  5
451
100
AcDbEntity
  8
ASSI
100
AcDbLine
 62
7
  6
CONTINUOUS
 10
107.4847963658
 20
-2.5968422309
 11
107.2847971463
 21
-2.5968422309
  0
LINE
  5
452
100
AcDbEntity
  8
RACCORDO
100
AcDbLine
 62
7
  6
CONTINUOUS
 10
107.2901813657
 20
3.2774906884
 11
107.490972837
 21
3.2774906884
  0
LINE
  5
453
100
AcDbEntity
  8
ASSI
100
AcDbLine
 62
7
  6
CONTINUOUS
 10
107.2901813657
 20
3.2774906884
 11
107.490972837
 21
3.2774906884
  0
LINE
  5
454
100
AcDbEntity
  8
RACCORDO
100
AcDbLine
 62
7
  6
CONTINUOUS
 10
107.289767195
 20
3.3747261823
 11
107.490972837
 21
3.3747261823
  0
LINE
  5
455
100
AcDbEntity
  8
ASSI
100
AcDbLine
 62
7
  6
CONTINUOUS
 10
107.289767195
 20
3.3747261823
 11
107.490972837
 21
3.3747261823
  0
LWPOLYLINE
  5
456
100
AcDbEntity
  8
0
100
AcDbPolyline
 62
253
  6
CONTINUOUS
 90
7
 70
0
 10
-102.2708895474
 20
23.9052006571
 10
-101.9332579779
 20
23.8527862384
 10
-101.5147935622
 20
23.7923432405
 10
-101.0761144399
 20
23.7332761003
 10
-100.6176607208
 20
23.6756438859
 10
-100.139904015
 20
23.6195064791
 10
-99.7308999877
 20
23.5745478163
  0
LINE
  5
457
100
AcDbEntity
  8
RACCORDO
100
AcDbLine
 62
7
  6
CONTINUOUS
 10
15.6547355943
 20
-30.9273339123
 11
15.5547995945
 21
-30.0127786464
  0
LINE
  5
458
100
AcDbEntity
  8
ASSI
100
AcDbLine
 62
7
  6
CONTINUOUS
 10
15.6547355943
 20
-30.9273339123
 11
15.5547995945
 21
-30.0127786464
  0
LINE
  5
459
100
AcDbEntity
  8
RACCORDO
100
AcDbLine
 62
7
  6
CONTINUOUS
 10
19.6547355943
 20
-30.9273339123
 11
19.5547995945
 21
-30.0127786464
  0
LINE
  5
45A
100
AcDbEntity
  8
ASSI
100
AcDbLine
 62
7
  6
CONTINUOUS
 10
19.6547355943
 20
-30.9273339123
 11
19.5547995945
 21
-30.0127786464
  0
LINE
  5
45B
100
AcDbEntity
  8
RACCORDO
100
AcDbLine
 62
7
  6
CONTINUOUS
 10
23.6547355943
 20
-30.9273339123
 11
23.5547995945
 21
-30.0127786464
  0
LINE
  5
45C
100
AcDbEntity
  8
ASSI
100
AcDbLine
 62
7
  6
CONTINUOUS
 10
23.6547355943
 20
-30.9273339123
 11
23.5547995945
 21
-30.0127786464
  0
LINE
  5
45D
100
AcDbEntity
  8
RACCORDO
100
AcDbLine
 62
7
  6
CONTINUOUS
 10
14.3452644057
 20
-30.9273339123
 11
14.4452004055
 21
-30.0127786464
  0
LINE
  5
45E
100
AcDbEntity
  8
ASSI
100
AcDbLine
 62
7
  6
CONTINUOUS
 10
14.3452644057
 20
-30.9273339123
 11
14.4452004055
 21
-30.0127786464
  0
LINE
  5
45F
100
AcDbEntity
  8
RACCORDO
100
AcDbLine
 62
7
  6
CONTINUOUS
 10
18.3452644057
 20
-30.9273339123
 11
18.4452004055
 21
-30.0127786464
  0
LINE
  5
460
100
AcDbEntity
  8
ASSI
100
AcDbLine
 62
7
  6
CONTINUOUS
 10
18.3452644057
 20
-30.9273339123
 11
18.4452004055
 21
-30.0127786464
  0
LINE
  5
461
100
AcDbEntity
  8
RACCORDO
100
AcDbLine
 62
7
  6
CONTINUOUS
 10
27.6547355943
 20
-30.9273339123
 11
27.5547995945
 21
-30.0127786464
  0
LINE
  5
462
100
AcDbEntity
  8
ASSI
100
AcDbLine
 62
7
  6
CONTINUOUS
 10
27.6547355943
 20
-30.9273339123
 11
27.5547995945
 21
-30.0127786464
  0
LINE
  5
463
100
AcDbEntity
  8
RACCORDO
100
AcDbLine
 62
7
  6
CONTINUOUS
 10
31.6547355943
 20
-30.9273339123
 11
31.5547995945
 21
-30.0127786464
  0
LINE
  5
464
100
AcDbEntity
  8
ASSI
100
AcDbLine
 62
7
  6
CONTINUOUS
 10
31.6547355943
 20
-30.9273339123
 11
31.5547995945
 21
-30.0127786464
  0
LINE
  5
465
100
AcDbEntity
  8
RACCORDO
100
AcDbLine
 62
7
  6
CONTINUOUS
 10
22.3452644057
 20
-30.9273339123
 11
22.4452004055
 21
-30.0127786464
  0
LINE
  5
466
100
AcDbEntity
  8
ASSI
100
AcDbLine
 62
7
  6
CONTINUOUS
 10
22.3452644057
 20
-30.9273339123
 11
22.4452004055
 21
-30.0127786464
  0
LINE
  5
467
100
AcDbEntity
  8
RACCORDO
100
AcDbLine
 62
7
  6
CONTINUOUS
 10
26.3452644057
 20
-30.9273339123
 11
26.4452004055
 21
-30.0127786464
  0
LINE
  5
468
100
AcDbEntity
  8
ASSI
100
AcDbLine
 62
7
  6
CONTINUOUS
 10
26.3452644057
 20
-30.9273339123
 11
26.4452004055
 21
-30.0127786464
  0
LINE
  5
469
100
AcDbEntity
  8
0
100
AcDbLine
 62
253
  6
CONTINUOUS
 10
106.8207357928
 20
25.5150259876
 11
106.690346935
 21
25.4447545482
  0
LINE
  5
46A
100
AcDbEntity
  8
RACCORDO
100
AcDbLine
 62
253
  6
CONTINUOUS
 10
106.8207357928
 20
25.5150259876
 11
106.8553620092
 21
25.5336873527
  0
LINE
  5
46B
100
AcDbEntity
  8
ASSI
100
AcDbLine
 62
253
  6
CONTINUOUS
 10
106.8207357928
 20
25.5150259876
 11
106.8553620092
 21
25.5336873527
  0
LINE
  5
46C
100
AcDbEntity
  8
RACCORDO
100
AcDbLine
 62
7
  6
CONTINUOUS
 10
-106.8852151852
 20
25.0216616803
 11
-106.710180147
 21
25.0216616803
  0
LINE
  5
46D
100
AcDbEntity
  8
ASSI
100
AcDbLine
 62
7
  6
CONTINUOUS
 10
-106.8852151852
 20
25.0216616803
 11
-106.710180147
 21
25.0216616803
  0
LINE
  5
46E
100
AcDbEntity
  8
RACCORDO
100
AcDbLine
 62
7
  6
CONTINUOUS
 10
106.710180147
 20
25.0216616803
 11
106.8852151852
 21
25.0216616803
  0
LINE
  5
46F
100
AcDbEntity
  8
ASSI
100
AcDbLine
 62
7
  6
CONTINUOUS
 10
106.710180147
 20
25.0216616803
 11
106.8852151852
 21
25.0216616803
  0
LINE
  5
470
100
AcDbEntity
  8
DRAFT
100
AcDbLine
 62
7
  6
CONTINUOUS
 10
-63.5698202597
 20
27.2772926881
 11
-56.4301797403
 21
27.2772926881
  0
LINE
  5
471
100
AcDbEntity
  8
DRAFT
100
AcDbLine
 62
7
  6
CONTINUOUS
 10
56.4301797403
 20
27.2772926881
 11
63.5698202597
 21
27.2772926881
  0
LINE
  5
472
100
AcDbEntity
  8
0
100
AcDbLine
 62
7
  6
CONTINUOUS
 10
56.75
 20
27.4749179219
 11
63.25
 21
27.4749179219
  0
LINE
  5
473
100
AcDbEntity
  8
ASSI
100
AcDbLine
 62
7
  6
CONTINUOUS
 10
56.75
 20
27.4749179219
 11
63.25
 21
27.4749179219
  0
LINE
  5
474
100
AcDbEntity
  8
0
100
AcDbLine
 62
7
  6
CONTINUOUS
 10
-56.75
 20
27.4749179219
 11
-63.25
 21
27.4749179219
  0
LINE
  5
475
100
AcDbEntity
  8
ASSI
100
AcDbLine
 62
7
  6
CONTINUOUS
 10
-56.75
 20
27.4749179219
 11
-63.25
 21
27.4749179219
  0
LINE
  5
476
100
AcDbEntity
  8
0
100
AcDbLine
 62
7
  6
CONTINUOUS
 10
56.75
 20
27.601324064
 11
63.25
 21
27.601324064
  0
LINE
  5
477
100
AcDbEntity
  8
ASSI
100
AcDbLine
 62
7
  6
CONTINUOUS
 10
56.75
 20
27.601324064
 11
63.25
 21
27.601324064
  0
LINE
  5
478
100
AcDbEntity
  8
0
100
AcDbLine
 62
7
  6
CONTINUOUS
 10
-56.75
 20
27.601324064
 11
-63.25
 21
27.601324064
  0
LINE
  5
479
100
AcDbEntity
  8
ASSI
100
AcDbLine
 62
7
  6
CONTINUOUS
 10
-56.75
 20
27.601324064
 11
-63.25
 21
27.601324064
  0
LINE
  5
47A
100
AcDbEntity
  8
DRAFT
100
AcDbLine
 62
7
  6
CONTINUOUS
 10
63.5
 20
28.9643308759
 11
63.25
 21
28.9643308759
  0
LINE
  5
47B
100
AcDbEntity
  8
DRAFT
100
AcDbLine
 62
7
  6
CONTINUOUS
 10
56.75
 20
28.9643308759
 11
56.5
 21
28.9643308759
  0
LINE
  5
47C
100
AcDbEntity
  8
DRAFT
100
AcDbLine
 62
7
  6
CONTINUOUS
 10
-56.5
 20
28.9643308759
 11
-56.75
 21
28.9643308759
  0
LINE
  5
47D
100
AcDbEntity
  8
DRAFT
100
AcDbLine
 62
7
  6
CONTINUOUS
 10
-63.25
 20
28.9643308759
 11
-63.5
 21
28.9643308759
  0
LINE
  5
47E
100
AcDbEntity
  8
DRAFT
100
AcDbLine
 62
7
  6
CONTINUOUS
 10
91.8647165139
 20
29.4227622612
 11
63.5698202597
 21
29.4227622612
  0
LINE
  5
47F
100
AcDbEntity
  8
DRAFT
100
AcDbLine
 62
7
  6
CONTINUOUS
 10
56.4301797403
 20
29.4227622612
 11
-56.4301797403
 21
29.4227622612
  0
LINE
  5
480
100
AcDbEntity
  8
DRAFT
100
AcDbLine
 62
7
  6
CONTINUOUS
 10
-63.5698202597
 20
29.4227622612
 11
-91.8647165139
 21
29.4227622612
  0
LINE
  5
481
100
AcDbEntity
  8
0
100
AcDbLine
 62
7
  6
CONTINUOUS
 10
91.8794913357
 20
29.6218145417
 11
-91.8794913357
 21
29.6218145417
  0
LINE
  5
482
100
AcDbEntity
  8
ASSI
100
AcDbLine
 62
7
  6
CONTINUOUS
 10
91.8794913357
 20
29.6218145417
 11
-91.8794913357
 21
29.6218145417
  0
LINE
  5
483
100
AcDbEntity
  8
RACCORDO
100
AcDbLine
 62
7
  6
CONTINUOUS
 10
-92.1565999981
 20
30.7493715061
 11
92.1565999981
 21
30.7493715061
  0
LINE
  5
484
100
AcDbEntity
  8
ASSI
100
AcDbLine
 62
7
  6
CONTINUOUS
 10
-92.1565999981
 20
30.7493715061
 11
92.1565999981
 21
30.7493715061
  0
LINE
  5
485
100
AcDbEntity
  8
RACCORDO
100
AcDbLine
 62
7
  6
CONTINUOUS
 10
35.6547355943
 20
-30.9273339123
 11
35.5547995945
 21
-30.0127786464
  0
LINE
  5
486
100
AcDbEntity
  8
ASSI
100
AcDbLine
 62
7
  6
CONTINUOUS
 10
35.6547355943
 20
-30.9273339123
 11
35.5547995945
 21
-30.0127786464
  0
LINE
  5
487
100
AcDbEntity
  8
RACCORDO
100
AcDbLine
 62
7
  6
CONTINUOUS
 10
39.6547355943
 20
-30.9273339123
 11
39.5547995945
 21
-30.0127786464
  0
LINE
  5
488
100
AcDbEntity
  8
ASSI
100
AcDbLine
 62
7
  6
CONTINUOUS
 10
39.6547355943
 20
-30.9273339123
 11
39.5547995945
 21
-30.0127786464
  0
LINE
  5
489
100
AcDbEntity
  8
RACCORDO
100
AcDbLine
 62
7
  6
CONTINUOUS
 10
30.3452644057
 20
-30.9273339123
 11
30.4452004055
 21
-30.0127786464
  0
LINE
  5
48A
100
AcDbEntity
  8
ASSI
100
AcDbLine
 62
7
  6
CONTINUOUS
 10
30.3452644057
 20
-30.9273339123
 11
30.4452004055
 21
-30.0127786464
  0
LINE
  5
48B
100
AcDbEntity
  8
RACCORDO
100
AcDbLine
 62
7
  6
CONTINUOUS
 10
34.3452644057
 20
-30.9273339123
 11
34.4452004055
 21
-30.0127786464
  0
LINE
  5
48C
100
AcDbEntity
  8
ASSI
100
AcDbLine
 62
7
  6
CONTINUOUS
 10
34.3452644057
 20
-30.9273339123
 11
34.4452004055
 21
-30.0127786464
  0
LINE
  5
48D
100
AcDbEntity
  8
RACCORDO
100
AcDbLine
 62
7
  6
CONTINUOUS
 10
43.6547355943
 20
-30.9273339123
 11
43.5547995945
 21
-30.0127786464
  0
LINE
  5
48E
100
AcDbEntity
  8
ASSI
100
AcDbLine
 62
7
  6
CONTINUOUS
 10
43.6547355943
 20
-30.9273339123
 11
43.5547995945
 21
-30.0127786464
  0
LINE
  5
48F
100
AcDbEntity
  8
RACCORDO
100
AcDbLine
 62
7
  6
CONTINUOUS
 10
47.6547355943
 20
-30.9273339123
 11
47.5547995945
 21
-30.0127786464
  0
LINE
  5
490
100
AcDbEntity
  8
ASSI
100
AcDbLine
 62
7
  6
CONTINUOUS
 10
47.6547355943
 20
-30.9273339123
 11
47.5547995945
 21
-30.0127786464
  0
LINE
  5
491
100
AcDbEntity
  8
RACCORDO
100
AcDbLine
 62
7
  6
CONTINUOUS
 10
38.3452644057
 20
-30.9273339123
 11
38.4452004055
 21
-30.0127786464
  0
LINE
  5
492
100
AcDbEntity
  8
ASSI
100
AcDbLine
 62
7
  6
CONTINUOUS
 10
38.3452644057
 20
-30.9273339123
 11
38.4452004055
 21
-30.0127786464
  0
LINE
  5
493
100
AcDbEntity
  8
RACCORDO
100
AcDbLine
 62
7
  6
CONTINUOUS
 10
42.3452644057
 20
-30.9273339123
 11
42.4452004055
 21
-30.0127786464
  0
LINE
  5
494
100
AcDbEntity
  8
ASSI
100
AcDbLine
 62
7
  6
CONTINUOUS
 10
42.3452644057
 20
-30.9273339123
 11
42.4452004055
 21
-30.0127786464
  0
LWPOLYLINE
  5
495
100
AcDbEntity
  8
RACCORDO
100
AcDbPolyline
 62
7
  6
CONTINUOUS
 90
4
 70
0
 10
-105.5142653236
 20
28.8070171742
 10
-105.6490681247
 20
28.7839917772
 10
-105.782385294
 20
28.7549131378
 10
-105.8256550146
 20
28.7440917716
  0
LWPOLYLINE
  5
496
100
AcDbEntity
  8
ASSI
100
AcDbPolyline
 62
7
  6
CONTINUOUS
 90
4
 70
0
 10
-105.5142653236
 20
28.8070171742
 10
-105.6490681247
 20
28.7839917772
 10
-105.782385294
 20
28.7549131378
 10
-105.8256550146
 20
28.7440917716
  0
LINE
  5
497
100
AcDbEntity
  8
DRAFT
100
AcDbLine
 62
7
  6
CONTINUOUS
 10
-91.8647165139
 20
29.4227622612
 11
-105.5483319009
 21
27.3995713057
  0
LINE
  5
498
100
AcDbEntity
  8
RACCORDO
100
AcDbLine
 62
7
  6
CONTINUOUS
 10
-91.8794913357
 20
29.6218145417
 11
-105.5777211561
 21
27.5964627691
  0
LINE
  5
499
100
AcDbEntity
  8
ASSI
100
AcDbLine
 62
7
  6
CONTINUOUS
 10
-91.8794913357
 20
29.6218145417
 11
-105.5777211561
 21
27.5964627691
  0
LINE
  5
49A
100
AcDbEntity
  8
RACCORDO
100
AcDbLine
 62
7
  6
CONTINUOUS
 10
-92.5957613006
 20
30.7170825889
 11
-105.5142653236
 21
28.8070171742
  0
LINE
  5
49B
100
AcDbEntity
  8
ASSI
100
AcDbLine
 62
7
  6
CONTINUOUS
 10
-92.5957613006
 20
30.7170825889
 11
-105.5142653236
 21
28.8070171742
  0
LINE
  5
49C
100
AcDbEntity
  8
DRAFT
100
AcDbLine
 62
7
  6
CONTINUOUS
 10
105.5483319009
 20
27.3995713057
 11
91.8647165139
 21
29.4227622612
  0
LINE
  5
49D
100
AcDbEntity
  8
RACCORDO
100
AcDbLine
 62
7
  6
CONTINUOUS
 10
91.8794913357
 20
29.6218145417
 11
105.5777211561
 21
27.5964627691
  0
LINE
  5
49E
100
AcDbEntity
  8
ASSI
100
AcDbLine
 62
7
  6
CONTINUOUS
 10
91.8794913357
 20
29.6218145417
 11
105.5777211561
 21
27.5964627691
  0
LINE
  5
49F
100
AcDbEntity
  8
RACCORDO
100
AcDbLine
 62
7
  6
CONTINUOUS
 10
105.5142653236
 20
28.8070171742
 11
92.5957613006
 21
30.7170825889
  0
LINE
  5
4A0
100
AcDbEntity
  8
ASSI
100
AcDbLine
 62
7
  6
CONTINUOUS
 10
105.5142653236
 20
28.8070171742
 11
92.5957613006
 21
30.7170825889
  0
LWPOLYLINE
  5
4A1
100
AcDbEntity
  8
DRAFT
100
AcDbPolyline
 62
7
  6
CONTINUOUS
 90
25
 70
0
 10
105.5483319009
 20
27.3995713057
 10
105.6219013948
 20
27.3864975176
 10
105.6941407399
 20
27.3694159765
 10
105.7650499364
 20
27.3483266825
 10
105.8348516245
 20
27.3231346904
 10
105.9033231639
 20
27.2939349453
 10
105.9697966336
 20
27.2610122827
 10
106.0342524796
 20
27.2243302681
 10
106.0967102559
 20
27.183925336
 10
106.1565607043
 20
27.1401916252
 10
106.2137783079
 20
27.0930965587
 10
106.2683885837
 20
27.0426727136
 10
106.3198588233
 20
26.9894119605
 10
106.3681582968
 20
26.933286536
 10
106.4133177341
 20
26.8743242036
 10
106.4548966176
 20
26.8131001245
 10
106.4928599059
 20
26.7495921641
 10
106.5272426403
 20
26.683822457
 10
106.5577094267
 20
26.6164325684
 10
106.5842219415
 20
26.5474066426
 10
106.6068185084
 20
26.4767605353
 10
106.625278704
 20
26.40518338
 10
106.639529054
 20
26.3329048875
 10
106.6496430328
 20
26.2596953469
 10
106.6556206403
 20
26.1855547582
  0
LWPOLYLINE
  5
4A2
100
AcDbEntity
  8
RACCORDO
100
AcDbPolyline
 62
7
  6
CONTINUOUS
 90
25
 70
0
 10
105.5777211561
 20
27.5964627691
 10
105.6626090336
 20
27.581377629
 10
105.7459621242
 20
27.5616681585
 10
105.8277804278
 20
27.5373343577
 10
105.9083208371
 20
27.5082666745
 10
105.9873264595
 20
27.4745746609
 10
106.0640266169
 20
27.4365869733
 10
106.1383987468
 20
27.3942615719
 10
106.2104654118
 20
27.3476404963
 10
106.2795236215
 20
27.2971785224
 10
106.3455439334
 20
27.242838061
 10
106.40855579
 20
27.1846567013
 10
106.4679445281
 20
27.1232019862
 10
106.5236746897
 20
27.058441881
 10
106.5757817329
 20
26.9904084206
 10
106.6237573676
 20
26.9197652524
 10
106.6675611618
 20
26.8464868365
 10
106.7072335476
 20
26.7705987129
 10
106.742387532
 20
26.6928411492
 10
106.7729788952
 20
26.6131958501
 10
106.799051857
 20
26.531681111
 10
106.8203520828
 20
26.4490920856
 10
106.8367947943
 20
26.3656938251
 10
106.8484647698
 20
26.2812212782
 10
106.8553620092
 20
26.1956744451
  0
LWPOLYLINE
  5
4A3
100
AcDbEntity
  8
ASSI
100
AcDbPolyline
 62
7
  6
CONTINUOUS
 90
25
 70
0
 10
105.5777211561
 20
27.5964627691
 10
105.6626090336
 20
27.581377629
 10
105.7459621242
 20
27.5616681585
 10
105.8277804278
 20
27.5373343577
 10
105.9083208371
 20
27.5082666745
 10
105.9873264595
 20
27.4745746609
 10
106.0640266169
 20
27.4365869733
 10
106.1383987468
 20
27.3942615719
 10
106.2104654118
 20
27.3476404963
 10
106.2795236215
 20
27.2971785224
 10
106.3455439334
 20
27.242838061
 10
106.40855579
 20
27.1846567013
 10
106.4679445281
 20
27.1232019862
 10
106.5236746897
 20
27.058441881
 10
106.5757817329
 20
26.9904084206
 10
106.6237573676
 20
26.9197652524
 10
106.6675611618
 20
26.8464868365
 10
106.7072335476
 20
26.7705987129
 10
106.742387532
 20
26.6928411492
 10
106.7729788952
 20
26.6131958501
 10
106.799051857
 20
26.531681111
 10
106.8203520828
 20
26.4490920856
 10
106.8367947943
 20
26.3656938251
 10
106.8484647698
 20
26.2812212782
 10
106.8553620092
 20
26.1956744451
  0
LINE
  5
4A4
100
AcDbEntity
  8
RACCORDO
100
AcDbLine
 62
7
  6
CONTINUOUS
 10
51.6547355943
 20
-30.9273339123
 11
51.5547995945
 21
-30.0127786464
  0
LINE
  5
4A5
100
AcDbEntity
  8
ASSI
100
AcDbLine
 62
7
  6
CONTINUOUS
 10
51.6547355943
 20
-30.9273339123
 11
51.5547995945
 21
-30.0127786464
  0
LINE
  5
4A6
100
AcDbEntity
  8
RACCORDO
100
AcDbLine
 62
7
  6
CONTINUOUS
 10
55.6547355943
 20
-30.9273339123
 11
55.5547995945
 21
-30.0127786464
  0
LINE
  5
4A7
100
AcDbEntity
  8
ASSI
100
AcDbLine
 62
7
  6
CONTINUOUS
 10
55.6547355943
 20
-30.9273339123
 11
55.5547995945
 21
-30.0127786464
  0
LINE
  5
4A8
100
AcDbEntity
  8
RACCORDO
100
AcDbLine
 62
7
  6
CONTINUOUS
 10
46.3452644057
 20
-30.9273339123
 11
46.4452004055
 21
-30.0127786464
  0
LINE
  5
4A9
100
AcDbEntity
  8
ASSI
100
AcDbLine
 62
7
  6
CONTINUOUS
 10
46.3452644057
 20
-30.9273339123
 11
46.4452004055
 21
-30.0127786464
  0
LINE
  5
4AA
100
AcDbEntity
  8
RACCORDO
100
AcDbLine
 62
7
  6
CONTINUOUS
 10
50.3452644057
 20
-30.9273339123
 11
50.4452004055
 21
-30.0127786464
  0
LINE
  5
4AB
100
AcDbEntity
  8
ASSI
100
AcDbLine
 62
7
  6
CONTINUOUS
 10
50.3452644057
 20
-30.9273339123
 11
50.4452004055
 21
-30.0127786464
  0
LINE
  5
4AC
100
AcDbEntity
  8
RACCORDO
100
AcDbLine
 62
253
  6
CONTINUOUS
 10
-108.0598969098
 20
26.0146574738
 11
-108.3529332448
 21
25.9405999201
  0
LINE
  5
4AD
100
AcDbEntity
  8
ASSI
100
AcDbLine
 62
253
  6
CONTINUOUS
 10
-108.0598969098
 20
26.0146574738
 11
-108.3529332448
 21
25.9405999201
  0
LWPOLYLINE
  5
4AE
100
AcDbEntity
  8
RACCORDO
100
AcDbPolyline
 62
7
  6
CONTINUOUS
 90
4
 70
0
 10
105.8256550146
 20
28.7440917716
 10
105.782385294
 20
28.7549131378
 10
105.6490681247
 20
28.7839917772
 10
105.5142653236
 20
28.8070171742
  0
LWPOLYLINE
  5
4AF
100
AcDbEntity
  8
ASSI
100
AcDbPolyline
 62
7
  6
CONTINUOUS
 90
4
 70
0
 10
105.8256550146
 20
28.7440917716
 10
105.782385294
 20
28.7549131378
 10
105.6490681247
 20
28.7839917772
 10
105.5142653236
 20
28.8070171742
  0
LINE
  5
4B0
100
AcDbEntity
  8
RACCORDO
100
AcDbLine
 62
253
  6
CONTINUOUS
 10
108.3227748605
 20
25.9482226805
 11
108.0598969098
 21
26.0146574738
  0
LINE
  5
4B1
100
AcDbEntity
  8
ASSI
100
AcDbLine
 62
253
  6
CONTINUOUS
 10
108.3227748605
 20
25.9482226805
 11
108.0598969098
 21
26.0146574738
  0
LINE
  5
4B2
100
AcDbEntity
  8
RACCORDO
100
AcDbLine
 62
253
  6
CONTINUOUS
 10
108.3529332448
 20
25.9405999201
 11
108.3227748605
 21
25.9482226805
  0
LINE
  5
4B3
100
AcDbEntity
  8
ASSI
100
AcDbLine
 62
253
  6
CONTINUOUS
 10
108.3529332448
 20
25.9405999201
 11
108.3227748605
 21
25.9482226805
  0
LWPOLYLINE
  5
4B4
100
AcDbEntity
  8
ASSI
100
AcDbPolyline
 62
7
  6
CONTINUOUS
 90
7
 70
0
 10
105.5777211561
 20
27.5964627691
 10
105.9058354596
 20
27.5092667803
 10
106.2101445185
 20
27.3478903268
 10
106.4658669912
 20
27.1254750648
 10
106.6673229664
 20
26.8469611113
 10
106.7981069209
 20
26.5350291893
 10
106.8553620111
 20
26.1956744083
  0
LINE
  5
4B5
100
AcDbEntity
  8
DRAFT
100
AcDbLine
 62
7
  6
CONTINUOUS
 10
56.4301797403
 20
-27.4780523828
 11
56.4736850472
 21
-27.6771046632
  0
LINE
  5
4B6
100
AcDbEntity
  8
DRAFT
100
AcDbLine
 62
7
  6
CONTINUOUS
 10
56.5
 20
-25.7910141949
 11
56.4301797403
 21
-25.3325828097
  0
LINE
  5
4B7
100
AcDbEntity
  8
RACCORDO
100
AcDbLine
 62
7
  6
CONTINUOUS
 10
59.6547355943
 20
-30.9273339123
 11
59.5547995945
 21
-30.0127786464
  0
LINE
  5
4B8
100
AcDbEntity
  8
ASSI
100
AcDbLine
 62
7
  6
CONTINUOUS
 10
59.6547355943
 20
-30.9273339123
 11
59.5547995945
 21
-30.0127786464
  0
LINE
  5
4B9
100
AcDbEntity
  8
DRAFT
100
AcDbLine
 62
7
  6
CONTINUOUS
 10
56.4301797403
 20
29.4227622612
 11
56.4301797403
 21
27.2772926881
  0
LINE
  5
4BA
100
AcDbEntity
  8
DRAFT
100
AcDbLine
 62
7
  6
CONTINUOUS
 10
56.4301797403
 20
-27.4780523828
 11
56.4301797403
 21
-25.3325828097
  0
LINE
  5
4BB
100
AcDbEntity
  8
DRAFT
100
AcDbLine
 62
7
  6
CONTINUOUS
 10
56.5
 20
28.9643308759
 11
56.5
 21
27.2772926881
  0
LINE
  5
4BC
100
AcDbEntity
  8
DRAFT
100
AcDbLine
 62
7
  6
CONTINUOUS
 10
56.5
 20
-27.6771046632
 11
56.5
 21
-25.7910141949
  0
LINE
  5
4BD
100
AcDbEntity
  8
0
100
AcDbLine
 62
7
  6
CONTINUOUS
 10
56.75
 20
29.6218145417
 11
56.75
 21
27.4749179219
  0
LINE
  5
4BE
100
AcDbEntity
  8
ASSI
100
AcDbLine
 62
7
  6
CONTINUOUS
 10
56.75
 20
29.6218145417
 11
56.75
 21
27.4749179219
  0
LINE
  5
4BF
100
AcDbEntity
  8
0
100
AcDbLine
 62
7
  6
CONTINUOUS
 10
56.75
 20
-26.1427916552
 11
56.75
 21
-27.6771046632
  0
LINE
  5
4C0
100
AcDbEntity
  8
ASSI
100
AcDbLine
 62
7
  6
CONTINUOUS
 10
56.75
 20
-26.1427916552
 11
56.75
 21
-27.6771046632
  0
LINE
  5
4C1
100
AcDbEntity
  8
RACCORDO
100
AcDbLine
 62
7
  6
CONTINUOUS
 10
54.3452644057
 20
-30.9273339123
 11
54.4452004055
 21
-30.0127786464
  0
LINE
  5
4C2
100
AcDbEntity
  8
ASSI
100
AcDbLine
 62
7
  6
CONTINUOUS
 10
54.3452644057
 20
-30.9273339123
 11
54.4452004055
 21
-30.0127786464
  0
LINE
  5
4C3
100
AcDbEntity
  8
RACCORDO
100
AcDbLine
 62
7
  6
CONTINUOUS
 10
58.3452644057
 20
-30.9273339123
 11
58.4452004055
 21
-30.0127786464
  0
LINE
  5
4C4
100
AcDbEntity
  8
ASSI
100
AcDbLine
 62
7
  6
CONTINUOUS
 10
58.3452644057
 20
-30.9273339123
 11
58.4452004055
 21
-30.0127786464
  0
LINE
  5
4C5
100
AcDbEntity
  8
DRAFT
100
AcDbLine
 62
7
  6
CONTINUOUS
 10
63.5698202597
 20
29.4227622612
 11
63.5
 21
28.9643308759
  0
LWPOLYLINE
  5
4C6
100
AcDbEntity
  8
0
100
AcDbPolyline
 62
7
  6
CONTINUOUS
 90
6
 70
0
 10
104.1672704673
 20
-28.7502314208
 10
104.3876796147
 20
-28.6744940241
 10
104.5991051993
 20
-28.5946810862
 10
104.8035485631
 20
-28.5095862286
 10
105.0011910741
 20
-28.4185628408
 10
105.19281929
 20
-28.3206085226
  0
LWPOLYLINE
  5
4C7
100
AcDbEntity
  8
RACCORDO
100
AcDbPolyline
 62
7
  6
CONTINUOUS
 90
3
 70
0
 10
-105.8256550146
 20
28.7440917716
 10
-105.9142168314
 20
28.7197812561
 10
-106.0449851063
 20
28.6784517446
  0
LWPOLYLINE
  5
4C8
100
AcDbEntity
  8
ASSI
100
AcDbPolyline
 62
7
  6
CONTINUOUS
 90
3
 70
0
 10
-105.8256550146
 20
28.7440917716
 10
-105.9142168314
 20
28.7197812561
 10
-106.0449851063
 20
28.6784517446
  0
LWPOLYLINE
  5
4C9
100
AcDbEntity
  8
RACCORDO
100
AcDbPolyline
 62
7
  6
CONTINUOUS
 90
3
 70
0
 10
106.0449851063
 20
28.6784517446
 10
105.9142168314
 20
28.7197812561
 10
105.8256550146
 20
28.7440917716
  0
LWPOLYLINE
  5
4CA
100
AcDbEntity
  8
ASSI
100
AcDbPolyline
 62
7
  6
CONTINUOUS
 90
3
 70
0
 10
106.0449851063
 20
28.6784517446
 10
105.9142168314
 20
28.7197812561
 10
105.8256550146
 20
28.7440917716
  0
LINE
  5
4CB
100
AcDbEntity
  8
DRAFT
100
AcDbLine
 62
7
  6
CONTINUOUS
 10
56.4301797403
 20
29.4227622612
 11
56.5
 21
28.9643308759
  0
LINE
  5
4CC
100
AcDbEntity
  8
0
100
AcDbLine
 62
7
  6
CONTINUOUS
 10
63.25
 20
29.6218145417
 11
63.25
 21
27.4749179219
  0
LINE
  5
4CD
100
AcDbEntity
  8
ASSI
100
AcDbLine
 62
7
  6
CONTINUOUS
 10
63.25
 20
29.6218145417
 11
63.25
 21
27.4749179219
  0
LINE
  5
4CE
100
AcDbEntity
  8
0
100
AcDbLine
 62
7
  6
CONTINUOUS
 10
63.25
 20
-26.1427916552
 11
63.25
 21
-27.6771046632
  0
LINE
  5
4CF
100
AcDbEntity
  8
ASSI
100
AcDbLine
 62
7
  6
CONTINUOUS
 10
63.25
 20
-26.1427916552
 11
63.25
 21
-27.6771046632
  0
LINE
  5
4D0
100
AcDbEntity
  8
DRAFT
100
AcDbLine
 62
7
  6
CONTINUOUS
 10
63.5
 20
28.9643308759
 11
63.5
 21
27.2772926881
  0
LINE
  5
4D1
100
AcDbEntity
  8
DRAFT
100
AcDbLine
 62
7
  6
CONTINUOUS
 10
63.5
 20
-27.6771046632
 11
63.5
 21
-25.7910141949
  0
LINE
  5
4D2
100
AcDbEntity
  8
DRAFT
100
AcDbLine
 62
7
  6
CONTINUOUS
 10
63.5698202597
 20
29.4227622612
 11
63.5698202597
 21
27.2772926881
  0
LINE
  5
4D3
100
AcDbEntity
  8
DRAFT
100
AcDbLine
 62
7
  6
CONTINUOUS
 10
63.5698202597
 20
-27.4780523828
 11
63.5698202597
 21
-25.3325828097
  0
LINE
  5
4D4
100
AcDbEntity
  8
DRAFT
100
AcDbLine
 62
7
  6
CONTINUOUS
 10
63.5
 20
-25.7910141949
 11
63.5698202597
 21
-25.3325828097
  0
LINE
  5
4D5
100
AcDbEntity
  8
DRAFT
100
AcDbLine
 62
7
  6
CONTINUOUS
 10
63.5698202597
 20
-27.4780523828
 11
63.5263149528
 21
-27.6771046632
  0
LINE
  5
4D6
100
AcDbEntity
  8
ASSI
100
AcDbLine
 62
7
  6
CONTINUOUS
 10
69.8
 20
-30.9369134064
 11
69.8
 21
-30.5438702101
  0
LINE
  5
4D7
100
AcDbEntity
  8
0
100
AcDbLine
 62
7
  6
CONTINUOUS
 10
70.0
 20
-30.3839143376
 11
70.0
 21
-30.9369134064
  0
LWPOLYLINE
  5
4D8
100
AcDbEntity
  8
0
100
AcDbPolyline
 62
7
  6
CONTINUOUS
 90
3
 70
0
 10
105.6698761791
 20
-28.063504696
 10
105.6969724567
 20
-28.0487133781
 10
105.7636887561
 20
-28.01065567
  0
LINE
  5
4D9
100
AcDbEntity
  8
0
100
AcDbLine
 62
253
  6
CONTINUOUS
 10
106.5523968994
 20
-25.0762309049
 11
106.509972422
 21
-25.0990950448
  0
LINE
  5
4DA
100
AcDbEntity
  8
0
100
AcDbLine
 62
253
  6
CONTINUOUS
 10
104.6807789512
 20
-28.383414675
 11
104.2033799347
 21
-28.6407028869
  0
LINE
  5
4DB
100
AcDbEntity
  8
0
100
AcDbLine
 62
7
  6
CONTINUOUS
 10
105.6698823117
 20
-28.0635013909
 11
105.19281929
 21
-28.3206085226
  0
LWPOLYLINE
  5
4DC
100
AcDbEntity
  8
0
100
AcDbPolyline
 62
253
  6
CONTINUOUS
 90
17
 70
0
 10
104.2033799347
 20
-28.6407028869
 10
104.0826656997
 20
-28.7007619427
 10
103.9440883557
 20
-28.7604555057
 10
103.7877643197
 20
-28.819733353
 10
103.6138247385
 20
-28.8785456751
 10
103.4224159468
 20
-28.936842923
 10
103.2136995361
 20
-28.9945758554
 10
102.9878513382
 20
-29.0516958464
 10
102.745061176
 20
-29.1081548977
 10
102.4855334289
 20
-29.163905488
 10
102.2094866052
 20
-29.2189006893
 10
101.9171528519
 20
-29.2730942626
 10
101.6087778103
 20
-29.3264406714
 10
101.2846207124
 20
-29.3788950631
 10
100.9449544174
 20
-29.4304132769
 10
100.5900648916
 20
-29.4809519383
 10
100.2202508223
 20
-29.5304685154
  0
LWPOLYLINE
  5
4DD
100
AcDbEntity
  8
0
100
AcDbPolyline
 62
253
  6
CONTINUOUS
 90
8
 70
0
 10
105.1006112363
 20
-28.3681783112
 10
104.9787019701
 20
-28.4248138942
 10
104.8542624722
 20
-28.4757052051
 10
104.7275531397
 20
-28.5207457508
 10
104.5988391195
 20
-28.5598412813
 10
104.4683897531
 20
-28.592909987
 10
104.3364780138
 20
-28.6198826695
 10
104.2033799347
 20
-28.6407028869
  0
LINE
  5
4DE
100
AcDbEntity
  8
0
100
AcDbLine
 62
253
  6
CONTINUOUS
 10
82.85
 20
-30.936913475
 11
82.85
 21
-30.9273339123
  0
LWPOLYLINE
  5
4DF
100
AcDbEntity
  8
0
100
AcDbPolyline
 62
7
  6
CONTINUOUS
 90
21
 70
0
 10
106.9099147898
 20
-27.3217453181
 10
107.0051741949
 20
-27.2588438978
 10
107.097944228
 20
-27.1923604075
 10
107.1882359286
 20
-27.122310227
 10
107.275656813
 20
-27.0489977824
 10
107.360194383
 20
-26.9724089528
 10
107.4418611369
 20
-26.8925578591
 10
107.5203020854
 20
-26.8097912899
 10
107.5955033752
 20
-26.7240963721
 10
107.6674788598
 20
-26.6354859788
 10
107.7359151101
 20
-26.5443455179
 10
107.8007967963
 20
-26.4506637006
 10
107.8621392483
 20
-26.3544518158
 10
107.9196750266
 20
-26.256129138
 10
107.9733873881
 20
-26.1556865181
 10
108.0232930761
 20
-26.0531331052
 10
108.0691748808
 20
-25.9489156212
 10
108.1110151962
 20
-25.8430267209
 10
108.1488316285
 20
-25.7354737495
 10
108.1824597862
 20
-25.6267254645
 10
108.2118819152
 20
-25.5167644918
  0
LWPOLYLINE
  5
4E0
100
AcDbEntity
  8
ASSI
100
AcDbPolyline
 62
7
  6
CONTINUOUS
 90
20
 70
0
 10
106.9010487143
 20
-27.3273467225
 10
107.0051580005
 20
-27.2588511489
 10
107.1061920468
 20
-27.1861995232
 10
107.2041970559
 20
-27.1093218051
 10
107.299126825
 20
-27.0282880348
 10
107.3903942205
 20
-26.9436006601
 10
107.4779184365
 20
-26.855301239
 10
107.5617802788
 20
-26.7633482134
 10
107.6416350321
 20
-26.6681193562
 10
107.7175166784
 20
-26.569530127
 10
107.7893912356
 20
-26.4676650663
 10
107.8568120418
 20
-26.3631555681
 10
107.9197129533
 20
-26.2560551197
 10
107.9781601137
 20
-26.1463102339
 10
108.0319052921
 20
-26.0343918427
 10
108.0809532335
 20
-25.9202296335
 10
108.1252991929
 20
-25.8038939191
 10
108.1646807034
 20
-25.68606657
 10
108.1990564015
 20
-25.566766813
 10
108.2284676508
 20
-25.4459754214
  0
LINE
  5
4E1
100
AcDbEntity
  8
0
100
AcDbLine
 62
7
  6
CONTINUOUS
 10
106.8121770522
 20
-27.3810800483
 11
106.9099147898
 21
-27.3217453181
  0
LWPOLYLINE
  5
4E2
100
AcDbEntity
  8
0
100
AcDbPolyline
 62
7
  6
CONTINUOUS
 90
21
 70
0
 10
106.8360052279
 20
-27.3798287503
 10
106.896459845
 20
-27.3432877675
 10
107.0003091442
 20
-27.2757683507
 10
107.101234626
 20
-27.2039709714
 10
107.1990606253
 20
-27.1280189551
 10
107.293616481
 20
-27.0480431773
 10
107.3847374503
 20
-26.9641781388
 10
107.4722645092
 20
-26.8765682468
 10
107.5560445598
 20
-26.7853647913
 10
107.635931057
 20
-26.6907225387
 10
107.7117841934
 20
-26.5928048012
 10
107.7834709217
 20
-26.4917809749
 10
107.8508653871
 20
-26.3878237049
 10
107.9138492839
 20
-26.2811127042
 10
107.9723117893
 20
-26.1718328492
 10
108.0261498946
 20
-26.0601719243
 10
108.0752687271
 20
-25.9463232838
 10
108.1195815217
 20
-25.8304843556
 10
108.1590099058
 20
-25.7128549206
 10
108.1934769675
 20
-25.5936653297
 10
108.2229306517
 20
-25.4730965941
  0
LINE
  5
4E3
100
AcDbEntity
  8
ASSI
100
AcDbLine
 62
7
  6
CONTINUOUS
 10
106.7943127133
 20
-27.3913939175
 11
106.9010487143
 21
-27.3273467225
  0
LINE
  5
4E4
100
AcDbEntity
  8
0
100
AcDbLine
 62
253
  6
CONTINUOUS
 10
104.6829293634
 20
-28.383143047
 11
105.7388702889
 21
-27.7619500918
  0
LINE
  5
4E5
100
AcDbEntity
  8
0
100
AcDbLine
 62
7
  6
CONTINUOUS
 10
105.7636888651
 20
-28.0106556086
 11
106.8360046914
 21
-27.3798295425
  0
LINE
  5
4E6
100
AcDbEntity
  8
RACCORDO
100
AcDbLine
 62
253
  6
CONTINUOUS
 10
105.8073780769
 20
-27.4673736394
 11
105.5142653236
 21
-26.8623072958
  0
LINE
  5
4E7
100
AcDbEntity
  8
ASSI
100
AcDbLine
 62
253
  6
CONTINUOUS
 10
105.8073780769
 20
-27.4673736394
 11
105.5142653236
 21
-26.8623072958
  0
LINE
  5
4E8
100
AcDbEntity
  8
RACCORDO
100
AcDbLine
 62
253
  6
CONTINUOUS
 10
92.1792210128
 20
-29.4497451712
 11
92.1565999981
 21
-28.8046616277
  0
LINE
  5
4E9
100
AcDbEntity
  8
ASSI
100
AcDbLine
 62
253
  6
CONTINUOUS
 10
92.1792210128
 20
-29.4497451712
 11
92.1565999981
 21
-28.8046616277
  0
LINE
  5
4EA
100
AcDbEntity
  8
RACCORDO
100
AcDbLine
 62
253
  6
CONTINUOUS
 10
92.6183823154
 20
-29.4174562539
 11
92.5957613006
 21
-28.7723727104
  0
LINE
  5
4EB
100
AcDbEntity
  8
ASSI
100
AcDbLine
 62
253
  6
CONTINUOUS
 10
92.6183823154
 20
-29.4174562539
 11
92.5957613006
 21
-28.7723727104
  0
LINE
  5
4EC
100
AcDbEntity
  8
0
100
AcDbLine
 62
253
  6
CONTINUOUS
 10
92.1705075678
 20
-29.9392667786
 11
91.9408579549
 21
-30.2397942157
  0
LWPOLYLINE
  5
4ED
100
AcDbEntity
  8
0
100
AcDbPolyline
 62
253
  6
CONTINUOUS
 90
14
 70
0
 10
91.9408579549
 20
-30.2397942157
 10
91.9148984068
 20
-30.2660602883
 10
91.8772776806
 20
-30.2921905116
 10
91.8279957764
 20
-30.3181848855
 10
91.7669676196
 20
-30.3440817654
 10
91.6942782847
 20
-30.3698427958
 10
91.6101829952
 20
-30.3953529111
 10
91.5146171832
 20
-30.4206100281
 10
91.4076454166
 20
-30.44561623
 10
91.289716622
 20
-30.4702627004
 10
91.1607884668
 20
-30.4945450474
 10
91.0209032836
 20
-30.5184676631
 10
90.8706369969
 20
-30.5419349064
 10
90.7099564562
 20
-30.5649435579
  0
LWPOLYLINE
  5
4EE
100
AcDbEntity
  8
0
100
AcDbPolyline
 62
253
  6
CONTINUOUS
 90
16
 70
0
 10
92.3746965612
 20
-30.2103514502
 10
92.3458318627
 20
-30.2380428166
 10
92.3046140294
 20
-30.2656633604
 10
92.2511240132
 20
-30.2931689949
 10
92.1855023274
 20
-30.3205125928
 10
92.10781729
 20
-30.3476552571
 10
92.0180814119
 20
-30.3745648525
 10
91.9164574604
 20
-30.4011984199
 10
91.8031229414
 20
-30.4275145979
 10
91.6781661037
 20
-30.4534824776
 10
91.5418257059
 20
-30.4790584672
 10
91.3943277134
 20
-30.50420597
 10
91.2357810378
 20
-30.5289037712
 10
91.0664650429
 20
-30.5531122043
 10
90.8866555999
 20
-30.5767956979
 10
90.6964775276
 20
-30.5999382417
  0
LINE
  5
4EF
100
AcDbEntity
  8
0
100
AcDbLine
 62
7
  6
CONTINUOUS
 10
92.1226586609
 20
29.384624225
 11
91.8794913357
 21
29.6218145417
  0
LINE
  5
4F0
100
AcDbEntity
  8
ASSI
100
AcDbLine
 62
7
  6
CONTINUOUS
 10
92.1226586609
 20
29.384624225
 11
91.8794913357
 21
29.6218145417
  0
LINE
  5
4F1
100
AcDbEntity
  8
RACCORDO
100
AcDbLine
 62
253
  6
CONTINUOUS
 10
108.3227748605
 20
-24.6140749119
 11
108.0598969098
 21
-24.0699475954
  0
LINE
  5
4F2
100
AcDbEntity
  8
ASSI
100
AcDbLine
 62
253
  6
CONTINUOUS
 10
108.3227748605
 20
-24.6140749119
 11
108.0598969098
 21
-24.0699475954
  0
LINE
  5
4F3
100
AcDbEntity
  8
RACCORDO
100
AcDbLine
 62
253
  6
CONTINUOUS
 10
108.3529332448
 20
-24.6765135316
 11
108.3227748605
 21
-24.6140749119
  0
LINE
  5
4F4
100
AcDbEntity
  8
ASSI
100
AcDbLine
 62
253
  6
CONTINUOUS
 10
108.3529332448
 20
-24.6765135316
 11
108.3227748605
 21
-24.6140749119
  0
LINE
  5
4F5
100
AcDbEntity
  8
RACCORDO
100
AcDbLine
 62
7
  6
CONTINUOUS
 10
91.8615072865
 20
-27.6768142912
 11
91.8647165139
 21
-27.4780523828
  0
LINE
  5
4F6
100
AcDbEntity
  8
0
100
AcDbLine
 62
253
  6
CONTINUOUS
 10
92.1705075678
 20
-29.9392667786
 11
92.1738982563
 21
-29.7292661665
  0
LINE
  5
4F7
100
AcDbEntity
  8
ASSI
100
AcDbLine
 62
253
  6
CONTINUOUS
 10
92.1738982563
 20
-29.7292661665
 11
92.1784114271
 21
-29.4497451712
  0
LINE
  5
4F8
100
AcDbEntity
  8
0
100
AcDbLine
 62
253
  6
CONTINUOUS
 10
92.6112613429
 20
-29.9079687305
 11
92.6146699418
 21
-29.6968588474
  0
LINE
  5
4F9
100
AcDbEntity
  8
ASSI
100
AcDbLine
 62
253
  6
CONTINUOUS
 10
92.6146699418
 20
-29.6968588474
 11
92.6191831126
 21
-29.417337852
  0
LINE
  5
4FA
100
AcDbEntity
  8
0
100
AcDbLine
 62
253
  6
CONTINUOUS
 10
92.6051317386
 20
-29.9087956072
 11
92.3746962305
 21
-30.2103514941
  0
LWPOLYLINE
  5
4FB
100
AcDbEntity
  8
RACCORDO
100
AcDbPolyline
 62
7
  6
CONTINUOUS
 90
14
 70
0
 10
106.5236746897
 20
-25.1137320026
 10
106.4679445281
 20
-25.1784921078
 10
106.40855579
 20
-25.2399468228
 10
106.3455439334
 20
-25.2981281826
 10
106.2795236215
 20
-25.352468644
 10
106.2104654118
 20
-25.4029306179
 10
106.1383987468
 20
-25.4495516934
 10
106.0640266169
 20
-25.4918770949
 10
105.9873264595
 20
-25.5298647825
 10
105.9083208371
 20
-25.563556796
 10
105.8277804278
 20
-25.5926244793
 10
105.7459621242
 20
-25.6169582801
 10
105.6626090336
 20
-25.6366677505
 10
105.5777211561
 20
-25.6517528906
  0
LWPOLYLINE
  5
4FC
100
AcDbEntity
  8
ASSI
100
AcDbPolyline
 62
7
  6
CONTINUOUS
 90
14
 70
0
 10
106.5236746897
 20
-25.1137320026
 10
106.4679445281
 20
-25.1784921078
 10
106.40855579
 20
-25.2399468228
 10
106.3455439334
 20
-25.2981281826
 10
106.2795236215
 20
-25.352468644
 10
106.2104654118
 20
-25.4029306179
 10
106.1383987468
 20
-25.4495516934
 10
106.0640266169
 20
-25.4918770949
 10
105.9873264595
 20
-25.5298647825
 10
105.9083208371
 20
-25.563556796
 10
105.8277804278
 20
-25.5926244793
 10
105.7459621242
 20
-25.6169582801
 10
105.6626090336
 20
-25.6366677505
 10
105.5777211561
 20
-25.6517528906
  0
LWPOLYLINE
  5
4FD
100
AcDbEntity
  8
ASSI
100
AcDbPolyline
 62
7
  6
CONTINUOUS
 90
7
 70
0
 10
106.5286392631
 20
-25.107626537
 10
106.4057167543
 20
-25.2427490781
 10
106.2629965113
 20
-25.3651086713
 10
106.1059929209
 20
-25.468700595
 10
105.942007386
 20
-25.5498681866
 10
105.7642681314
 20
-25.611963258
 10
105.5777211361
 20
-25.6517528936
  0
LWPOLYLINE
  5
4FE
100
AcDbEntity
  8
RACCORDO
100
AcDbPolyline
 62
7
  6
CONTINUOUS
 90
29
 70
0
 10
108.3529332448
 20
25.9405999201
 10
108.3425455948
 20
26.0765087258
 10
108.3259587148
 20
26.2118622918
 10
108.3031951687
 20
26.3463797716
 10
108.2742682829
 20
26.4798746197
 10
108.2392402038
 20
26.6119723133
 10
108.1982639721
 20
26.7421219606
 10
108.1515311453
 20
26.869856299
 10
108.0991022658
 20
26.9951335052
 10
108.0409414083
 20
27.1180407548
 10
107.9770383385
 20
27.2385077841
 10
107.9075944985
 20
27.3560713297
 10
107.8328969492
 20
27.4702349775
 10
107.7531939619
 20
27.5806633258
 10
107.6685927272
 20
27.687249877
 10
107.5792058042
 20
27.7898647519
 10
107.4852180859
 20
27.888295588
 10
107.3868240101
 20
27.9823388626
 10
107.2841424352
 20
28.0718707364
 10
107.1772699887
 20
28.1567742476
 10
107.0665177695
 20
28.2367715237
 10
106.9523531984
 20
28.3115317905
 10
106.835220307
 20
28.3808106362
 10
106.7151906703
 20
28.4446110722
 10
106.5921794798
 20
28.5029782916
 10
106.4662234487
 20
28.5558474896
 10
106.3377710189
 20
28.6029842555
 10
106.2073556243
 20
28.6441868534
 10
106.1181818451
 20
28.6686504503
  0
LWPOLYLINE
  5
4FF
100
AcDbEntity
  8
ASSI
100
AcDbPolyline
 62
7
  6
CONTINUOUS
 90
29
 70
0
 10
108.3529332448
 20
25.9405999201
 10
108.3425455948
 20
26.0765087258
 10
108.3259587148
 20
26.2118622918
 10
108.3031951687
 20
26.3463797716
 10
108.2742682829
 20
26.4798746197
 10
108.2392402038
 20
26.6119723133
 10
108.1982639721
 20
26.7421219606
 10
108.1515311453
 20
26.869856299
 10
108.0991022658
 20
26.9951335052
 10
108.0409414083
 20
27.1180407548
 10
107.9770383385
 20
27.2385077841
 10
107.9075944985
 20
27.3560713297
 10
107.8328969492
 20
27.4702349775
 10
107.7531939619
 20
27.5806633258
 10
107.6685927272
 20
27.687249877
 10
107.5792058042
 20
27.7898647519
 10
107.4852180859
 20
27.888295588
 10
107.3868240101
 20
27.9823388626
 10
107.2841424352
 20
28.0718707364
 10
107.1772699887
 20
28.1567742476
 10
107.0665177695
 20
28.2367715237
 10
106.9523531984
 20
28.3115317905
 10
106.835220307
 20
28.3808106362
 10
106.7151906703
 20
28.4446110722
 10
106.5921794798
 20
28.5029782916
 10
106.4662234487
 20
28.5558474896
 10
106.3377710189
 20
28.6029842555
 10
106.2073556243
 20
28.6441868534
 10
106.1181818451
 20
28.6686504503
  0
LWPOLYLINE
  5
500
100
AcDbEntity
  8
RACCORDO
100
AcDbPolyline
 62
7
  6
CONTINUOUS
 90
27
 70
0
 10
108.0598969098
 20
26.0146574738
 10
108.0499411265
 20
26.1504092039
 10
108.0337898131
 20
26.2852746522
 10
108.0114429696
 20
26.4192538188
 10
107.9827972005
 20
26.5527783677
 10
107.9479559013
 20
26.6854166349
 10
107.9072292587
 20
26.8158736282
 10
107.8605776647
 20
26.9439877229
 10
107.8080407271
 20
27.0699205437
 10
107.7500474571
 20
27.192861972
 10
107.6867102668
 20
27.3126126517
 10
107.6179167439
 20
27.4293719389
 10
107.5437586629
 20
27.5429277832
 10
107.4640327091
 20
27.6535461033
 10
107.3789421972
 20
27.7609609805
 10
107.2891888454
 20
27.8641626083
 10
107.1946935493
 20
27.9630775025
 10
107.0955354134
 20
28.0577791475
 10
106.9926534692
 20
28.147478189
 10
106.8862956252
 20
28.2319475428
 10
106.776213973
 20
28.3114142932
 10
106.662603819
 20
28.3857703399
 10
106.5452716779
 20
28.4551494414
 10
106.4244110352
 20
28.5194178392
 10
106.3007976529
 20
28.5780661572
 10
106.1742677494
 20
28.6310689908
 10
106.0449851063
 20
28.6784517446
  0
LWPOLYLINE
  5
501
100
AcDbEntity
  8
ASSI
100
AcDbPolyline
 62
7
  6
CONTINUOUS
 90
27
 70
0
 10
108.0598969098
 20
26.0146574738
 10
108.0499411265
 20
26.1504092039
 10
108.0337898131
 20
26.2852746522
 10
108.0114429696
 20
26.4192538188
 10
107.9827972005
 20
26.5527783677
 10
107.9479559013
 20
26.6854166349
 10
107.9072292587
 20
26.8158736282
 10
107.8605776647
 20
26.9439877229
 10
107.8080407271
 20
27.0699205437
 10
107.7500474571
 20
27.192861972
 10
107.6867102668
 20
27.3126126517
 10
107.6179167439
 20
27.4293719389
 10
107.5437586629
 20
27.5429277832
 10
107.4640327091
 20
27.6535461033
 10
107.3789421972
 20
27.7609609805
 10
107.2891888454
 20
27.8641626083
 10
107.1946935493
 20
27.9630775025
 10
107.0955354134
 20
28.0577791475
 10
106.9926534692
 20
28.147478189
 10
106.8862956252
 20
28.2319475428
 10
106.776213973
 20
28.3114142932
 10
106.662603819
 20
28.3857703399
 10
106.5452716779
 20
28.4551494414
 10
106.4244110352
 20
28.5194178392
 10
106.3007976529
 20
28.5780661572
 10
106.1742677494
 20
28.6310689908
 10
106.0449851063
 20
28.6784517446
  0
LINE
  5
502
100
AcDbEntity
  8
RACCORDO
100
AcDbLine
 62
7
  6
CONTINUOUS
 10
108.353403136
 20
25.9316220767
 11
108.3529332448
 21
25.9405999201
  0
LINE
  5
503
100
AcDbEntity
  8
ASSI
100
AcDbLine
 62
7
  6
CONTINUOUS
 10
108.353403136
 20
25.9316220767
 11
108.3529332448
 21
25.9405999201
  0
LINE
  5
504
100
AcDbEntity
  8
0
100
AcDbLine
 62
7
  6
CONTINUOUS
 10
106.8312337948
 20
25.3122203561
 11
106.8308161681
 21
25.3203197453
  0
LINE
  5
505
100
AcDbEntity
  8
0
100
AcDbLine
 62
7
  6
CONTINUOUS
 10
106.8553620092
 20
25.5336873527
 11
106.8812715046
 21
25.0216616803
  0
LINE
  5
506
100
AcDbEntity
  8
ASSI
100
AcDbLine
 62
7
  6
CONTINUOUS
 10
106.8553620092
 20
25.5336873527
 11
106.8812715046
 21
25.0216616803
  0
LWPOLYLINE
  5
507
100
AcDbEntity
  8
RACCORDO
100
AcDbPolyline
 62
7
  6
CONTINUOUS
 90
25
 70
0
 10
108.0598969098
 20
26.0146574738
 10
108.1611265852
 20
23.9293272089
 10
108.2535572488
 20
21.8436546072
 10
108.3371889005
 20
19.7576396688
 10
108.4120228917
 20
17.6712421033
 10
108.4780578711
 20
15.5845022012
 10
108.535289785
 20
13.4975408333
 10
108.5837179897
 20
11.4103615734
 10
108.6233431288
 20
9.3229608478
 10
108.6541630795
 20
7.2354488065
 10
108.6761773748
 20
5.1478250612
 10
108.6893864816
 20
3.0600900002
 10
108.6937896777
 20
0.9723549392
 10
108.6893864816
 20
-1.1153801218
 10
108.6761773748
 20
-3.2031151827
 10
108.6541630795
 20
-5.2907389281
 10
108.6233431288
 20
-7.3782509693
 10
108.5837179897
 20
-9.4656516949
 10
108.535289785
 20
-11.5528309549
 10
108.4780578711
 20
-13.6397923227
 10
108.4120228917
 20
-15.7265322249
 10
108.3371889005
 20
-17.8129297903
 10
108.2535572488
 20
-19.8989447287
 10
108.1611265852
 20
-21.9846173304
 10
108.0598969098
 20
-24.0699475954
  0
LWPOLYLINE
  5
508
100
AcDbEntity
  8
ASSI
100
AcDbPolyline
 62
7
  6
CONTINUOUS
 90
25
 70
0
 10
108.0598969098
 20
26.0146574738
 10
108.1611265852
 20
23.9293272089
 10
108.2535572488
 20
21.8436546072
 10
108.3371889005
 20
19.7576396688
 10
108.4120228917
 20
17.6712421033
 10
108.4780578711
 20
15.5845022012
 10
108.535289785
 20
13.4975408333
 10
108.5837179897
 20
11.4103615734
 10
108.6233431288
 20
9.3229608478
 10
108.6541630795
 20
7.2354488065
 10
108.6761773748
 20
5.1478250612
 10
108.6893864816
 20
3.0600900002
 10
108.6937896777
 20
0.9723549392
 10
108.6893864816
 20
-1.1153801218
 10
108.6761773748
 20
-3.2031151827
 10
108.6541630795
 20
-5.2907389281
 10
108.6233431288
 20
-7.3782509693
 10
108.5837179897
 20
-9.4656516949
 10
108.535289785
 20
-11.5528309549
 10
108.4780578711
 20
-13.6397923227
 10
108.4120228917
 20
-15.7265322249
 10
108.3371889005
 20
-17.8129297903
 10
108.2535572488
 20
-19.8989447287
 10
108.1611265852
 20
-21.9846173304
 10
108.0598969098
 20
-24.0699475954
  0
LWPOLYLINE
  5
509
100
AcDbEntity
  8
DRAFT
100
AcDbPolyline
 62
7
  6
CONTINUOUS
 90
13
 70
0
 10
106.6556206403
 20
26.1855547582
 10
106.8524998622
 20
21.9856200944
 10
107.0135860192
 20
17.7847793081
 10
107.1388791116
 20
13.5830323995
 10
107.2283829982
 20
9.3800773277
 10
107.28209382
 20
5.1762161335
 10
107.3
 20
0.9723549392
 10
107.28209382
 20
-3.231506255
 10
107.2283829982
 20
-7.4353674492
 10
107.1388791116
 20
-11.6383225211
 10
107.0135860192
 20
-15.8400694297
 10
106.8524998622
 20
-20.0409102159
 10
106.6556206403
 20
-24.2408448798
  0
LWPOLYLINE
  5
50A
100
AcDbEntity
  8
RACCORDO
100
AcDbPolyline
 62
7
  6
CONTINUOUS
 90
7
 70
0
 10
106.8553620092
 20
26.1956744451
 10
107.0523175817
 20
21.9941585369
 10
107.2134667912
 20
17.7916943583
 10
107.3388096378
 20
13.5882819092
 10
107.428350694
 20
9.3836050995
 10
107.4820853872
 20
5.1779800194
 10
107.5
 20
0.9723549392
  0
LWPOLYLINE
  5
50B
100
AcDbEntity
  8
ASSI
100
AcDbPolyline
 62
7
  6
CONTINUOUS
 90
7
 70
0
 10
106.8553620092
 20
26.1956744451
 10
107.0523175817
 20
21.9941585369
 10
107.2134667912
 20
17.7916943583
 10
107.3388096378
 20
13.5882819092
 10
107.428350694
 20
9.3836050995
 10
107.4820853872
 20
5.1779800194
 10
107.5
 20
0.9723549392
  0
LWPOLYLINE
  5
50C
100
AcDbEntity
  8
RACCORDO
100
AcDbPolyline
 62
7
  6
CONTINUOUS
 90
13
 70
0
 10
108.353403136
 20
25.9316220767
 10
108.5509448201
 20
21.7178016324
 10
108.712589195
 20
17.5024659824
 10
108.8383246451
 20
13.2859180372
 10
108.9281421352
 20
9.0684607942
 10
108.9820352111
 20
4.8503973165
 10
109.0
 20
0.6320307105
 10
108.9820352111
 20
-3.5863358955
 10
108.9281421352
 20
-7.8043993732
 10
108.8383246451
 20
-12.0218566162
 10
108.712589195
 20
-16.2384045614
 10
108.5509448201
 20
-20.4537402115
 10
108.353403136
 20
-24.6675606558
  0
LWPOLYLINE
  5
50D
100
AcDbEntity
  8
ASSI
100
AcDbPolyline
 62
7
  6
CONTINUOUS
 90
13
 70
0
 10
108.353403136
 20
25.9316220767
 10
108.5509448201
 20
21.7178016324
 10
108.712589195
 20
17.5024659824
 10
108.8383246451
 20
13.2859180372
 10
108.9281421352
 20
9.0684607942
 10
108.9820352111
 20
4.8503973165
 10
109.0
 20
0.6320307105
 10
108.9820352111
 20
-3.5863358955
 10
108.9281421352
 20
-7.8043993732
 10
108.8383246451
 20
-12.0218566162
 10
108.712589195
 20
-16.2384045614
 10
108.5509448201
 20
-20.4537402115
 10
108.353403136
 20
-24.6675606558
  0
LWPOLYLINE
  5
50E
100
AcDbEntity
  8
0
100
AcDbPolyline
 62
7
  6
CONTINUOUS
 90
7
 70
0
 10
106.8852151852
 20
25.0216616803
 10
107.0521092815
 20
21.4156576265
 10
107.1926295828
 20
17.808926161
 10
107.306776089
 20
14.2014672839
 10
107.3945488001
 20
10.5932809951
 10
107.4559477161
 20
6.9843672945
 10
107.490972837
 20
3.3747261823
  0
LWPOLYLINE
  5
50F
100
AcDbEntity
  8
ASSI
100
AcDbPolyline
 62
7
  6
CONTINUOUS
 90
7
 70
0
 10
106.8852151852
 20
25.0216616803
 10
107.0521092815
 20
21.4156576265
 10
107.1926295828
 20
17.808926161
 10
107.306776089
 20
14.2014672839
 10
107.3945488001
 20
10.5932809951
 10
107.4559477161
 20
6.9843672945
 10
107.490972837
 20
3.3747261823
  0
LINE
  5
510
100
AcDbEntity
  8
RACCORDO
100
AcDbLine
 62
253
  6
CONTINUOUS
 10
105.5777211561
 20
27.3995713057
 11
105.5777211561
 21
27.5964627691
  0
LINE
  5
511
100
AcDbEntity
  8
ASSI
100
AcDbLine
 62
253
  6
CONTINUOUS
 10
105.5777211561
 20
27.3995713057
 11
105.5777211561
 21
27.5964627691
  0
LINE
  5
512
100
AcDbEntity
  8
RACCORDO
100
AcDbLine
 62
253
  6
CONTINUOUS
 10
106.8553620092
 20
25.5336873527
 11
106.8553620092
 21
26.1956744451
  0
LINE
  5
513
100
AcDbEntity
  8
ASSI
100
AcDbLine
 62
253
  6
CONTINUOUS
 10
106.8553620092
 20
25.5336873527
 11
106.8553620092
 21
26.1956744451
  0
LINE
  5
514
100
AcDbEntity
  8
0
100
AcDbLine
 62
7
  6
CONTINUOUS
 10
107.490972837
 20
3.2774906884
 11
107.490972837
 21
3.3747261823
  0
LWPOLYLINE
  5
515
100
AcDbEntity
  8
RACCORDO
100
AcDbPolyline
 62
7
  6
CONTINUOUS
 90
7
 70
0
 10
107.5
 20
0.9723549392
 10
107.4820853872
 20
-3.2332701409
 10
107.428350694
 20
-7.4388952211
 10
107.3388096378
 20
-11.6435720307
 10
107.2134667912
 20
-15.8469844798
 10
107.0523175817
 20
-20.0494486585
 10
106.8553620092
 20
-24.2509645666
  0
LWPOLYLINE
  5
516
100
AcDbEntity
  8
ASSI
100
AcDbPolyline
 62
7
  6
CONTINUOUS
 90
7
 70
0
 10
107.5
 20
0.9723549392
 10
107.4820853872
 20
-3.2332701409
 10
107.428350694
 20
-7.4388952211
 10
107.3388096378
 20
-11.6435720307
 10
107.2134667912
 20
-15.8469844798
 10
107.0523175817
 20
-20.0494486585
 10
106.8553620092
 20
-24.2509645666
  0
LWPOLYLINE
  5
517
100
AcDbEntity
  8
ASSI
100
AcDbPolyline
 62
7
  6
CONTINUOUS
 90
31
 70
0
 10
99.2
 20
-20.4257652082
 10
99.2027583802
 20
-20.321685775
 10
99.2109886089
 20
-20.2176063418
 10
99.2246233188
 20
-20.1143788382
 10
99.2437068685
 20
-20.0120102565
 10
99.2681948993
 20
-19.9104936043
 10
99.2978869674
 20
-19.810659834
 10
99.3328257863
 20
-19.712522758
 10
99.3729686426
 20
-19.6160685639
 10
99.4179869516
 20
-19.5220867655
 10
99.4679207301
 20
-19.4305976558
 10
99.5227299614
 20
-19.341580942
 10
99.5819660113
 20
-19.2557652594
 10
99.6456652139
 20
-19.1731768815
 10
99.7137912351
 20
-19.0937895349
 10
99.7857864376
 20
-19.0182530351
 10
99.8616825787
 20
-18.9465989889
 10
99.9414479011
 20
-18.8787957895
 10
100.0244294954
 20
-18.8153984318
 10
100.1106537601
 20
-18.7564430777
 10
100.2000942966
 20
-18.7018935653
 10
100.2920190005
 20
-18.6521964029
 10
100.3864482612
 20
-18.6073914175
 10
100.4833616891
 20
-18.5674387822
 10
100.5819660113
 20
-18.5326655242
 10
100.6822751061
 20
-18.5031141549
 10
100.7842750951
 20
-18.478742163
 10
100.8871310699
 20
-18.4597490426
 10
100.9905647276
 20
-18.4462012916
 10
101.0948543709
 20
-18.438032412
 10
101.2
 20
-18.4352424038
  0
LWPOLYLINE
  5
518
100
AcDbEntity
  8
ASSI
100
AcDbPolyline
 62
7
  6
CONTINUOUS
 90
31
 70
0
 10
103.2
 20
-20.4257652082
 10
103.1972416198
 20
-20.5298446414
 10
103.1890113911
 20
-20.6339240746
 10
103.1753766812
 20
-20.7371515783
 10
103.1562931315
 20
-20.8395201599
 10
103.1318051007
 20
-20.9410368121
 10
103.1021130326
 20
-21.0408705825
 10
103.0671742137
 20
-21.1390076584
 10
103.0270313574
 20
-21.2354618526
 10
102.9820130484
 20
-21.3294436509
 10
102.9320792699
 20
-21.4209327606
 10
102.8772700386
 20
-21.5099494745
 10
102.8180339887
 20
-21.595765157
 10
102.7543347861
 20
-21.6783535349
 10
102.6862087649
 20
-21.7577408815
 10
102.6142135624
 20
-21.8332773813
 10
102.5383174213
 20
-21.9049314275
 10
102.4585520989
 20
-21.9727346269
 10
102.3755705046
 20
-22.0361319847
 10
102.2893462399
 20
-22.0950873387
 10
102.1999057034
 20
-22.1496368511
 10
102.1079809995
 20
-22.1993340135
 10
102.0135517388
 20
-22.2441389989
 10
101.9166383109
 20
-22.2840916343
 10
101.8180339887
 20
-22.3188648922
 10
101.7177248939
 20
-22.3484162615
 10
101.6157249049
 20
-22.3727882534
 10
101.5128689301
 20
-22.3917813738
 10
101.4094352724
 20
-22.4053291248
 10
101.3051456291
 20
-22.4134980044
 10
101.2
 20
-22.4162880126
  0
LINE
  5
519
100
AcDbEntity
  8
RACCORDO
100
AcDbLine
 62
253
  6
CONTINUOUS
 10
105.5483319009
 20
-25.4548614272
 11
105.5420598652
 21
-25.6506102586
  0
LINE
  5
51A
100
AcDbEntity
  8
RACCORDO
100
AcDbLine
 62
7
  6
CONTINUOUS
 10
108.3529332448
 20
-24.6765135316
 11
108.353403136
 21
-24.6675606558
  0
LINE
  5
51B
100
AcDbEntity
  8
ASSI
100
AcDbLine
 62
7
  6
CONTINUOUS
 10
108.3529332448
 20
-24.6765135316
 11
108.353403136
 21
-24.6675606558
  0
LWPOLYLINE
  5
51C
100
AcDbEntity
  8
ASSI
100
AcDbPolyline
 62
7
  6
CONTINUOUS
 90
30
 70
0
 10
99.2027583802
 20
-20.4675390159
 10
99.2109886089
 20
-20.3634595827
 10
99.2246233188
 20
-20.260232079
 10
99.2437068685
 20
-20.1578634974
 10
99.2681948993
 20
-20.0563468452
 10
99.2978869674
 20
-19.9565130748
 10
99.3328257863
 20
-19.8583759989
 10
99.3729686426
 20
-19.7619218047
 10
99.4179869516
 20
-19.6679400064
 10
99.4679207301
 20
-19.5764508967
 10
99.5227299614
 20
-19.4874341829
 10
99.5819660113
 20
-19.4016185003
 10
99.6456652139
 20
-19.3190301224
 10
99.7137912351
 20
-19.2396427758
 10
99.7857864376
 20
-19.164106276
 10
99.8616825787
 20
-19.0924522298
 10
99.9414479011
 20
-19.0246490304
 10
100.0244294954
 20
-18.9612516726
 10
100.1106537601
 20
-18.9022963186
 10
100.2000942966
 20
-18.8477468062
 10
100.2920190005
 20
-18.7980496438
 10
100.3864482612
 20
-18.7532446584
 10
100.4833616891
 20
-18.7132920231
 10
100.5819660113
 20
-18.6785187651
 10
100.6822751061
 20
-18.6489673958
 10
100.7842750951
 20
-18.6245954039
 10
100.8871310699
 20
-18.6056022835
 10
100.9905647276
 20
-18.5920545325
 10
101.0948543709
 20
-18.5838856529
 10
101.2
 20
-18.5810956447
  0
LWPOLYLINE
  5
51D
100
AcDbEntity
  8
DRAFT
100
AcDbPolyline
 62
7
  6
CONTINUOUS
 90
4
 70
0
 10
106.6556206403
 20
-24.2408448798
 10
106.6496430328
 20
-24.3149854685
 10
106.639529054
 20
-24.3881950091
 10
106.6363315549
 20
-24.4064764077
  0
LWPOLYLINE
  5
51E
100
AcDbEntity
  8
RACCORDO
100
AcDbPolyline
 62
7
  6
CONTINUOUS
 90
12
 70
0
 10
106.8553620092
 20
-24.2509645666
 10
106.8484647698
 20
-24.3365113998
 10
106.8367947943
 20
-24.4209839466
 10
106.8203520828
 20
-24.5043822071
 10
106.799051857
 20
-24.5869712326
 10
106.7729788952
 20
-24.6684859717
 10
106.742387532
 20
-24.7481312707
 10
106.7072335476
 20
-24.8258888344
 10
106.6675611618
 20
-24.901776958
 10
106.6237573676
 20
-24.9750553739
 10
106.5757817329
 20
-25.0456985421
 10
106.5236746897
 20
-25.1137320026
  0
LWPOLYLINE
  5
51F
100
AcDbEntity
  8
ASSI
100
AcDbPolyline
 62
7
  6
CONTINUOUS
 90
12
 70
0
 10
106.8553620092
 20
-24.2509645666
 10
106.8484647698
 20
-24.3365113998
 10
106.8367947943
 20
-24.4209839466
 10
106.8203520828
 20
-24.5043822071
 10
106.799051857
 20
-24.5869712326
 10
106.7729788952
 20
-24.6684859717
 10
106.742387532
 20
-24.7481312707
 10
106.7072335476
 20
-24.8258888344
 10
106.6675611618
 20
-24.901776958
 10
106.6237573676
 20
-24.9750553739
 10
106.5757817329
 20
-25.0456985421
 10
106.5236746897
 20
-25.1137320026
  0
LWPOLYLINE
  5
520
100
AcDbEntity
  8
ASSI
100
AcDbPolyline
 62
7
  6
CONTINUOUS
 90
7
 70
0
 10
106.8553620092
 20
-24.2509645666
 10
106.8399865491
 20
-24.4012470791
 10
106.8081094171
 20
-24.5542564039
 10
106.7603369325
 20
-24.7031112493
 10
106.6971925009
 20
-24.8461807304
 10
106.6221900296
 20
-24.9775078751
 10
106.5286392526
 20
-25.1076265501
  0
LINE
  5
521
100
AcDbEntity
  8
DRAFT
100
AcDbLine
 62
7
  6
CONTINUOUS
 10
106.6363852473
 20
-24.4062277849
 11
106.5028967815
 21
-25.1378765499
  0
LWPOLYLINE
  5
522
100
AcDbEntity
  8
RACCORDO
100
AcDbPolyline
 62
7
  6
CONTINUOUS
 90
5
 70
0
 10
108.2978452828
 20
-25.1071660055
 10
108.3031951687
 20
-25.0802211023
 10
108.3259587148
 20
-24.946347197
 10
108.3425455948
 20
-24.8116841379
 10
108.3529332448
 20
-24.6765135316
  0
LWPOLYLINE
  5
523
100
AcDbEntity
  8
ASSI
100
AcDbPolyline
 62
7
  6
CONTINUOUS
 90
5
 70
0
 10
108.2978452828
 20
-25.1071660055
 10
108.3031951687
 20
-25.0802211023
 10
108.3259587148
 20
-24.946347197
 10
108.3425455948
 20
-24.8116841379
 10
108.3529332448
 20
-24.6765135316
  0
LINE
  5
524
100
AcDbEntity
  8
ASSI
100
AcDbLine
 62
253
  6
CONTINUOUS
 10
105.740038283
 20
-27.7562075089
 11
105.7985107264
 21
-27.4687083653
  0
LINE
  5
525
100
AcDbEntity
  8
RACCORDO
100
AcDbLine
 62
7
  6
CONTINUOUS
 10
108.2391722065
 20
-25.3956517071
 11
108.2978453477
 21
-25.1071656866
  0
LINE
  5
526
100
AcDbEntity
  8
ASSI
100
AcDbLine
 62
7
  6
CONTINUOUS
 10
108.2391722065
 20
-25.3956517071
 11
108.2978453477
 21
-25.1071656866
  0
LWPOLYLINE
  5
527
100
AcDbEntity
  8
DRAFT
100
AcDbPolyline
 62
7
  6
CONTINUOUS
 90
23
 70
0
 10
106.6363315549
 20
-24.4064764077
 10
106.625278704
 20
-24.4604735015
 10
106.6068185084
 20
-24.5320506569
 10
106.5842219415
 20
-24.6026967641
 10
106.5577094267
 20
-24.67172269
 10
106.5272426403
 20
-24.7391125785
 10
106.4928599059
 20
-24.8048822856
 10
106.4548966176
 20
-24.8683902461
 10
106.4133177341
 20
-24.9296143252
 10
106.3681582968
 20
-24.9885766576
 10
106.3198588233
 20
-25.0447020821
 10
106.2683885837
 20
-25.0979628351
 10
106.2137783079
 20
-25.1483866803
 10
106.1565607043
 20
-25.1954817468
 10
106.0967102559
 20
-25.2392154575
 10
106.0342524796
 20
-25.2796203896
 10
105.9697966336
 20
-25.3163024043
 10
105.9033231639
 20
-25.3492250669
 10
105.8348516245
 20
-25.3784248119
 10
105.7650499364
 20
-25.403616804
 10
105.6941407399
 20
-25.4247060981
 10
105.6219013948
 20
-25.4417876391
 10
105.5483319009
 20
-25.4548614272
  0
LINE
  5
528
100
AcDbEntity
  8
ASSI
100
AcDbLine
 62
7
  6
CONTINUOUS
 10
108.2284676508
 20
-25.4459754214
 11
108.2391639635
 21
-25.3956500452
  0
LINE
  5
529
100
AcDbEntity
  8
0
100
AcDbLine
 62
7
  6
CONTINUOUS
 10
108.2118819152
 20
-25.5167644918
 11
108.2199047315
 21
-25.4811431537
  0
LWPOLYLINE
  5
52A
100
AcDbEntity
  8
RACCORDO
100
AcDbPolyline
 62
7
  6
CONTINUOUS
 90
3
 70
0
 10
108.2392402038
 20
-25.3446604425
 10
108.2742682829
 20
-25.2131165931
 10
108.2978452828
 20
-25.1071660055
  0
LWPOLYLINE
  5
52B
100
AcDbEntity
  8
ASSI
100
AcDbPolyline
 62
7
  6
CONTINUOUS
 90
3
 70
0
 10
108.2392402038
 20
-25.3446604425
 10
108.2742682829
 20
-25.2131165931
 10
108.2978452828
 20
-25.1071660055
  0
LWPOLYLINE
  5
52C
100
AcDbEntity
  8
RACCORDO
100
AcDbPolyline
 62
7
  6
CONTINUOUS
 90
3
 70
0
 10
106.6536931437
 20
26.2094616027
 10
106.6681917575
 20
26.1850507245
 10
106.7076733626
 20
26.1090469947
  0
LWPOLYLINE
  5
52D
100
AcDbEntity
  8
ASSI
100
AcDbPolyline
 62
7
  6
CONTINUOUS
 90
3
 70
0
 10
106.6536931437
 20
26.2094616027
 10
106.6681917575
 20
26.1850507245
 10
106.7076733626
 20
26.1090469947
  0
LWPOLYLINE
  5
52E
100
AcDbEntity
  8
RACCORDO
100
AcDbPolyline
 62
7
  6
CONTINUOUS
 90
8
 70
0
 10
106.7076733626
 20
26.1090469947
 10
106.7427468254
 20
26.0309730139
 10
106.7733011769
 20
25.9510787747
 10
106.7992364093
 20
25.8696286579
 10
106.8204691765
 20
25.7868928909
 10
106.8369324605
 20
25.7031426734
 10
106.8485752512
 20
25.6186491307
 10
106.8553620092
 20
25.5336873527
  0
LWPOLYLINE
  5
52F
100
AcDbEntity
  8
ASSI
100
AcDbPolyline
 62
7
  6
CONTINUOUS
 90
8
 70
0
 10
106.7076733626
 20
26.1090469947
 10
106.7427468254
 20
26.0309730139
 10
106.7733011769
 20
25.9510787747
 10
106.7992364093
 20
25.8696286579
 10
106.8204691765
 20
25.7868928909
 10
106.8369324605
 20
25.7031426734
 10
106.8485752512
 20
25.6186491307
 10
106.8553620092
 20
25.5336873527
  0
ELLIPSE
  5
530
100
AcDbEntity
  8
0
100
AcDbEllipse
 62
7
  6
CONTINUOUS
 10
658.9235369841
 20
-139.7516203687
 30
0.0
 11
5176.8314190784
 21
-2273.1279384889
 31
0.0
 40
0.0361421023
 41
-1.7033537665
 42
-1.7033194274
  0
ELLIPSE
  5
531
100
AcDbEntity
  8
0
100
AcDbEllipse
 62
7
  6
CONTINUOUS
 10
-91.722712824
 20
-54.6827917672
 30
0.0
 11
-0.9467209408
 21
24.7774002915
 31
0.0
 40
0.118993581
 41
-0.0217353498
 42
-0.0196696441
  0
ELLIPSE
  5
532
100
AcDbEntity
  8
0
100
AcDbEllipse
 62
7
  6
CONTINUOUS
 10
658.9235369841
 20
-139.7516203687
 30
0.0
 11
5175.4646117902
 21
-3265.059362687
 31
0.0
 40
0.044276484
 41
-1.6913163203
 42
-1.6912907838
  0
ELLIPSE
  5
533
100
AcDbEntity
  8
0
100
AcDbEllipse
 62
7
  6
CONTINUOUS
 10
-80.4
 20
-30.5598428384
 30
0.0
 11
10.4
 21
-0.0
 31
0.0
 40
0.0798631415
 41
6.2831853072
 42
7.853981634
  0
ELLIPSE
  5
534
100
AcDbEntity
  8
0
100
AcDbEllipse
 62
7
  6
CONTINUOUS
 10
-92.1738307428
 20
-26.7430271412
 30
0.0
 11
2.9999935948
 21
0.0073409193
 31
0.0
 40
0.9954121261
 41
-1.7207123974
 42
-1.5732545784
  0
ELLIPSE
  5
535
100
AcDbEntity
  8
0
100
AcDbEllipse
 62
7
  6
CONTINUOUS
 10
-105.2984886192
 20
25.4391283362
 30
0.0
 11
1.5242182247
 21
0.0
 31
0.0
 40
0.9794477452
 41
2.6751186443
 42
3.0907313864
  0
ELLIPSE
  5
536
100
AcDbEntity
  8
0
100
AcDbEllipse
 62
7
  6
CONTINUOUS
 10
-658.9235369841
 20
-139.7516203687
 30
0.0
 11
5176.8314190784
 21
2273.1279384889
 31
0.0
 40
0.0361421023
 41
-1.4382732261
 42
-1.4382388871
  0
ELLIPSE
  5
537
100
AcDbEntity
  8
0
100
AcDbEllipse
 62
7
  6
CONTINUOUS
 10
-658.9235369841
 20
-139.7516203687
 30
0.0
 11
5175.4646117902
 21
3265.059362687
 31
0.0
 40
0.044276484
 41
-1.4503018698
 42
-1.4502763333
  0
ELLIPSE
  5
538
100
AcDbEntity
  8
0
100
AcDbEllipse
 62
7
  6
CONTINUOUS
 10
92.1738307428
 20
-26.7430271412
 30
0.0
 11
2.9999935948
 21
-0.0073409193
 31
0.0
 40
0.9954121261
 41
-1.5683380752
 42
-1.4208802562
  0
ELLIPSE
  5
539
100
AcDbEntity
  8
0
100
AcDbEllipse
 62
7
  6
CONTINUOUS
 10
80.4
 20
-30.5598428384
 30
0.0
 11
10.4
 21
-0.0
 31
0.0
 40
0.0798631415
 41
1.5707963268
 42
3.1415926536
  0
ELLIPSE
  5
53A
100
AcDbEntity
  8
0
100
AcDbEllipse
 62
7
  6
CONTINUOUS
 10
91.722712824
 20
-54.6827917672
 30
0.0
 11
0.9467209408
 21
24.7774002915
 31
0.0
 40
0.118993581
 41
0.0196696441
 42
0.0217353498
  0
ELLIPSE
  5
53B
100
AcDbEntity
  8
0
100
AcDbEllipse
 62
7
  6
CONTINUOUS
 10
105.2984886192
 20
25.4391283362
 30
0.0
 11
1.5242182247
 21
0.0
 31
0.0
 40
0.9794477452
 41
0.0508612672
 42
0.4664739592
  0
ELLIPSE
  5
53C
100
AcDbEntity
  8
0
100
AcDbEllipse
 62
7
  6
CONTINUOUS
 10
-399.0727415558
 20
0.2917064818
 30
0.0
 11
506.5485233311
 21
-0.0
 31
0.0
 40
0.9794477452
 41
6.2773634427
 42
6.289203154
  0
ELLIPSE
  5
53D
100
AcDbEntity
  8
DRAFT
100
AcDbEllipse
 62
7
  6
CONTINUOUS
 10
14.3457213202
 20
-27.936913475
 30
0.0
 11
0.002545876
 21
2.9999999999
 31
0.0
 40
0.0086855084
 41
-3.1415865125
 42
-3.0616492031
  0
ELLIPSE
  5
53E
100
AcDbEntity
  8
DRAFT
100
AcDbEllipse
 62
7
  6
CONTINUOUS
 10
15.6542786798
 20
-27.936913475
 30
0.0
 11
-0.002545876
 21
2.9999999999
 31
0.0
 40
0.0086855084
 41
-3.2215361041
 42
-3.1415987947
  0
ELLIPSE
  5
53F
100
AcDbEntity
  8
DRAFT
100
AcDbEllipse
 62
7
  6
CONTINUOUS
 10
18.3457213202
 20
-27.936913475
 30
0.0
 11
0.002545876
 21
2.9999999999
 31
0.0
 40
0.0086855084
 41
-3.1415865125
 42
-3.0616492031
  0
ELLIPSE
  5
540
100
AcDbEntity
  8
DRAFT
100
AcDbEllipse
 62
7
  6
CONTINUOUS
 10
19.6542786798
 20
-27.936913475
 30
0.0
 11
-0.002545876
 21
2.9999999999
 31
0.0
 40
0.0086855084
 41
-3.2215361041
 42
-3.1415987947
  0
ELLIPSE
  5
541
100
AcDbEntity
  8
DRAFT
100
AcDbEllipse
 62
7
  6
CONTINUOUS
 10
22.3457213202
 20
-27.936913475
 30
0.0
 11
0.002545876
 21
2.9999999999
 31
0.0
 40
0.0086855084
 41
-3.1415865125
 42
-3.0616492031
  0
ELLIPSE
  5
542
100
AcDbEntity
  8
DRAFT
100
AcDbEllipse
 62
7
  6
CONTINUOUS
 10
23.6542786798
 20
-27.936913475
 30
0.0
 11
-0.002545876
 21
2.9999999999
 31
0.0
 40
0.0086855084
 41
-3.2215361041
 42
-3.1415987947
  0
ELLIPSE
  5
543
100
AcDbEntity
  8
DRAFT
100
AcDbEllipse
 62
7
  6
CONTINUOUS
 10
26.3457213202
 20
-27.936913475
 30
0.0
 11
0.002545876
 21
2.9999999999
 31
0.0
 40
0.0086855084
 41
-3.1415865125
 42
-3.0616492031
  0
ELLIPSE
  5
544
100
AcDbEntity
  8
DRAFT
100
AcDbEllipse
 62
7
  6
CONTINUOUS
 10
27.6542786798
 20
-27.936913475
 30
0.0
 11
-0.002545876
 21
2.9999999999
 31
0.0
 40
0.0086855084
 41
-3.2215361041
 42
-3.1415987947
  0
ELLIPSE
  5
545
100
AcDbEntity
  8
DRAFT
100
AcDbEllipse
 62
7
  6
CONTINUOUS
 10
30.3457213202
 20
-27.936913475
 30
0.0
 11
0.002545876
 21
2.9999999999
 31
0.0
 40
0.0086855084
 41
-3.1415865125
 42
-3.0616492031
  0
ELLIPSE
  5
546
100
AcDbEntity
  8
DRAFT
100
AcDbEllipse
 62
7
  6
CONTINUOUS
 10
31.6542786798
 20
-27.936913475
 30
0.0
 11
-0.002545876
 21
2.9999999999
 31
0.0
 40
0.0086855084
 41
-3.2215361041
 42
-3.1415987947
  0
ELLIPSE
  5
547
100
AcDbEntity
  8
DRAFT
100
AcDbEllipse
 62
7
  6
CONTINUOUS
 10
34.3457213202
 20
-27.936913475
 30
0.0
 11
0.002545876
 21
2.9999999999
 31
0.0
 40
0.0086855084
 41
-3.1415865125
 42
-3.0616492031
  0
ELLIPSE
  5
548
100
AcDbEntity
  8
DRAFT
100
AcDbEllipse
 62
7
  6
CONTINUOUS
 10
35.6542786798
 20
-27.936913475
 30
0.0
 11
-0.002545876
 21
2.9999999999
 31
0.0
 40
0.0086855084
 41
-3.2215361041
 42
-3.1415987947
  0
ELLIPSE
  5
549
100
AcDbEntity
  8
DRAFT
100
AcDbEllipse
 62
7
  6
CONTINUOUS
 10
38.3457213202
 20
-27.936913475
 30
0.0
 11
0.002545876
 21
2.9999999999
 31
0.0
 40
0.0086855084
 41
-3.1415865125
 42
-3.0616492031
  0
ELLIPSE
  5
54A
100
AcDbEntity
  8
DRAFT
100
AcDbEllipse
 62
7
  6
CONTINUOUS
 10
39.6542786798
 20
-27.936913475
 30
0.0
 11
-0.002545876
 21
2.9999999999
 31
0.0
 40
0.0086855084
 41
-3.2215361041
 42
-3.1415987947
  0
ELLIPSE
  5
54B
100
AcDbEntity
  8
DRAFT
100
AcDbEllipse
 62
7
  6
CONTINUOUS
 10
42.3457213202
 20
-27.936913475
 30
0.0
 11
0.002545876
 21
2.9999999999
 31
0.0
 40
0.0086855084
 41
-3.1415865125
 42
-3.0616492031
  0
ELLIPSE
  5
54C
100
AcDbEntity
  8
DRAFT
100
AcDbEllipse
 62
7
  6
CONTINUOUS
 10
43.6542786798
 20
-27.936913475
 30
0.0
 11
-0.002545876
 21
2.9999999999
 31
0.0
 40
0.0086855084
 41
-3.2215361041
 42
-3.1415987947
  0
ELLIPSE
  5
54D
100
AcDbEntity
  8
DRAFT
100
AcDbEllipse
 62
7
  6
CONTINUOUS
 10
46.3457213202
 20
-27.936913475
 30
0.0
 11
0.002545876
 21
2.9999999999
 31
0.0
 40
0.0086855084
 41
-3.1415865125
 42
-3.0616492031
  0
ELLIPSE
  5
54E
100
AcDbEntity
  8
DRAFT
100
AcDbEllipse
 62
7
  6
CONTINUOUS
 10
47.6542786798
 20
-27.936913475
 30
0.0
 11
-0.002545876
 21
2.9999999999
 31
0.0
 40
0.0086855084
 41
-3.2215361041
 42
-3.1415987947
  0
ELLIPSE
  5
54F
100
AcDbEntity
  8
DRAFT
100
AcDbEllipse
 62
7
  6
CONTINUOUS
 10
50.3457213202
 20
-27.936913475
 30
0.0
 11
0.002545876
 21
2.9999999999
 31
0.0
 40
0.0086855084
 41
-3.1415865125
 42
-3.0616492031
  0
ELLIPSE
  5
550
100
AcDbEntity
  8
DRAFT
100
AcDbEllipse
 62
7
  6
CONTINUOUS
 10
51.6542786798
 20
-27.936913475
 30
0.0
 11
-0.002545876
 21
2.9999999999
 31
0.0
 40
0.0086855084
 41
-3.2215361041
 42
-3.1415987947
  0
ELLIPSE
  5
551
100
AcDbEntity
  8
DRAFT
100
AcDbEllipse
 62
7
  6
CONTINUOUS
 10
54.3457213202
 20
-27.936913475
 30
0.0
 11
0.002545876
 21
2.9999999999
 31
0.0
 40
0.0086855084
 41
-3.1415865125
 42
-3.0616492031
  0
ELLIPSE
  5
552
100
AcDbEntity
  8
DRAFT
100
AcDbEllipse
 62
7
  6
CONTINUOUS
 10
55.6542786798
 20
-27.936913475
 30
0.0
 11
-0.002545876
 21
2.9999999999
 31
0.0
 40
0.0086855084
 41
-3.2215361041
 42
-3.1415987947
  0
ELLIPSE
  5
553
100
AcDbEntity
  8
DRAFT
100
AcDbEllipse
 62
7
  6
CONTINUOUS
 10
58.3457213202
 20
-27.936913475
 30
0.0
 11
0.002545876
 21
2.9999999999
 31
0.0
 40
0.0086855084
 41
-3.1415865125
 42
-3.0616492031
  0
ELLIPSE
  5
554
100
AcDbEntity
  8
DRAFT
100
AcDbEllipse
 62
7
  6
CONTINUOUS
 10
59.6542786798
 20
-27.936913475
 30
0.0
 11
-0.002545876
 21
2.9999999999
 31
0.0
 40
0.0086855084
 41
-3.2215361041
 42
-3.1415987947
  0
ELLIPSE
  5
555
100
AcDbEntity
  8
RACCORDO
100
AcDbEllipse
 62
7
  6
CONTINUOUS
 10
59.0
 20
-30.0131653168
 30
0.0
 11
0.5548207204
 21
-0.0
 31
0.0
 40
0.0798631415
 41
0.0087266463
 42
3.1328660073
  0
ELLIPSE
  5
556
100
AcDbEntity
  8
RACCORDO
100
AcDbEllipse
 62
7
  6
CONTINUOUS
 10
55.0
 20
-30.0131653168
 30
0.0
 11
0.5548207204
 21
-0.0
 31
0.0
 40
0.0798631415
 41
0.0087266463
 42
3.1328660073
  0
ELLIPSE
  5
557
100
AcDbEntity
  8
RACCORDO
100
AcDbEllipse
 62
7
  6
CONTINUOUS
 10
51.0
 20
-30.0131653168
 30
0.0
 11
0.5548207204
 21
-0.0
 31
0.0
 40
0.0798631415
 41
0.0087266463
 42
3.1328660073
  0
ELLIPSE
  5
558
100
AcDbEntity
  8
RACCORDO
100
AcDbEllipse
 62
7
  6
CONTINUOUS
 10
47.0
 20
-30.0131653168
 30
0.0
 11
0.5548207204
 21
-0.0
 31
0.0
 40
0.0798631415
 41
0.0087266463
 42
3.1328660073
  0
ELLIPSE
  5
559
100
AcDbEntity
  8
RACCORDO
100
AcDbEllipse
 62
7
  6
CONTINUOUS
 10
43.0
 20
-30.0131653168
 30
0.0
 11
0.5548207204
 21
-0.0
 31
0.0
 40
0.0798631415
 41
0.0087266463
 42
3.1328660073
  0
ELLIPSE
  5
55A
100
AcDbEntity
  8
RACCORDO
100
AcDbEllipse
 62
7
  6
CONTINUOUS
 10
39.0
 20
-30.0131653168
 30
0.0
 11
0.5548207204
 21
-0.0
 31
0.0
 40
0.0798631415
 41
0.0087266463
 42
3.1328660073
  0
ELLIPSE
  5
55B
100
AcDbEntity
  8
RACCORDO
100
AcDbEllipse
 62
7
  6
CONTINUOUS
 10
35.0
 20
-30.0131653168
 30
0.0
 11
0.5548207204
 21
-0.0
 31
0.0
 40
0.0798631415
 41
0.0087266463
 42
3.1328660073
  0
ELLIPSE
  5
55C
100
AcDbEntity
  8
RACCORDO
100
AcDbEllipse
 62
7
  6
CONTINUOUS
 10
31.0
 20
-30.0131653168
 30
0.0
 11
0.5548207204
 21
-0.0
 31
0.0
 40
0.0798631415
 41
0.0087266463
 42
3.1328660073
  0
ELLIPSE
  5
55D
100
AcDbEntity
  8
RACCORDO
100
AcDbEllipse
 62
7
  6
CONTINUOUS
 10
27.0
 20
-30.0131653168
 30
0.0
 11
0.5548207204
 21
-0.0
 31
0.0
 40
0.0798631415
 41
0.0087266463
 42
3.1328660073
  0
ELLIPSE
  5
55E
100
AcDbEntity
  8
RACCORDO
100
AcDbEllipse
 62
7
  6
CONTINUOUS
 10
23.0
 20
-30.0131653168
 30
0.0
 11
0.5548207204
 21
-0.0
 31
0.0
 40
0.0798631415
 41
0.0087266463
 42
3.1328660073
  0
ELLIPSE
  5
55F
100
AcDbEntity
  8
RACCORDO
100
AcDbEllipse
 62
7
  6
CONTINUOUS
 10
19.0
 20
-30.0131653168
 30
0.0
 11
0.5548207204
 21
-0.0
 31
0.0
 40
0.0798631415
 41
0.0087266463
 42
3.1328660073
  0
ELLIPSE
  5
560
100
AcDbEntity
  8
RACCORDO
100
AcDbEllipse
 62
7
  6
CONTINUOUS
 10
15.0
 20
-30.0131653168
 30
0.0
 11
0.5548207204
 21
-0.0
 31
0.0
 40
0.0798631415
 41
0.0087266463
 42
3.1328660073
  0
ELLIPSE
  5
561
100
AcDbEntity
  8
RACCORDO
100
AcDbEllipse
 62
7
  6
CONTINUOUS
 10
-92.1549100969
 20
27.7521820889
 30
0.0
 11
2.8949882194
 21
-0.7879071332
 31
0.0
 40
0.9988891256
 41
1.8368043753
 42
1.9837224763
  0
ELLIPSE
  5
562
100
AcDbEntity
  8
RACCORDO
100
AcDbEllipse
 62
7
  6
CONTINUOUS
 10
92.1549100969
 20
27.7521820889
 30
0.0
 11
2.8949882194
 21
0.7879071332
 31
0.0
 40
0.9988891256
 41
1.1578701773
 42
1.3047882783
  0
ELLIPSE
  5
563
100
AcDbEntity
  8
0
100
AcDbEllipse
 62
7
  6
CONTINUOUS
 10
399.0727415558
 20
0.2917064818
 30
0.0
 11
506.5485233311
 21
-0.0
 31
0.0
 40
0.9794477452
 41
3.0907313864
 42
3.09173106
  0
ELLIPSE
  5
564
100
AcDbEntity
  8
0
100
AcDbEllipse
 62
7
  6
CONTINUOUS
 10
-399.0727415558
 20
0.2917064818
 30
0.0
 11
506.5485233311
 21
-0.0
 31
0.0
 40
0.9794477452
 41
0.0498615936
 42
0.0508612672
  0
ELLIPSE
  5
565
100
AcDbEntity
  8
RACCORDO
100
AcDbEllipse
 62
7
  6
CONTINUOUS
 10
-105.2984886192
 20
25.4391283362
 30
0.0
 11
1.5242182247
 21
0.0
 31
0.0
 40
0.9794477452
 41
8.9579769854
 42
9.3739166935
  0
ELLIPSE
  5
566
100
AcDbEntity
  8
RACCORDO
100
AcDbEllipse
 62
7
  6
CONTINUOUS
 10
105.2984886192
 20
25.4391283362
 30
0.0
 11
1.5242182247
 21
-0.0
 31
0.0
 40
0.9794477452
 41
6.3340465744
 42
6.7499862825
  0
ELLIPSE
  5
567
100
AcDbEntity
  8
RACCORDO
100
AcDbEllipse
 62
7
  6
CONTINUOUS
 10
92.1549100969
 20
-25.8074722105
 30
0.0
 11
2.8949882194
 21
-0.7879071332
 31
0.0
 40
0.9988891256
 41
-1.3047882783
 42
-1.1578701773
  0
ELLIPSE
  5
568
100
AcDbEntity
  8
RACCORDO
100
AcDbEllipse
 62
7
  6
CONTINUOUS
 10
-92.1549100969
 20
-25.8074722105
 30
0.0
 11
2.8949882194
 21
0.7879071332
 31
0.0
 40
0.9988891256
 41
-1.9837224763
 42
-1.8368043753
  0
ELLIPSE
  5
569
100
AcDbEntity
  8
ASSI
100
AcDbEllipse
 62
7
  6
CONTINUOUS
 10
80.0
 20
-30.5438702101
 30
0.0
 11
10.2
 21
-0.0
 31
0.0
 40
0.0798631415
 41
1.5707963268
 42
3.1415926536
  0
ELLIPSE
  5
56A
100
AcDbEntity
  8
ASSI
100
AcDbEllipse
 62
7
  6
CONTINUOUS
 10
-92.1549100969
 20
27.7521820889
 30
0.0
 11
2.8949882194
 21
-0.7879071332
 31
0.0
 40
0.9988891256
 41
1.8368043753
 42
1.9837224763
  0
ELLIPSE
  5
56B
100
AcDbEntity
  8
ASSI
100
AcDbEllipse
 62
7
  6
CONTINUOUS
 10
92.1549100969
 20
27.7521820889
 30
0.0
 11
2.8949882194
 21
0.7879071332
 31
0.0
 40
0.9988891256
 41
1.1578701773
 42
1.3047882783
  0
ELLIPSE
  5
56C
100
AcDbEntity
  8
ASSI
100
AcDbEllipse
 62
7
  6
CONTINUOUS
 10
399.0727415558
 20
0.2917064818
 30
0.0
 11
506.5485233311
 21
-0.0
 31
0.0
 40
0.9794477452
 41
3.0907313864
 42
3.09173106
  0
ELLIPSE
  5
56D
100
AcDbEntity
  8
ASSI
100
AcDbEllipse
 62
7
  6
CONTINUOUS
 10
-399.0727415558
 20
0.2917064818
 30
0.0
 11
506.5485233311
 21
-0.0
 31
0.0
 40
0.9794477452
 41
0.0498615936
 42
0.0508612672
  0
ELLIPSE
  5
56E
100
AcDbEntity
  8
ASSI
100
AcDbEllipse
 62
7
  6
CONTINUOUS
 10
-92.1738307428
 20
-26.7430271412
 30
0.0
 11
2.9999935948
 21
0.0073409193
 31
0.0
 40
0.9954121261
 41
-1.7207123974
 42
-1.5732545784
  0
ELLIPSE
  5
56F
100
AcDbEntity
  8
ASSI
100
AcDbEllipse
 62
7
  6
CONTINUOUS
 10
92.1738307428
 20
-26.7430271412
 30
0.0
 11
2.9999935948
 21
-0.0073409194
 31
0.0
 40
0.9954121261
 41
-1.5683380752
 42
-1.4208802562
  0
ELLIPSE
  5
570
100
AcDbEntity
  8
ASSI
100
AcDbEllipse
 62
7
  6
CONTINUOUS
 10
-105.2984886192
 20
25.4391283362
 30
0.0
 11
1.5242182247
 21
0.0
 31
0.0
 40
0.9794477452
 41
8.9579769854
 42
9.3739166935
  0
ELLIPSE
  5
571
100
AcDbEntity
  8
ASSI
100
AcDbEllipse
 62
7
  6
CONTINUOUS
 10
105.2984886192
 20
25.4391283362
 30
0.0
 11
1.5242182247
 21
-0.0
 31
0.0
 40
0.9794477452
 41
6.3340465744
 42
6.7499862825
  0
ELLIPSE
  5
572
100
AcDbEntity
  8
ASSI
100
AcDbEllipse
 62
7
  6
CONTINUOUS
 10
15.0
 20
-30.0131653168
 30
0.0
 11
0.5548207204
 21
-0.0
 31
0.0
 40
0.0798631415
 41
0.0087266463
 42
3.1328660073
  0
ELLIPSE
  5
573
100
AcDbEntity
  8
ASSI
100
AcDbEllipse
 62
7
  6
CONTINUOUS
 10
19.0
 20
-30.0131653168
 30
0.0
 11
0.5548207204
 21
-0.0
 31
0.0
 40
0.0798631415
 41
0.0087266463
 42
3.1328660073
  0
ELLIPSE
  5
574
100
AcDbEntity
  8
ASSI
100
AcDbEllipse
 62
7
  6
CONTINUOUS
 10
23.0
 20
-30.0131653168
 30
0.0
 11
0.5548207204
 21
-0.0
 31
0.0
 40
0.0798631415
 41
0.0087266463
 42
3.1328660073
  0
ELLIPSE
  5
575
100
AcDbEntity
  8
ASSI
100
AcDbEllipse
 62
7
  6
CONTINUOUS
 10
27.0
 20
-30.0131653168
 30
0.0
 11
0.5548207204
 21
-0.0
 31
0.0
 40
0.0798631415
 41
0.0087266463
 42
3.1328660073
  0
ELLIPSE
  5
576
100
AcDbEntity
  8
ASSI
100
AcDbEllipse
 62
7
  6
CONTINUOUS
 10
31.0
 20
-30.0131653168
 30
0.0
 11
0.5548207204
 21
-0.0
 31
0.0
 40
0.0798631415
 41
0.0087266463
 42
3.1328660073
  0
ELLIPSE
  5
577
100
AcDbEntity
  8
ASSI
100
AcDbEllipse
 62
7
  6
CONTINUOUS
 10
35.0
 20
-30.0131653168
 30
0.0
 11
0.5548207204
 21
-0.0
 31
0.0
 40
0.0798631415
 41
0.0087266463
 42
3.1328660073
  0
ELLIPSE
  5
578
100
AcDbEntity
  8
ASSI
100
AcDbEllipse
 62
7
  6
CONTINUOUS
 10
39.0
 20
-30.0131653168
 30
0.0
 11
0.5548207204
 21
-0.0
 31
0.0
 40
0.0798631415
 41
0.0087266463
 42
3.1328660073
  0
ELLIPSE
  5
579
100
AcDbEntity
  8
ASSI
100
AcDbEllipse
 62
7
  6
CONTINUOUS
 10
43.0
 20
-30.0131653168
 30
0.0
 11
0.5548207204
 21
-0.0
 31
0.0
 40
0.0798631415
 41
0.0087266463
 42
3.1328660073
  0
ELLIPSE
  5
57A
100
AcDbEntity
  8
ASSI
100
AcDbEllipse
 62
7
  6
CONTINUOUS
 10
47.0
 20
-30.0131653168
 30
0.0
 11
0.5548207204
 21
-0.0
 31
0.0
 40
0.0798631415
 41
0.0087266463
 42
3.1328660073
  0
ELLIPSE
  5
57B
100
AcDbEntity
  8
ASSI
100
AcDbEllipse
 62
7
  6
CONTINUOUS
 10
51.0
 20
-30.0131653168
 30
0.0
 11
0.5548207204
 21
-0.0
 31
0.0
 40
0.0798631415
 41
0.0087266463
 42
3.1328660073
  0
ELLIPSE
  5
57C
100
AcDbEntity
  8
ASSI
100
AcDbEllipse
 62
7
  6
CONTINUOUS
 10
55.0
 20
-30.0131653168
 30
0.0
 11
0.5548207204
 21
-0.0
 31
0.0
 40
0.0798631415
 41
0.0087266463
 42
3.1328660073
  0
ELLIPSE
  5
57D
100
AcDbEntity
  8
ASSI
100
AcDbEllipse
 62
7
  6
CONTINUOUS
 10
59.0
 20
-30.0131653168
 30
0.0
 11
0.5548207204
 21
-0.0
 31
0.0
 40
0.0798631415
 41
0.0087266463
 42
3.1328660073
  0
ELLIPSE
  5
57E
100
AcDbEntity
  8
ASSI
100
AcDbEllipse
 62
7
  6
CONTINUOUS
 10
59.6542786798
 20
-27.936913475
 30
0.0
 11
-0.002545876
 21
2.9999999999
 31
0.0
 40
0.0086855084
 41
-3.2215361041
 42
-3.1415987947
  0
ELLIPSE
  5
57F
100
AcDbEntity
  8
ASSI
100
AcDbEllipse
 62
7
  6
CONTINUOUS
 10
58.3457213202
 20
-27.936913475
 30
0.0
 11
0.002545876
 21
2.9999999999
 31
0.0
 40
0.0086855084
 41
-3.1415865125
 42
-3.0616492031
  0
ELLIPSE
  5
580
100
AcDbEntity
  8
ASSI
100
AcDbEllipse
 62
7
  6
CONTINUOUS
 10
55.6542786798
 20
-27.936913475
 30
0.0
 11
-0.002545876
 21
2.9999999999
 31
0.0
 40
0.0086855084
 41
-3.2215361041
 42
-3.1415987947
  0
ELLIPSE
  5
581
100
AcDbEntity
  8
ASSI
100
AcDbEllipse
 62
7
  6
CONTINUOUS
 10
54.3457213202
 20
-27.936913475
 30
0.0
 11
0.002545876
 21
2.9999999999
 31
0.0
 40
0.0086855084
 41
-3.1415865125
 42
-3.0616492031
  0
ELLIPSE
  5
582
100
AcDbEntity
  8
ASSI
100
AcDbEllipse
 62
7
  6
CONTINUOUS
 10
51.6542786798
 20
-27.936913475
 30
0.0
 11
-0.002545876
 21
2.9999999999
 31
0.0
 40
0.0086855084
 41
-3.2215361041
 42
-3.1415987947
  0
ELLIPSE
  5
583
100
AcDbEntity
  8
ASSI
100
AcDbEllipse
 62
7
  6
CONTINUOUS
 10
50.3457213202
 20
-27.936913475
 30
0.0
 11
0.002545876
 21
2.9999999999
 31
0.0
 40
0.0086855084
 41
-3.1415865125
 42
-3.0616492031
  0
ELLIPSE
  5
584
100
AcDbEntity
  8
ASSI
100
AcDbEllipse
 62
7
  6
CONTINUOUS
 10
47.6542786798
 20
-27.936913475
 30
0.0
 11
-0.002545876
 21
2.9999999999
 31
0.0
 40
0.0086855084
 41
-3.2215361041
 42
-3.1415987947
  0
ELLIPSE
  5
585
100
AcDbEntity
  8
ASSI
100
AcDbEllipse
 62
7
  6
CONTINUOUS
 10
46.3457213202
 20
-27.936913475
 30
0.0
 11
0.002545876
 21
2.9999999999
 31
0.0
 40
0.0086855084
 41
-3.1415865125
 42
-3.0616492031
  0
ELLIPSE
  5
586
100
AcDbEntity
  8
ASSI
100
AcDbEllipse
 62
7
  6
CONTINUOUS
 10
43.6542786798
 20
-27.936913475
 30
0.0
 11
-0.002545876
 21
2.9999999999
 31
0.0
 40
0.0086855084
 41
-3.2215361041
 42
-3.1415987947
  0
ELLIPSE
  5
587
100
AcDbEntity
  8
ASSI
100
AcDbEllipse
 62
7
  6
CONTINUOUS
 10
42.3457213202
 20
-27.936913475
 30
0.0
 11
0.002545876
 21
2.9999999999
 31
0.0
 40
0.0086855084
 41
-3.1415865125
 42
-3.0616492031
  0
ELLIPSE
  5
588
100
AcDbEntity
  8
ASSI
100
AcDbEllipse
 62
7
  6
CONTINUOUS
 10
39.6542786798
 20
-27.936913475
 30
0.0
 11
-0.002545876
 21
2.9999999999
 31
0.0
 40
0.0086855084
 41
-3.2215361041
 42
-3.1415987947
  0
ELLIPSE
  5
589
100
AcDbEntity
  8
ASSI
100
AcDbEllipse
 62
7
  6
CONTINUOUS
 10
38.3457213202
 20
-27.936913475
 30
0.0
 11
0.002545876
 21
2.9999999999
 31
0.0
 40
0.0086855084
 41
-3.1415865125
 42
-3.0616492031
  0
ELLIPSE
  5
58A
100
AcDbEntity
  8
ASSI
100
AcDbEllipse
 62
7
  6
CONTINUOUS
 10
35.6542786798
 20
-27.936913475
 30
0.0
 11
-0.002545876
 21
2.9999999999
 31
0.0
 40
0.0086855084
 41
-3.2215361041
 42
-3.1415987947
  0
ELLIPSE
  5
58B
100
AcDbEntity
  8
ASSI
100
AcDbEllipse
 62
7
  6
CONTINUOUS
 10
34.3457213202
 20
-27.936913475
 30
0.0
 11
0.002545876
 21
2.9999999999
 31
0.0
 40
0.0086855084
 41
-3.1415865125
 42
-3.0616492031
  0
ELLIPSE
  5
58C
100
AcDbEntity
  8
ASSI
100
AcDbEllipse
 62
7
  6
CONTINUOUS
 10
31.6542786798
 20
-27.936913475
 30
0.0
 11
-0.002545876
 21
2.9999999999
 31
0.0
 40
0.0086855084
 41
-3.2215361041
 42
-3.1415987947
  0
ELLIPSE
  5
58D
100
AcDbEntity
  8
ASSI
100
AcDbEllipse
 62
7
  6
CONTINUOUS
 10
30.3457213202
 20
-27.936913475
 30
0.0
 11
0.002545876
 21
2.9999999999
 31
0.0
 40
0.0086855084
 41
-3.1415865125
 42
-3.0616492031
  0
ELLIPSE
  5
58E
100
AcDbEntity
  8
ASSI
100
AcDbEllipse
 62
7
  6
CONTINUOUS
 10
27.6542786798
 20
-27.936913475
 30
0.0
 11
-0.002545876
 21
2.9999999999
 31
0.0
 40
0.0086855084
 41
-3.2215361041
 42
-3.1415987947
  0
ELLIPSE
  5
58F
100
AcDbEntity
  8
ASSI
100
AcDbEllipse
 62
7
  6
CONTINUOUS
 10
26.3457213202
 20
-27.936913475
 30
0.0
 11
0.002545876
 21
2.9999999999
 31
0.0
 40
0.0086855084
 41
-3.1415865125
 42
-3.0616492031
  0
ELLIPSE
  5
590
100
AcDbEntity
  8
ASSI
100
AcDbEllipse
 62
7
  6
CONTINUOUS
 10
23.6542786798
 20
-27.936913475
 30
0.0
 11
-0.002545876
 21
2.9999999999
 31
0.0
 40
0.0086855084
 41
-3.2215361041
 42
-3.1415987947
  0
ELLIPSE
  5
591
100
AcDbEntity
  8
ASSI
100
AcDbEllipse
 62
7
  6
CONTINUOUS
 10
22.3457213202
 20
-27.936913475
 30
0.0
 11
0.002545876
 21
2.9999999999
 31
0.0
 40
0.0086855084
 41
-3.1415865125
 42
-3.0616492031
  0
ELLIPSE
  5
592
100
AcDbEntity
  8
ASSI
100
AcDbEllipse
 62
7
  6
CONTINUOUS
 10
19.6542786798
 20
-27.936913475
 30
0.0
 11
-0.002545876
 21
2.9999999999
 31
0.0
 40
0.0086855084
 41
-3.2215361041
 42
-3.1415987947
  0
ELLIPSE
  5
593
100
AcDbEntity
  8
ASSI
100
AcDbEllipse
 62
7
  6
CONTINUOUS
 10
18.3457213202
 20
-27.936913475
 30
0.0
 11
0.002545876
 21
2.9999999999
 31
0.0
 40
0.0086855084
 41
-3.1415865125
 42
-3.0616492031
  0
ELLIPSE
  5
594
100
AcDbEntity
  8
ASSI
100
AcDbEllipse
 62
7
  6
CONTINUOUS
 10
15.6542786798
 20
-27.936913475
 30
0.0
 11
-0.002545876
 21
2.9999999999
 31
0.0
 40
0.0086855084
 41
-3.2215361041
 42
-3.1415987947
  0
ELLIPSE
  5
595
100
AcDbEntity
  8
ASSI
100
AcDbEllipse
 62
7
  6
CONTINUOUS
 10
14.3457213202
 20
-27.936913475
 30
0.0
 11
0.002545876
 21
2.9999999999
 31
0.0
 40
0.0086855084
 41
-3.1415865125
 42
-3.0616492031
  0
ELLIPSE
  5
596
100
AcDbEntity
  8
ASSI
100
AcDbEllipse
 62
7
  6
CONTINUOUS
 10
-80.0
 20
-30.5438702101
 30
0.0
 11
10.2
 21
-0.0
 31
0.0
 40
0.0798631415
 41
0.0
 42
1.5707963268
  0
ELLIPSE
  5
597
100
AcDbEntity
  8
ASSI
100
AcDbEllipse
 62
7
  6
CONTINUOUS
 10
92.1549100969
 20
-25.8074722105
 30
0.0
 11
2.8949882194
 21
-0.7879071332
 31
0.0
 40
0.9988891256
 41
-1.3047882783
 42
-1.1578701773
  0
ELLIPSE
  5
598
100
AcDbEntity
  8
ASSI
100
AcDbEllipse
 62
7
  6
CONTINUOUS
 10
-92.1549100969
 20
-25.8074722105
 30
0.0
 11
2.8949882194
 21
0.7879071332
 31
0.0
 40
0.9988891256
 41
-1.9837224763
 42
-1.8368043753
  0
ENDSEC
  0
SECTION
  2
OBJECTS
  0
DICTIONARY
  5
C
100
AcDbDictionary
280
0
281
1
  3
ACAD_GROUP
350
D
  3
ACAD_MLINESTYLE
350
17
  3
ACAD_LAYOUT
350
1A
  3
ACAD_PLOTSETTINGS
350
19
  3
ACAD_PLOTSTYLENAME
350
E
  0
DICTIONARY
  5
D
102
{ACAD_REACTORS
330
C
102
}
100
AcDbDictionary
280
0
281
1
  0
ACDBDICTIONARYWDFLT
  5
E
102
{ACAD_REACTORS
330
C
102
}
100
AcDbDictionary
281
1
  3
Normal
350
F
100
AcDbDictionaryWithDefault
340
F
  0
DICTIONARY
  5
17
102
{ACAD_REACTORS
330
C
102
}
100
AcDbDictionary
280
0
281
1
  3
Standard
350
18
  0
DICTIONARY
  5
19
102
{ACAD_REACTORS
330
C
102
}
100
AcDbDictionary
281
1
  0
DICTIONARY
  5
1A
102
{ACAD_REACTORS
330
C
102
}
100
AcDbDictionary
281
1
  3
Model
350
599
  3
Layout1
350
59A
  0
ACDBPLACEHOLDER
  5
F
102
{ACAD_REACTORS
330
E
102
}
  0
MLINESTYLE
  5
18
102
{ACAD_REACTORS
330
17
102
}
100
AcDbMlineStyle
  2
STANDARD
 70
0
  3

 62
256
 51
90.0
 52
90.0
 71
2
 49
0.5
 62
256
  6
BYLAYER
 49
-0.5
 62
256
  6
BYLAYER
  0
LAYOUT
  5
599
102
{ACAD_REACTORS
330
1A
102
}
100
AcDbPlotSettings
  1

  2
none_device
  4
ISO_A4_(297.00_x_210.00_MM)
  6

 40
0.0
 41
0.0
 42
0.0
 43
0.0
 44
297.0
 45
210.0
 46
0.0
 47
0.0
 48
0.0
 49
0.0
140
0.0
141
0.0
142
1.0
143
1.0
 70
1024
 72
1
 73
0
 74
0
  7

 75
0
147
1.0
148
0.0
149
0.0
100
AcDbLayout
  1
Model
 70
0
 71
0
 10
0.0
 20
0.0
 11
297.0
 21
210.0
 12
0.0
 22
0.0
 32
0.0
 14
0.0
 24
0.0
 34
0.0
 15
0.0
 25
0.0
 35
0.0
146
0.0
 13
0.0
 23
0.0
 33
0.0
 16
1.0
 26
0.0
 36
0.0
 17
0.0
 27
1.0
 37
0.0
 76
0
330
345
345
0
346
0
  0
LAYOUT
  5
59A
102
{ACAD_REACTORS
330
1A
102
}
100
AcDbPlotSettings
  1

  2
none_device
  4
ISO_A4_(297.00_x_210.00_MM)
  6

 40
0.0
 41
0.0
 42
0.0
 43
0.0
 44
297.0
 45
210.0
 46
0.0
 47
0.0
 48
0.0
 49
0.0
140
0.0
141
0.0
142
1.0
143
1.0
 70
0
 72
1
 73
0
 74
0
  7

 75
0
147
1.0
148
0.0
149
0.0
100
AcDbLayout
  1
Layout1
 70
0
 71
1
 10
0.0
 20
0.0
 11
297.0
 21
210.0
 12
0.0
 22
0.0
 32
0.0
 14
0.0
 24
0.0
 34
0.0
 15
0.0
 25
0.0
 35
0.0
146
0.0
 13
0.0
 23
0.0
 33
0.0
 16
1.0
 26
0.0
 36
0.0
 17
0.0
 27
1.0
 37
0.0
 76
0
330
346
345
0
346
0
  0
ENDSEC
  0
EOF
