  0
SECTION
  2
HEADER
  9
$ACADVER
  1
AC1021
  9
$DWGCODEPAGE
  3
ANSI_1252
  9
$EXTMAX
 10
297.0
 20
210.0
 30
0.0
  9
$EXTMIN
 10
0.0
 20
0.0
 30
0.0
  9
$LIMMIN
 10
0.0
 20
0.0
  9
$LIMMAX
 10
297.0
 20
210.0
  9
$VIEWCTR
 10
148.5
 20
105.0
  9
$VIEWSIZE
 40
210.0
  9
$CLAYER
  8
0
  9
$LTSCALE
 40
16.335
  9
$CELTYPE
  6
BYLAYER
  9
$DIMSCALE
 40
1.0
  9
$DIMASZ
 40
3.0
  9
$DIMEXO
 40
0.5
  9
$DIMDLI
 40
11.286
  9
$DIMEXE
 40
1.5
  9
$DIMCEN
 40
2.673
  9
$DIMLFAC
 40
1.0
  9
$DIMBLK
  1
_FILLED
  9
$DIMALT
 70
0
  9
$DIMALTF
 40
25.4
  9
$DIMTXT
 40
3.0
  9
$DIMTOL
 70
1
  9
$DIMLIM
 70
0
  9
$DIMTFAC
 40
1.0
  9
$DIMTP
 40
0.01
  9
$DIMTM
 40
0.01
  9
$DIMGAP
 40
0.625
  9
$DIMDSEP
 70
44
  9
$AUNITS
 70
0
  9
$PDMODE
 70
3
  9
$PDSIZE
 40
3.0
  9
$HANDSEED
  5
692
  9
$TILEMODE
 70
1
  9
$MEASUREMENT
 70
1
  9
$INSUNITS
 70
4
  0
ENDSEC
  0
SECTION
  2
CLASSES
  0
CLASS
  1
ACDBDICTIONARYWDFLT
  2
AcDbDictionaryWithDefault
  3
AutoCAD 2000
 90
0
 91
1
280
0
281
0
  0
CLASS
  1
ACDBPLACEHOLDER
  2
AcDbPlaceHolder
  3
AutoCAD 2000
 90
0
 91
1
280
0
281
0
  0
CLASS
  1
LAYOUT
  2
AcDbLayout
  3
AutoCAD 2000
 90
0
 91
0
280
0
281
0
  0
ENDSEC
  0
SECTION
  2
TABLES
  0
TABLE
  2
VPORT
  5
8
100
AcDbSymbolTable
 70
2
  0
VPORT
  5
1F4
100
AcDbSymbolTableRecord
100
AcDbViewportTableRecord
  2
*ACTIVE
 70
0
 10
0.0
 20
0.0
 11
1.0
 21
1.0
 12
148.5
 22
105.0
 13
0.0
 23
0.0
 14
1.0
 24
1.0
 15
0.0
 25
0.0
 16
0.0
 26
0.0
 36
1.0
 17
0.0
 27
0.0
 37
0.0
 40
210.0
 41
1.4142857143
 42
50.0
 43
0.0
 44
0.0
 50
0.0
 51
0.0
 71
0
 72
100
 73
1
 74
1
 75
0
 76
0
 77
0
 78
0
  0
ENDTAB
  0
TABLE
  2
LTYPE
  5
5
100
AcDbSymbolTable
 70
6
  0
LTYPE
  5
14
100
AcDbSymbolTableRecord
100
AcDbLinetypeTableRecord
  2
BYBLOCK
 70
0
  3

 72
65
 73
0
 40
0.0
  0
LTYPE
  5
15
100
AcDbSymbolTableRecord
100
AcDbLinetypeTableRecord
  2
BYLAYER
 70
0
  3

 72
65
 73
0
 40
0.0
  0
LTYPE
  5
16
100
AcDbSymbolTableRecord
100
AcDbLinetypeTableRecord
  2
CONTINUOUS
 70
64
  3
Solid line
 72
65
 73
0
 40
0.0
  0
LTYPE
  5
1F5
100
AcDbSymbolTableRecord
100
AcDbLinetypeTableRecord
  2
CENTER
 70
64
  3
____ _ ____ _ ____ _ ____ _ ____ _ ____ _ ____
 72
65
 73
4
 40
0.6
 49
0.375
 74
0
 49
-0.075
 74
0
 49
0.075
 74
0
 49
-0.075
 74
0
  0
LTYPE
  5
1F6
100
AcDbSymbolTableRecord
100
AcDbLinetypeTableRecord
  2
HIDDEN
 70
64
  3
- - - - - - - - - - - - - - - - - - - -
 72
65
 73
2
 40
0.2
 49
0.1
 74
0
 49
-0.1
 74
0
  0
LTYPE
  5
1F7
100
AcDbSymbolTableRecord
100
AcDbLinetypeTableRecord
  2
PHANTOM
 70
64
  3
_____ _ _ _____ _ _ _____ _ _ _____
 72
65
 73
6
 40
0.8
 49
0.45
 74
0
 49
-0.05
 74
0
 49
0.1
 74
0
 49
-0.05
 74
0
 49
0.1
 74
0
 49
-0.05
 74
0
  0
LTYPE
  5
1F8
100
AcDbSymbolTableRecord
100
AcDbLinetypeTableRecord
  2
DOT
 70
64
  3
. . . . . . . . . . . . . . . . . . . .
 72
65
 73
2
 40
0.2
 49
0.1
 74
0
 49
-0.1
 74
0
  0
LTYPE
  5
1F9
100
AcDbSymbolTableRecord
100
AcDbLinetypeTableRecord
  2
DASHED
 70
64
  3
- - - - - - - - - - - - - - - - - - - -
 72
65
 73
2
 40
0.2
 49
0.1
 74
0
 49
-0.1
 74
0
  0
ENDTAB
  0
TABLE
  2
LAYER
  5
2
100
AcDbSymbolTable
 70
36
  0
LAYER
  5
10
100
AcDbSymbolTableRecord
100
AcDbLayerTableRecord
  2
0
 70
0
 62
7
  6
CONTINUOUS
370
-3
390
F
  0
LAYER
  5
1FA
100
AcDbSymbolTableRecord
100
AcDbLayerTableRecord
  2
DEFAULT_1
 70
0
 62
7
  6
CENTER
370
-3
390
F
  0
LAYER
  5
1FB
100
AcDbSymbolTableRecord
100
AcDbLayerTableRecord
  2
DEFAULT_2
 70
0
 62
7
  6
HIDDEN
370
-3
390
F
  0
LAYER
  5
1FC
100
AcDbSymbolTableRecord
100
AcDbLayerTableRecord
  2
DEFAULT_3
 70
0
 62
7
  6
PHANTOM
370
-3
390
F
  0
LAYER
  5
1FD
100
AcDbSymbolTableRecord
100
AcDbLayerTableRecord
  2
ASSI
 70
0
 62
7
  6
CONTINUOUS
370
-3
390
F
  0
LAYER
  5
1FE
100
AcDbSymbolTableRecord
100
AcDbLayerTableRecord
  2
COORDINATE
 70
0
 62
7
  6
CONTINUOUS
370
-3
390
F
  0
LAYER
  5
1FF
100
AcDbSymbolTableRecord
100
AcDbLayerTableRecord
  2
COPY_PUBLISH
 70
0
 62
7
  6
CONTINUOUS
370
-3
390
F
  0
LAYER
  5
200
100
AcDbSymbolTableRecord
100
AcDbLayerTableRecord
  2
COSMETICI
 70
0
 62
7
  6
CONTINUOUS
370
-3
390
F
  0
LAYER
  5
201
100
AcDbSymbolTableRecord
100
AcDbLayerTableRecord
  2
CURVE
 70
0
 62
7
  6
CONTINUOUS
370
-3
390
F
  0
LAYER
  5
202
100
AcDbSymbolTableRecord
100
AcDbLayerTableRecord
  2
DRAFT
 70
0
 62
7
  6
CONTINUOUS
370
-3
390
F
  0
LAYER
  5
203
100
AcDbSymbolTableRecord
100
AcDbLayerTableRecord
  2
IMPORT_IGES
 70
0
 62
7
  6
CONTINUOUS
370
-3
390
F
  0
LAYER
  5
204
100
AcDbSymbolTableRecord
100
AcDbLayerTableRecord
  2
INTF_5
 70
0
 62
7
  6
CONTINUOUS
370
-3
390
F
  0
LAYER
  5
205
100
AcDbSymbolTableRecord
100
AcDbLayerTableRecord
  2
INTF_6
 70
0
 62
7
  6
CONTINUOUS
370
-3
390
F
  0
LAYER
  5
206
100
AcDbSymbolTableRecord
100
AcDbLayerTableRecord
  2
NOTE
 70
0
 62
7
  6
CONTINUOUS
370
-3
390
F
  0
LAYER
  5
207
100
AcDbSymbolTableRecord
100
AcDbLayerTableRecord
  2
PIANI
 70
0
 62
7
  6
CONTINUOUS
370
-3
390
F
  0
LAYER
  5
208
100
AcDbSymbolTableRecord
100
AcDbLayerTableRecord
  2
PUNTI
 70
0
 62
7
  6
CONTINUOUS
370
-3
390
F
  0
LAYER
  5
209
100
AcDbSymbolTableRecord
100
AcDbLayerTableRecord
  2
RACCORDO
 70
0
 62
7
  6
CONTINUOUS
370
-3
390
F
  0
LAYER
  5
20A
100
AcDbSymbolTableRecord
100
AcDbLayerTableRecord
  2
SIMBOLI
 70
0
 62
7
  6
CONTINUOUS
370
-3
390
F
  0
LAYER
  5
20B
100
AcDbSymbolTableRecord
100
AcDbLayerTableRecord
  2
SMUSSO
 70
0
 62
7
  6
CONTINUOUS
370
-3
390
F
  0
LAYER
  5
20C
100
AcDbSymbolTableRecord
100
AcDbLayerTableRecord
  2
SNAPLINE
 70
0
 62
7
  6
CONTINUOUS
370
-3
390
F
  0
LAYER
  5
20D
100
AcDbSymbolTableRecord
100
AcDbLayerTableRecord
  2
SUPERFICI
 70
0
 62
7
  6
CONTINUOUS
370
-3
390
F
  0
LAYER
  5
20E
100
AcDbSymbolTableRecord
100
AcDbLayerTableRecord
  2
TRASH
 70
0
 62
7
  6
CONTINUOUS
370
-3
390
F
  0
ENDTAB
  0
TABLE
  2
STYLE
  5
3
100
AcDbSymbolTable
 70
1
  0
STYLE
  5
11
100
AcDbSymbolTableRecord
100
AcDbTextStyleTableRecord
  2
STANDARD
 70
0
 40
0.0
 41
0.8
 50
0.0
 71
0
 42
0.2
  3
txt
  4

  0
STYLE
  5
20F
100
AcDbSymbolTableRecord
100
AcDbTextStyleTableRecord
  2
TEXTSTYLE_1
 70
0
 40
0.0
 41
0.8
 50
0.0
 71
0
 42
0.2
  3
gdt
  4

  0
ENDTAB
  0
TABLE
  2
VIEW
  5
6
100
AcDbSymbolTable
 70
0
  0
ENDTAB
  0
TABLE
  2
UCS
  5
7
100
AcDbSymbolTable
 70
0
  0
ENDTAB
  0
TABLE
  2
APPID
  5
9
100
AcDbSymbolTable
 70
1
  0
APPID
  5
210
100
AcDbSymbolTableRecord
100
AcDbRegAppTableRecord
  2
ACAD
 70
0
  0
ENDTAB
  0
TABLE
  2
BLOCK_RECORD
  5
1
100
AcDbSymbolTable
 70
0
  0
BLOCK_RECORD
  5
211
100
AcDbSymbolTableRecord
100
AcDbBlockTableRecord
  2
*Model_Space
  0
BLOCK_RECORD
  5
212
100
AcDbSymbolTableRecord
100
AcDbBlockTableRecord
  2
*Paper_Space
  0
ENDTAB
  0
TABLE
  2
DIMSTYLE
  5
A
100
AcDbSymbolTable
 70
1
100
AcDbDimStyleTable
 71
0
  0
DIMSTYLE
105
213
100
AcDbSymbolTableRecord
100
AcDbDimStyleTableRecord
  2
STANDARD
 70
0
  3

  4

 40
1.0
 41
3.0
 42
0.5
 43
0.38
 44
1.5
 45
0.0
 46
0.0
 47
0.01
 48
0.01
140
3.0
141
0.09
142
0.0
143
25.4
144
1.0
145
0.0
146
1.0
147
0.625
 71
1.0
 72
0.0
 73
0
 74
0
 75
0
 76
0
 77
1
 78
8
170
0
171
1
172
0
173
0
174
0
175
0
176
0
177
0
178
0
270
2
271
2
272
2
273
2
274
2
275
0
280
0
281
0
282
0
283
1
284
8
285
0
286
0
287
3
288
0
340
11
278
44
  0
ENDTAB
  0
ENDSEC
  0
SECTION
  2
BLOCKS
  0
BLOCK
  5
20
100
AcDbEntity
  8
0
100
AcDbBlockBegin
  2
*Model_Space
 70
0
 10
0.0
 20
0.0
 30
0.0
  3
*Model_Space
  1

  0
ENDBLK
  5
21
100
AcDbEntity
  8
0
100
AcDbBlockEnd
  0
BLOCK
  5
1C
100
AcDbEntity
  8
0
100
AcDbBlockBegin
  2
*Paper_Space
 70
0
 10
0.0
 20
0.0
 30
0.0
  3
*Paper_Space
  1

  0
ENDBLK
  5
1D
100
AcDbEntity
  8
0
100
AcDbBlockEnd
  0
ENDSEC
  0
SECTION
  2
ENTITIES
  0
LINE
  5
214
100
AcDbEntity
  8
0
100
AcDbLine
 62
7
  6
CONTINUOUS
 10
-34.4250000123
 20
-45.0
 11
34.5749999877
 21
-45.0
  0
LINE
  5
215
100
AcDbEntity
  8
0
100
AcDbLine
 62
7
  6
CONTINUOUS
 10
33.5749999877
 20
-43.5
 11
-33.4250000123
 21
-43.5
  0
LINE
  5
216
100
AcDbEntity
  8
0
100
AcDbLine
 62
7
  6
CONTINUOUS
 10
-31.9250000123
 20
-42.0
 11
32.0749999877
 21
-42.0
  0
LINE
  5
217
100
AcDbEntity
  8
0
100
AcDbLine
 62
7
  6
CONTINUOUS
 10
8.6583339568
 20
-36.9574468099
 11
8.4499999877
 21
-37.0
  0
LINE
  5
218
100
AcDbEntity
  8
0
100
AcDbLine
 62
7
  6
CONTINUOUS
 10
15.0749999877
 20
-39.0
 11
-14.9250000123
 21
-39.0
  0
LINE
  5
219
100
AcDbEntity
  8
0
100
AcDbLine
 62
7
  6
CONTINUOUS
 10
11.4499999877
 20
-37.6808510423
 11
11.1999999877
 21
-37.6808510423
  0
LINE
  5
21A
100
AcDbEntity
  8
0
100
AcDbLine
 62
7
  6
CONTINUOUS
 10
-9.4250000123
 20
-37.0
 11
-9.5916667585
 21
-36.9574468099
  0
LINE
  5
21B
100
AcDbEntity
  8
0
100
AcDbLine
 62
7
  6
CONTINUOUS
 10
-7.6750000123
 20
-37.0
 11
-7.84166652
 21
-36.9574468099
  0
LINE
  5
21C
100
AcDbEntity
  8
0
100
AcDbLine
 62
7
  6
CONTINUOUS
 10
-35.0750000123
 20
15.0
 11
-35.0750000123
 21
9.0
  0
LINE
  5
21D
100
AcDbEntity
  8
0
100
AcDbLine
 62
7
  6
CONTINUOUS
 10
-35.0250000123
 20
16.5
 11
-35.0250000123
 21
-16.5
  0
LINE
  5
21E
100
AcDbEntity
  8
0
100
AcDbLine
 62
7
  6
CONTINUOUS
 10
-34.9250000123
 20
44.5
 11
-34.9250000123
 21
-44.5
  0
LINE
  5
21F
100
AcDbEntity
  8
0
100
AcDbLine
 62
7
  6
CONTINUOUS
 10
8.3666660186
 20
-36.2765957713
 11
8.1999999877
 21
-36.3191489577
  0
LINE
  5
220
100
AcDbEntity
  8
0
100
AcDbLine
 62
7
  6
CONTINUOUS
 10
10.0333339568
 20
-35.8085106611
 11
9.8666660186
 21
-35.8510638475
  0
LINE
  5
221
100
AcDbEntity
  8
0
100
AcDbLine
 62
7
  6
CONTINUOUS
 10
9.8666660186
 20
-35.6808511019
 11
10.0333339568
 21
-35.6382979155
  0
LINE
  5
222
100
AcDbEntity
  8
0
100
AcDbLine
 62
7
  6
CONTINUOUS
 10
8.2833339568
 20
-35.8085106611
 11
8.1166660186
 21
-35.8510638475
  0
LINE
  5
223
100
AcDbEntity
  8
0
100
AcDbLine
 62
7
  6
CONTINUOUS
 10
2.2416669722
 20
-36.7446808517
 11
2.4083330031
 21
-36.7021276653
  0
LINE
  5
224
100
AcDbEntity
  8
0
100
AcDbLine
 62
7
  6
CONTINUOUS
 10
3.8249999877
 20
-35.8085106611
 11
3.6583330031
 21
-35.8510638475
  0
LINE
  5
225
100
AcDbEntity
  8
0
100
AcDbLine
 62
7
  6
CONTINUOUS
 10
1.8666669722
 20
-35.2553191185
 11
1.6999999877
 21
-35.2978723049
  0
LINE
  5
226
100
AcDbEntity
  8
0
100
AcDbLine
 62
7
  6
CONTINUOUS
 10
-1.7166669969
 20
-35.8085106611
 11
-1.8833330278
 21
-35.8510638475
  0
LINE
  5
227
100
AcDbEntity
  8
0
100
AcDbLine
 62
7
  6
CONTINUOUS
 10
-1.8833330278
 20
-35.6808511019
 11
-1.7166669969
 21
-35.6382979155
  0
LINE
  5
228
100
AcDbEntity
  8
0
100
AcDbLine
 62
7
  6
CONTINUOUS
 10
-7.2583335046
 20
-36.9574468099
 11
-7.4250000123
 21
-37.0
  0
LINE
  5
229
100
AcDbEntity
  8
0
100
AcDbLine
 62
7
  6
CONTINUOUS
 10
-7.4250000123
 20
-36.7872340381
 11
-7.2583335046
 21
-36.7446808517
  0
LINE
  5
22A
100
AcDbEntity
  8
0
100
AcDbLine
 62
7
  6
CONTINUOUS
 10
2.4499999877
 20
-36.9574468099
 11
2.2416669722
 21
-37.0
  0
LINE
  5
22B
100
AcDbEntity
  8
0
100
AcDbLine
 62
7
  6
CONTINUOUS
 10
5.3666660186
 20
-35.6808511019
 11
5.5749999877
 21
-35.6382979155
  0
LINE
  5
22C
100
AcDbEntity
  8
0
100
AcDbLine
 62
7
  6
CONTINUOUS
 10
1.6583330031
 20
-35.0425531864
 11
1.8666669722
 21
-35.0
  0
LINE
  5
22D
100
AcDbEntity
  8
0
100
AcDbLine
 62
7
  6
CONTINUOUS
 10
-8.9666667585
 20
-36.9574468099
 11
-9.1750000123
 21
-37.0
  0
LINE
  5
22E
100
AcDbEntity
  8
0
100
AcDbLine
 62
7
  6
CONTINUOUS
 10
8.1166660186
 20
-36.1489361525
 11
8.3666660185
 21
-36.106382966
  0
LINE
  5
22F
100
AcDbEntity
  8
0
100
AcDbLine
 62
7
  6
CONTINUOUS
 10
5.5749999877
 20
-35.8510638475
 11
5.3249999877
 21
-35.893617034
  0
LINE
  5
230
100
AcDbEntity
  8
0
100
AcDbLine
 62
7
  6
CONTINUOUS
 10
3.6166669723
 20
-35.6808511019
 11
3.8666660185
 21
-35.6382979155
  0
LINE
  5
231
100
AcDbEntity
  8
0
100
AcDbLine
 62
7
  6
CONTINUOUS
 10
-6.0500000123
 20
-35.6808511019
 11
-5.8000000123
 21
-35.6382979155
  0
LINE
  5
232
100
AcDbEntity
  8
0
100
AcDbLine
 62
7
  6
CONTINUOUS
 10
-9.5083332662
 20
-36.1489361525
 11
-9.2583332662
 21
-36.106382966
  0
LINE
  5
233
100
AcDbEntity
  8
0
100
AcDbLine
 62
7
  6
CONTINUOUS
 10
4.1583339568
 20
-36.9574468099
 11
3.8666660185
 21
-37.0
  0
LINE
  5
234
100
AcDbEntity
  8
0
100
AcDbLine
 62
7
  6
CONTINUOUS
 10
3.8249999877
 20
-36.8297872394
 11
4.1166660186
 21
-36.7872340381
  0
LINE
  5
235
100
AcDbEntity
  8
0
100
AcDbLine
 62
7
  6
CONTINUOUS
 10
7.9916660186
 20
-35.6808511019
 11
8.2833339568
 21
-35.6382979155
  0
LINE
  5
236
100
AcDbEntity
  8
0
100
AcDbLine
 62
7
  6
CONTINUOUS
 10
-5.5083335046
 20
-36.9574468099
 11
-5.8000000123
 21
-37.0
  0
LINE
  5
237
100
AcDbEntity
  8
0
100
AcDbLine
 62
7
  6
CONTINUOUS
 10
-5.8416665201
 20
-36.8297872394
 11
-5.5500000123
 21
-36.7872340381
  0
LINE
  5
238
100
AcDbEntity
  8
0
100
AcDbLine
 62
7
  6
CONTINUOUS
 10
-9.6333332662
 20
-35.6808511019
 11
-9.3416667585
 21
-35.6382979155
  0
LINE
  5
239
100
AcDbEntity
  8
0
100
AcDbLine
 62
7
  6
CONTINUOUS
 10
10.6166660185
 20
-37.0
 11
10.4083339568
 21
-37.0
  0
LINE
  5
23A
100
AcDbEntity
  8
0
100
AcDbLine
 62
7
  6
CONTINUOUS
 10
9.6583339568
 20
-37.0
 11
9.4499999877
 21
-37.0
  0
LINE
  5
23B
100
AcDbEntity
  8
0
100
AcDbLine
 62
7
  6
CONTINUOUS
 10
9.1166660185
 20
-37.0
 11
8.9083339568
 21
-37.0
  0
LINE
  5
23C
100
AcDbEntity
  8
0
100
AcDbLine
 62
7
  6
CONTINUOUS
 10
8.4499999877
 20
-37.0
 11
8.1999999877
 21
-37.0
  0
LINE
  5
23D
100
AcDbEntity
  8
0
100
AcDbLine
 62
7
  6
CONTINUOUS
 10
7.4499999877
 20
-37.0
 11
7.2416660185
 21
-37.0
  0
LINE
  5
23E
100
AcDbEntity
  8
0
100
AcDbLine
 62
7
  6
CONTINUOUS
 10
6.7833339568
 20
-37.0
 11
6.5749999877
 21
-37.0
  0
LINE
  5
23F
100
AcDbEntity
  8
0
100
AcDbLine
 62
7
  6
CONTINUOUS
 10
6.1166660185
 20
-37.0
 11
5.9083339568
 21
-37.0
  0
LINE
  5
240
100
AcDbEntity
  8
0
100
AcDbLine
 62
7
  6
CONTINUOUS
 10
5.0333339568
 20
-37.0
 11
4.8249999877
 21
-37.0
  0
LINE
  5
241
100
AcDbEntity
  8
0
100
AcDbLine
 62
7
  6
CONTINUOUS
 10
2.2416669722
 20
-37.0
 11
1.8666669722
 21
-37.0
  0
LINE
  5
242
100
AcDbEntity
  8
0
100
AcDbLine
 62
7
  6
CONTINUOUS
 10
-1.1333330278
 20
-37.0
 11
-1.3416669969
 21
-37.0
  0
LINE
  5
243
100
AcDbEntity
  8
0
100
AcDbLine
 62
7
  6
CONTINUOUS
 10
-2.0916669969
 20
-37.0
 11
-2.3000000123
 21
-37.0
  0
LINE
  5
244
100
AcDbEntity
  8
0
100
AcDbLine
 62
7
  6
CONTINUOUS
 10
-2.6333330278
 20
-37.0
 11
-2.8416669969
 21
-37.0
  0
LINE
  5
245
100
AcDbEntity
  8
0
100
AcDbLine
 62
7
  6
CONTINUOUS
 10
-6.8416665201
 20
-37.0
 11
-7.0500000123
 21
-37.0
  0
LINE
  5
246
100
AcDbEntity
  8
0
100
AcDbLine
 62
7
  6
CONTINUOUS
 10
-7.4250000123
 20
-37.0
 11
-7.6750000123
 21
-37.0
  0
LINE
  5
247
100
AcDbEntity
  8
0
100
AcDbLine
 62
7
  6
CONTINUOUS
 10
-8.5083332662
 20
-37.0
 11
-8.7166667585
 21
-37.0
  0
LINE
  5
248
100
AcDbEntity
  8
0
100
AcDbLine
 62
7
  6
CONTINUOUS
 10
-9.1750000123
 20
-37.0
 11
-9.4250000123
 21
-37.0
  0
LINE
  5
249
100
AcDbEntity
  8
0
100
AcDbLine
 62
7
  6
CONTINUOUS
 10
-10.1750000123
 20
-37.0
 11
-10.4250000123
 21
-37.0
  0
LINE
  5
24A
100
AcDbEntity
  8
0
100
AcDbLine
 62
7
  6
CONTINUOUS
 10
-11.0083333854
 20
-37.0
 11
-11.3416666989
 21
-37.0
  0
LINE
  5
24B
100
AcDbEntity
  8
0
100
AcDbLine
 62
7
  6
CONTINUOUS
 10
-11.9250000123
 20
-37.0
 11
-12.1750000123
 21
-37.0
  0
LINE
  5
24C
100
AcDbEntity
  8
0
100
AcDbLine
 62
7
  6
CONTINUOUS
 10
-9.4250000123
 20
-36.8297872394
 11
-9.1750000123
 21
-36.8297872394
  0
LINE
  5
24D
100
AcDbEntity
  8
0
100
AcDbLine
 62
7
  6
CONTINUOUS
 10
8.1999999877
 20
-36.8297872394
 11
8.4499999877
 21
-36.8297872394
  0
LINE
  5
24E
100
AcDbEntity
  8
0
100
AcDbLine
 62
7
  6
CONTINUOUS
 10
-7.5916665201
 20
-36.7872340381
 11
-7.4250000123
 21
-36.7872340381
  0
LINE
  5
24F
100
AcDbEntity
  8
0
100
AcDbLine
 62
7
  6
CONTINUOUS
 10
1.8666669722
 20
-36.7446808517
 11
2.2416669722
 21
-36.7446808517
  0
LINE
  5
250
100
AcDbEntity
  8
0
100
AcDbLine
 62
7
  6
CONTINUOUS
 10
-5.3833335046
 20
-36.5744680762
 11
-5.1750000123
 21
-36.5744680762
  0
LINE
  5
251
100
AcDbEntity
  8
0
100
AcDbLine
 62
7
  6
CONTINUOUS
 10
4.2833339568
 20
-36.5744680762
 11
4.4916660186
 21
-36.5744680762
  0
LINE
  5
252
100
AcDbEntity
  8
0
100
AcDbLine
 62
7
  6
CONTINUOUS
 10
4.4916660185
 20
-36.3191489577
 11
3.3666669722
 21
-36.3191489577
  0
LINE
  5
253
100
AcDbEntity
  8
0
100
AcDbLine
 62
7
  6
CONTINUOUS
 10
-5.1750000123
 20
-36.3191489577
 11
-6.3000000123
 21
-36.3191489577
  0
LINE
  5
254
100
AcDbEntity
  8
0
100
AcDbLine
 62
7
  6
CONTINUOUS
 10
8.8249999877
 20
-36.2765957713
 11
8.3666660186
 21
-36.2765957713
  0
LINE
  5
255
100
AcDbEntity
  8
0
100
AcDbLine
 62
7
  6
CONTINUOUS
 10
-8.8000000123
 20
-36.2765957713
 11
-9.2583332662
 21
-36.2765957713
  0
LINE
  5
256
100
AcDbEntity
  8
0
100
AcDbLine
 62
7
  6
CONTINUOUS
 10
-6.2583335046
 20
-36.1489361525
 11
-5.3833335046
 21
-36.1489361525
  0
LINE
  5
257
100
AcDbEntity
  8
0
100
AcDbLine
 62
7
  6
CONTINUOUS
 10
2.5749999877
 20
-36.1489361525
 11
2.1999999877
 21
-36.1489361525
  0
LINE
  5
258
100
AcDbEntity
  8
0
100
AcDbLine
 62
7
  6
CONTINUOUS
 10
3.4083330031
 20
-36.1489361525
 11
4.2833339568
 21
-36.1489361525
  0
LINE
  5
259
100
AcDbEntity
  8
0
100
AcDbLine
 62
7
  6
CONTINUOUS
 10
-9.2583332662
 20
-36.106382966
 11
-8.8000000123
 21
-36.106382966
  0
LINE
  5
25A
100
AcDbEntity
  8
0
100
AcDbLine
 62
7
  6
CONTINUOUS
 10
8.3666660185
 20
-36.106382966
 11
8.8249999877
 21
-36.106382966
  0
LINE
  5
25B
100
AcDbEntity
  8
0
100
AcDbLine
 62
7
  6
CONTINUOUS
 10
-33.4250000123
 20
-36.0
 11
-31.9250000123
 21
-36.0
  0
LINE
  5
25C
100
AcDbEntity
  8
0
100
AcDbLine
 62
7
  6
CONTINUOUS
 10
33.5749999877
 20
-36.0
 11
32.0749999877
 21
-36.0
  0
LINE
  5
25D
100
AcDbEntity
  8
0
100
AcDbLine
 62
7
  6
CONTINUOUS
 10
7.9916660185
 20
-35.9787234068
 11
7.7833339568
 21
-35.9787234068
  0
LINE
  5
25E
100
AcDbEntity
  8
0
100
AcDbLine
 62
7
  6
CONTINUOUS
 10
-9.6333332662
 20
-35.9787234068
 11
-9.8416667585
 21
-35.9787234068
  0
LINE
  5
25F
100
AcDbEntity
  8
0
100
AcDbLine
 62
7
  6
CONTINUOUS
 10
2.1999999877
 20
-35.893617034
 11
2.8249999877
 21
-35.893617034
  0
LINE
  5
260
100
AcDbEntity
  8
0
100
AcDbLine
 62
7
  6
CONTINUOUS
 10
-7.4250000123
 20
-35.8510638475
 11
-7.6750000123
 21
-35.8510638475
  0
LINE
  5
261
100
AcDbEntity
  8
0
100
AcDbLine
 62
7
  6
CONTINUOUS
 10
8.5333339568
 20
-35.8085106611
 11
8.2833339568
 21
-35.8085106611
  0
LINE
  5
262
100
AcDbEntity
  8
0
100
AcDbLine
 62
7
  6
CONTINUOUS
 10
7.0749999877
 20
-35.8085106611
 11
6.9499999877
 21
-35.8085106611
  0
LINE
  5
263
100
AcDbEntity
  8
0
100
AcDbLine
 62
7
  6
CONTINUOUS
 10
6.4083339568
 20
-35.8085106611
 11
6.3249999877
 21
-35.8085106611
  0
LINE
  5
264
100
AcDbEntity
  8
0
100
AcDbLine
 62
7
  6
CONTINUOUS
 10
-9.0916667585
 20
-35.8085106611
 11
-9.3416667585
 21
-35.8085106611
  0
LINE
  5
265
100
AcDbEntity
  8
0
100
AcDbLine
 62
7
  6
CONTINUOUS
 10
-9.3416667585
 20
-35.6382979155
 11
-9.0916667585
 21
-35.6382979155
  0
LINE
  5
266
100
AcDbEntity
  8
0
100
AcDbLine
 62
7
  6
CONTINUOUS
 10
-7.6750000123
 20
-35.6382979155
 11
-7.4250000123
 21
-35.6382979155
  0
LINE
  5
267
100
AcDbEntity
  8
0
100
AcDbLine
 62
7
  6
CONTINUOUS
 10
-2.8416669969
 20
-35.6382979155
 11
-2.6333330278
 21
-35.6382979155
  0
LINE
  5
268
100
AcDbEntity
  8
0
100
AcDbLine
 62
7
  6
CONTINUOUS
 10
-2.3000000123
 20
-35.6382979155
 11
-2.0916669969
 21
-35.6382979155
  0
LINE
  5
269
100
AcDbEntity
  8
0
100
AcDbLine
 62
7
  6
CONTINUOUS
 10
-1.7166669969
 20
-35.6382979155
 11
-1.5500000123
 21
-35.6382979155
  0
LINE
  5
26A
100
AcDbEntity
  8
0
100
AcDbLine
 62
7
  6
CONTINUOUS
 10
4.8249999877
 20
-35.6382979155
 11
5.0333339568
 21
-35.6382979155
  0
LINE
  5
26B
100
AcDbEntity
  8
0
100
AcDbLine
 62
7
  6
CONTINUOUS
 10
5.9083339568
 20
-35.6382979155
 11
6.1166660185
 21
-35.6382979155
  0
LINE
  5
26C
100
AcDbEntity
  8
0
100
AcDbLine
 62
7
  6
CONTINUOUS
 10
6.3249999877
 20
-35.6382979155
 11
6.4916660185
 21
-35.6382979155
  0
LINE
  5
26D
100
AcDbEntity
  8
0
100
AcDbLine
 62
7
  6
CONTINUOUS
 10
6.9916660185
 20
-35.6382979155
 11
7.1583339568
 21
-35.6382979155
  0
LINE
  5
26E
100
AcDbEntity
  8
0
100
AcDbLine
 62
7
  6
CONTINUOUS
 10
8.2833339568
 20
-35.6382979155
 11
8.5333339568
 21
-35.6382979155
  0
LINE
  5
26F
100
AcDbEntity
  8
0
100
AcDbLine
 62
7
  6
CONTINUOUS
 10
9.4499999877
 20
-35.6382979155
 11
9.6583339568
 21
-35.6382979155
  0
LINE
  5
270
100
AcDbEntity
  8
0
100
AcDbLine
 62
7
  6
CONTINUOUS
 10
10.0333339568
 20
-35.6382979155
 11
10.1999999877
 21
-35.6382979155
  0
LINE
  5
271
100
AcDbEntity
  8
0
100
AcDbLine
 62
7
  6
CONTINUOUS
 10
10.9499999877
 20
-35.6382979155
 11
11.1999999877
 21
-35.6382979155
  0
LINE
  5
272
100
AcDbEntity
  8
0
100
AcDbLine
 62
7
  6
CONTINUOUS
 10
12.0333339568
 20
-35.6382979155
 11
12.2833339568
 21
-35.6382979155
  0
LINE
  5
273
100
AcDbEntity
  8
0
100
AcDbLine
 62
7
  6
CONTINUOUS
 10
2.8249999877
 20
-35.5106383562
 11
2.5749999877
 21
-35.5106383562
  0
LINE
  5
274
100
AcDbEntity
  8
0
100
AcDbLine
 62
7
  6
CONTINUOUS
 10
2.2416669722
 20
-35.2553191185
 11
1.8666669722
 21
-35.2553191185
  0
LINE
  5
275
100
AcDbEntity
  8
0
100
AcDbLine
 62
7
  6
CONTINUOUS
 10
-2.6333330278
 20
-35.2127659321
 11
-2.8416669969
 21
-35.2127659321
  0
LINE
  5
276
100
AcDbEntity
  8
0
100
AcDbLine
 62
7
  6
CONTINUOUS
 10
-12.1750000123
 20
-35.0
 11
-11.8000000123
 21
-35.0
  0
LINE
  5
277
100
AcDbEntity
  8
0
100
AcDbLine
 62
7
  6
CONTINUOUS
 10
-10.5500000123
 20
-35.0
 11
-10.1750000123
 21
-35.0
  0
LINE
  5
278
100
AcDbEntity
  8
0
100
AcDbLine
 62
7
  6
CONTINUOUS
 10
-7.0500000123
 20
-35.0
 11
-6.8416665201
 21
-35.0
  0
LINE
  5
279
100
AcDbEntity
  8
0
100
AcDbLine
 62
7
  6
CONTINUOUS
 10
-2.8416669969
 20
-35.0
 11
-2.6333330278
 21
-35.0
  0
LINE
  5
27A
100
AcDbEntity
  8
0
100
AcDbLine
 62
7
  6
CONTINUOUS
 10
1.8666669722
 20
-35.0
 11
2.2416669722
 21
-35.0
  0
LINE
  5
27B
100
AcDbEntity
  8
0
100
AcDbLine
 62
7
  6
CONTINUOUS
 10
-5.8000000123
 20
-37.0
 11
-6.0500000123
 21
-36.9574468099
  0
LINE
  5
27C
100
AcDbEntity
  8
0
100
AcDbLine
 62
7
  6
CONTINUOUS
 10
-9.0916667585
 20
-35.6382979155
 11
-8.8416667585
 21
-35.6808511019
  0
LINE
  5
27D
100
AcDbEntity
  8
0
100
AcDbLine
 62
7
  6
CONTINUOUS
 10
-5.59166652
 20
-35.8510638475
 11
-5.8416665201
 21
-35.8085106611
  0
LINE
  5
27E
100
AcDbEntity
  8
0
100
AcDbLine
 62
7
  6
CONTINUOUS
 10
-5.8000000123
 20
-35.6382979155
 11
-5.5500000123
 21
-35.6808511019
  0
LINE
  5
27F
100
AcDbEntity
  8
0
100
AcDbLine
 62
7
  6
CONTINUOUS
 10
3.8666660185
 20
-37.0
 11
3.6166669722
 21
-36.9574468099
  0
LINE
  5
280
100
AcDbEntity
  8
0
100
AcDbLine
 62
7
  6
CONTINUOUS
 10
4.0749999877
 20
-35.8510638475
 11
3.8249999877
 21
-35.8085106611
  0
LINE
  5
281
100
AcDbEntity
  8
0
100
AcDbLine
 62
7
  6
CONTINUOUS
 10
3.8666660185
 20
-35.6382979155
 11
4.1166660186
 21
-35.6808511019
  0
LINE
  5
282
100
AcDbEntity
  8
0
100
AcDbLine
 62
7
  6
CONTINUOUS
 10
1.8666669722
 20
-37.0
 11
1.6583330031
 21
-36.9574468099
  0
LINE
  5
283
100
AcDbEntity
  8
0
100
AcDbLine
 62
7
  6
CONTINUOUS
 10
2.2416669722
 20
-35.0
 11
2.4499999877
 21
-35.0425531864
  0
LINE
  5
284
100
AcDbEntity
  8
0
100
AcDbLine
 62
7
  6
CONTINUOUS
 10
-7.7583335046
 20
-36.7446808517
 11
-7.5916665201
 21
-36.7872340381
  0
LINE
  5
285
100
AcDbEntity
  8
0
100
AcDbLine
 62
7
  6
CONTINUOUS
 10
-6.0083335046
 20
-36.7872340381
 11
-5.8416665201
 21
-36.8297872394
  0
LINE
  5
286
100
AcDbEntity
  8
0
100
AcDbLine
 62
7
  6
CONTINUOUS
 10
-8.9250000123
 20
-35.8510638476
 11
-9.0916667585
 21
-35.8085106611
  0
LINE
  5
287
100
AcDbEntity
  8
0
100
AcDbLine
 62
7
  6
CONTINUOUS
 10
-7.2583335046
 20
-35.893617034
 11
-7.4250000123
 21
-35.8510638475
  0
LINE
  5
288
100
AcDbEntity
  8
0
100
AcDbLine
 62
7
  6
CONTINUOUS
 10
-7.4250000123
 20
-35.6382979155
 11
-7.2583335046
 21
-35.6808511019
  0
LINE
  5
289
100
AcDbEntity
  8
0
100
AcDbLine
 62
7
  6
CONTINUOUS
 10
1.6999999877
 20
-36.7021276653
 11
1.8666669722
 21
-36.7446808517
  0
LINE
  5
28A
100
AcDbEntity
  8
0
100
AcDbLine
 62
7
  6
CONTINUOUS
 10
-1.5500000123
 20
-35.8510638476
 11
-1.7166669969
 21
-35.8085106611
  0
LINE
  5
28B
100
AcDbEntity
  8
0
100
AcDbLine
 62
7
  6
CONTINUOUS
 10
3.6583330031
 20
-36.7872340381
 11
3.8249999877
 21
-36.8297872394
  0
LINE
  5
28C
100
AcDbEntity
  8
0
100
AcDbLine
 62
7
  6
CONTINUOUS
 10
8.1999999877
 20
-37.0
 11
8.0333339568
 21
-36.9574468099
  0
LINE
  5
28D
100
AcDbEntity
  8
0
100
AcDbLine
 62
7
  6
CONTINUOUS
 10
-6.0500000123
 20
-36.9574468099
 11
-6.1750000123
 21
-36.9148936197
  0
LINE
  5
28E
100
AcDbEntity
  8
0
100
AcDbLine
 62
7
  6
CONTINUOUS
 10
-1.5500000123
 20
-35.6382979155
 11
-1.4250000123
 21
-35.6808511019
  0
LINE
  5
28F
100
AcDbEntity
  8
0
100
AcDbLine
 62
7
  6
CONTINUOUS
 10
3.6166669722
 20
-36.9574468099
 11
3.4916669722
 21
-36.9148936197
  0
LINE
  5
290
100
AcDbEntity
  8
0
100
AcDbLine
 62
7
  6
CONTINUOUS
 10
-9.5916667585
 20
-36.9574468099
 11
-9.6750000123
 21
-36.9148936197
  0
LINE
  5
291
100
AcDbEntity
  8
0
100
AcDbLine
 62
7
  6
CONTINUOUS
 10
-9.5916667585
 20
-36.7446808517
 11
-9.4250000123
 21
-36.8297872394
  0
LINE
  5
292
100
AcDbEntity
  8
0
100
AcDbLine
 62
7
  6
CONTINUOUS
 10
-8.8416667585
 20
-35.893617034
 11
-8.9250000123
 21
-35.8510638476
  0
LINE
  5
293
100
AcDbEntity
  8
0
100
AcDbLine
 62
7
  6
CONTINUOUS
 10
-6.0916665201
 20
-36.7446808517
 11
-6.0083335046
 21
-36.7872340381
  0
LINE
  5
294
100
AcDbEntity
  8
0
100
AcDbLine
 62
7
  6
CONTINUOUS
 10
-7.2583335046
 20
-35.6808511019
 11
-7.1750000123
 21
-35.7234042883
  0
LINE
  5
295
100
AcDbEntity
  8
0
100
AcDbLine
 62
7
  6
CONTINUOUS
 10
-7.84166652
 20
-36.9574468099
 11
-7.9666665201
 21
-36.8723404258
  0
LINE
  5
296
100
AcDbEntity
  8
0
100
AcDbLine
 62
7
  6
CONTINUOUS
 10
-7.8833335046
 20
-36.6595744789
 11
-7.7583335046
 21
-36.7446808517
  0
LINE
  5
297
100
AcDbEntity
  8
0
100
AcDbLine
 62
7
  6
CONTINUOUS
 10
-8.8416667585
 20
-35.6808511019
 11
-8.7166667585
 21
-35.7659574747
  0
LINE
  5
298
100
AcDbEntity
  8
0
100
AcDbLine
 62
7
  6
CONTINUOUS
 10
-6.1750000123
 20
-36.9148936197
 11
-6.3000000123
 21
-36.8297872394
  0
LINE
  5
299
100
AcDbEntity
  8
0
100
AcDbLine
 62
7
  6
CONTINUOUS
 10
-7.1333335046
 20
-35.9787234068
 11
-7.2583335046
 21
-35.893617034
  0
LINE
  5
29A
100
AcDbEntity
  8
0
100
AcDbLine
 62
7
  6
CONTINUOUS
 10
-33.4250000123
 20
30.3
 11
-33.4250000123
 21
23.7
  0
LINE
  5
29B
100
AcDbEntity
  8
0
100
AcDbLine
 62
7
  6
CONTINUOUS
 10
-33.4250000123
 20
-32.3
 11
-33.4250000123
 21
-25.7
  0
LINE
  5
29C
100
AcDbEntity
  8
0
100
AcDbLine
 62
7
  6
CONTINUOUS
 10
-33.4250000123
 20
-19.5
 11
-33.4250000123
 21
-22.0
  0
LINE
  5
29D
100
AcDbEntity
  8
0
100
AcDbLine
 62
7
  6
CONTINUOUS
 10
-33.4250000123
 20
-36.0
 11
-33.4250000123
 21
-43.5
  0
LINE
  5
29E
100
AcDbEntity
  8
0
100
AcDbLine
 62
7
  6
CONTINUOUS
 10
-33.4250000123
 20
34.0
 11
-33.4250000123
 21
43.5
  0
LINE
  5
29F
100
AcDbEntity
  8
0
100
AcDbLine
 62
7
  6
CONTINUOUS
 10
-31.9250000123
 20
42.0
 11
-31.9250000123
 21
34.0
  0
LINE
  5
2A0
100
AcDbEntity
  8
0
100
AcDbLine
 62
7
  6
CONTINUOUS
 10
-31.9250000123
 20
-32.3
 11
-31.9250000123
 21
-25.7
  0
LINE
  5
2A1
100
AcDbEntity
  8
0
100
AcDbLine
 62
7
  6
CONTINUOUS
 10
-31.9250000123
 20
-19.5
 11
-31.9250000123
 21
-22.0
  0
LINE
  5
2A2
100
AcDbEntity
  8
0
100
AcDbLine
 62
7
  6
CONTINUOUS
 10
-31.9250000123
 20
-36.0
 11
-31.9250000123
 21
-42.0
  0
LINE
  5
2A3
100
AcDbEntity
  8
0
100
AcDbLine
 62
7
  6
CONTINUOUS
 10
-31.9250000123
 20
23.7
 11
-31.9250000123
 21
30.3
  0
LINE
  5
2A4
100
AcDbEntity
  8
0
100
AcDbLine
 62
7
  6
CONTINUOUS
 10
-5.8416665201
 20
-35.8085106611
 11
-6.0083335046
 21
-35.8510638475
  0
LINE
  5
2A5
100
AcDbEntity
  8
0
100
AcDbLine
 62
7
  6
CONTINUOUS
 10
-9.2583332662
 20
-36.2765957713
 11
-9.4250000123
 21
-36.3191489577
  0
LINE
  5
2A6
100
AcDbEntity
  8
0
100
AcDbLine
 62
7
  6
CONTINUOUS
 10
-7.84166652
 20
-35.6808511019
 11
-7.6750000123
 21
-35.6382979155
  0
LINE
  5
2A7
100
AcDbEntity
  8
0
100
AcDbLine
 62
7
  6
CONTINUOUS
 10
-9.3416667585
 20
-35.8085106611
 11
-9.5083332662
 21
-35.8510638475
  0
LINE
  5
2A8
100
AcDbEntity
  8
0
100
AcDbLine
 62
7
  6
CONTINUOUS
 10
-33.4250000123
 20
-32.3
 11
-31.9250000123
 21
-32.3
  0
LINE
  5
2A9
100
AcDbEntity
  8
0
100
AcDbLine
 62
7
  6
CONTINUOUS
 10
33.5749999877
 20
-32.3
 11
32.0749999877
 21
-32.3
  0
LINE
  5
2AA
100
AcDbEntity
  8
0
100
AcDbLine
 62
7
  6
CONTINUOUS
 10
0.4916669722
 20
-30.2553191483
 11
0.3249999877
 21
-30.2553191483
  0
LINE
  5
2AB
100
AcDbEntity
  8
0
100
AcDbLine
 62
7
  6
CONTINUOUS
 10
-2.8416669969
 20
-30.2553191483
 11
-3.0083330278
 21
-30.2553191483
  0
LINE
  5
2AC
100
AcDbEntity
  8
0
100
AcDbLine
 62
7
  6
CONTINUOUS
 10
-0.4250000123
 20
-30.0
 11
-0.6750000123
 21
-30.0
  0
LINE
  5
2AD
100
AcDbEntity
  8
0
100
AcDbLine
 62
7
  6
CONTINUOUS
 10
-2.0083330278
 20
-30.0
 11
-2.2583330278
 21
-30.0
  0
LINE
  5
2AE
100
AcDbEntity
  8
0
100
AcDbLine
 62
7
  6
CONTINUOUS
 10
-3.5500000123
 20
-30.0
 11
-3.8416669969
 21
-30.0
  0
LINE
  5
2AF
100
AcDbEntity
  8
0
100
AcDbLine
 62
7
  6
CONTINUOUS
 10
-4.8833330278
 20
-30.0
 11
-5.1333335046
 21
-30.0
  0
LINE
  5
2B0
100
AcDbEntity
  8
0
100
AcDbLine
 62
7
  6
CONTINUOUS
 10
-6.7166665201
 20
-30.0
 11
-6.9666665201
 21
-30.0
  0
LINE
  5
2B1
100
AcDbEntity
  8
0
100
AcDbLine
 62
7
  6
CONTINUOUS
 10
-8.8000000123
 20
-30.0
 11
-9.1750000123
 21
-30.0
  0
LINE
  5
2B2
100
AcDbEntity
  8
0
100
AcDbLine
 62
7
  6
CONTINUOUS
 10
-11.4666666393
 20
-30.0
 11
-11.7166666393
 21
-30.0
  0
LINE
  5
2B3
100
AcDbEntity
  8
0
100
AcDbLine
 62
7
  6
CONTINUOUS
 10
8.5333339568
 20
-35.6382979155
 11
8.7833339568
 21
-35.6808511019
  0
LINE
  5
2B4
100
AcDbEntity
  8
0
100
AcDbLine
 62
7
  6
CONTINUOUS
 10
-9.1750000123
 20
-30.0
 11
-9.3833332662
 21
-29.9574468099
  0
LINE
  5
2B5
100
AcDbEntity
  8
0
100
AcDbLine
 62
7
  6
CONTINUOUS
 10
2.4083330031
 20
-35.2978723049
 11
2.2416669722
 21
-35.2553191185
  0
LINE
  5
2B6
100
AcDbEntity
  8
0
100
AcDbLine
 62
7
  6
CONTINUOUS
 10
8.6999999877
 20
-35.8510638476
 11
8.5333339568
 21
-35.8085106611
  0
LINE
  5
2B7
100
AcDbEntity
  8
0
100
AcDbLine
 62
7
  6
CONTINUOUS
 10
10.1999999877
 20
-35.8510638476
 11
10.0333339568
 21
-35.8085106611
  0
LINE
  5
2B8
100
AcDbEntity
  8
0
100
AcDbLine
 62
7
  6
CONTINUOUS
 10
-9.3416667585
 20
-29.7021276653
 11
-9.1750000123
 21
-29.7446808517
  0
LINE
  5
2B9
100
AcDbEntity
  8
0
100
AcDbLine
 62
7
  6
CONTINUOUS
 10
6.4916660185
 20
-35.6382979155
 11
6.6166660185
 21
-35.6808511019
  0
LINE
  5
2BA
100
AcDbEntity
  8
0
100
AcDbLine
 62
7
  6
CONTINUOUS
 10
7.1583339568
 20
-35.6382979155
 11
7.2833339568
 21
-35.6808511019
  0
LINE
  5
2BB
100
AcDbEntity
  8
0
100
AcDbLine
 62
7
  6
CONTINUOUS
 10
10.1999999877
 20
-35.6382979155
 11
10.3249999877
 21
-35.6808511019
  0
LINE
  5
2BC
100
AcDbEntity
  8
0
100
AcDbLine
 62
7
  6
CONTINUOUS
 10
-10.5500000123
 20
-28.2553191185
 11
-10.6750000123
 21
-28.2127659321
  0
LINE
  5
2BD
100
AcDbEntity
  8
0
100
AcDbLine
 62
7
  6
CONTINUOUS
 10
-1.4666669969
 20
-35.893617034
 11
-1.5500000123
 21
-35.8510638476
  0
LINE
  5
2BE
100
AcDbEntity
  8
0
100
AcDbLine
 62
7
  6
CONTINUOUS
 10
1.6583330031
 20
-36.9574468099
 11
1.4916669722
 21
-36.8723404259
  0
LINE
  5
2BF
100
AcDbEntity
  8
0
100
AcDbLine
 62
7
  6
CONTINUOUS
 10
-12.3416666989
 20
-28.9787234068
 11
-12.9250000123
 21
-28.6808511019
  0
LINE
  5
2C0
100
AcDbEntity
  8
0
100
AcDbLine
 62
7
  6
CONTINUOUS
 10
3.5749999877
 20
-36.7446808517
 11
3.6583330031
 21
-36.7872340381
  0
LINE
  5
2C1
100
AcDbEntity
  8
0
100
AcDbLine
 62
7
  6
CONTINUOUS
 10
-9.3833332662
 20
-29.9574468099
 11
-9.5500000123
 21
-29.8723404259
  0
LINE
  5
2C2
100
AcDbEntity
  8
0
100
AcDbLine
 62
7
  6
CONTINUOUS
 10
2.4499999877
 20
-35.0425531864
 11
2.6166669722
 21
-35.1276595592
  0
LINE
  5
2C3
100
AcDbEntity
  8
0
100
AcDbLine
 62
7
  6
CONTINUOUS
 10
-12.8416666765
 20
-28.5531915426
 11
-12.0500000123
 21
-28.9787234068
  0
LINE
  5
2C4
100
AcDbEntity
  8
0
100
AcDbLine
 62
7
  6
CONTINUOUS
 10
-5.5500000123
 20
-35.6808511019
 11
-5.34166652
 21
-35.8085106611
  0
LINE
  5
2C5
100
AcDbEntity
  8
0
100
AcDbLine
 62
7
  6
CONTINUOUS
 10
-5.4666665201
 20
-35.9361702204
 11
-5.59166652
 21
-35.8510638475
  0
LINE
  5
2C6
100
AcDbEntity
  8
0
100
AcDbLine
 62
7
  6
CONTINUOUS
 10
-1.4250000123
 20
-35.6808511019
 11
-1.3000000123
 21
-35.7659574747
  0
LINE
  5
2C7
100
AcDbEntity
  8
0
100
AcDbLine
 62
7
  6
CONTINUOUS
 10
-9.6750000123
 20
-36.9148936197
 11
-9.8000000123
 21
-36.7872340381
  0
LINE
  5
2C8
100
AcDbEntity
  8
0
100
AcDbLine
 62
7
  6
CONTINUOUS
 10
-7.9666665201
 20
-36.8723404258
 11
-8.09166652
 21
-36.7446808517
  0
LINE
  5
2C9
100
AcDbEntity
  8
0
100
AcDbLine
 62
7
  6
CONTINUOUS
 10
-8.7166667585
 20
-35.7659574747
 11
-8.6333332662
 21
-35.8510638475
  0
LINE
  5
2CA
100
AcDbEntity
  8
0
100
AcDbLine
 62
7
  6
CONTINUOUS
 10
-6.3000000123
 20
-36.8297872394
 11
-6.3833335046
 21
-36.7446808517
  0
LINE
  5
2CB
100
AcDbEntity
  8
0
100
AcDbLine
 62
7
  6
CONTINUOUS
 10
-7.1750000123
 20
-35.7234042883
 11
-7.09166652
 21
-35.8085106611
  0
LINE
  5
2CC
100
AcDbEntity
  8
0
100
AcDbLine
 62
7
  6
CONTINUOUS
 10
-6.2166665201
 20
-36.6170212626
 11
-6.0916665201
 21
-36.7446808517
  0
LINE
  5
2CD
100
AcDbEntity
  8
0
100
AcDbLine
 62
7
  6
CONTINUOUS
 10
-26.9250000123
 20
-17.5
 11
-26.9250000123
 21
-16.5
  0
LINE
  5
2CE
100
AcDbEntity
  8
0
100
AcDbLine
 62
7
  6
CONTINUOUS
 10
-26.9250000123
 20
15.4
 11
-26.9250000123
 21
20.0
  0
LWPOLYLINE
  5
2CF
100
AcDbEntity
  8
0
100
AcDbPolyline
 62
7
  6
CONTINUOUS
 90
22
 70
0
 10
-1.6368516699
 20
30.9218401891
 10
-1.637929206
 20
30.9213280231
 10
-1.6378894202
 20
30.9213371586
 10
-1.6346519532
 20
30.9226600883
 10
-1.6287267281
 20
30.9249120459
 10
-1.6200775549
 20
30.9279827848
 10
-1.6086214845
 20
30.9317927253
 10
-1.5949015622
 20
30.9360820062
 10
-1.5790023146
 20
30.940774406
 10
-1.5608060891
 20
30.9458610745
 10
-1.5405728404
 20
30.9512346066
 10
-1.5183306594
 20
30.9568630438
 10
-1.4940394883
 20
30.9627348582
 10
-1.4678539186
 20
30.9687954244
 10
-1.4397930887
 20
30.9750276367
 10
-1.4098360093
 20
30.9814249072
 10
-1.3780726841
 20
30.9879588672
 10
-1.3445161108
 20
30.9946206257
 10
-1.3091748019
 20
31.0014045657
 10
-1.2721302514
 20
31.0082925994
 10
-1.2334034064
 20
31.0152796364
 10
-1.1930124182
 20
31.0223617612
  0
LWPOLYLINE
  5
2D0
100
AcDbEntity
  8
0
100
AcDbPolyline
 62
7
  6
CONTINUOUS
 90
22
 70
0
 10
1.7879912864
 20
30.8787027798
 10
1.7885643602
 20
30.8789676894
 10
1.7871082659
 20
30.8783499304
 10
1.7822164692
 20
30.8764158807
 10
1.7742716155
 20
30.8735002044
 10
1.7631334889
 20
30.8696924996
 10
1.7486269543
 20
30.865063385
 10
1.7311462204
 20
30.8598407181
 10
1.7106580629
 20
30.8540889974
 10
1.686997576
 20
30.8478290558
 10
1.6604250033
 20
30.8411842532
 10
1.630901702
 20
30.8341850598
 10
1.5983736525
 20
30.8268516366
 10
1.5631284485
 20
30.819272715
 10
1.5252073252
 20
30.8114725956
 10
1.4845687582
 20
30.8034558422
 10
1.4414034535
 20
30.7952694863
 10
1.3957637487
 20
30.7869287873
 10
1.3476300391
 20
30.7784342513
 10
1.2970872439
 20
30.7698035974
 10
1.2441671767
 20
30.7610433692
 10
1.1888916148
 20
30.7521562854
  0
LWPOLYLINE
  5
2D1
100
AcDbEntity
  8
0
100
AcDbPolyline
 62
7
  6
CONTINUOUS
 90
22
 70
0
 10
-1.6380421953
 20
29.3212608876
 10
-1.6384703602
 20
29.3210638256
 10
-1.6369524237
 20
29.321707901
 10
-1.6321845251
 20
29.3235942617
 10
-1.6248874247
 20
29.3262828432
 10
-1.6151319019
 20
29.3296484492
 10
-1.6027693976
 20
29.3336535916
 10
-1.5882515632
 20
29.3380846559
 10
-1.5716466578
 20
29.342876886
 10
-1.5528457359
 20
29.3480228033
 10
-1.5320393428
 20
29.3534388707
 10
-1.5092430986
 20
29.3590992404
 10
-1.4844413263
 20
29.3649888962
 10
-1.4577794917
 20
29.3710586252
 10
-1.4292768248
 20
29.3772934242
 10
-1.3989241748
 20
29.3836860317
 10
-1.3668182094
 20
29.3902088927
 10
-1.3329752853
 20
29.3968535298
 10
-1.2973951903
 20
29.4036155988
 10
-1.2601449553
 20
29.4104791004
 10
-1.2212377872
 20
29.4174394313
 10
-1.1806825104
 20
29.4244933292
  0
LINE
  5
2D2
100
AcDbEntity
  8
0
100
AcDbLine
 62
7
  6
CONTINUOUS
 10
-8.8000000123
 20
-29.7446808517
 11
-8.6333335046
 21
-29.7021276653
  0
LINE
  5
2D3
100
AcDbEntity
  8
0
100
AcDbLine
 62
7
  6
CONTINUOUS
 10
-8.59166652
 20
-29.9574468099
 11
-8.8000000123
 21
-30.0
  0
LINE
  5
2D4
100
AcDbEntity
  8
0
100
AcDbLine
 62
7
  6
CONTINUOUS
 10
-10.5083332662
 20
-29.0638297796
 11
-10.7166667585
 21
-29.106382966
  0
LINE
  5
2D5
100
AcDbEntity
  8
0
100
AcDbLine
 62
7
  6
CONTINUOUS
 10
12.7449999877
 20
-29.8402246624
 11
10.8949999877
 21
-29.8402246624
  0
LINE
  5
2D6
100
AcDbEntity
  8
0
100
AcDbLine
 62
7
  6
CONTINUOUS
 10
-9.1750000123
 20
-29.7446808517
 11
-8.8000000123
 21
-29.7446808517
  0
LINE
  5
2D7
100
AcDbEntity
  8
0
100
AcDbLine
 62
7
  6
CONTINUOUS
 10
-8.4666665201
 20
-29.4893617034
 11
-8.2166665201
 21
-29.4893617034
  0
LINE
  5
2D8
100
AcDbEntity
  8
0
100
AcDbLine
 62
7
  6
CONTINUOUS
 10
-0.0083330278
 20
-29.4042553306
 11
-0.4250000123
 21
-29.4042553306
  0
LINE
  5
2D9
100
AcDbEntity
  8
0
100
AcDbLine
 62
7
  6
CONTINUOUS
 10
-0.6750000123
 20
-29.4042553306
 11
-1.6750000123
 21
-29.4042553306
  0
LINE
  5
2DA
100
AcDbEntity
  8
0
100
AcDbLine
 62
7
  6
CONTINUOUS
 10
-7.3000000123
 20
-29.2765957713
 11
-7.8833335046
 21
-29.2765957713
  0
LINE
  5
2DB
100
AcDbEntity
  8
0
100
AcDbLine
 62
7
  6
CONTINUOUS
 10
-1.3833330278
 20
-29.1489361525
 11
-0.6750000123
 21
-29.1489361525
  0
LINE
  5
2DC
100
AcDbEntity
  8
0
100
AcDbLine
 62
7
  6
CONTINUOUS
 10
-0.4250000123
 20
-29.1489361525
 11
-0.0083330278
 21
-29.1489361525
  0
LINE
  5
2DD
100
AcDbEntity
  8
0
100
AcDbLine
 62
7
  6
CONTINUOUS
 10
-4.1750000123
 20
-29.106382966
 11
-4.8833330278
 21
-29.106382966
  0
LINE
  5
2DE
100
AcDbEntity
  8
0
100
AcDbLine
 62
7
  6
CONTINUOUS
 10
-10.7166667585
 20
-29.106382966
 11
-11.4666666393
 21
-29.106382966
  0
LINE
  5
2DF
100
AcDbEntity
  8
0
100
AcDbLine
 62
7
  6
CONTINUOUS
 10
-7.8833335046
 20
-29.0638297796
 11
-7.3000000123
 21
-29.0638297796
  0
LINE
  5
2E0
100
AcDbEntity
  8
0
100
AcDbLine
 62
7
  6
CONTINUOUS
 10
-5.6333335046
 20
-29.0638297796
 11
-6.7166665201
 21
-29.0638297796
  0
LINE
  5
2E1
100
AcDbEntity
  8
0
100
AcDbLine
 62
7
  6
CONTINUOUS
 10
10.8949999877
 20
-28.9497753376
 11
12.7449999877
 21
-28.9497753376
  0
LINE
  5
2E2
100
AcDbEntity
  8
0
100
AcDbLine
 62
7
  6
CONTINUOUS
 10
-11.4666666393
 20
-28.8510638475
 11
-10.6750000123
 21
-28.8510638475
  0
LINE
  5
2E3
100
AcDbEntity
  8
0
100
AcDbLine
 62
7
  6
CONTINUOUS
 10
-4.8833330278
 20
-28.8510638475
 11
-4.0916669969
 21
-28.8510638475
  0
LINE
  5
2E4
100
AcDbEntity
  8
0
100
AcDbLine
 62
7
  6
CONTINUOUS
 10
-6.7166665201
 20
-28.8085106611
 11
-5.6333335046
 21
-28.8085106611
  0
LINE
  5
2E5
100
AcDbEntity
  8
0
100
AcDbLine
 62
7
  6
CONTINUOUS
 10
-8.2166665201
 20
-28.5106383562
 11
-8.4666665201
 21
-28.5106383562
  0
LINE
  5
2E6
100
AcDbEntity
  8
0
100
AcDbLine
 62
7
  6
CONTINUOUS
 10
-5.4666665201
 20
-28.2553191185
 11
-6.7166665201
 21
-28.2553191185
  0
LINE
  5
2E7
100
AcDbEntity
  8
0
100
AcDbLine
 62
7
  6
CONTINUOUS
 10
-8.8000000123
 20
-28.2553191185
 11
-9.1750000123
 21
-28.2553191185
  0
LINE
  5
2E8
100
AcDbEntity
  8
0
100
AcDbLine
 62
7
  6
CONTINUOUS
 10
-4.0916669969
 20
-28.2127659321
 11
-4.8833330278
 21
-28.2127659321
  0
LINE
  5
2E9
100
AcDbEntity
  8
0
100
AcDbLine
 62
7
  6
CONTINUOUS
 10
-10.6750000123
 20
-28.2127659321
 11
-11.4666666393
 21
-28.2127659321
  0
LINE
  5
2EA
100
AcDbEntity
  8
0
100
AcDbLine
 62
7
  6
CONTINUOUS
 10
-11.7166666393
 20
-28.0
 11
-10.7166667585
 21
-28.0
  0
LINE
  5
2EB
100
AcDbEntity
  8
0
100
AcDbLine
 62
7
  6
CONTINUOUS
 10
-9.1750000123
 20
-28.0
 11
-8.8000000123
 21
-28.0
  0
LINE
  5
2EC
100
AcDbEntity
  8
0
100
AcDbLine
 62
7
  6
CONTINUOUS
 10
-6.9666665201
 20
-28.0
 11
-5.4666665201
 21
-28.0
  0
LINE
  5
2ED
100
AcDbEntity
  8
0
100
AcDbLine
 62
7
  6
CONTINUOUS
 10
-5.1333335046
 20
-28.0
 11
-4.1333330278
 21
-28.0
  0
LINE
  5
2EE
100
AcDbEntity
  8
0
100
AcDbLine
 62
7
  6
CONTINUOUS
 10
-3.0083330278
 20
-28.0
 11
-2.8416669969
 21
-28.0
  0
LINE
  5
2EF
100
AcDbEntity
  8
0
100
AcDbLine
 62
7
  6
CONTINUOUS
 10
-2.2583330278
 20
-28.0
 11
-2.0083330278
 21
-28.0
  0
LINE
  5
2F0
100
AcDbEntity
  8
0
100
AcDbLine
 62
7
  6
CONTINUOUS
 10
-0.6750000123
 20
-28.0
 11
-0.4250000123
 21
-28.0
  0
LINE
  5
2F1
100
AcDbEntity
  8
0
100
AcDbLine
 62
7
  6
CONTINUOUS
 10
0.3249999877
 20
-28.0
 11
0.4916669722
 21
-28.0
  0
LINE
  5
2F2
100
AcDbEntity
  8
0
100
AcDbLine
 62
7
  6
CONTINUOUS
 10
-10.7166667585
 20
-28.0
 11
-10.5083332662
 21
-28.0425531864
  0
LINE
  5
2F3
100
AcDbEntity
  8
0
100
AcDbLine
 62
7
  6
CONTINUOUS
 10
-8.8000000123
 20
-28.0
 11
-8.59166652
 21
-28.0425531864
  0
LINE
  5
2F4
100
AcDbEntity
  8
0
100
AcDbLine
 62
7
  6
CONTINUOUS
 10
-4.1333330278
 20
-28.0
 11
-3.9250000123
 21
-28.0425531864
  0
LINE
  5
2F5
100
AcDbEntity
  8
0
100
AcDbLine
 62
7
  6
CONTINUOUS
 10
-8.6333335046
 20
-28.2978723049
 11
-8.8000000123
 21
-28.2553191185
  0
LINE
  5
2F6
100
AcDbEntity
  8
0
100
AcDbLine
 62
7
  6
CONTINUOUS
 10
-3.9666669969
 20
-28.2553191185
 11
-4.0916669969
 21
-28.2127659321
  0
LINE
  5
2F7
100
AcDbEntity
  8
0
100
AcDbLine
 62
7
  6
CONTINUOUS
 10
8.0333339568
 20
-36.9574468099
 11
7.9499999877
 21
-36.9148936197
  0
LINE
  5
2F8
100
AcDbEntity
  8
0
100
AcDbLine
 62
7
  6
CONTINUOUS
 10
8.0333339568
 20
-36.7446808517
 11
8.1999999877
 21
-36.8297872394
  0
LINE
  5
2F9
100
AcDbEntity
  8
0
100
AcDbLine
 62
7
  6
CONTINUOUS
 10
6.4916660186
 20
-35.8510638475
 11
6.4083339568
 21
-35.8085106611
  0
LINE
  5
2FA
100
AcDbEntity
  8
0
100
AcDbLine
 62
7
  6
CONTINUOUS
 10
-8.59166652
 20
-28.0425531864
 11
-8.4250000123
 21
-28.1276595592
  0
LINE
  5
2FB
100
AcDbEntity
  8
0
100
AcDbLine
 62
7
  6
CONTINUOUS
 10
7.1583339568
 20
-35.8510638476
 11
7.0749999877
 21
-35.8085106611
  0
LINE
  5
2FC
100
AcDbEntity
  8
0
100
AcDbLine
 62
7
  6
CONTINUOUS
 10
8.7833339568
 20
-35.893617034
 11
8.6999999877
 21
-35.8510638476
  0
LINE
  5
2FD
100
AcDbEntity
  8
0
100
AcDbLine
 62
7
  6
CONTINUOUS
 10
10.2833339568
 20
-35.893617034
 11
10.1999999877
 21
-35.8510638476
  0
LINE
  5
2FE
100
AcDbEntity
  8
0
100
AcDbLine
 62
7
  6
CONTINUOUS
 10
4.1166660186
 20
-35.6808511019
 11
4.3249999877
 21
-35.8085106611
  0
LINE
  5
2FF
100
AcDbEntity
  8
0
100
AcDbLine
 62
7
  6
CONTINUOUS
 10
-9.4666667585
 20
-29.6170212626
 11
-9.3416667585
 21
-29.7021276653
  0
LINE
  5
300
100
AcDbEntity
  8
0
100
AcDbLine
 62
7
  6
CONTINUOUS
 10
1.5749999877
 20
-36.6170212626
 11
1.6999999877
 21
-36.7021276653
  0
LINE
  5
301
100
AcDbEntity
  8
0
100
AcDbLine
 62
7
  6
CONTINUOUS
 10
3.4916669722
 20
-36.9148936197
 11
3.3666669722
 21
-36.8297872394
  0
LINE
  5
302
100
AcDbEntity
  8
0
100
AcDbLine
 62
7
  6
CONTINUOUS
 10
-8.5083335046
 20
-28.3829786778
 11
-8.6333335046
 21
-28.2978723049
  0
LINE
  5
303
100
AcDbEntity
  8
0
100
AcDbLine
 62
7
  6
CONTINUOUS
 10
2.5333330031
 20
-35.3829786778
 11
2.4083330031
 21
-35.2978723049
  0
LINE
  5
304
100
AcDbEntity
  8
0
100
AcDbLine
 62
7
  6
CONTINUOUS
 10
4.1999999877
 20
-35.9361702204
 11
4.0749999877
 21
-35.8510638475
  0
LINE
  5
305
100
AcDbEntity
  8
0
100
AcDbLine
 62
7
  6
CONTINUOUS
 10
-10.5083332662
 20
-28.0425531864
 11
-10.3416667585
 21
-28.1702127457
  0
LINE
  5
306
100
AcDbEntity
  8
0
100
AcDbLine
 62
7
  6
CONTINUOUS
 10
-9.5500000123
 20
-29.8723404259
 11
-9.7166667585
 21
-29.7021276653
  0
LINE
  5
307
100
AcDbEntity
  8
0
100
AcDbLine
 62
7
  6
CONTINUOUS
 10
-10.4666667585
 20
-28.3404254913
 11
-10.5500000123
 21
-28.2553191185
  0
LINE
  5
308
100
AcDbEntity
  8
0
100
AcDbLine
 62
7
  6
CONTINUOUS
 10
-1.3833330278
 20
-35.9787234068
 11
-1.4666669969
 21
-35.893617034
  0
LINE
  5
309
100
AcDbEntity
  8
0
100
AcDbLine
 62
7
  6
CONTINUOUS
 10
-12.8416666765
 20
-29.4042553306
 11
-12.9250000123
 21
-29.2765957713
  0
LWPOLYLINE
  5
30A
100
AcDbEntity
  8
0
100
AcDbPolyline
 62
7
  6
CONTINUOUS
 90
12
 70
0
 10
1.7790900538
 20
27.6740760437
 10
1.7841113715
 20
27.6767708042
 10
1.7878623028
 20
27.6786357859
 10
1.7885095391
 20
27.6789373281
 10
1.7860031264
 20
27.6778939453
 10
1.7808912221
 20
27.6759108324
 10
1.7731651521
 20
27.6731081688
 10
1.7626795716
 20
27.669543483
 10
1.749814132
 20
27.6654334813
 10
1.734642756
 20
27.6608631274
 10
1.7169494467
 20
27.6558229712
 10
1.7076176777
 20
27.653267885
  0
LWPOLYLINE
  5
30B
100
AcDbEntity
  8
0
100
AcDbPolyline
 62
7
  6
CONTINUOUS
 90
23
 70
0
 10
-1.6368400966
 20
26.1218578302
 10
-1.6380888141
 20
26.121263364
 10
-1.6382237175
 20
26.121196555
 10
-1.6356761264
 20
26.1222488206
 10
-1.6308980628
 20
26.1240972731
 10
-1.6238587135
 20
26.1266560295
 10
-1.614478523
 20
26.1298663978
 10
-1.6031756539
 20
26.133518658
 10
-1.5899952283
 20
26.1375532748
 10
-1.5748378421
 20
26.1419605207
 10
-1.5579219954
 20
26.1466443544
 10
-1.5392548919
 20
26.1515788193
 10
-1.5188036866
 20
26.1567510554
 10
-1.4967374733
 20
26.1621014048
 10
-1.4730685702
 20
26.1676145784
 10
-1.4477815084
 20
26.1732831364
 10
-1.4210156984
 20
26.1790676038
 10
-1.3928047172
 20
26.184956453
 10
-1.3631494121
 20
26.1909464445
 10
-1.3321507291
 20
26.1970153469
 10
-1.2998535243
 20
26.2031539661
 10
-1.2662569915
 20
26.2093624082
 10
-1.2313885912
 20
26.2156357473
  0
LWPOLYLINE
  5
30C
100
AcDbEntity
  8
0
100
AcDbPolyline
 62
7
  6
CONTINUOUS
 90
22
 70
0
 10
1.7868557351
 20
29.278174319
 10
1.7879381244
 20
29.278689023
 10
1.7878459637
 20
29.2786562201
 10
1.7845338077
 20
29.2773016905
 10
1.7784402582
 20
29.2749852159
 10
1.769465008
 20
29.2718033064
 10
1.7574747874
 20
29.2678312301
 10
1.7429439241
 20
29.26331749
 10
1.7259063578
 20
29.2583336358
 10
1.7062503716
 20
29.2529006062
 10
1.6842907107
 20
29.2471467874
 10
1.6600615745
 20
29.241109597
 10
1.633505889
 20
29.2347998571
 10
1.6048163268
 20
29.2282829812
 10
1.5740130742
 20
29.2215775236
 10
1.541073059
 20
29.2146907387
 10
1.5061259544
 20
29.2076592443
 10
1.4691896788
 20
29.2004933455
 10
1.4302628763
 20
29.1931978443
 10
1.3894558074
 20
29.1857952032
 10
1.3467987571
 20
29.1782909213
 10
1.3023188913
 20
29.1706891691
  0
LWPOLYLINE
  5
30D
100
AcDbEntity
  8
0
100
AcDbPolyline
 62
7
  6
CONTINUOUS
 90
23
 70
0
 10
-1.6372775081
 20
24.521618034
 10
-1.6381085785
 20
24.5212258152
 10
-1.6379888256
 20
24.521273245
 10
-1.6351700592
 20
24.5224346768
 10
-1.6301104733
 20
24.5243850061
 10
-1.6227843244
 20
24.5270363228
 10
-1.613087537
 20
24.530337801
 10
-1.6014019028
 20
24.5340902792
 10
-1.5877577603
 20
24.5382357328
 10
-1.5720564504
 20
24.5427616179
 10
-1.5545144561
 20
24.5475725215
 10
-1.5351313866
 20
24.5526442672
 10
-1.5138934943
 20
24.5579588993
 10
-1.4910166374
 20
24.5634465956
 10
-1.4665403407
 20
24.5690875925
 10
-1.4404438329
 20
24.5748776929
 10
-1.4128620335
 20
24.580780232
 10
-1.3838367919
 20
24.5867821386
 10
-1.3533557317
 20
24.5928825063
 10
-1.3214685243
 20
24.5990685731
 10
-1.2881959047
 20
24.6053343695
 10
-1.253542476
 20
24.6116774713
 10
-1.2175273622
 20
24.6180935364
  0
LWPOLYLINE
  5
30E
100
AcDbEntity
  8
0
100
AcDbPolyline
 62
7
  6
CONTINUOUS
 90
22
 70
0
 10
1.7876479076
 20
26.0785299263
 10
1.7884227222
 20
26.078891892
 10
1.7879058126
 20
26.0786717566
 10
1.7844411611
 20
26.0772668932
 10
1.778555413
 20
26.0750385607
 10
1.7702274961
 20
26.0720824231
 10
1.7593499484
 20
26.0684537915
 10
1.7463743976
 20
26.0643739951
 10
1.731340419
 20
26.0599025919
 10
1.7141512831
 20
26.0550527535
 10
1.6950863251
 20
26.0499359471
 10
1.6741855356
 20
26.0445852266
 10
1.6514025316
 20
26.0390085314
 10
1.6269034995
 20
26.0332622554
 10
1.6007242769
 20
26.027365745
 10
1.5728471618
 20
26.0213233078
 10
1.5433574707
 20
26.0151593558
 10
1.5122767873
 20
26.0088825214
 10
1.4796157493
 20
26.0024983234
 10
1.4454349368
 20
25.9960209517
 10
1.4097568066
 20
25.989456023
 10
1.3725912089
 20
25.9828062629
  0
LWPOLYLINE
  5
30F
100
AcDbEntity
  8
0
100
AcDbPolyline
 62
7
  6
CONTINUOUS
 90
22
 70
0
 10
-1.6378241
 20
27.7213830703
 10
-1.6383332951
 20
27.7211485347
 10
-1.6372536732
 20
27.7216082017
 10
-1.6331772387
 20
27.72323453
 10
-1.6267144677
 20
27.7256416096
 10
-1.6179007095
 20
27.7287216906
 10
-1.6066202257
 20
27.7324304888
 10
-1.5932819933
 20
27.7365688947
 10
-1.5779264685
 20
27.7410807294
 10
-1.5604598301
 20
27.7459546883
 10
-1.5410891121
 20
27.7511014894
 10
-1.5198245298
 20
27.7564950724
 10
-1.4966285151
 20
27.7621240363
 10
-1.4716389077
 20
27.7679380338
 10
-1.4448652263
 20
27.7739220453
 10
-1.4162846391
 20
27.7800696621
 10
-1.385989676
 20
27.7863519139
 10
-1.3539922981
 20
27.7927608302
 10
-1.3203000203
 20
27.7992906351
 10
-1.2850068039
 20
27.805920309
 10
-1.2481364223
 20
27.8126439644
 10
-1.2096982544
 20
27.8194589709
  0
LWPOLYLINE
  5
310
100
AcDbEntity
  8
0
100
AcDbPolyline
 62
253
  6
CONTINUOUS
 90
18
 70
0
 10
1.8968164499
 20
26.6776081266
 10
1.9274990051
 20
26.6864209998
 10
1.9605426303
 20
26.6991690811
 10
1.9925778646
 20
26.7150101719
 10
2.0234181624
 20
26.7337898097
 10
2.0528774853
 20
26.7553519097
 10
2.0807697555
 20
26.7795403861
 10
2.1069088182
 20
26.8061990922
 10
2.131108518
 20
26.8351718561
 10
2.1531827266
 20
26.8663025139
 10
2.1729551722
 20
26.8994267239
 10
2.1903221157
 20
26.9343193022
 10
2.2052122889
 20
26.9707277014
 10
2.2175546196
 20
27.0083993384
 10
2.227278053
 20
27.0470817822
 10
2.234311459
 20
27.0865224777
 10
2.2385836763
 20
27.1264687265
 10
2.2400235593
 20
27.1666678854
  0
LINE
  5
311
100
AcDbEntity
  8
0
100
AcDbLine
 62
7
  6
CONTINUOUS
 10
-9.1750000123
 20
-28.2553191185
 11
-9.3416667585
 21
-28.2978723049
  0
LINE
  5
312
100
AcDbEntity
  8
0
100
AcDbLine
 62
7
  6
CONTINUOUS
 10
-9.3833332662
 20
-28.0425531864
 11
-9.1750000123
 21
-28.0
  0
LINE
  5
313
100
AcDbEntity
  8
0
100
AcDbLine
 62
7
  6
CONTINUOUS
 10
-33.4250000123
 20
-25.7
 11
-31.9250000123
 21
-25.7
  0
LINE
  5
314
100
AcDbEntity
  8
0
100
AcDbLine
 62
7
  6
CONTINUOUS
 10
33.5749999877
 20
-25.7
 11
32.0749999877
 21
-25.7
  0
LINE
  5
315
100
AcDbEntity
  8
0
100
AcDbLine
 62
7
  6
CONTINUOUS
 10
-14.9250000123
 20
-23.0
 11
15.0749999877
 21
-23.0
  0
LINE
  5
316
100
AcDbEntity
  8
0
100
AcDbLine
 62
7
  6
CONTINUOUS
 10
1.3249999877
 20
-28.9787234068
 11
1.9083330031
 21
-29.2765957713
  0
LINE
  5
317
100
AcDbEntity
  8
0
100
AcDbLine
 62
7
  6
CONTINUOUS
 10
1.8249999877
 20
-29.4042553306
 11
1.0333330031
 21
-28.9787234068
  0
LINE
  5
318
100
AcDbEntity
  8
0
100
AcDbLine
 62
7
  6
CONTINUOUS
 10
8.7833339568
 20
-35.6808511019
 11
8.9083339568
 21
-35.7659574747
  0
LINE
  5
319
100
AcDbEntity
  8
0
100
AcDbLine
 62
7
  6
CONTINUOUS
 10
10.3249999877
 20
-35.6808511019
 11
10.4499999877
 21
-35.7659574747
  0
LINE
  5
31A
100
AcDbEntity
  8
0
100
AcDbLine
 62
7
  6
CONTINUOUS
 10
-3.9250000123
 20
-28.0425531864
 11
-3.7583330278
 21
-28.1702127457
  0
LINE
  5
31B
100
AcDbEntity
  8
0
100
AcDbLine
 62
7
  6
CONTINUOUS
 10
-1.3000000123
 20
-35.7659574747
 11
-1.2166669969
 21
-35.8510638475
  0
LINE
  5
31C
100
AcDbEntity
  8
0
100
AcDbLine
 62
7
  6
CONTINUOUS
 10
-8.4250000123
 20
-28.1276595592
 11
-8.2583335046
 21
-28.2978723049
  0
LINE
  5
31D
100
AcDbEntity
  8
0
100
AcDbLine
 62
7
  6
CONTINUOUS
 10
1.4916669722
 20
-36.8723404259
 11
1.3249999877
 21
-36.7021276653
  0
LINE
  5
31E
100
AcDbEntity
  8
0
100
AcDbLine
 62
7
  6
CONTINUOUS
 10
3.3666669722
 20
-36.8297872394
 11
3.2833330031
 21
-36.7446808517
  0
LINE
  5
31F
100
AcDbEntity
  8
0
100
AcDbLine
 62
7
  6
CONTINUOUS
 10
3.4499999877
 20
-36.6170212626
 11
3.5749999877
 21
-36.7446808517
  0
LINE
  5
320
100
AcDbEntity
  8
0
100
AcDbLine
 62
7
  6
CONTINUOUS
 10
2.6166669722
 20
-35.1276595592
 11
2.7833330031
 21
-35.2978723049
  0
LINE
  5
321
100
AcDbEntity
  8
0
100
AcDbLine
 62
7
  6
CONTINUOUS
 10
-3.8833330278
 20
-28.3404254913
 11
-3.9666669969
 21
-28.2553191185
  0
LINE
  5
322
100
AcDbEntity
  8
0
100
AcDbLine
 62
7
  6
CONTINUOUS
 10
-5.34166652
 20
-35.8085106611
 11
-5.2166665201
 21
-35.9787234068
  0
LINE
  5
323
100
AcDbEntity
  8
0
100
AcDbLine
 62
7
  6
CONTINUOUS
 10
-10.3416667585
 20
-28.1702127457
 11
-10.2166667585
 21
-28.3404254913
  0
LINE
  5
324
100
AcDbEntity
  8
0
100
AcDbLine
 62
7
  6
CONTINUOUS
 10
-7.0500000123
 20
-36.106382966
 11
-7.1333335046
 21
-35.9787234068
  0
LINE
  5
325
100
AcDbEntity
  8
0
100
AcDbLine
 62
7
  6
CONTINUOUS
 10
-5.3833335046
 20
-36.0638297796
 11
-5.4666665201
 21
-35.9361702204
  0
LINE
  5
326
100
AcDbEntity
  8
0
100
AcDbLine
 62
7
  6
CONTINUOUS
 10
-9.5500000123
 20
-29.4893617034
 11
-9.4666667585
 21
-29.6170212626
  0
LINE
  5
327
100
AcDbEntity
  8
0
100
AcDbLine
 62
7
  6
CONTINUOUS
 10
-9.6333332662
 20
-36.6595744789
 11
-9.5916667585
 21
-36.7446808517
  0
LINE
  5
328
100
AcDbEntity
  8
0
100
AcDbLine
 62
7
  6
CONTINUOUS
 10
-8.7166667585
 20
-37.0
 11
-8.7583332662
 21
-36.9148936197
  0
LINE
  5
329
100
AcDbEntity
  8
0
100
AcDbLine
 62
7
  6
CONTINUOUS
 10
-8.8000000123
 20
-35.9787234068
 11
-8.8416667585
 21
-35.893617034
  0
LINE
  5
32A
100
AcDbEntity
  8
0
100
AcDbLine
 62
7
  6
CONTINUOUS
 10
-8.09166652
 20
-36.7446808517
 11
-8.1333335046
 21
-36.6595744789
  0
LINE
  5
32B
100
AcDbEntity
  8
0
100
AcDbLine
 62
7
  6
CONTINUOUS
 10
-11.3416666989
 20
-37.0
 11
-11.9250000123
 21
-35.4255318642
  0
LINE
  5
32C
100
AcDbEntity
  8
0
100
AcDbLine
 62
7
  6
CONTINUOUS
 10
-11.8000000123
 20
-35.0
 11
-11.1750000123
 21
-36.7872340381
  0
LWPOLYLINE
  5
32D
100
AcDbEntity
  8
0
100
AcDbPolyline
 62
7
  6
CONTINUOUS
 90
12
 70
0
 10
-1.6289607034
 20
21.3259958232
 10
-1.6340097854
 20
21.3232817432
 10
-1.6378120448
 20
21.3213880015
 10
-1.6385289788
 20
21.3210541396
 10
-1.6361095016
 20
21.3220631395
 10
-1.6310917929
 20
21.3240137348
 10
-1.6234633536
 20
21.3267868802
 10
-1.6130821043
 20
21.3303236884
 10
-1.6003300538
 20
21.3344062868
 10
-1.585282617
 20
21.3389491953
 10
-1.5677234945
 20
21.3439621198
 10
-1.5576127356
 20
21.3467334564
  0
LWPOLYLINE
  5
32E
100
AcDbEntity
  8
0
100
AcDbPolyline
 62
7
  6
CONTINUOUS
 90
22
 70
0
 10
1.7867142625
 20
22.8780809367
 10
1.7882712594
 20
22.8788240115
 10
1.7858331748
 20
22.8778142124
 10
1.7811587111
 20
22.8760007526
 10
1.7742142971
 20
22.8734696895
 10
1.7649220869
 20
22.8702813216
 10
1.753704202
 20
22.8666477824
 10
1.7406060005
 20
22.8626291701
 10
1.7255276072
 20
22.8582353889
 10
1.7086910399
 20
22.8535639
 10
1.6901038767
 20
22.8486408943
 10
1.669733416
 20
22.8434793571
 10
1.6477525807
 20
22.838140021
 10
1.6241742469
 20
22.8326382674
 10
1.5989836658
 20
22.8269816441
 10
1.5723249277
 20
22.821210648
 10
1.5442330916
 20
22.8153370326
 10
1.5147092055
 20
22.8093639263
 10
1.483857207
 20
22.8033140402
 10
1.4517255158
 20
22.7971970907
 10
1.4183119041
 20
22.7910125236
 10
1.3836388816
 20
22.7847642534
  0
LWPOLYLINE
  5
32F
100
AcDbEntity
  8
0
100
AcDbPolyline
 62
7
  6
CONTINUOUS
 90
23
 70
0
 10
1.7871503923
 20
24.4783208458
 10
1.7880431132
 20
24.4787438749
 10
1.7880673986
 20
24.4787606673
 10
1.7854008387
 20
24.4776576932
 10
1.7804956697
 20
24.47575935
 10
1.7733230822
 20
24.4731533654
 10
1.763781486
 20
24.469892148
 10
1.7522566436
 20
24.466177238
 10
1.7387796828
 20
24.4620672745
 10
1.7232508585
 20
24.4575747671
 10
1.7058888449
 20
24.4527962572
 10
1.6866933322
 20
24.4477560635
 10
1.6656511177
 20
24.4424723744
 10
1.6429818981
 20
24.4370161735
 10
1.6187258928
 20
24.4314073605
 10
1.5928631317
 20
24.4256502367
 10
1.5655333416
 20
24.419782517
 10
1.536782142
 20
24.4138179153
 10
1.5065956695
 20
24.407756836
 10
1.4750203124
 20
24.4016113033
 10
1.4420775702
 20
24.3953873782
 10
1.4077720561
 20
24.3890874265
 10
1.3721167419
 20
24.3827147734
  0
LWPOLYLINE
  5
330
100
AcDbEntity
  8
0
100
AcDbPolyline
 62
7
  6
CONTINUOUS
 90
22
 70
0
 10
-1.6377732051
 20
22.9214106578
 10
-1.6384686905
 20
22.9210871869
 10
-1.6377773549
 20
22.9213825335
 10
-1.6341347932
 20
22.9228531022
 10
-1.6280713191
 20
22.9251387263
 10
-1.6195686615
 20
22.9281440253
 10
-1.6085166108
 20
22.9318155674
 10
-1.5953604988
 20
22.9359354458
 10
-1.5801387311
 20
22.9404448601
 10
-1.5627549735
 20
22.9453306926
 10
-1.5434838322
 20
22.9504832508
 10
-1.5223641214
 20
22.9558698234
 10
-1.4993488132
 20
22.9614825625
 10
-1.4745994855
 20
22.9672662469
 10
-1.448148332
 20
22.973202267
 10
-1.4199799472
 20
22.9792857515
 10
-1.3901838197
 20
22.9854913929
 10
-1.3587813709
 20
22.9918105985
 10
-1.3257829881
 20
22.9982379007
 10
-1.2912544674
 20
23.0047581777
 10
-1.2552186329
 20
23.0113658446
 10
-1.2176858458
 20
23.0180581737
  0
LWPOLYLINE
  5
331
100
AcDbEntity
  8
0
100
AcDbPolyline
 62
7
  6
CONTINUOUS
 90
22
 70
0
 10
1.787665052
 20
21.2785421985
 10
1.7883171566
 20
21.2788442158
 10
1.7872260446
 20
21.2783803412
 10
1.782851071
 20
21.2766398331
 10
1.7757990114
 20
21.2740291018
 10
1.7660769005
 20
21.2706630187
 10
1.7535626113
 20
21.2665997982
 10
1.7387286094
 20
21.2620679098
 10
1.7216236103
 20
21.257131879
 10
1.7021367999
 20
21.2518036842
 10
1.6805129156
 20
21.2461854256
 10
1.6567669348
 20
21.2403064408
 10
1.6308550922
 20
21.234178557
 10
1.6029400642
 20
21.2278582559
 10
1.5730413207
 20
21.2213631442
 10
1.5411317398
 20
21.214698866
 10
1.5073130761
 20
21.2078944195
 10
1.4716043545
 20
21.2009583388
 10
1.4340166195
 20
21.1938965387
 10
1.3946426459
 20
21.186728749
 10
1.3535083193
 20
21.1794606038
 10
1.3106282728
 20
21.1720950505
  0
LWPOLYLINE
  5
332
100
AcDbEntity
  8
0
100
AcDbPolyline
 62
7
  6
CONTINUOUS
 90
22
 70
0
 10
-1.6376614153
 20
19.7214403015
 10
-1.6382350012
 20
19.7211747448
 10
-1.6370934116
 20
19.7216617045
 10
-1.6327588912
 20
19.7233908805
 10
-1.6258398984
 20
19.7259598848
 10
-1.6163640516
 20
19.7292502394
 10
-1.6041847432
 20
19.7332160289
 10
-1.5897117612
 20
19.737650931
 10
-1.5729769513
 20
19.7424956566
 10
-1.5538937176
 20
19.7477315857
 10
-1.5327039494
 20
19.7532578833
 10
-1.5094229183
 20
19.7590456892
 10
-1.4840113363
 20
19.7650827013
 10
-1.4566325736
 20
19.7713127052
 10
-1.4273033901
 20
19.7777192
 10
-1.3960011962
 20
19.7842958839
 10
-1.3628306367
 20
19.7910118174
 10
-1.3278043631
 20
19.7978578254
 10
-1.2909168626
 20
19.8048295291
 10
-1.2522531109
 20
19.811908277
 10
-1.2118361182
 20
19.8190890468
 10
-1.1696863757
 20
19.8263679746
  0
LINE
  5
333
100
AcDbEntity
  8
0
100
AcDbLine
 62
7
  6
CONTINUOUS
 10
-33.4250000123
 20
-22.0
 11
-31.9250000123
 21
-22.0
  0
LINE
  5
334
100
AcDbEntity
  8
0
100
AcDbLine
 62
7
  6
CONTINUOUS
 10
33.5749999877
 20
-22.0
 11
32.0749999877
 21
-22.0
  0
LINE
  5
335
100
AcDbEntity
  8
0
100
AcDbLine
 62
7
  6
CONTINUOUS
 10
-33.4250000123
 20
-19.5
 11
-31.9250000123
 21
-19.5
  0
LINE
  5
336
100
AcDbEntity
  8
0
100
AcDbLine
 62
7
  6
CONTINUOUS
 10
33.5749999877
 20
-19.5
 11
32.0749999877
 21
-19.5
  0
LINE
  5
337
100
AcDbEntity
  8
0
100
AcDbLine
 62
7
  6
CONTINUOUS
 10
6.5333339568
 20
-35.893617034
 11
6.4916660186
 21
-35.8510638475
  0
LINE
  5
338
100
AcDbEntity
  8
0
100
AcDbLine
 62
7
  6
CONTINUOUS
 10
6.6166660185
 20
-35.6808511019
 11
6.7416660185
 21
-35.8085106611
  0
LINE
  5
339
100
AcDbEntity
  8
0
100
AcDbLine
 62
7
  6
CONTINUOUS
 10
7.9499999877
 20
-36.9148936197
 11
7.8249999877
 21
-36.7872340381
  0
LINE
  5
33A
100
AcDbEntity
  8
0
100
AcDbLine
 62
7
  6
CONTINUOUS
 10
7.1999999877
 20
-35.8936170339
 11
7.1583339568
 21
-35.8510638476
  0
LINE
  5
33B
100
AcDbEntity
  8
0
100
AcDbLine
 62
7
  6
CONTINUOUS
 10
7.2833339568
 20
-35.6808511019
 11
7.3666660186
 21
-35.7659574747
  0
LINE
  5
33C
100
AcDbEntity
  8
0
100
AcDbLine
 62
7
  6
CONTINUOUS
 10
8.9083339568
 20
-35.7659574747
 11
8.9916660186
 21
-35.8510638476
  0
LINE
  5
33D
100
AcDbEntity
  8
0
100
AcDbLine
 62
7
  6
CONTINUOUS
 10
-3.7583330278
 20
-28.1702127457
 11
-3.6333330278
 21
-28.3404254913
  0
LINE
  5
33E
100
AcDbEntity
  8
0
100
AcDbLine
 62
7
  6
CONTINUOUS
 10
1.4916669722
 20
-36.4893617034
 11
1.5749999877
 21
-36.6170212626
  0
LINE
  5
33F
100
AcDbEntity
  8
0
100
AcDbLine
 62
7
  6
CONTINUOUS
 10
-7.09166652
 20
-35.8085106611
 11
-7.0500000123
 21
-35.893617034
  0
LINE
  5
340
100
AcDbEntity
  8
0
100
AcDbLine
 62
7
  6
CONTINUOUS
 10
-6.3833335046
 20
-36.7446808517
 11
-6.4666665201
 21
-36.5744680762
  0
LINE
  5
341
100
AcDbEntity
  8
0
100
AcDbLine
 62
7
  6
CONTINUOUS
 10
-9.7166667585
 20
-29.7021276653
 11
-9.8000000123
 21
-29.5319148898
  0
LINE
  5
342
100
AcDbEntity
  8
0
100
AcDbLine
 62
7
  6
CONTINUOUS
 10
-6.2583335046
 20
-36.5319148898
 11
-6.2166665201
 21
-36.6170212626
  0
LINE
  5
343
100
AcDbEntity
  8
0
100
AcDbLine
 62
7
  6
CONTINUOUS
 10
-7.9666665201
 20
-36.446808517
 11
-7.8833335046
 21
-36.6595744789
  0
LINE
  5
344
100
AcDbEntity
  8
0
100
AcDbLine
 62
7
  6
CONTINUOUS
 10
-8.7583332662
 20
-36.9148936197
 11
-8.8000000123
 21
-36.7872340381
  0
LINE
  5
345
100
AcDbEntity
  8
0
100
AcDbLine
 62
7
  6
CONTINUOUS
 10
-8.5500000123
 20
-36.8723404258
 11
-8.5083332662
 21
-37.0
  0
LINE
  5
346
100
AcDbEntity
  8
0
100
AcDbLine
 62
7
  6
CONTINUOUS
 10
-8.6333332662
 20
-35.8510638475
 11
-8.5916667585
 21
-35.9787234068
  0
LINE
  5
347
100
AcDbEntity
  8
0
100
AcDbLine
 62
7
  6
CONTINUOUS
 10
-10.4250000123
 20
-28.4680850506
 11
-10.4666667585
 21
-28.3404254913
  0
LINE
  5
348
100
AcDbEntity
  8
0
100
AcDbLine
 62
7
  6
CONTINUOUS
 10
-14.9250000123
 20
-39.0
 11
-14.9250000123
 21
-23.0
  0
LWPOLYLINE
  5
349
100
AcDbEntity
  8
0
100
AcDbPolyline
 62
7
  6
CONTINUOUS
 90
22
 70
0
 10
-1.6368882296
 20
16.5218155588
 10
-1.6379400626
 20
16.521316179
 10
-1.6378176983
 20
16.5213621757
 10
-1.6344810457
 20
16.5227244382
 10
-1.6284774953
 20
16.5250041102
 10
-1.6197885406
 20
16.5280852375
 10
-1.6083106387
 20
16.5318971367
 10
-1.5945592939
 20
16.5361900873
 10
-1.578609043
 20
16.5408906555
 10
-1.560353588
 20
16.5459863338
 10
-1.5400551711
 20
16.5513692902
 10
-1.5177428944
 20
16.5570074673
 10
-1.4933771935
 20
16.5628893739
 10
-1.4671136764
 20
16.5689603724
 10
-1.4389708497
 20
16.5752036777
 10
-1.4089298649
 20
16.5816124001
 10
-1.3770853427
 20
16.5881574415
 10
-1.3434501582
 20
16.5948294716
 10
-1.3080236288
 20
16.6016237165
 10
-1.2708812105
 20
16.6085232635
 10
-1.2320416057
 20
16.6155234661
 10
-1.191526072
 20
16.6226198905
  0
LWPOLYLINE
  5
34A
100
AcDbEntity
  8
0
100
AcDbPolyline
 62
7
  6
CONTINUOUS
 90
22
 70
0
 10
1.7876789344
 20
19.6785677411
 10
1.7884078488
 20
19.6789078982
 10
1.7876054328
 20
19.678564453
 10
1.7836455568
 20
19.6769692954
 10
1.7770482995
 20
19.6744948272
 10
1.767768881
 20
19.6712406163
 10
1.7556682977
 20
19.6672639748
 10
1.7411804514
 20
19.6627892162
 10
1.7243278264
 20
19.6578797442
 10
1.70498694
 20
19.6525501882
 10
1.6834158638
 20
19.6469115483
 10
1.6596415112
 20
19.6409975296
 10
1.6336234062
 20
19.634821103
 10
1.6055454015
 20
19.6284437343
 10
1.5754298293
 20
19.6218830477
 10
1.5432611889
 20
19.6151465736
 10
1.5091670655
 20
19.6082692843
 10
1.4731687041
 20
19.6012610714
 10
1.43526445
 20
19.5941263231
 10
1.3955465165
 20
19.5868856854
 10
1.3540372183
 20
19.5795450925
 10
1.3107451742
 20
19.5721073109
  0
LWPOLYLINE
  5
34B
100
AcDbEntity
  8
0
100
AcDbPolyline
 62
7
  6
CONTINUOUS
 90
21
 70
0
 10
1.7875092266
 20
18.0784749323
 10
1.7882255906
 20
18.0788081698
 10
1.7871704896
 20
18.0783593472
 10
1.7826852218
 20
18.0765742274
 10
1.7751784986
 20
18.0738031862
 10
1.7645152689
 20
18.0701367091
 10
1.7505923184
 20
18.0656663217
 10
1.7339830048
 20
18.060667875
 10
1.7147677098
 20
18.0552239574
 10
1.692798902
 20
18.049343856
 10
1.6683684826
 20
18.0431463175
 10
1.6414963189
 20
18.0366650355
 10
1.612129511
 20
18.029912547
 10
1.5804591855
 20
18.0229525904
 10
1.5465020028
 20
18.015803031
 10
1.5102348017
 20
18.0084712677
 10
1.4718038261
 20
18.0009943105
 10
1.4312368434
 20
17.9933811207
 10
1.3885551123
 20
17.9856381933
 10
1.3439065132
 20
17.9777929228
 10
1.2973309932
 20
17.9698511295
  0
LWPOLYLINE
  5
34C
100
AcDbEntity
  8
0
100
AcDbPolyline
 62
7
  6
CONTINUOUS
 90
21
 70
0
 10
-1.6384319074
 20
18.1210919113
 10
-1.6358598478
 20
18.122159051
 10
-1.6302915719
 20
18.1243108629
 10
-1.6223264783
 20
18.1271848262
 10
-1.6120357593
 20
18.1306693711
 10
-1.5992616042
 20
18.1347403686
 10
-1.5843670749
 20
18.1392213829
 10
-1.5673831472
 20
18.1440609507
 10
-1.548219947
 20
18.1492469703
 10
-1.5270598975
 20
18.1546990935
 10
-1.5039067031
 20
18.1603928663
 10
-1.4787286778
 20
18.1663163496
 10
-1.4516612167
 20
18.1724230457
 10
-1.4227129983
 20
18.1787001793
 10
-1.3918818322
 20
18.1851388005
 10
-1.3592891752
 20
18.1917065903
 10
-1.3249563892
 20
18.198394622
 10
-1.2888825343
 20
18.2051992225
 10
-1.2511562754
 20
18.2121010614
 10
-1.2118013221
 20
18.219094472
 10
-1.1708244028
 20
18.2261773914
  0
LWPOLYLINE
  5
34D
100
AcDbEntity
  8
0
100
AcDbPolyline
 62
253
  6
CONTINUOUS
 90
18
 70
0
 10
2.4549999877
 20
19.2210696963
 10
2.422436867
 20
19.2106031117
 10
2.3692613565
 20
19.1959856339
 10
2.3085633683
 20
19.1813705478
 10
2.2405208978
 20
19.1667598845
 10
2.1653299282
 20
19.1521540917
 10
2.0832743415
 20
19.1375527217
 10
1.9946674069
 20
19.1229564623
 10
1.899832074
 20
19.1083673547
 10
1.7990648971
 20
19.0937833577
 10
1.6926330518
 20
19.0791990361
 10
1.5808394192
 20
19.0646119889
 10
1.4640919042
 20
19.0500246172
 10
1.3428109691
 20
19.035438688
 10
1.2173967004
 20
19.0208534105
 10
1.0882623742
 20
19.0062695757
 10
0.9558526214
 20
18.9916913238
 10
0.8207163279
 20
18.9771322237
  0
LWPOLYLINE
  5
34E
100
AcDbEntity
  8
0
100
AcDbPolyline
 62
253
  6
CONTINUOUS
 90
18
 70
0
 10
2.4549999877
 20
17.6208712445
 10
2.4108966671
 20
17.6072213005
 10
2.3559434714
 20
17.5926095368
 10
2.2935115521
 20
17.5780081118
 10
2.2238441079
 20
17.5634141065
 10
2.1471950932
 20
17.5488277553
 10
2.0638387669
 20
17.5342527608
 10
1.9740078476
 20
17.5196854203
 10
1.8779003873
 20
17.5051148612
 10
1.7757964856
 20
17.4905329189
 10
1.6681071228
 20
17.4759477579
 10
1.5552993739
 20
17.4613729995
 10
1.4378469937
 20
17.4468209065
 10
1.3160275806
 20
17.4322792162
 10
1.1900226132
 20
17.4177247617
 10
1.0602045369
 20
17.403152349
 10
0.9270502463
 20
17.3885671721
 10
0.7909233529
 20
17.3739616468
  0
LINE
  5
34F
100
AcDbEntity
  8
0
100
AcDbLine
 62
7
  6
CONTINUOUS
 10
-34.9250000123
 20
-17.5717243116
 11
35.0749999877
 21
-17.5717243116
  0
LINE
  5
350
100
AcDbEntity
  8
0
100
AcDbLine
 62
7
  6
CONTINUOUS
 10
27.0749999877
 20
-17.5
 11
-26.9250000123
 21
-17.5
  0
LINE
  5
351
100
AcDbEntity
  8
0
100
AcDbLine
 62
7
  6
CONTINUOUS
 10
35.0749999877
 20
-16.5
 11
27.0749999877
 21
-16.5
  0
LINE
  5
352
100
AcDbEntity
  8
0
100
AcDbLine
 62
7
  6
CONTINUOUS
 10
-26.9250000123
 20
-16.5
 11
-35.0250000123
 21
-16.5
  0
LINE
  5
353
100
AcDbEntity
  8
0
100
AcDbLine
 62
253
  6
CONTINUOUS
 10
-35.0250000123
 20
-14.9
 11
-34.9250000123
 21
-14.9
  0
LINE
  5
354
100
AcDbEntity
  8
0
100
AcDbLine
 62
7
  6
CONTINUOUS
 10
10.3666660185
 20
-35.9787234068
 11
10.2833339568
 21
-35.893617034
  0
LINE
  5
355
100
AcDbEntity
  8
0
100
AcDbLine
 62
7
  6
CONTINUOUS
 10
10.4499999877
 20
-35.7659574747
 11
10.5333339568
 21
-35.8510638475
  0
LINE
  5
356
100
AcDbEntity
  8
0
100
AcDbLine
 62
7
  6
CONTINUOUS
 10
4.3249999877
 20
-35.8085106611
 11
4.4499999877
 21
-35.9787234068
  0
LINE
  5
357
100
AcDbEntity
  8
0
100
AcDbLine
 62
7
  6
CONTINUOUS
 10
4.2833339568
 20
-36.0638297796
 11
4.1999999877
 21
-35.9361702204
  0
LINE
  5
358
100
AcDbEntity
  8
0
100
AcDbLine
 62
7
  6
CONTINUOUS
 10
1.3249999877
 20
-36.7021276653
 11
1.2416669722
 21
-36.5319148898
  0
LINE
  5
359
100
AcDbEntity
  8
0
100
AcDbLine
 62
7
  6
CONTINUOUS
 10
-10.2166667585
 20
-28.3404254913
 11
-10.1750000123
 21
-28.4680850506
  0
LINE
  5
35A
100
AcDbEntity
  8
0
100
AcDbLine
 62
7
  6
CONTINUOUS
 10
-6.3000000123
 20
-36.4042553306
 11
-6.2583335046
 21
-36.5319148898
  0
LINE
  5
35B
100
AcDbEntity
  8
0
100
AcDbLine
 62
7
  6
CONTINUOUS
 10
-8.4666665201
 20
-28.5106383562
 11
-8.5083335046
 21
-28.3829786778
  0
LINE
  5
35C
100
AcDbEntity
  8
0
100
AcDbLine
 62
7
  6
CONTINUOUS
 10
-9.8000000123
 20
-36.7872340381
 11
-9.8416667585
 21
-36.6170212626
  0
LINE
  5
35D
100
AcDbEntity
  8
0
100
AcDbLine
 62
7
  6
CONTINUOUS
 10
-8.1333335046
 20
-36.6595744789
 11
-8.1750000123
 21
-36.4893617034
  0
LINE
  5
35E
100
AcDbEntity
  8
0
100
AcDbLine
 62
7
  6
CONTINUOUS
 10
-9.5916667585
 20
-29.3191489577
 11
-9.5500000123
 21
-29.4893617034
  0
LINE
  5
35F
100
AcDbEntity
  8
0
100
AcDbLine
 62
7
  6
CONTINUOUS
 10
-8.5916667585
 20
-36.6595744789
 11
-8.5500000123
 21
-36.8723404258
  0
LINE
  5
360
100
AcDbEntity
  8
0
100
AcDbLine
 62
7
  6
CONTINUOUS
 10
-9.8000000123
 20
-29.5319148898
 11
-9.8416667585
 21
-29.3191489577
  0
LINE
  5
361
100
AcDbEntity
  8
0
100
AcDbLine
 62
7
  6
CONTINUOUS
 10
-12.1750000123
 20
-37.0
 11
-12.1750000123
 21
-35.0
  0
LINE
  5
362
100
AcDbEntity
  8
0
100
AcDbLine
 62
7
  6
CONTINUOUS
 10
-11.9250000123
 20
-35.4255318642
 11
-11.9250000123
 21
-37.0
  0
LINE
  5
363
100
AcDbEntity
  8
0
100
AcDbLine
 62
7
  6
CONTINUOUS
 10
-11.7166666393
 20
-30.0
 11
-11.7166666393
 21
-28.0
  0
LINE
  5
364
100
AcDbEntity
  8
0
100
AcDbLine
 62
7
  6
CONTINUOUS
 10
-11.4666666393
 20
-28.2127659321
 11
-11.4666666393
 21
-28.8510638475
  0
LINE
  5
365
100
AcDbEntity
  8
0
100
AcDbLine
 62
7
  6
CONTINUOUS
 10
-11.4666666393
 20
-29.106382966
 11
-11.4666666393
 21
-30.0
  0
LINE
  5
366
100
AcDbEntity
  8
0
100
AcDbLine
 62
7
  6
CONTINUOUS
 10
1.8249999877
 20
-28.5531915426
 11
1.9083330031
 21
-28.6808511019
  0
LINE
  5
367
100
AcDbEntity
  8
0
100
AcDbLine
 62
7
  6
CONTINUOUS
 10
3.2833330031
 20
-36.7446808517
 11
3.1999999877
 21
-36.5744680762
  0
LINE
  5
368
100
AcDbEntity
  8
0
100
AcDbLine
 62
7
  6
CONTINUOUS
 10
3.4083330031
 20
-36.5319148898
 11
3.4499999877
 21
-36.6170212626
  0
LINE
  5
369
100
AcDbEntity
  8
0
100
AcDbLine
 62
7
  6
CONTINUOUS
 10
-3.0083330278
 20
-30.2553191483
 11
-3.0916669969
 21
-30.0425531902
  0
LINE
  5
36A
100
AcDbEntity
  8
0
100
AcDbLine
 62
7
  6
CONTINUOUS
 10
-2.9250000123
 20
-30.0425531902
 11
-2.8416669969
 21
-30.2553191483
  0
LINE
  5
36B
100
AcDbEntity
  8
0
100
AcDbLine
 62
7
  6
CONTINUOUS
 10
-3.9250000123
 20
-29.0212765932
 11
-3.5500000123
 21
-30.0
  0
LINE
  5
36C
100
AcDbEntity
  8
0
100
AcDbLine
 62
7
  6
CONTINUOUS
 10
-3.8416669969
 20
-30.0
 11
-4.1750000123
 21
-29.106382966
  0
LINE
  5
36D
100
AcDbEntity
  8
0
100
AcDbLine
 62
7
  6
CONTINUOUS
 10
-3.8416669969
 20
-28.4680850506
 11
-3.8833330278
 21
-28.3404254913
  0
LINE
  5
36E
100
AcDbEntity
  8
0
100
AcDbLine
 62
7
  6
CONTINUOUS
 10
-1.2166669969
 20
-35.8510638475
 11
-1.1750000123
 21
-35.9787234068
  0
LINE
  5
36F
100
AcDbEntity
  8
0
100
AcDbLine
 62
7
  6
CONTINUOUS
 10
-3.6333330278
 20
-28.3404254913
 11
-3.5916669969
 21
-28.4680850506
  0
LINE
  5
370
100
AcDbEntity
  8
0
100
AcDbLine
 62
7
  6
CONTINUOUS
 10
-5.2166665201
 20
-35.9787234068
 11
-5.1750000123
 21
-36.1489361525
  0
LINE
  5
371
100
AcDbEntity
  8
0
100
AcDbLine
 62
7
  6
CONTINUOUS
 10
-8.2583335046
 20
-28.2978723049
 11
-8.2166665201
 21
-28.5106383562
  0
LINE
  5
372
100
AcDbEntity
  8
0
100
AcDbLine
 62
7
  6
CONTINUOUS
 10
-6.4666665201
 20
-36.5744680762
 11
-6.5083335046
 21
-36.3191489577
  0
LINE
  5
373
100
AcDbEntity
  8
0
100
AcDbLine
 62
7
  6
CONTINUOUS
 10
-10.4250000123
 20
-37.0
 11
-10.4250000123
 21
-35.4255318642
  0
LINE
  5
374
100
AcDbEntity
  8
0
100
AcDbLine
 62
7
  6
CONTINUOUS
 10
-10.4250000123
 20
-28.595744729
 11
-10.4250000123
 21
-28.4680850506
  0
LINE
  5
375
100
AcDbEntity
  8
0
100
AcDbLine
 62
7
  6
CONTINUOUS
 10
-10.1750000123
 20
-28.4680850506
 11
-10.1750000123
 21
-28.6382979155
  0
LINE
  5
376
100
AcDbEntity
  8
0
100
AcDbLine
 62
7
  6
CONTINUOUS
 10
-10.1750000123
 20
-35.0
 11
-10.1750000123
 21
-37.0
  0
LINE
  5
377
100
AcDbEntity
  8
0
100
AcDbLine
 62
7
  6
CONTINUOUS
 10
-9.8416667585
 20
-36.6170212626
 11
-9.8416667585
 21
-36.4893617034
  0
LINE
  5
378
100
AcDbEntity
  8
0
100
AcDbLine
 62
7
  6
CONTINUOUS
 10
-9.8416667585
 20
-35.9787234068
 11
-9.8416667585
 21
-35.893617034
  0
LINE
  5
379
100
AcDbEntity
  8
0
100
AcDbLine
 62
7
  6
CONTINUOUS
 10
-9.8416667585
 20
-29.3191489577
 11
-9.8416667585
 21
-28.6808511019
  0
LINE
  5
37A
100
AcDbEntity
  8
0
100
AcDbLine
 62
7
  6
CONTINUOUS
 10
-9.6333332662
 20
-36.5744680762
 11
-9.6333332662
 21
-36.6595744789
  0
LINE
  5
37B
100
AcDbEntity
  8
0
100
AcDbLine
 62
7
  6
CONTINUOUS
 10
-9.5916667585
 20
-28.6808511019
 11
-9.5916667585
 21
-29.3191489577
  0
LINE
  5
37C
100
AcDbEntity
  8
0
100
AcDbLine
 62
7
  6
CONTINUOUS
 10
-8.9250000123
 20
20.0
 11
-8.9250000123
 21
15.4
  0
LINE
  5
37D
100
AcDbEntity
  8
0
100
AcDbLine
 62
7
  6
CONTINUOUS
 10
-8.8000000123
 20
-36.5319148898
 11
-8.8000000123
 21
-36.2765957713
  0
LINE
  5
37E
100
AcDbEntity
  8
0
100
AcDbLine
 62
7
  6
CONTINUOUS
 10
-8.8000000123
 20
-36.106382966
 11
-8.8000000123
 21
-35.9787234068
  0
LINE
  5
37F
100
AcDbEntity
  8
0
100
AcDbLine
 62
7
  6
CONTINUOUS
 10
-8.5916667585
 20
-35.9787234068
 11
-8.5916667585
 21
-36.6595744789
  0
LINE
  5
380
100
AcDbEntity
  8
0
100
AcDbLine
 62
7
  6
CONTINUOUS
 10
-8.1750000123
 20
-36.4893617034
 11
-8.1750000123
 21
-36.1489361525
  0
LINE
  5
381
100
AcDbEntity
  8
0
100
AcDbLine
 62
7
  6
CONTINUOUS
 10
-7.9666665201
 20
-36.1914893389
 11
-7.9666665201
 21
-36.446808517
  0
LINE
  5
382
100
AcDbEntity
  8
0
100
AcDbLine
 62
7
  6
CONTINUOUS
 10
-7.8833335046
 20
-29.2765957713
 11
-7.8833335046
 21
-29.0638297796
  0
LINE
  5
383
100
AcDbEntity
  8
0
100
AcDbLine
 62
7
  6
CONTINUOUS
 10
-7.3000000123
 20
-29.0638297796
 11
-7.3000000123
 21
-29.2765957713
  0
LINE
  5
384
100
AcDbEntity
  8
0
100
AcDbLine
 62
7
  6
CONTINUOUS
 10
3.8998192858
 20
32.2
 11
4.6923940626
 21
33.932512406
  0
LWPOLYLINE
  5
385
100
AcDbEntity
  8
0
100
AcDbPolyline
 62
7
  6
CONTINUOUS
 90
10
 70
0
 10
-1.2191337262
 20
16.6177843222
 10
-1.2276598237
 20
16.6007826001
 10
-1.2424338563
 20
16.5788621088
 10
-1.2596768393
 20
16.5592718044
 10
-1.2795176927
 20
16.5421016992
 10
-1.3018274965
 20
16.5272617809
 10
-1.3255393182
 20
16.5155516879
 10
-1.3502975136
 20
16.5072379665
 10
-1.3764577269
 20
16.5020540706
 10
-1.4040199581
 20
16.5
  0
LINE
  5
386
100
AcDbEntity
  8
0
100
AcDbLine
 62
7
  6
CONTINUOUS
 10
6.5749999877
 20
-35.9787234068
 11
6.5333339568
 21
-35.893617034
  0
LINE
  5
387
100
AcDbEntity
  8
0
100
AcDbLine
 62
7
  6
CONTINUOUS
 10
7.2416660185
 20
-35.9787234068
 11
7.1999999877
 21
-35.8936170339
  0
LINE
  5
388
100
AcDbEntity
  8
0
100
AcDbLine
 62
7
  6
CONTINUOUS
 10
7.9916660185
 20
-36.6595744789
 11
8.0333339568
 21
-36.7446808517
  0
LINE
  5
389
100
AcDbEntity
  8
0
100
AcDbLine
 62
7
  6
CONTINUOUS
 10
8.9083339568
 20
-37.0
 11
8.8666660186
 21
-36.9148936198
  0
LINE
  5
38A
100
AcDbEntity
  8
0
100
AcDbLine
 62
7
  6
CONTINUOUS
 10
8.8249999877
 20
-35.9787234068
 11
8.7833339568
 21
-35.893617034
  0
LINE
  5
38B
100
AcDbEntity
  8
0
100
AcDbLine
 62
7
  6
CONTINUOUS
 10
0.4083330031
 20
-28.2127659321
 11
0.3249999877
 21
-28.0
  0
LINE
  5
38C
100
AcDbEntity
  8
0
100
AcDbLine
 62
7
  6
CONTINUOUS
 10
0.4916669722
 20
-28.0
 11
0.5749999877
 21
-28.2127659321
  0
LINE
  5
38D
100
AcDbEntity
  8
0
100
AcDbLine
 62
7
  6
CONTINUOUS
 10
2.5749999877
 20
-35.5106383562
 11
2.5333330031
 21
-35.3829786778
  0
LINE
  5
38E
100
AcDbEntity
  8
0
100
AcDbLine
 62
7
  6
CONTINUOUS
 10
3.3666669722
 20
-36.4042553306
 11
3.4083330031
 21
-36.5319148898
  0
LINE
  5
38F
100
AcDbEntity
  8
0
100
AcDbLine
 62
7
  6
CONTINUOUS
 10
1.4499999877
 20
-36.3191489577
 11
1.4916669722
 21
-36.4893617034
  0
LINE
  5
390
100
AcDbEntity
  8
0
100
AcDbLine
 62
7
  6
CONTINUOUS
 10
-3.0916669969
 20
-30.0425531902
 11
-3.1750000123
 21
-29.6595744788
  0
LINE
  5
391
100
AcDbEntity
  8
0
100
AcDbLine
 62
7
  6
CONTINUOUS
 10
-3.0083330278
 20
-29.6595744789
 11
-2.9250000123
 21
-30.0425531902
  0
LINE
  5
392
100
AcDbEntity
  8
0
100
AcDbLine
 62
7
  6
CONTINUOUS
 10
-1.3416669969
 20
-36.1914893389
 11
-1.3833330278
 21
-35.9787234068
  0
LINE
  5
393
100
AcDbEntity
  8
0
100
AcDbLine
 62
7
  6
CONTINUOUS
 10
-1.1750000123
 20
-35.9787234068
 11
-1.1333330278
 21
-36.1914893389
  0
LINE
  5
394
100
AcDbEntity
  8
0
100
AcDbLine
 62
7
  6
CONTINUOUS
 10
-3.1750000123
 20
-29.6595744788
 11
-3.2166669969
 21
-29.2765957713
  0
LINE
  5
395
100
AcDbEntity
  8
0
100
AcDbLine
 62
7
  6
CONTINUOUS
 10
-3.0500000123
 20
-29.2765957713
 11
-3.0083330278
 21
-29.6595744789
  0
LINE
  5
396
100
AcDbEntity
  8
0
100
AcDbLine
 62
7
  6
CONTINUOUS
 10
-7.0500000123
 20
-37.0
 11
-7.0500000123
 21
-36.7446808517
  0
LINE
  5
397
100
AcDbEntity
  8
0
100
AcDbLine
 62
7
  6
CONTINUOUS
 10
-7.0500000123
 20
-36.5319148898
 11
-7.0500000123
 21
-36.106382966
  0
LINE
  5
398
100
AcDbEntity
  8
0
100
AcDbLine
 62
7
  6
CONTINUOUS
 10
-7.0500000123
 20
-35.893617034
 11
-7.0500000123
 21
-35.0
  0
LINE
  5
399
100
AcDbEntity
  8
0
100
AcDbLine
 62
7
  6
CONTINUOUS
 10
-6.9666665201
 20
-30.0
 11
-6.9666665201
 21
-28.0
  0
LINE
  5
39A
100
AcDbEntity
  8
0
100
AcDbLine
 62
7
  6
CONTINUOUS
 10
-6.8416665201
 20
-35.0
 11
-6.8416665201
 21
-37.0
  0
LINE
  5
39B
100
AcDbEntity
  8
0
100
AcDbLine
 62
7
  6
CONTINUOUS
 10
-6.7166665201
 20
-28.2553191185
 11
-6.7166665201
 21
-28.8085106611
  0
LINE
  5
39C
100
AcDbEntity
  8
0
100
AcDbLine
 62
7
  6
CONTINUOUS
 10
-6.7166665201
 20
-29.0638297796
 11
-6.7166665201
 21
-30.0
  0
LINE
  5
39D
100
AcDbEntity
  8
0
100
AcDbLine
 62
7
  6
CONTINUOUS
 10
-6.3000000123
 20
-36.3191489577
 11
-6.3000000123
 21
-36.4042553306
  0
LINE
  5
39E
100
AcDbEntity
  8
0
100
AcDbLine
 62
7
  6
CONTINUOUS
 10
-6.2583335046
 20
-36.106382966
 11
-6.2583335046
 21
-36.1489361525
  0
LINE
  5
39F
100
AcDbEntity
  8
0
100
AcDbLine
 62
7
  6
CONTINUOUS
 10
-5.6333335046
 20
-28.8085106611
 11
-5.6333335046
 21
-29.0638297796
  0
LINE
  5
3A0
100
AcDbEntity
  8
0
100
AcDbLine
 62
7
  6
CONTINUOUS
 10
-5.4666665201
 20
-28.0
 11
-5.4666665201
 21
-28.2553191185
  0
LINE
  5
3A1
100
AcDbEntity
  8
0
100
AcDbLine
 62
7
  6
CONTINUOUS
 10
-5.3833335046
 20
-36.1489361525
 11
-5.3833335046
 21
-36.0638297796
  0
LINE
  5
3A2
100
AcDbEntity
  8
0
100
AcDbLine
 62
7
  6
CONTINUOUS
 10
-5.1750000123
 20
-36.1489361525
 11
-5.1750000123
 21
-36.3191489577
  0
LINE
  5
3A3
100
AcDbEntity
  8
0
100
AcDbLine
 62
7
  6
CONTINUOUS
 10
-5.1333335046
 20
-30.0
 11
-5.1333335046
 21
-28.0
  0
LINE
  5
3A4
100
AcDbEntity
  8
0
100
AcDbLine
 62
7
  6
CONTINUOUS
 10
-4.9250000123
 20
43.5
 11
-4.9250000123
 21
42.0
  0
LINE
  5
3A5
100
AcDbEntity
  8
0
100
AcDbLine
 62
7
  6
CONTINUOUS
 10
-4.8833330278
 20
-28.2127659321
 11
-4.8833330278
 21
-28.8510638475
  0
LINE
  5
3A6
100
AcDbEntity
  8
0
100
AcDbLine
 62
7
  6
CONTINUOUS
 10
-4.8833330278
 20
-29.106382966
 11
-4.8833330278
 21
-30.0
  0
LINE
  5
3A7
100
AcDbEntity
  8
0
100
AcDbLine
 62
7
  6
CONTINUOUS
 10
-4.6902861963
 20
31.5
 11
-4.6902861963
 21
19.5
  0
LINE
  5
3A8
100
AcDbEntity
  8
0
100
AcDbLine
 62
7
  6
CONTINUOUS
 10
-3.8416669969
 20
-28.595744729
 11
-3.8416669969
 21
-28.4680850506
  0
LINE
  5
3A9
100
AcDbEntity
  8
0
100
AcDbLine
 62
7
  6
CONTINUOUS
 10
-3.5916669969
 20
-28.4680850506
 11
-3.5916669969
 21
-28.6382979155
  0
LINE
  5
3AA
100
AcDbEntity
  8
0
100
AcDbLine
 62
7
  6
CONTINUOUS
 10
-3.4251990666
 20
19.5
 11
-3.4251990666
 21
16.5
  0
LINE
  5
3AB
100
AcDbEntity
  8
0
100
AcDbLine
 62
7
  6
CONTINUOUS
 10
-4.6902861963
 20
31.5
 11
-4.5423940872
 21
33.932512406
  0
LINE
  5
3AC
100
AcDbEntity
  8
0
100
AcDbLine
 62
7
  6
CONTINUOUS
 10
-9.8416667585
 20
-28.6808511019
 11
-9.8000000123
 21
-28.4680850506
  0
LWPOLYLINE
  5
3AD
100
AcDbEntity
  8
0
100
AcDbPolyline
 62
253
  6
CONTINUOUS
 90
24
 70
0
 10
2.5749348167
 20
30.5000033372
 10
2.5729244054
 20
30.4898390675
 10
2.5631156002
 20
30.4752481513
 10
2.5451189965
 20
30.4606208904
 10
2.5189712359
 20
30.4459893917
 10
2.4847156299
 20
30.4313589347
 10
2.4424574662
 20
30.41672424
 10
2.3924362361
 20
30.4021015768
 10
2.3348751958
 20
30.3874948742
 10
2.2699676152
 20
30.3729002031
 10
2.1979414581
 20
30.3583220458
 10
2.11904562
 20
30.3437661352
 10
2.0335437963
 20
30.3292267383
 10
1.9416916989
 20
30.3146911394
 10
1.8437770501
 20
30.3001543952
 10
1.7401518557
 20
30.2856214489
 10
1.631153686
 20
30.2710944134
 10
1.5171395803
 20
30.2565768631
 10
1.3984670865
 20
30.2420652236
 10
1.2754785234
 20
30.2275508842
 10
1.148666155
 20
30.2130431944
 10
1.0183611397
 20
30.1985328048
 10
0.8846325273
 20
30.1839830565
 10
0.7476333513
 20
30.1693684039
  0
LWPOLYLINE
  5
3AE
100
AcDbEntity
  8
0
100
AcDbPolyline
 62
253
  6
CONTINUOUS
 90
23
 70
0
 10
2.5749548197
 20
28.8998490397
 10
2.5709706887
 20
28.8855499356
 10
2.5587052815
 20
28.8709204907
 10
2.5382155548
 20
28.8562951452
 10
2.5096135699
 20
28.8416691943
 10
2.4730521236
 20
28.8270558513
 10
2.4286810647
 20
28.8124588925
 10
2.376628618
 20
28.7978745415
 10
2.3170469152
 20
28.7833046827
 10
2.2501760773
 20
28.7687511783
 10
2.1762903384
 20
28.7542121661
 10
2.0956488292
 20
28.7396839438
 10
2.0085302678
 20
28.7251672618
 10
1.9152035082
 20
28.7106613697
 10
1.8159054923
 20
28.6961603145
 10
1.710975166
 20
28.6816640497
 10
1.6007892461
 20
28.6671726217
 10
1.4856766811
 20
28.6526802174
 10
1.3659741316
 20
28.6381828625
 10
1.2420830296
 20
28.6236845313
 10
1.1144335364
 20
28.6091913339
 10
0.9835788386
 20
28.5947174725
 10
0.8498393383
 20
28.5802487449
  0
LINE
  5
3AF
100
AcDbEntity
  8
0
100
AcDbLine
 62
7
  6
CONTINUOUS
 10
11.1999999877
 20
-35.6382979155
 11
11.6583339568
 21
-36.5319148898
  0
LINE
  5
3B0
100
AcDbEntity
  8
0
100
AcDbLine
 62
7
  6
CONTINUOUS
 10
11.5333339568
 20
-36.8297872394
 11
10.9499999877
 21
-35.6382979155
  0
LINE
  5
3B1
100
AcDbEntity
  8
0
100
AcDbLine
 62
7
  6
CONTINUOUS
 10
7.3666660186
 20
-35.7659574747
 11
7.4499999877
 21
-35.9787234068
  0
LINE
  5
3B2
100
AcDbEntity
  8
0
100
AcDbLine
 62
7
  6
CONTINUOUS
 10
4.4499999877
 20
-35.9787234068
 11
4.4916660185
 21
-36.1489361525
  0
LINE
  5
3B3
100
AcDbEntity
  8
0
100
AcDbLine
 62
7
  6
CONTINUOUS
 10
0.4916669722
 20
-28.5957447291
 11
0.4083330031
 21
-28.2127659321
  0
LINE
  5
3B4
100
AcDbEntity
  8
0
100
AcDbLine
 62
7
  6
CONTINUOUS
 10
0.5749999877
 20
-28.2127659321
 11
0.6583330031
 21
-28.5957447291
  0
LINE
  5
3B5
100
AcDbEntity
  8
0
100
AcDbLine
 62
7
  6
CONTINUOUS
 10
1.2416669722
 20
-36.5319148898
 11
1.1999999877
 21
-36.3191489577
  0
LINE
  5
3B6
100
AcDbEntity
  8
0
100
AcDbLine
 62
7
  6
CONTINUOUS
 10
2.7833330031
 20
-35.2978723049
 11
2.8249999877
 21
-35.5106383562
  0
LINE
  5
3B7
100
AcDbEntity
  8
0
100
AcDbLine
 62
7
  6
CONTINUOUS
 10
0.5333330031
 20
-28.9787234068
 11
0.4916669722
 21
-28.5957447291
  0
LINE
  5
3B8
100
AcDbEntity
  8
0
100
AcDbLine
 62
7
  6
CONTINUOUS
 10
0.6583330031
 20
-28.5957447291
 11
0.6999999877
 21
-28.9787234068
  0
LWPOLYLINE
  5
3B9
100
AcDbEntity
  8
0
100
AcDbPolyline
 62
7
  6
CONTINUOUS
 90
42
 70
0
 10
-2.4249551434
 20
21.6999843846
 10
-2.42464699
 20
21.6821841161
 10
-2.4207880668
 20
21.6345499627
 10
-2.4128802522
 20
21.5886649214
 10
-2.4014335304
 20
21.5450199079
 10
-2.3868347853
 20
21.5036134293
 10
-2.3691688139
 20
21.4639961104
 10
-2.3485023035
 20
21.4261001085
 10
-2.3251344343
 20
21.3903308084
 10
-2.2993361285
 20
21.3568883005
 10
-2.271111112
 20
21.3255082983
 10
-2.2408852825
 20
21.2964143678
 10
-2.2097258189
 20
21.2702286437
 10
-2.1780087656
 20
21.2467714936
 10
-2.1457476849
 20
21.2256407703
 10
-2.1135779336
 20
21.2068638435
 10
-2.0818897676
 20
21.1902592915
 10
-2.0503936928
 20
21.1753331492
 10
-2.0187613652
 20
21.1616871557
 10
-1.9871004901
 20
21.1491749193
 10
-1.9552475414
 20
21.1375692521
 10
-1.9225326675
 20
21.1265206681
 10
-1.8888691609
 20
21.115932743
 10
-1.8542490549
 20
21.1057452984
 10
-1.818156945
 20
21.0957674029
 10
-1.7804897892
 20
21.0859476888
 10
-1.7412388469
 20
21.0762643144
 10
-1.7000342021
 20
21.0666144051
 10
-1.6567744071
 20
21.0569705758
 10
-1.6114318939
 20
21.047323807
 10
-1.5637460835
 20
21.037618625
 10
-1.5135628195
 20
21.0278275292
 10
-1.4609048602
 20
21.0179585438
 10
-1.4058004836
 20
21.0080183308
 10
-1.3481528342
 20
20.9979886373
 10
-1.288015325
 20
20.9878748607
 10
-1.2257084615
 20
20.9777231567
 10
-1.1612624577
 20
20.9675280967
 10
-1.0947226768
 20
20.9572864154
 10
-1.0265098995
 20
20.9470501555
 10
-0.9566961372
 20
20.9368155293
 10
-0.8130254874
 20
20.9164023734
  0
LWPOLYLINE
  5
3BA
100
AcDbEntity
  8
0
100
AcDbPolyline
 62
7
  6
CONTINUOUS
 90
41
 70
0
 10
-2.4249757568
 20
23.2999966847
 10
-2.4247066568
 20
23.2833537251
 10
-2.4209965138
 20
23.2360518556
 10
-2.4131160907
 20
23.1896708674
 10
-2.4012760331
 20
23.1444593584
 10
-2.3857129306
 20
23.1007939914
 10
-2.3667417446
 20
23.0591378127
 10
-2.3445451859
 20
23.0195893557
 10
-2.3193924902
 20
22.9824201978
 10
-2.2918711601
 20
22.9481396543
 10
-2.2622324572
 20
22.9165477635
 10
-2.2308724649
 20
22.8876357595
 10
-2.1988054167
 20
22.861834144
 10
-2.1664925809
 20
22.8389491211
 10
-2.1338973255
 20
22.8184851355
 10
-2.1013189736
 20
22.8002374424
 10
-2.0690142595
 20
22.7839810607
 10
-2.0367502085
 20
22.769291042
 10
-2.0041111483
 20
22.7557603292
 10
-1.9711295581
 20
22.7432361724
 10
-1.9376540643
 20
22.7315214554
 10
-1.9030683659
 20
22.7203077259
 10
-1.8672954807
 20
22.709509508
 10
-1.8302967882
 20
22.6990604694
 10
-1.7915522864
 20
22.6887783507
 10
-1.750940732
 20
22.6786134067
 10
-1.7084417161
 20
22.6685458852
 10
-1.6636869509
 20
22.6584808338
 10
-1.6165411896
 20
22.6483875756
 10
-1.5669874047
 20
22.6382626221
 10
-1.5148462716
 20
22.6280704185
 10
-1.459930421
 20
22.6177782816
 10
-1.4022980797
 20
22.6073996857
 10
-1.3422106622
 20
22.5969761142
 10
-1.2796515041
 20
22.5864955861
 10
-1.2146685969
 20
22.5759568823
 10
-1.1477204298
 20
22.5654216014
 10
-1.0788704907
 20
22.5548842474
 10
-1.0081991874
 20
22.5443420218
 10
-0.9362812098
 20
22.5338632932
 10
-0.7891470711
 20
22.5130834114
  0
LWPOLYLINE
  5
3BB
100
AcDbEntity
  8
0
100
AcDbPolyline
 62
7
  6
CONTINUOUS
 90
40
 70
0
 10
-2.4249927562
 20
31.3001235212
 10
-2.4247638858
 20
31.2847724183
 10
-2.4212868416
 20
31.2384188182
 10
-2.4137335566
 20
31.1926216441
 10
-2.4021828451
 20
31.1475001593
 10
-2.3868008275
 20
31.1035826479
 10
-2.3680043682
 20
31.0617288636
 10
-2.3460507159
 20
31.0221242229
 10
-2.3211848192
 20
30.984934711
 10
-2.2940630866
 20
30.9507396227
 10
-2.2650685987
 20
30.9194257528
 10
-2.2345411406
 20
30.8908526173
 10
-2.2032474565
 20
30.8652352355
 10
-2.1715376319
 20
30.8423508674
 10
-2.1394562705
 20
30.821807239
 10
-2.1072912256
 20
30.8034226262
 10
-2.0753211614
 20
30.78700667
 10
-2.0432798863
 20
30.7721300135
 10
-2.0105952142
 20
30.758332691
 10
-1.9772168289
 20
30.7454573248
 10
-1.9429529929
 20
30.7333147813
 10
-1.907009607
 20
30.7215536897
 10
-1.8690581524
 20
30.7100374762
 10
-1.829097385
 20
30.6987439695
 10
-1.7868826049
 20
30.687586166
 10
-1.7422330572
 20
30.6765068293
 10
-1.6950802311
 20
30.6654823221
 10
-1.6454753136
 20
30.654516122
 10
-1.5933210595
 20
30.6435778088
 10
-1.5385905621
 20
30.6326539173
 10
-1.4816005751
 20
30.6217920354
 10
-1.4223757653
 20
30.6109759138
 10
-1.3609689712
 20
30.600195672
 10
-1.2978917
 20
30.5895184349
 10
-1.2332547977
 20
30.5789377431
 10
-1.1671506201
 20
30.5684452894
 10
-1.1001794546
 20
30.558111356
 10
-1.0326362834
 20
30.5479543772
 10
-0.9645076269
 20
30.5379468127
 10
-0.8273126021
 20
30.5184007197
  0
LWPOLYLINE
  5
3BC
100
AcDbEntity
  8
0
100
AcDbPolyline
 62
7
  6
CONTINUOUS
 90
40
 70
0
 10
-2.4249110759
 20
29.7000575024
 10
-2.424701483
 20
29.6853597332
 10
-2.4213313245
 20
29.639395675
 10
-2.4139043385
 20
29.593735839
 10
-2.4024221838
 20
29.5484608297
 10
-2.3869952488
 20
29.5041623814
 10
-2.3680453759
 20
29.4618523783
 10
-2.3458117854
 20
29.4217380434
 10
-2.3205194255
 20
29.3840027597
 10
-2.2928953235
 20
29.3493418569
 10
-2.2633362464
 20
29.3176385826
 10
-2.2321924667
 20
29.2887489811
 10
-2.20034382
 20
29.2629591561
 10
-2.168177103
 20
29.240032189
 10
-2.1357303358
 20
29.2195356272
 10
-2.1033668452
 20
29.2012975042
 10
-2.0714418363
 20
29.1851287787
 10
-2.0396590939
 20
29.1705543068
 10
-2.0073874832
 20
29.1570714362
 10
-1.9746348002
 20
29.1445335145
 10
-1.9412290159
 20
29.132748971
 10
-1.9062581693
 20
29.1213258163
 10
-1.8694021912
 20
29.1101349637
 10
-1.830687938
 20
29.0991663681
 10
-1.7897352181
 20
29.0883009478
 10
-1.7462851066
 20
29.0774709805
 10
-1.7003170642
 20
29.0666701196
 10
-1.651893964
 20
29.0559056317
 10
-1.600941416
 20
29.0451519749
 10
-1.5474106216
 20
29.034390954
 10
-1.4915320688
 20
29.0236580878
 10
-1.4332870424
 20
29.012936617
 10
-1.3727043024
 20
29.0022195116
 10
-1.3102130667
 20
28.991566932
 10
-1.2458689824
 20
28.9809694162
 10
-1.1797682419
 20
28.970421909
 10
-1.1125140036
 20
28.9599962778
 10
-1.0442906335
 20
28.9496948273
 10
-0.9751825628
 20
28.9395059316
 10
-0.8362150877
 20
28.9196477139
  0
LWPOLYLINE
  5
3BD
100
AcDbEntity
  8
0
100
AcDbPolyline
 62
7
  6
CONTINUOUS
 90
40
 70
0
 10
-2.4249194008
 20
24.9001232606
 10
-2.4247211497
 20
24.8858249898
 10
-2.4214038018
 20
24.8400059621
 10
-2.4140026033
 20
24.7942339383
 10
-2.4024343232
 20
24.7485375616
 10
-2.3867540996
 20
24.7035993288
 10
-2.3674161005
 20
24.6606438602
 10
-2.3446563662
 20
24.6199020309
 10
-2.3186895231
 20
24.5815666844
 10
-2.2903621537
 20
24.5464732576
 10
-2.2601205829
 20
24.5144991568
 10
-2.228321698
 20
24.4854592359
 10
-2.195955487
 20
24.4596809094
 10
-2.1635214323
 20
24.4369479681
 10
-2.1309995922
 20
24.4167363056
 10
-2.0986039144
 20
24.3987643517
 10
-2.0666081822
 20
24.3828044675
 10
-2.0347937702
 20
24.3684276274
 10
-2.0026284696
 20
24.3551721711
 10
-1.9701600488
 20
24.3428948393
 10
-1.9372348332
 20
24.3314003121
 10
-1.9030497958
 20
24.3203241034
 10
-1.8674346176
 20
24.3095671916
 10
-1.8303860928
 20
24.2990924323
 10
-1.7913599967
 20
24.2887258149
 10
-1.7501711002
 20
24.2784148246
 10
-1.7067790925
 20
24.2681480275
 10
-1.6608590314
 20
24.2578498501
 10
-1.6122096524
 20
24.2474789816
 10
-1.5608384877
 20
24.2370401841
 10
-1.5067912026
 20
24.2265424971
 10
-1.4499483696
 20
24.2159615473
 10
-1.3903340382
 20
24.2053003016
 10
-1.3283106207
 20
24.1946170848
 10
-1.2638839135
 20
24.1839028005
 10
-1.1970884061
 20
24.1731532286
 10
-1.1284524211
 20
24.1624383845
 10
-1.0580726947
 20
24.1517527988
 10
-0.9860571421
 20
24.1410928321
 10
-0.8392324414
 20
24.1200726349
  0
LWPOLYLINE
  5
3BE
100
AcDbEntity
  8
0
100
AcDbPolyline
 62
7
  6
CONTINUOUS
 90
41
 70
0
 10
-2.4249927525
 20
26.5000234531
 10
-2.4248052879
 20
26.4861238321
 10
-2.4215770924
 20
26.4407858242
 10
-2.4143609976
 20
26.3955542725
 10
-2.4031000816
 20
26.3504732433
 10
-2.3878610895
 20
26.3061765339
 10
-2.3690668221
 20
26.2637877298
 10
-2.3469445645
 20
26.223529778
 10
-2.321701681
 20
26.1855897321
 10
-2.2941019377
 20
26.1507416709
 10
-2.2645421682
 20
26.1188657625
 10
-2.2333795034
 20
26.0898186983
 10
-2.201578762
 20
26.0639477123
 10
-2.1696279793
 20
26.0410569929
 10
-2.1375130799
 20
26.0206431523
 10
-2.105450891
 20
26.002441969
 10
-2.0737085398
 20
25.9862374113
 10
-2.0420694832
 20
25.9716111312
 10
-2.0100018094
 20
25.9581062
 10
-1.977498671
 20
25.9455672633
 10
-1.9444154149
 20
25.9338105483
 10
-1.9100314226
 20
25.9225000738
 10
-1.8741601067
 20
25.9115282786
 10
-1.8367879343
 20
25.9008504443
 10
-1.7974890684
 20
25.8903181744
 10
-1.756102803
 20
25.8798763471
 10
-1.7125937793
 20
25.869506654
 10
-1.6667691757
 20
25.8591566626
 10
-1.6184947549
 20
25.8487938055
 10
-1.5677515374
 20
25.8384124548
 10
-1.5145861511
 20
25.8280187983
 10
-1.4589449029
 20
25.8175978147
 10
-1.4008281572
 20
25.8071419365
 10
-1.340444365
 20
25.7966772582
 10
-1.2778206118
 20
25.7861954273
 10
-1.2129997113
 20
25.7756908669
 10
-1.1462895758
 20
25.7651990607
 10
-1.0777547898
 20
25.7547144038
 10
-1.0074782511
 20
25.744234291
 10
-0.93586044
 20
25.7338018819
 10
-0.7890542782
 20
25.7130714658
  0
LWPOLYLINE
  5
3BF
100
AcDbEntity
  8
0
100
AcDbPolyline
 62
7
  6
CONTINUOUS
 90
41
 70
0
 10
-2.4249999123
 20
28.1000716798
 10
-2.4248183788
 20
28.0863963757
 10
-2.4216409849
 20
28.0413349671
 10
-2.4145332313
 20
27.9964219315
 10
-2.4034558391
 20
27.9517094696
 10
-2.3884841589
 20
27.9078017727
 10
-2.3700243291
 20
27.8657625514
 10
-2.3482917261
 20
27.8257953835
 10
-2.3234963426
 20
27.7880971185
 10
-2.2963875831
 20
27.7534422616
 10
-2.2673834085
 20
27.7217473004
 10
-2.2368163533
 20
27.6928413803
 10
-2.2055468598
 20
27.6670040806
 10
-2.1739741661
 20
27.644013344
 10
-2.1421491487
 20
27.6234462843
 10
-2.1104188545
 20
27.6051302201
 10
-2.0791059249
 20
27.5888714768
 10
-2.047973659
 20
27.5742284475
 10
-2.0165193575
 20
27.5607463385
 10
-1.984762221
 20
27.5482731059
 10
-1.9525585224
 20
27.5366173969
 10
-1.9191726132
 20
27.5254279217
 10
-1.8844604889
 20
27.5146051779
 10
-1.8483847262
 20
27.5040938978
 10
-1.8103817483
 20
27.4937054145
 10
-1.7702119726
 20
27.483369485
 10
-1.7278825091
 20
27.4730852873
 10
-1.6832272037
 20
27.4628100706
 10
-1.6360853935
 20
27.4525079943
 10
-1.586434703
 20
27.4421758529
 10
-1.5343942929
 20
27.431836718
 10
-1.4799149769
 20
27.4214758442
 10
-1.4229907321
 20
27.4110837767
 10
-1.3639024097
 20
27.4006999895
 10
-1.3026780091
 20
27.39031534
 10
-1.2393637386
 20
27.3799241147
 10
-1.1743603927
 20
27.3695763253
 10
-1.1077399919
 20
27.359265915
 10
-1.0395920841
 20
27.3489900299
 10
-0.9704225406
 20
27.3388066817
 10
-0.8295863347
 20
27.3187177739
  0
LWPOLYLINE
  5
3C0
100
AcDbEntity
  8
0
100
AcDbPolyline
 62
7
  6
CONTINUOUS
 90
41
 70
0
 10
-2.4249548412
 20
20.1001521606
 10
-2.4247845321
 20
20.0869020617
 10
-2.4216791448
 20
20.0421340059
 10
-2.4146729568
 20
19.9973936583
 10
-2.4036921399
 20
19.9527147139
 10
-2.3887850932
 20
19.9087252087
 10
-2.3703544748
 20
19.8665505304
 10
-2.3486043775
 20
19.8264031274
 10
-2.3237330713
 20
19.7884877418
 10
-2.2965130524
 20
19.7536304818
 10
-2.26736624
 20
19.7217519373
 10
-2.2366260989
 20
19.6926798389
 10
-2.2051918747
 20
19.6667224628
 10
-2.1734802416
 20
19.6436581389
 10
-2.1415391634
 20
19.6230506894
 10
-2.1097337614
 20
19.6047294374
 10
-2.078383889
 20
19.5884906571
 10
-2.0472678415
 20
19.5738942219
 10
-2.0159377546
 20
19.560501693
 10
-1.9844635839
 20
19.5481659953
 10
-1.9526947984
 20
19.5366779418
 10
-1.9198811952
 20
19.525671981
 10
-1.8858874868
 20
19.5150481563
 10
-1.8507052153
 20
19.5047575015
 10
-1.8137868947
 20
19.4946123317
 10
-1.7749630022
 20
19.4845569995
 10
-1.7342133318
 20
19.4745795801
 10
-1.6912158941
 20
19.4645993992
 10
-1.645770103
 20
19.4545751908
 10
-1.597876267
 20
19.4445117715
 10
-1.5475644931
 20
19.4344137763
 10
-1.4947557658
 20
19.4242619608
 10
-1.4394466662
 20
19.4140522339
 10
-1.3818645657
 20
19.4038200109
 10
-1.3220084463
 20
19.3935561924
 10
-1.259901799
 20
19.3832560019
 10
-1.1958967021
 20
19.3729665162
 10
-1.1300397122
 20
19.3626818564
 10
-1.0623986976
 20
19.3523991208
 10
-0.9934485936
 20
19.3421726993
 10
-0.8520702907
 20
19.3218766307
  0
LINE
  5
3C1
100
AcDbEntity
  8
0
100
AcDbLine
 62
7
  6
CONTINUOUS
 10
-3.2166669969
 20
-29.2765957713
 11
-3.2166669969
 21
-28.9787234068
  0
LINE
  5
3C2
100
AcDbEntity
  8
0
100
AcDbLine
 62
7
  6
CONTINUOUS
 10
-3.0780572491
 20
20.0
 11
-3.0780572491
 21
19.5
  0
LINE
  5
3C3
100
AcDbEntity
  8
0
100
AcDbLine
 62
7
  6
CONTINUOUS
 10
-3.0500000123
 20
-28.9787234068
 11
-3.0500000123
 21
-29.2765957713
  0
LINE
  5
3C4
100
AcDbEntity
  8
0
100
AcDbLine
 62
7
  6
CONTINUOUS
 10
-2.9250000123
 20
36.0
 11
-2.9250000123
 21
43.5
  0
LINE
  5
3C5
100
AcDbEntity
  8
0
100
AcDbLine
 62
7
  6
CONTINUOUS
 10
-2.8416669969
 20
-37.0
 11
-2.8416669969
 21
-35.6382979155
  0
LINE
  5
3C6
100
AcDbEntity
  8
0
100
AcDbLine
 62
7
  6
CONTINUOUS
 10
-2.8416669969
 20
-35.2127659321
 11
-2.8416669969
 21
-35.0
  0
LINE
  5
3C7
100
AcDbEntity
  8
0
100
AcDbLine
 62
7
  6
CONTINUOUS
 10
-2.6750000123
 20
19.5
 11
-2.6750000123
 21
32.2
  0
LINE
  5
3C8
100
AcDbEntity
  8
0
100
AcDbLine
 62
7
  6
CONTINUOUS
 10
-2.6333330278
 20
-35.0
 11
-2.6333330278
 21
-35.2127659321
  0
LINE
  5
3C9
100
AcDbEntity
  8
0
100
AcDbLine
 62
7
  6
CONTINUOUS
 10
-2.6333330278
 20
-35.6382979155
 11
-2.6333330278
 21
-37.0
  0
LINE
  5
3CA
100
AcDbEntity
  8
0
100
AcDbLine
 62
7
  6
CONTINUOUS
 10
-2.5083330278
 20
-28.6382979155
 11
-2.5083330278
 21
-28.2978723049
  0
LINE
  5
3CB
100
AcDbEntity
  8
0
100
AcDbLine
 62
7
  6
CONTINUOUS
 10
-2.4249927525
 20
26.5000234531
 11
-2.4249927591
 21
26.4998774955
  0
LINE
  5
3CC
100
AcDbEntity
  8
0
100
AcDbLine
 62
7
  6
CONTINUOUS
 10
-2.4249194008
 20
24.9001232606
 11
-2.4249194015
 21
24.8999705684
  0
LINE
  5
3CD
100
AcDbEntity
  8
0
100
AcDbLine
 62
7
  6
CONTINUOUS
 10
-2.4249757568
 20
23.2999966847
 11
-2.424975757
 21
23.2998505087
  0
LINE
  5
3CE
100
AcDbEntity
  8
0
100
AcDbLine
 62
7
  6
CONTINUOUS
 10
-2.3050000123
 20
16.5
 11
-2.3050000123
 21
19.5
  0
LINE
  5
3CF
100
AcDbEntity
  8
0
100
AcDbLine
 62
7
  6
CONTINUOUS
 10
-2.3000000123
 20
-37.0
 11
-2.3000000123
 21
-35.6382979155
  0
LINE
  5
3D0
100
AcDbEntity
  8
0
100
AcDbLine
 62
7
  6
CONTINUOUS
 10
-2.2583330278
 20
-30.0
 11
-2.2583330278
 21
-28.3404254913
  0
LINE
  5
3D1
100
AcDbEntity
  8
0
100
AcDbLine
 62
7
  6
CONTINUOUS
 10
-2.0916669969
 20
-35.6382979155
 11
-2.0916669969
 21
-35.8510638475
  0
LINE
  5
3D2
100
AcDbEntity
  8
0
100
AcDbLine
 62
7
  6
CONTINUOUS
 10
-2.0916669969
 20
-36.0212765932
 11
-2.0916669969
 21
-37.0
  0
LINE
  5
3D3
100
AcDbEntity
  8
0
100
AcDbLine
 62
7
  6
CONTINUOUS
 10
-2.0083330278
 20
-28.0
 11
-2.0083330278
 21
-30.0
  0
LINE
  5
3D4
100
AcDbEntity
  8
0
100
AcDbLine
 62
7
  6
CONTINUOUS
 10
-1.9695071042
 20
32.2
 11
-1.9695071042
 21
31.8573025516
  0
LINE
  5
3D5
100
AcDbEntity
  8
0
100
AcDbLine
 62
7
  6
CONTINUOUS
 10
-1.9695071042
 20
30.7427251244
 11
-1.9695071042
 21
30.2571986327
  0
LINE
  5
3D6
100
AcDbEntity
  8
0
100
AcDbLine
 62
7
  6
CONTINUOUS
 10
-1.9695071042
 20
29.1427246194
 11
-1.9695071042
 21
28.6573052069
  0
LINE
  5
3D7
100
AcDbEntity
  8
0
100
AcDbLine
 62
7
  6
CONTINUOUS
 10
-1.9695071042
 20
27.5427517152
 11
-1.9695071042
 21
27.0572683724
  0
LINE
  5
3D8
100
AcDbEntity
  8
0
100
AcDbLine
 62
7
  6
CONTINUOUS
 10
-1.9695071042
 20
25.9427273199
 11
-1.9695071042
 21
25.4572371873
  0
LINE
  5
3D9
100
AcDbEntity
  8
0
100
AcDbLine
 62
7
  6
CONTINUOUS
 10
-1.9695071042
 20
24.3426668897
 11
-1.9695071042
 21
23.8573359922
  0
LINE
  5
3DA
100
AcDbEntity
  8
0
100
AcDbLine
 62
7
  6
CONTINUOUS
 10
-1.9695071042
 20
22.7426683962
 11
-1.9695071042
 21
22.2572889804
  0
LINE
  5
3DB
100
AcDbEntity
  8
0
100
AcDbLine
 62
7
  6
CONTINUOUS
 10
-1.9695071042
 20
21.1427647441
 11
-1.9695071042
 21
20.6572139637
  0
LINE
  5
3DC
100
AcDbEntity
  8
0
100
AcDbLine
 62
7
  6
CONTINUOUS
 10
-1.9695071042
 20
19.5427575153
 11
-1.9695071042
 21
19.0572068783
  0
LINE
  5
3DD
100
AcDbEntity
  8
0
100
AcDbLine
 62
7
  6
CONTINUOUS
 10
-1.9695071042
 20
17.9427727546
 11
-1.9695071042
 21
17.4573448747
  0
LINE
  5
3DE
100
AcDbEntity
  8
0
100
AcDbLine
 62
7
  6
CONTINUOUS
 10
-1.6750000123
 20
-29.4042553306
 11
-1.6750000123
 21
-29.1489361525
  0
LINE
  5
3DF
100
AcDbEntity
  8
0
100
AcDbLine
 62
7
  6
CONTINUOUS
 10
-1.3416669969
 20
-37.0
 11
-1.3416669969
 21
-36.1914893389
  0
LINE
  5
3E0
100
AcDbEntity
  8
0
100
AcDbLine
 62
7
  6
CONTINUOUS
 10
-1.2250000123
 20
32.0223785235
 11
-1.2250000123
 21
32.2
  0
LINE
  5
3E1
100
AcDbEntity
  8
0
100
AcDbLine
 62
7
  6
CONTINUOUS
 10
-1.2007350946
 20
18.0
 11
-1.2007350946
 21
17.6262341957
  0
LINE
  5
3E2
100
AcDbEntity
  8
0
100
AcDbLine
 62
7
  6
CONTINUOUS
 10
-1.1333330278
 20
-36.1914893389
 11
-1.1333330278
 21
-37.0
  0
LINE
  5
3E3
100
AcDbEntity
  8
0
100
AcDbLine
 62
7
  6
CONTINUOUS
 10
-0.6750000123
 20
-30.0
 11
-0.6750000123
 21
-29.4042553306
  0
LINE
  5
3E4
100
AcDbEntity
  8
0
100
AcDbLine
 62
7
  6
CONTINUOUS
 10
-0.6750000123
 20
-29.1489361525
 11
-0.6750000123
 21
-28.3404254913
  0
LINE
  5
3E5
100
AcDbEntity
  8
0
100
AcDbLine
 62
7
  6
CONTINUOUS
 10
-0.4250000123
 20
-28.0
 11
-0.4250000123
 21
-29.1489361525
  0
LINE
  5
3E6
100
AcDbEntity
  8
0
100
AcDbLine
 62
7
  6
CONTINUOUS
 10
-0.4250000123
 20
-29.4042553306
 11
-0.4250000123
 21
-30.0
  0
LINE
  5
3E7
100
AcDbEntity
  8
0
100
AcDbLine
 62
7
  6
CONTINUOUS
 10
-0.0083330278
 20
-29.1489361525
 11
-0.0083330278
 21
-29.4042553306
  0
LINE
  5
3E8
100
AcDbEntity
  8
0
100
AcDbLine
 62
7
  6
CONTINUOUS
 10
-2.4249999123
 20
28.1000716798
 11
-2.4249999256
 21
28.0999332609
  0
LINE
  5
3E9
100
AcDbEntity
  8
0
100
AcDbLine
 62
7
  6
CONTINUOUS
 10
-2.4249551434
 20
21.6999843846
 11
-2.4249551542
 21
21.6998579748
  0
LINE
  5
3EA
100
AcDbEntity
  8
0
100
AcDbLine
 62
7
  6
CONTINUOUS
 10
-2.4249927562
 20
31.3001235212
 11
-2.4249927636
 21
31.2999805262
  0
LINE
  5
3EB
100
AcDbEntity
  8
0
100
AcDbLine
 62
7
  6
CONTINUOUS
 10
-2.4249110759
 20
29.7000575024
 11
-2.4249110842
 21
29.6999126838
  0
LINE
  5
3EC
100
AcDbEntity
  8
0
100
AcDbLine
 62
7
  6
CONTINUOUS
 10
-2.4249548412
 20
20.1001521606
 11
-2.4249548512
 21
20.1000145172
  0
LWPOLYLINE
  5
3ED
100
AcDbEntity
  8
0
100
AcDbPolyline
 62
253
  6
CONTINUOUS
 90
18
 70
0
 10
-2.0900236925
 20
21.8333344862
 10
-2.0885838755
 20
21.8735327212
 10
-2.0843118069
 20
21.9134783863
 10
-2.0772785609
 20
21.9529188401
 10
-2.0675552042
 20
21.9916014672
 10
-2.0552128169
 20
22.0292735913
 10
-2.040322511
 20
22.0656824842
 10
-2.0229553965
 20
22.1005754747
 10
-2.0031827076
 20
22.1337000845
 10
-1.981108198
 20
22.1648310967
 10
-1.9569081451
 20
22.1938041628
 10
-1.9307686833
 20
22.2204631122
 10
-1.902875994
 20
22.2446517504
 10
-1.8734162418
 20
22.2662139289
 10
-1.8425755131
 20
22.2849935616
 10
-1.8105398745
 20
22.3008345544
 10
-1.7774958864
 20
22.3135824504
 10
-1.7468234872
 20
22.3223925679
  0
LWPOLYLINE
  5
3EE
100
AcDbEntity
  8
0
100
AcDbPolyline
 62
253
  6
CONTINUOUS
 90
24
 70
0
 10
2.5749757386
 20
25.7000056706
 10
2.5745839433
 20
25.6955708632
 10
2.5680097302
 20
25.6810590925
 10
2.5533589325
 20
25.6665382072
 10
2.5306694703
 20
25.6520072962
 10
2.4999971282
 20
25.6374736965
 10
2.4613995572
 20
25.6229397132
 10
2.4149719201
 20
25.6084030412
 10
2.3609079012
 20
25.5938641034
 10
2.2994166005
 20
25.5793242026
 10
2.2306969125
 20
25.5647820359
 10
2.1549334522
 20
25.5502341173
 10
2.0723233183
 20
25.535680036
 10
1.9831130958
 20
25.5211202028
 10
1.8876088375
 20
25.5065523636
 10
1.7861303878
 20
25.4919755367
 10
1.6790120213
 20
25.4773907038
 10
1.5665883371
 20
25.4627985564
 10
1.4491422021
 20
25.4481931533
 10
1.3270862127
 20
25.4335804358
 10
1.2010031149
 20
25.4189789189
 10
1.0714359543
 20
25.4044001504
 10
0.9387226528
 20
25.3898325826
 10
0.8031458496
 20
25.3752600878
  0
LINE
  5
3EF
100
AcDbEntity
  8
0
100
AcDbLine
 62
7
  6
CONTINUOUS
 10
-3.2166669969
 20
-28.9787234068
 11
-3.1750000123
 21
-28.595744729
  0
LINE
  5
3F0
100
AcDbEntity
  8
0
100
AcDbLine
 62
7
  6
CONTINUOUS
 10
-3.0083330278
 20
-28.5957447291
 11
-3.0500000123
 21
-28.9787234068
  0
LWPOLYLINE
  5
3F1
100
AcDbEntity
  8
0
100
AcDbPolyline
 62
253
  6
CONTINUOUS
 90
20
 70
0
 10
2.5749757496
 20
32.0998584605
 10
2.573699528
 20
32.0918004331
 10
2.5649590003
 20
32.0771840679
 10
2.5479882805
 20
32.0625714945
 10
2.5229068984
 20
32.0479675115
 10
2.4898214835
 20
32.0333673204
 10
2.4488880091
 20
32.0187856447
 10
2.4002636916
 20
32.0042289438
 10
2.344073782
 20
31.9896907584
 10
2.2805242393
 20
31.9751664333
 10
2.2098929824
 20
31.9606577171
 10
2.1324408548
 20
31.9461628614
 10
2.0483748277
 20
31.9316719658
 10
1.9579403556
 20
31.9171839622
 10
1.8614030689
 20
31.9026999188
 10
1.7590440337
 20
31.8882131405
 10
1.6512028033
 20
31.8737209875
 10
1.5382581567
 20
31.8592260996
 10
1.4205812789
 20
31.8447297012
 10
1.2985227151
 20
31.8302303929
  0
LWPOLYLINE
  5
3F2
100
AcDbEntity
  8
0
100
AcDbPolyline
 62
253
  6
CONTINUOUS
 90
24
 70
0
 10
2.5749193832
 20
24.099879185
 10
2.5735953151
 20
24.0916497778
 10
2.5649066772
 20
24.0771287937
 10
2.5480601606
 20
24.0625843053
 10
2.5230276219
 20
24.0480044232
 10
2.4899103803
 20
24.033401037
 10
2.4488859836
 20
24.0187987082
 10
2.4001183286
 20
24.0042034663
 10
2.3437340287
 20
23.989609282
 10
2.2799058618
 20
23.9750226287
 10
2.2088606949
 20
23.9604476083
 10
2.1308677167
 20
23.9458801189
 10
2.046183713
 20
23.9313143284
 10
1.9550952147
 20
23.9167506928
 10
1.8578830317
 20
23.9021887561
 10
1.7547790642
 20
23.8876213181
 10
1.6460319954
 20
23.8730389191
 10
1.5320889674
 20
23.8584510186
 10
1.413512651
 20
23.8438787959
 10
1.290900193
 20
23.8293445237
 10
1.164475658
 20
23.8148259291
 10
1.034225429
 20
23.8002773729
 10
0.9003132292
 20
23.7856735631
 10
0.7634016897
 20
23.7710397917
  0
LINE
  5
3F3
100
AcDbEntity
  8
0
100
AcDbLine
 62
7
  6
CONTINUOUS
 10
-6.5083335046
 20
-36.3191489577
 11
-6.4666665201
 21
-36.0638297796
  0
LINE
  5
3F4
100
AcDbEntity
  8
0
100
AcDbLine
 62
7
  6
CONTINUOUS
 10
-8.2166665201
 20
-29.4893617034
 11
-8.2583335046
 21
-29.7021276653
  0
LWPOLYLINE
  5
3F5
100
AcDbEntity
  8
0
100
AcDbPolyline
 62
253
  6
CONTINUOUS
 90
23
 70
0
 10
2.5749927341
 20
22.4999787637
 10
2.5726415744
 20
22.4890258271
 10
2.5624051966
 20
22.4745066991
 10
2.5440954287
 20
22.4599756907
 10
2.5177895914
 20
22.4454472171
 10
2.483570014
 20
22.4309255475
 10
2.4415014977
 20
22.4164064128
 10
2.3917082649
 20
22.4018914212
 10
2.3344179672
 20
22.3873841766
 10
2.2698418129
 20
22.3728810751
 10
2.1981543722
 20
22.3583729136
 10
2.1195610027
 20
22.3438590464
 10
2.0342746536
 20
22.3293401191
 10
1.9424997705
 20
22.3148088649
 10
1.8445315853
 20
22.3002618706
 10
1.7407197387
 20
22.2857025495
 10
1.6314176311
 20
22.2711338749
 10
1.5169206736
 20
22.2565508708
 10
1.3976027685
 20
22.2419585132
 10
1.2739886906
 20
22.2273747044
 10
1.1465834232
 20
22.212807183
 10
1.0157611261
 20
22.1982482103
 10
0.8819095402
 20
22.183692473
  0
LINE
  5
3F6
100
AcDbEntity
  8
0
100
AcDbLine
 62
7
  6
CONTINUOUS
 10
-9.5500000123
 20
-28.5106383562
 11
-9.5916667585
 21
-28.6808511019
  0
LWPOLYLINE
  5
3F7
100
AcDbEntity
  8
0
100
AcDbPolyline
 62
253
  6
CONTINUOUS
 90
23
 70
0
 10
2.5749998963
 20
20.8999314766
 10
2.5716613003
 20
20.8868837909
 10
2.5601777323
 20
20.872319211
 10
2.5405015795
 20
20.8577013447
 10
2.5126731338
 20
20.8430525673
 10
2.4768147845
 20
20.828406885
 10
2.4330377247
 20
20.8137720234
 10
2.3814340616
 20
20.7991402569
 10
2.3222604417
 20
20.7845224154
 10
2.2557925785
 20
20.769923103
 10
2.1822650654
 20
20.7553377156
 10
2.1019114729
 20
20.7407632707
 10
2.0149994828
 20
20.7262033738
 10
1.9217767706
 20
20.7116544194
 10
1.8224940028
 20
20.6971026084
 10
1.7174206531
 20
20.6825371979
 10
1.6069780084
 20
20.667968931
 10
1.4916657083
 20
20.6534162372
 10
1.3720330276
 20
20.6389007219
 10
1.2482934737
 20
20.6244007799
 10
1.1204662574
 20
20.6098700249
 10
0.9887812536
 20
20.5952886871
 10
0.8538276367
 20
20.5806765363
  0
LINE
  5
3F8
100
AcDbEntity
  8
0
100
AcDbLine
 62
7
  6
CONTINUOUS
 10
-10.4666667585
 20
-28.7234042883
 11
-10.4250000123
 21
-28.595744729
  0
LINE
  5
3F9
100
AcDbEntity
  8
0
100
AcDbLine
 62
7
  6
CONTINUOUS
 10
-10.1750000123
 20
-28.6382979155
 11
-10.2166667585
 21
-28.7659574747
  0
LINE
  5
3FA
100
AcDbEntity
  8
0
100
AcDbLine
 62
7
  6
CONTINUOUS
 10
8.8666660186
 20
-36.9148936198
 11
8.8249999877
 21
-36.7872340381
  0
LINE
  5
3FB
100
AcDbEntity
  8
0
100
AcDbLine
 62
7
  6
CONTINUOUS
 10
9.0749999877
 20
-36.8723404259
 11
9.1166660185
 21
-37.0
  0
LINE
  5
3FC
100
AcDbEntity
  8
0
100
AcDbLine
 62
7
  6
CONTINUOUS
 10
8.9916660186
 20
-35.8510638476
 11
9.0333339568
 21
-35.9787234068
  0
LINE
  5
3FD
100
AcDbEntity
  8
0
100
AcDbLine
 62
7
  6
CONTINUOUS
 10
10.5333339568
 20
-35.8510638475
 11
10.5749999877
 21
-35.9787234068
  0
LINE
  5
3FE
100
AcDbEntity
  8
0
100
AcDbLine
 62
7
  6
CONTINUOUS
 10
7.8249999877
 20
-36.7872340381
 11
7.7833339568
 21
-36.6170212626
  0
LINE
  5
3FF
100
AcDbEntity
  8
0
100
AcDbLine
 62
7
  6
CONTINUOUS
 10
3.1999999877
 20
-36.5744680762
 11
3.1583330031
 21
-36.3191489577
  0
LWPOLYLINE
  5
400
100
AcDbEntity
  8
0
100
AcDbPolyline
 62
7
  6
CONTINUOUS
 90
10
 70
0
 10
1.3507350699
 20
16.7
 10
1.3545021363
 20
16.663885981
 10
1.3635229918
 20
16.6306839693
 10
1.3777976363
 20
16.6003939649
 10
1.3980577416
 20
16.5722680453
 10
1.4235716361
 20
16.547054133
 10
1.452144304
 20
16.5269959956
 10
1.4830440736
 20
16.5128415556
 10
1.5170026168
 20
16.5038428904
 10
1.5540199334
 20
16.5
  0
LWPOLYLINE
  5
401
100
AcDbEntity
  8
0
100
AcDbPolyline
 62
253
  6
CONTINUOUS
 90
24
 70
0
 10
2.2400232362
 20
27.1666678195
 10
2.2385834195
 20
27.2068660546
 10
2.2343113517
 20
27.2468117196
 10
2.2272781071
 20
27.2862521734
 10
2.2175547524
 20
27.3249348005
 10
2.2052123675
 20
27.3626069247
 10
2.1903220646
 20
27.3990158176
 10
2.1729549535
 20
27.4339088081
 10
2.1531822686
 20
27.4670334178
 10
2.1311077634
 20
27.49816443
 10
2.1069077154
 20
27.5271374961
 10
2.0807682587
 20
27.5537964455
 10
2.052875575
 20
27.5779850837
 10
2.0234158287
 20
27.5995472623
 10
1.9925751061
 20
27.618326895
 10
1.9605394739
 20
27.6341678878
 10
1.9274954924
 20
27.6469157837
 10
1.8936479813
 20
27.6564808612
 10
1.8592254127
 20
27.6628575076
 10
1.8244578412
 20
27.6660457325
 10
1.7895752984
 20
27.6660455481
 10
1.7548078009
 20
27.6628569609
 10
1.7203853807
 20
27.6564799722
 10
1.7076176777
 20
27.653267885
  0
LWPOLYLINE
  5
402
100
AcDbEntity
  8
0
100
AcDbPolyline
 62
7
  6
CONTINUOUS
 90
41
 70
0
 10
2.5749757386
 20
25.7000056706
 10
2.5746222885
 20
25.7190700048
 10
2.5707087135
 20
25.7662206311
 10
2.5626504914
 20
25.8124651146
 10
2.5506453573
 20
25.8575685561
 10
2.5349235816
 20
25.9011422724
 10
2.515810175
 20
25.9426894832
 10
2.4934926532
 20
25.9821074464
 10
2.4682378907
 20
26.0191360935
 10
2.4406464681
 20
26.0532637621
 10
2.4109778468
 20
26.0846901467
 10
2.3796230871
 20
26.11343522
 10
2.3475874518
 20
26.1390812843
 10
2.3153334807
 20
26.1618209155
 10
2.2828185377
 20
26.1821523139
 10
2.2503181401
 20
26.2002920729
 10
2.2180796132
 20
26.2164649694
 10
2.1858747375
 20
26.2310883453
 10
2.1532834423
 20
26.2445672818
 10
2.1203336463
 20
26.2570533383
 10
2.0868761719
 20
26.2687401164
 10
2.0522993695
 20
26.2799324558
 10
2.0165234698
 20
26.2907155498
 10
1.9795107981
 20
26.301154443
 10
1.9407520813
 20
26.311427654
 10
1.9001266655
 20
26.3215846106
 10
1.8576141319
 20
26.3316449638
 10
1.8128584802
 20
26.3417008073
 10
1.7657274001
 20
26.3517825003
 10
1.7162044736
 20
26.3618937446
 10
1.6641216059
 20
26.372068207
 10
1.6093016316
 20
26.3823371705
 10
1.5517986463
 20
26.3926885373
 10
1.4918630694
 20
26.4030831117
 10
1.4294819817
 20
26.413532342
 10
1.3647013219
 20
26.4240378877
 10
1.2979559138
 20
26.4345418603
 10
1.2293078075
 20
26.4450496871
 10
1.1588358316
 20
26.4555641379
 10
1.0870868178
 20
26.4660205997
 10
0.9401881087
 20
26.4867722608
  0
LWPOLYLINE
  5
403
100
AcDbEntity
  8
0
100
AcDbPolyline
 62
7
  6
CONTINUOUS
 90
41
 70
0
 10
2.574955116
 20
27.3000145271
 10
2.5746761124
 20
27.3169548713
 10
2.5711729768
 20
27.3623531433
 10
2.5637554039
 20
27.4072396591
 10
2.5525204847
 20
27.4514020199
 10
2.5376049048
 20
27.4944445675
 10
2.5192530817
 20
27.5358334376
 10
2.4975643339
 20
27.5754616816
 10
2.4727457914
 20
27.6130003616
 10
2.4453872999
 20
27.6477922449
 10
2.4156912806
 20
27.680017148
 10
2.3840449806
 20
27.7096350262
 10
2.3515877437
 20
27.7360723521
 10
2.318802161
 20
27.7595178124
 10
2.2856449246
 20
27.7804843844
 10
2.2525394
 20
27.7991176689
 10
2.2198035102
 20
27.8156406524
 10
2.1871655197
 20
27.8305249155
 10
2.1542024264
 20
27.8441977509
 10
2.1209832435
 20
27.8568107275
 10
2.0873406469
 20
27.868578654
 10
2.0525735717
 20
27.8798444076
 10
2.0165519053
 20
27.890708869
 10
1.9792772913
 20
27.9012219648
 10
1.9403000088
 20
27.9115479343
 10
1.8995152736
 20
27.92173627
 10
1.8569068371
 20
27.9318094324
 10
1.8121787225
 20
27.9418494756
 10
1.7652384447
 20
27.9518828577
 10
1.7160671906
 20
27.961918485
 10
1.6645022395
 20
27.9719928049
 10
1.6104360169
 20
27.9821276217
 10
1.5538872838
 20
27.9923202965
 10
1.4949296436
 20
28.0025620284
 10
1.4335229163
 20
28.0128676753
 10
1.3697313883
 20
28.0232348067
 10
1.3038629581
 20
28.0336244125
 10
1.2359668239
 20
28.044041682
 10
1.1661100053
 20
28.0544892051
 10
1.0946956126
 20
28.064921299
 10
0.9475517056
 20
28.0857509048
  0
LWPOLYLINE
  5
404
100
AcDbEntity
  8
0
100
AcDbPolyline
 62
7
  6
CONTINUOUS
 90
40
 70
0
 10
2.5749193832
 20
24.099879185
 10
2.5746441077
 20
24.1167150153
 10
2.5711104001
 20
24.162453017
 10
2.5635118692
 20
24.2081117168
 10
2.5517680258
 20
24.2536640203
 10
2.5359392138
 20
24.2984311665
 10
2.5164857238
 20
24.3411953982
 10
2.4936473612
 20
24.381727873
 10
2.4676385773
 20
24.4198453261
 10
2.4393033557
 20
24.4547319135
 10
2.4090847287
 20
24.4865142604
 10
2.3773357758
 20
24.5153779966
 10
2.3450357334
 20
24.5410036032
 10
2.3126802498
 20
24.5636053942
 10
2.2802449148
 20
24.5837054725
 10
2.2479300706
 20
24.6015890474
 10
2.2160021172
 20
24.6174825195
 10
2.1842451672
 20
24.6318086229
 10
2.1521282792
 20
24.6450248838
 10
2.1196956776
 20
24.6572735798
 10
2.0867950788
 20
24.6687473964
 10
2.0526324377
 20
24.6798063075
 10
2.0170369485
 20
24.6905488909
 10
1.9800055913
 20
24.7010117604
 10
1.9410057987
 20
24.7113654582
 10
1.8998546357
 20
24.7216621438
 10
1.8565122329
 20
24.7319134072
 10
1.8106652105
 20
24.7421925049
 10
1.7621202069
 20
24.7525396224
 10
1.7108825469
 20
24.7629510608
 10
1.6569947616
 20
24.7734188018
 10
1.6003439025
 20
24.7839662945
 10
1.5409511886
 20
24.794591396
 10
1.4791586782
 20
24.8052393937
 10
1.4149714495
 20
24.8159192878
 10
1.3484228937
 20
24.8266352695
 10
1.2800153205
 20
24.8373210162
 10
1.2098422918
 20
24.8479819264
 10
1.1380087735
 20
24.8586216051
 10
0.9913822136
 20
24.8796255985
  0
LWPOLYLINE
  5
405
100
AcDbEntity
  8
0
100
AcDbPolyline
 62
7
  6
CONTINUOUS
 90
4
 70
0
 10
2.5749757496
 20
32.0998584605
 10
2.5747030752
 20
32.1166035709
 10
2.5712470693
 20
32.1617500941
 10
2.5649706527
 20
32.2
  0
LWPOLYLINE
  5
406
100
AcDbEntity
  8
0
100
AcDbPolyline
 62
7
  6
CONTINUOUS
 90
41
 70
0
 10
2.5749927341
 20
22.4999787637
 10
2.5747299087
 20
22.5164243093
 10
2.5712854944
 20
22.561691707
 10
2.5638703393
 20
22.6068213208
 10
2.5524299801
 20
22.6517707737
 10
2.5370360426
 20
22.6959092582
 10
2.5181175147
 20
22.7381184959
 10
2.4959054567
 20
22.7781774461
 10
2.4706072561
 20
22.8159080863
 10
2.4429851889
 20
22.8505541141
 10
2.4134345326
 20
22.8822396732
 10
2.3823087709
 20
22.9111095387
 10
2.3505622916
 20
22.9368251521
 10
2.3186795109
 20
22.9595808743
 10
2.2866415721
 20
22.9798786911
 10
2.2546509719
 20
22.9979873084
 10
2.2229669122
 20
23.0141218844
 10
2.191375508
 20
23.0286944011
 10
2.1593461855
 20
23.042157509
 10
2.126868734
 20
23.0546655342
 10
2.0937997769
 20
23.0663996313
 10
2.0594277854
 20
23.0776911298
 10
2.023566782
 20
23.0886468893
 10
1.986203158
 20
23.0993112031
 10
1.9469210687
 20
23.1098293865
 10
1.9055635835
 20
23.1202557652
 10
1.862094515
 20
23.1306090962
 10
1.8163254451
 20
23.1409409801
 10
1.7681276317
 20
23.1512830854
 10
1.717480277
 20
23.1616417645
 10
1.6644224614
 20
23.1720125062
 10
1.6089014788
 20
23.1824101486
 10
1.550917515
 20
23.1928422865
 10
1.4906670142
 20
23.2032848288
 10
1.4281759565
 20
23.2137460604
 10
1.3634860085
 20
23.2242315125
 10
1.2968904242
 20
23.2347077555
 10
1.2284517356
 20
23.2451803441
 10
1.1582508463
 20
23.2556518575
 10
1.0866716289
 20
23.2660812347
 10
0.9398206109
 20
23.2868222985
  0
LWPOLYLINE
  5
407
100
AcDbEntity
  8
0
100
AcDbPolyline
 62
7
  6
CONTINUOUS
 90
40
 70
0
 10
2.5749348167
 20
30.5000033372
 10
2.5746788006
 20
30.5162338145
 10
2.5712973071
 20
30.5611416782
 10
2.5640419286
 20
30.6057610062
 10
2.5529270114
 20
30.6499708761
 10
2.5380485287
 20
30.6932664231
 10
2.5197311367
 20
30.7348289707
 10
2.4981449476
 20
30.7744735079
 10
2.47348012
 20
30.8119703995
 10
2.4463448136
 20
30.846665824
 10
2.4169978029
 20
30.8787058678
 10
2.3858076347
 20
30.9081054889
 10
2.3537916843
 20
30.9343998309
 10
2.3214162068
 20
30.9577670143
 10
2.2886471033
 20
30.9786975283
 10
2.2557695335
 20
30.9973971859
 10
2.22304579
 20
31.0140831423
 10
2.1902055928
 20
31.0291983506
 10
2.156705141
 20
31.0431992731
 10
2.1224590898
 20
31.0562673153
 10
2.0873099013
 20
31.0685832128
 10
2.0506607908
 20
31.0804362466
 10
2.012329101
 20
31.0919336122
 10
1.972255987
 20
31.10313159
 10
1.9301337073
 20
31.1141463108
 10
1.8858499354
 20
31.1250294181
 10
1.8393555434
 20
31.1358117374
 10
1.7905342977
 20
31.1465355399
 10
1.7393063836
 20
31.1572301205
 10
1.6856654064
 20
31.167907228
 10
1.629694116
 20
31.1785616305
 10
1.5713764035
 20
31.1892079116
 10
1.5107302426
 20
31.1998536082
 10
1.4479843148
 20
31.2104729817
 10
1.3832486382
 20
31.2210662205
 10
1.3165523093
 20
31.2316467632
 10
1.2480788917
 20
31.2422033753
 10
1.1779107579
 20
31.2527412374
 10
1.1061461284
 20
31.2632628673
 10
0.95866748
 20
31.2842046102
  0
LWPOLYLINE
  5
408
100
AcDbEntity
  8
0
100
AcDbPolyline
 62
7
  6
CONTINUOUS
 90
40
 70
0
 10
2.5749998963
 20
20.8999314766
 10
2.5747622992
 20
20.9155656893
 10
2.5714759329
 20
20.9600913158
 10
2.5643322917
 20
21.0045652387
 10
2.5532592551
 20
21.0489580882
 10
2.5383086794
 20
21.0926480634
 10
2.5198865961
 20
21.1345179572
 10
2.4981976031
 20
21.1743615177
 10
2.473440111
 20
21.2119810051
 10
2.4463868144
 20
21.2465586156
 10
2.4174651336
 20
21.2781697383
 10
2.386999953
 20
21.3069965751
 10
2.3558629394
 20
21.332751027
 10
2.3244605863
 20
21.3556531714
 10
2.292845186
 20
21.3761287633
 10
2.2613727907
 20
21.3943476301
 10
2.2303699239
 20
21.4105035815
 10
2.1996143426
 20
21.4250339349
 10
2.1686369305
 20
21.4383832915
 10
2.1374656754
 20
21.4507051631
 10
2.105981137
 20
21.4621866206
 10
2.0735176564
 20
21.4731620258
 10
2.0399759454
 20
21.4837247856
 10
2.0053280333
 20
21.4939356276
 10
1.9690375558
 20
21.503984283
 10
1.9309565453
 20
21.5139248027
 10
1.8910648019
 20
21.523772907
 10
1.8490187259
 20
21.5336179426
 10
1.8046385875
 20
21.5434989259
 10
1.7579222616
 20
21.5534128666
 10
1.7088195955
 20
21.5633684705
 10
1.6572073832
 20
21.5733884624
 10
1.6030925309
 20
21.5834720728
 10
1.5466921721
 20
21.5935849784
 10
1.4880080262
 20
21.6037355451
 10
1.4270547614
 20
21.6139298756
 10
1.364151647
 20
21.6241255575
 10
1.2993420448
 20
21.6343285158
 10
1.2326881028
 20
21.6445416172
 10
1.0951949105
 20
21.664851536
  0
LWPOLYLINE
  5
409
100
AcDbEntity
  8
0
100
AcDbPolyline
 62
7
  6
CONTINUOUS
 90
39
 70
0
 10
2.5749548197
 20
28.8998490397
 10
2.5747156458
 20
28.915539948
 10
2.5714087206
 20
28.9602142379
 10
2.5642049502
 20
29.0049120933
 10
2.5530318982
 20
29.0495308489
 10
2.5379145164
 20
29.0935072824
 10
2.5191501774
 20
29.135899169
 10
2.4968468249
 20
29.1765171057
 10
2.4711663099
 20
29.2150580224
 10
2.4428199363
 20
29.2506845304
 10
2.4120899786
 20
29.2835366074
 10
2.3793386863
 20
29.3136465423
 10
2.3457066094
 20
29.3404774741
 10
2.3116877335
 20
29.3642321337
 10
2.2772032412
 20
29.385457302
 10
2.2425727131
 20
29.4043652378
 10
2.2080451376
 20
29.4212070519
 10
2.1733061299
 20
29.4364553133
 10
2.1378517084
 20
29.4505545266
 10
2.1016746307
 20
29.4636765939
 10
2.0645699202
 20
29.4760367555
 10
2.0258417391
 20
29.4879582078
 10
1.9853040119
 20
29.4995499894
 10
1.9429465706
 20
29.5108572552
 10
1.8984442927
 20
29.5219975329
 10
1.8516559993
 20
29.5330245405
 10
1.8025704315
 20
29.5439560429
 10
1.7511527543
 20
29.5548145783
 10
1.6973687736
 20
29.5656246465
 10
1.6412333501
 20
29.5764004859
 10
1.5828958732
 20
29.5871311758
 10
1.5224231923
 20
29.5978228306
 10
1.4598305361
 20
29.6084900356
 10
1.3952645936
 20
29.6191246675
 10
1.3287865334
 20
29.6297334493
 10
1.2604682906
 20
29.6403209488
 10
1.1905296473
 20
29.6508706656
 10
1.119074195
 20
29.6613870616
 10
0.9722482301
 20
29.6823057041
  0
LINE
  5
40A
100
AcDbEntity
  8
0
100
AcDbLine
 62
7
  6
CONTINUOUS
 10
2.5749757308
 20
32.0999957103
 11
2.5749757496
 21
32.0998584605
  0
LINE
  5
40B
100
AcDbEntity
  8
0
100
AcDbLine
 62
7
  6
CONTINUOUS
 10
0.5333330031
 20
-29.2765957713
 11
0.5333330031
 21
-28.9787234068
  0
LINE
  5
40C
100
AcDbEntity
  8
0
100
AcDbLine
 62
7
  6
CONTINUOUS
 10
0.6999999877
 20
-28.9787234068
 11
0.6999999877
 21
-29.2765957713
  0
LINE
  5
40D
100
AcDbEntity
  8
0
100
AcDbLine
 62
7
  6
CONTINUOUS
 10
1.1999999877
 20
-36.3191489577
 11
1.1999999877
 21
-35.6808511019
  0
LINE
  5
40E
100
AcDbEntity
  8
0
100
AcDbLine
 62
7
  6
CONTINUOUS
 10
1.3507350699
 20
16.7
 11
1.3507350699
 21
16.9737656631
  0
LINE
  5
40F
100
AcDbEntity
  8
0
100
AcDbLine
 62
7
  6
CONTINUOUS
 10
1.3507350699
 20
17.9789927785
 11
1.3507350699
 21
18.0
  0
LINE
  5
410
100
AcDbEntity
  8
0
100
AcDbLine
 62
7
  6
CONTINUOUS
 10
1.4499999877
 20
-35.6808511019
 11
1.4499999877
 21
-36.3191489577
  0
LINE
  5
411
100
AcDbEntity
  8
0
100
AcDbLine
 62
7
  6
CONTINUOUS
 10
2.1319299478
 20
31.547296846
 11
2.1319299478
 21
31.0526533053
  0
LINE
  5
412
100
AcDbEntity
  8
0
100
AcDbLine
 62
7
  6
CONTINUOUS
 10
2.1319299478
 20
29.9472984052
 11
2.1319299478
 21
29.4527024541
  0
LINE
  5
413
100
AcDbEntity
  8
0
100
AcDbLine
 62
7
  6
CONTINUOUS
 10
2.1319299478
 20
28.3473136119
 11
2.1319299478
 21
27.8526543783
  0
LINE
  5
414
100
AcDbEntity
  8
0
100
AcDbLine
 62
7
  6
CONTINUOUS
 10
2.1319299478
 20
26.7472965736
 11
2.1319299478
 21
26.2526590144
  0
LINE
  5
415
100
AcDbEntity
  8
0
100
AcDbLine
 62
7
  6
CONTINUOUS
 10
2.1319299478
 20
25.1473120259
 11
2.1319299478
 21
24.6526531099
  0
LINE
  5
416
100
AcDbEntity
  8
0
100
AcDbLine
 62
7
  6
CONTINUOUS
 10
2.1319299478
 20
23.5473586276
 11
2.1319299478
 21
23.0527163114
  0
LINE
  5
417
100
AcDbEntity
  8
0
100
AcDbLine
 62
7
  6
CONTINUOUS
 10
2.1319299478
 20
21.9473425922
 11
2.1319299478
 21
21.4527238753
  0
LINE
  5
418
100
AcDbEntity
  8
0
100
AcDbLine
 62
7
  6
CONTINUOUS
 10
2.1319299478
 20
20.3472523834
 11
2.1319299478
 21
19.8526522875
  0
LINE
  5
419
100
AcDbEntity
  8
0
100
AcDbLine
 62
7
  6
CONTINUOUS
 10
2.1319299478
 20
18.7473229086
 11
2.1319299478
 21
18.2526814085
  0
LINE
  5
41A
100
AcDbEntity
  8
0
100
AcDbLine
 62
7
  6
CONTINUOUS
 10
2.1319299478
 20
17.1472690085
 11
2.1319299478
 21
16.7
  0
LINE
  5
41B
100
AcDbEntity
  8
0
100
AcDbLine
 62
7
  6
CONTINUOUS
 10
2.1999999877
 20
-36.1489361525
 11
2.1999999877
 21
-35.893617034
  0
LINE
  5
41C
100
AcDbEntity
  8
0
100
AcDbLine
 62
7
  6
CONTINUOUS
 10
2.4549999877
 20
16.5
 11
2.4549999877
 21
19.5
  0
LINE
  5
41D
100
AcDbEntity
  8
0
100
AcDbLine
 62
7
  6
CONTINUOUS
 10
2.5749548203
 20
28.8999878501
 11
2.5749548197
 21
28.8998490397
  0
LINE
  5
41E
100
AcDbEntity
  8
0
100
AcDbLine
 62
7
  6
CONTINUOUS
 10
2.5749999877
 20
-36.4893617034
 11
2.5749999877
 21
-36.1489361525
  0
LINE
  5
41F
100
AcDbEntity
  8
0
100
AcDbLine
 62
7
  6
CONTINUOUS
 10
2.5749998927
 20
20.9000698472
 11
2.5749998963
 21
20.8999314766
  0
LINE
  5
420
100
AcDbEntity
  8
0
100
AcDbLine
 62
7
  6
CONTINUOUS
 10
2.5749927286
 20
22.5001245668
 11
2.5749927341
 21
22.4999787637
  0
LINE
  5
421
100
AcDbEntity
  8
0
100
AcDbLine
 62
7
  6
CONTINUOUS
 10
2.5749193702
 20
24.1000316566
 11
2.5749193832
 21
24.099879185
  0
LINE
  5
422
100
AcDbEntity
  8
0
100
AcDbLine
 62
7
  6
CONTINUOUS
 10
2.5749757271
 20
25.7001513172
 11
2.5749757386
 21
25.7000056706
  0
LINE
  5
423
100
AcDbEntity
  8
0
100
AcDbLine
 62
7
  6
CONTINUOUS
 10
2.5749347989
 20
30.5001433472
 11
2.5749348167
 21
30.5000033372
  0
LINE
  5
424
100
AcDbEntity
  8
0
100
AcDbLine
 62
7
  6
CONTINUOUS
 10
2.8249999877
 20
-35.893617034
 11
2.8249999877
 21
-36.5319148898
  0
LINE
  5
425
100
AcDbEntity
  8
0
100
AcDbLine
 62
7
  6
CONTINUOUS
 10
2.8249999877
 20
19.5
 11
2.8249999877
 21
32.2
  0
LINE
  5
426
100
AcDbEntity
  8
0
100
AcDbLine
 62
7
  6
CONTINUOUS
 10
3.0749999877
 20
43.5
 11
3.0749999877
 21
36.0
  0
LINE
  5
427
100
AcDbEntity
  8
0
100
AcDbLine
 62
7
  6
CONTINUOUS
 10
3.2280572245
 20
20.0
 11
3.2280572245
 21
19.5
  0
LINE
  5
428
100
AcDbEntity
  8
0
100
AcDbLine
 62
7
  6
CONTINUOUS
 10
3.3666669722
 20
-36.3191489577
 11
3.3666669722
 21
-36.4042553306
  0
LINE
  5
429
100
AcDbEntity
  8
0
100
AcDbLine
 62
7
  6
CONTINUOUS
 10
3.4083330031
 20
-36.106382966
 11
3.4083330031
 21
-36.1489361525
  0
LINE
  5
42A
100
AcDbEntity
  8
0
100
AcDbLine
 62
7
  6
CONTINUOUS
 10
3.5751990419
 20
19.5
 11
3.5751990419
 21
16.5
  0
LINE
  5
42B
100
AcDbEntity
  8
0
100
AcDbLine
 62
7
  6
CONTINUOUS
 10
4.2833339568
 20
-36.1489361525
 11
4.2833339568
 21
-36.0638297796
  0
LINE
  5
42C
100
AcDbEntity
  8
0
100
AcDbLine
 62
7
  6
CONTINUOUS
 10
2.5749551253
 20
27.3001438003
 11
2.574955116
 21
27.3000145271
  0
LWPOLYLINE
  5
42D
100
AcDbEntity
  8
0
100
AcDbPolyline
 62
253
  6
CONTINUOUS
 90
11
 70
0
 10
2.574955116
 20
27.3000145271
 10
2.5748922903
 20
27.2982737392
 10
2.5697930205
 20
27.2836954001
 10
2.5565186195
 20
27.2690876334
 10
2.5350926424
 20
27.2544673647
 10
2.5055378097
 20
27.2398346521
 10
2.4678813353
 20
27.2251894374
 10
2.4222879551
 20
27.2105484718
 10
2.3689841919
 20
27.1959173387
 10
2.3081605917
 20
27.1812904546
 10
2.2400232362
 20
27.1666678195
  0
LINE
  5
42E
100
AcDbEntity
  8
0
100
AcDbLine
 62
7
  6
CONTINUOUS
 10
0.4916669722
 20
-29.6595744789
 11
0.5333330031
 21
-29.2765957713
  0
LINE
  5
42F
100
AcDbEntity
  8
0
100
AcDbLine
 62
7
  6
CONTINUOUS
 10
0.6999999877
 20
-29.2765957713
 11
0.6583330031
 21
-29.6595744789
  0
LINE
  5
430
100
AcDbEntity
  8
0
100
AcDbLine
 62
7
  6
CONTINUOUS
 10
-3.1750000123
 20
-28.595744729
 11
-3.0916669969
 21
-28.2127659321
  0
LINE
  5
431
100
AcDbEntity
  8
0
100
AcDbLine
 62
7
  6
CONTINUOUS
 10
-2.9250000123
 20
-28.2127659321
 11
-3.0083330278
 21
-28.5957447291
  0
LINE
  5
432
100
AcDbEntity
  8
0
100
AcDbLine
 62
7
  6
CONTINUOUS
 10
-8.1750000123
 20
-36.1489361525
 11
-8.1333335046
 21
-35.9787234068
  0
LINE
  5
433
100
AcDbEntity
  8
0
100
AcDbLine
 62
7
  6
CONTINUOUS
 10
-5.1750000123
 20
-36.5744680762
 11
-5.2166665201
 21
-36.7446808517
  0
LINE
  5
434
100
AcDbEntity
  8
0
100
AcDbLine
 62
7
  6
CONTINUOUS
 10
-8.5083335046
 20
-29.6170212626
 11
-8.4666665201
 21
-29.4893617034
  0
LINE
  5
435
100
AcDbEntity
  8
0
100
AcDbLine
 62
7
  6
CONTINUOUS
 10
-9.5916667585
 20
-36.446808517
 11
-9.6333332662
 21
-36.5744680762
  0
LINE
  5
436
100
AcDbEntity
  8
0
100
AcDbLine
 62
7
  6
CONTINUOUS
 10
-7.9250000123
 20
-36.0638297796
 11
-7.9666665201
 21
-36.1914893389
  0
LINE
  5
437
100
AcDbEntity
  8
0
100
AcDbLine
 62
7
  6
CONTINUOUS
 10
-11.1750000123
 20
-36.7872340381
 11
-10.5500000123
 21
-35.0
  0
LINE
  5
438
100
AcDbEntity
  8
0
100
AcDbLine
 62
7
  6
CONTINUOUS
 10
-10.4250000123
 20
-35.4255318642
 11
-11.0083333854
 21
-37.0
  0
LINE
  5
439
100
AcDbEntity
  8
0
100
AcDbLine
 62
7
  6
CONTINUOUS
 10
-9.8000000123
 20
-28.4680850506
 11
-9.7166667585
 21
-28.2978723049
  0
LINE
  5
43A
100
AcDbEntity
  8
0
100
AcDbLine
 62
7
  6
CONTINUOUS
 10
9.0333339568
 20
-36.6595744789
 11
9.0749999877
 21
-36.8723404259
  0
LINE
  5
43B
100
AcDbEntity
  8
0
100
AcDbLine
 62
7
  6
CONTINUOUS
 10
10.4083339568
 20
-36.1914893389
 11
10.3666660185
 21
-35.9787234068
  0
LINE
  5
43C
100
AcDbEntity
  8
0
100
AcDbLine
 62
7
  6
CONTINUOUS
 10
10.5749999877
 20
-35.9787234068
 11
10.6166660185
 21
-36.1914893389
  0
LINE
  5
43D
100
AcDbEntity
  8
0
100
AcDbLine
 62
7
  6
CONTINUOUS
 10
4.8402861716
 20
31.5
 11
4.6923940626
 21
33.9325124059
  0
LINE
  5
43E
100
AcDbEntity
  8
0
100
AcDbLine
 62
7
  6
CONTINUOUS
 10
4.4916660185
 20
-36.1489361525
 11
4.4916660185
 21
-36.3191489577
  0
LINE
  5
43F
100
AcDbEntity
  8
0
100
AcDbLine
 62
7
  6
CONTINUOUS
 10
4.8249999877
 20
-37.0
 11
4.8249999877
 21
-35.6382979155
  0
LINE
  5
440
100
AcDbEntity
  8
0
100
AcDbLine
 62
7
  6
CONTINUOUS
 10
4.8402861716
 20
19.5
 11
4.8402861716
 21
31.5
  0
LINE
  5
441
100
AcDbEntity
  8
0
100
AcDbLine
 62
7
  6
CONTINUOUS
 10
5.0333339568
 20
-35.6382979155
 11
5.0333339568
 21
-35.893617034
  0
LINE
  5
442
100
AcDbEntity
  8
0
100
AcDbLine
 62
7
  6
CONTINUOUS
 10
5.0333339568
 20
-36.1489361525
 11
5.0333339568
 21
-37.0
  0
LINE
  5
443
100
AcDbEntity
  8
0
100
AcDbLine
 62
7
  6
CONTINUOUS
 10
5.0749999877
 20
42.0
 11
5.0749999877
 21
43.5
  0
LINE
  5
444
100
AcDbEntity
  8
0
100
AcDbLine
 62
7
  6
CONTINUOUS
 10
5.5749999877
 20
-35.6382979155
 11
5.5749999877
 21
-35.8510638475
  0
LINE
  5
445
100
AcDbEntity
  8
0
100
AcDbLine
 62
7
  6
CONTINUOUS
 10
5.9083339568
 20
-37.0
 11
5.9083339568
 21
-35.6382979155
  0
LINE
  5
446
100
AcDbEntity
  8
0
100
AcDbLine
 62
7
  6
CONTINUOUS
 10
6.1166660185
 20
-35.6382979155
 11
6.1166660185
 21
-35.7659574747
  0
LINE
  5
447
100
AcDbEntity
  8
0
100
AcDbLine
 62
7
  6
CONTINUOUS
 10
6.1166660185
 20
-35.9361702204
 11
6.1166660185
 21
-37.0
  0
LINE
  5
448
100
AcDbEntity
  8
0
100
AcDbLine
 62
7
  6
CONTINUOUS
 10
6.5749999877
 20
-37.0
 11
6.5749999877
 21
-35.9787234068
  0
LINE
  5
449
100
AcDbEntity
  8
0
100
AcDbLine
 62
7
  6
CONTINUOUS
 10
6.7833339568
 20
-35.9787234068
 11
6.7833339568
 21
-37.0
  0
LINE
  5
44A
100
AcDbEntity
  8
0
100
AcDbLine
 62
7
  6
CONTINUOUS
 10
7.2416660185
 20
-37.0
 11
7.2416660185
 21
-35.9787234068
  0
LINE
  5
44B
100
AcDbEntity
  8
0
100
AcDbLine
 62
7
  6
CONTINUOUS
 10
7.4499999877
 20
-35.9787234068
 11
7.4499999877
 21
-37.0
  0
LINE
  5
44C
100
AcDbEntity
  8
0
100
AcDbLine
 62
7
  6
CONTINUOUS
 10
7.6249999877
 20
-26.2
 11
7.6249999877
 21
-27.17
  0
LINE
  5
44D
100
AcDbEntity
  8
0
100
AcDbLine
 62
7
  6
CONTINUOUS
 10
7.6249999877
 20
-31.62
 11
7.6249999877
 21
-32.59
  0
LINE
  5
44E
100
AcDbEntity
  8
0
100
AcDbLine
 62
7
  6
CONTINUOUS
 10
7.7833339568
 20
-36.6170212626
 11
7.7833339568
 21
-36.4893617034
  0
LINE
  5
44F
100
AcDbEntity
  8
0
100
AcDbLine
 62
7
  6
CONTINUOUS
 10
7.7833339568
 20
-35.9787234068
 11
7.7833339568
 21
-35.893617034
  0
LINE
  5
450
100
AcDbEntity
  8
0
100
AcDbLine
 62
7
  6
CONTINUOUS
 10
7.9916660185
 20
-36.5744680762
 11
7.9916660185
 21
-36.6595744789
  0
LINE
  5
451
100
AcDbEntity
  8
0
100
AcDbLine
 62
7
  6
CONTINUOUS
 10
1.1999999877
 20
-35.6808511019
 11
1.2416669722
 21
-35.4680850506
  0
LINE
  5
452
100
AcDbEntity
  8
0
100
AcDbLine
 62
7
  6
CONTINUOUS
 10
0.4083330031
 20
-30.0425531901
 11
0.4916669722
 21
-29.6595744789
  0
LINE
  5
453
100
AcDbEntity
  8
0
100
AcDbLine
 62
7
  6
CONTINUOUS
 10
0.6583330031
 20
-29.6595744789
 11
0.5749999877
 21
-30.0425531902
  0
LINE
  5
454
100
AcDbEntity
  8
0
100
AcDbLine
 62
7
  6
CONTINUOUS
 10
-3.8833330278
 20
-28.7234042883
 11
-3.8416669969
 21
-28.595744729
  0
LINE
  5
455
100
AcDbEntity
  8
0
100
AcDbLine
 62
7
  6
CONTINUOUS
 10
-3.5916669969
 20
-28.6382979155
 11
-3.6333330278
 21
-28.7659574747
  0
LINE
  5
456
100
AcDbEntity
  8
0
100
AcDbLine
 62
7
  6
CONTINUOUS
 10
-5.4250000123
 20
-36.7021276653
 11
-5.3833335046
 21
-36.5744680762
  0
LINE
  5
457
100
AcDbEntity
  8
0
100
AcDbLine
 62
7
  6
CONTINUOUS
 10
-3.0916669969
 20
-28.2127659321
 11
-3.0083330278
 21
-28.0
  0
LINE
  5
458
100
AcDbEntity
  8
0
100
AcDbLine
 62
7
  6
CONTINUOUS
 10
-2.8416669969
 20
-28.0
 11
-2.9250000123
 21
-28.2127659321
  0
LINE
  5
459
100
AcDbEntity
  8
0
100
AcDbLine
 62
7
  6
CONTINUOUS
 10
-9.8416667585
 20
-35.893617034
 11
-9.8000000123
 21
-35.8085106611
  0
LINE
  5
45A
100
AcDbEntity
  8
0
100
AcDbLine
 62
7
  6
CONTINUOUS
 10
-9.5916667585
 20
-35.893617034
 11
-9.6333332662
 21
-35.9787234068
  0
LINE
  5
45B
100
AcDbEntity
  8
0
100
AcDbLine
 62
7
  6
CONTINUOUS
 10
-9.8416667585
 20
-36.4893617034
 11
-9.7583332662
 21
-36.3191489577
  0
LINE
  5
45C
100
AcDbEntity
  8
0
100
AcDbLine
 62
7
  6
CONTINUOUS
 10
-12.9250000123
 20
-28.6808511019
 11
-12.8416666765
 21
-28.5531915426
  0
LINE
  5
45D
100
AcDbEntity
  8
0
100
AcDbLine
 62
7
  6
CONTINUOUS
 10
-9.4666667585
 20
-28.3829786777
 11
-9.5500000123
 21
-28.5106383562
  0
LINE
  5
45E
100
AcDbEntity
  8
0
100
AcDbLine
 62
7
  6
CONTINUOUS
 10
8.8249999877
 20
-36.5319148898
 11
8.8249999877
 21
-36.2765957713
  0
LINE
  5
45F
100
AcDbEntity
  8
0
100
AcDbLine
 62
7
  6
CONTINUOUS
 10
8.8249999877
 20
-36.106382966
 11
8.8249999877
 21
-35.9787234068
  0
LINE
  5
460
100
AcDbEntity
  8
0
100
AcDbLine
 62
7
  6
CONTINUOUS
 10
9.0333339568
 20
-35.9787234068
 11
9.0333339568
 21
-36.6595744789
  0
LINE
  5
461
100
AcDbEntity
  8
0
100
AcDbLine
 62
7
  6
CONTINUOUS
 10
9.0749999877
 20
15.4
 11
9.0749999877
 21
20.0
  0
LINE
  5
462
100
AcDbEntity
  8
0
100
AcDbLine
 62
7
  6
CONTINUOUS
 10
9.4499999877
 20
-37.0
 11
9.4499999877
 21
-35.6382979155
  0
LINE
  5
463
100
AcDbEntity
  8
0
100
AcDbLine
 62
7
  6
CONTINUOUS
 10
9.6583339568
 20
-35.6382979155
 11
9.6583339568
 21
-35.8510638475
  0
LINE
  5
464
100
AcDbEntity
  8
0
100
AcDbLine
 62
7
  6
CONTINUOUS
 10
9.6583339568
 20
-36.0212765932
 11
9.6583339568
 21
-37.0
  0
LINE
  5
465
100
AcDbEntity
  8
0
100
AcDbLine
 62
7
  6
CONTINUOUS
 10
10.4083339568
 20
-37.0
 11
10.4083339568
 21
-36.1914893389
  0
LINE
  5
466
100
AcDbEntity
  8
0
100
AcDbLine
 62
7
  6
CONTINUOUS
 10
10.6166660185
 20
-36.1914893389
 11
10.6166660185
 21
-37.0
  0
LINE
  5
467
100
AcDbEntity
  8
0
100
AcDbLine
 62
7
  6
CONTINUOUS
 10
3.1583330031
 20
-36.3191489577
 11
3.1999999877
 21
-36.0638297796
  0
LINE
  5
468
100
AcDbEntity
  8
0
100
AcDbLine
 62
7
  6
CONTINUOUS
 10
1.4916669722
 20
-35.5106383562
 11
1.4499999877
 21
-35.6808511019
  0
LINE
  5
469
100
AcDbEntity
  8
0
100
AcDbLine
 62
7
  6
CONTINUOUS
 10
2.8249999877
 20
-36.5319148898
 11
2.7833330031
 21
-36.7021276653
  0
LINE
  5
46A
100
AcDbEntity
  8
0
100
AcDbLine
 62
7
  6
CONTINUOUS
 10
0.3249999877
 20
-30.2553191483
 11
0.4083330031
 21
-30.0425531901
  0
LINE
  5
46B
100
AcDbEntity
  8
0
100
AcDbLine
 62
7
  6
CONTINUOUS
 10
0.5749999877
 20
-30.0425531902
 11
0.4916669722
 21
-30.2553191483
  0
LINE
  5
46C
100
AcDbEntity
  8
0
100
AcDbLine
 62
7
  6
CONTINUOUS
 10
-8.8416667585
 20
-36.6170212627
 11
-8.8000000123
 21
-36.5319148898
  0
LINE
  5
46D
100
AcDbEntity
  8
0
100
AcDbLine
 62
7
  6
CONTINUOUS
 10
-8.8000000123
 20
-36.7872340381
 11
-8.8416667585
 21
-36.8723404259
  0
LINE
  5
46E
100
AcDbEntity
  8
0
100
AcDbLine
 62
7
  6
CONTINUOUS
 10
-8.1333335046
 20
-35.9787234068
 11
-8.0916665201
 21
-35.893617034
  0
LINE
  5
46F
100
AcDbEntity
  8
0
100
AcDbLine
 62
7
  6
CONTINUOUS
 10
-7.0500000123
 20
-36.7446808517
 11
-7.0916665201
 21
-36.8297872394
  0
LINE
  5
470
100
AcDbEntity
  8
0
100
AcDbLine
 62
7
  6
CONTINUOUS
 10
-6.4666665201
 20
-36.0638297796
 11
-6.3833335046
 21
-35.893617034
  0
LINE
  5
471
100
AcDbEntity
  8
0
100
AcDbLine
 62
7
  6
CONTINUOUS
 10
-6.2166665201
 20
-36.0212765932
 11
-6.2583335046
 21
-36.106382966
  0
LINE
  5
472
100
AcDbEntity
  8
0
100
AcDbLine
 62
7
  6
CONTINUOUS
 10
-10.2166667585
 20
-28.7659574747
 11
-10.3416667585
 21
-28.9361702204
  0
LINE
  5
473
100
AcDbEntity
  8
0
100
AcDbLine
 62
7
  6
CONTINUOUS
 10
-35.0750000123
 20
9.0
 11
-35.0250000123
 21
9.0
  0
LWPOLYLINE
  5
474
100
AcDbEntity
  8
0
100
AcDbPolyline
 62
7
  6
CONTINUOUS
 90
29
 70
0
 10
-2.3050000123
 20
18.1643954351
 10
-2.2963917654
 20
18.1533895053
 10
-2.2674403348
 20
18.1217427493
 10
-2.2369099062
 20
18.0928646726
 10
-2.2056803822
 20
18.0670570288
 10
-2.1741562653
 20
18.0441001687
 10
-2.142383219
 20
18.0235656753
 10
-2.1107135266
 20
18.0052827369
 10
-2.0794820124
 20
17.9890618723
 10
-2.0484409313
 20
17.9744533529
 10
-2.0170541344
 20
17.9609873556
 10
-1.9853471956
 20
17.9485166068
 10
-1.9531657976
 20
17.9368471542
 10
-1.9197032671
 20
17.925607472
 10
-1.8847418708
 20
17.9146864929
 10
-1.8482702119
 20
17.9040495776
 10
-1.8097921867
 20
17.8935346728
 10
-1.7690597764
 20
17.8830700484
 10
-1.7260750124
 20
17.872652679
 10
-1.6807706075
 20
17.8622609966
 10
-1.6330358149
 20
17.8518655191
 10
-1.5828262555
 20
17.8414533349
 10
-1.530271544
 20
17.8310455667
 10
-1.4753263514
 20
17.8206257561
 10
-1.4179887604
 20
17.8101865448
 10
-1.358557278
 20
17.7997722529
 10
-1.2970613267
 20
17.7893735146
 10
-1.2335647802
 20
17.7789846958
 10
-1.2007350946
 20
17.7737740607
  0
LWPOLYLINE
  5
475
100
AcDbEntity
  8
0
100
AcDbPolyline
 62
7
  6
CONTINUOUS
 90
4
 70
0
 10
-2.3050000123
 20
16.5643271293
 10
-2.2994870744
 20
16.5571642016
 10
-2.2714899374
 20
16.525979638
 10
-2.244775369
 20
16.5
  0
LINE
  5
476
100
AcDbEntity
  8
0
100
AcDbLine
 62
7
  6
CONTINUOUS
 10
-3.7498193104
 20
32.2
 11
-4.5423940872
 21
33.9325124059
  0
LWPOLYLINE
  5
477
100
AcDbEntity
  8
0
100
AcDbPolyline
 62
7
  6
CONTINUOUS
 90
4
 70
0
 10
2.5352065999
 20
19.5
 10
2.5174304185
 20
19.5393731516
 10
2.4951356611
 20
19.579365594
 10
2.4696296109
 20
19.6172075868
  0
LINE
  5
478
100
AcDbEntity
  8
0
100
AcDbLine
 62
7
  6
CONTINUOUS
 10
12.7449999877
 20
-28.9497753376
 11
12.7449999877
 21
-29.8402246624
  0
LINE
  5
479
100
AcDbEntity
  8
0
100
AcDbLine
 62
7
  6
CONTINUOUS
 10
13.0749999877
 20
-26.2
 11
13.0749999877
 21
-27.17
  0
LINE
  5
47A
100
AcDbEntity
  8
0
100
AcDbLine
 62
7
  6
CONTINUOUS
 10
13.0749999877
 20
-31.62
 11
13.0749999877
 21
-32.59
  0
LINE
  5
47B
100
AcDbEntity
  8
0
100
AcDbLine
 62
7
  6
CONTINUOUS
 10
15.0749999877
 20
-23.0
 11
15.0749999877
 21
-39.0
  0
LINE
  5
47C
100
AcDbEntity
  8
0
100
AcDbLine
 62
7
  6
CONTINUOUS
 10
4.4916660186
 20
-36.5744680762
 11
4.4499999877
 21
-36.7446808517
  0
LINE
  5
47D
100
AcDbEntity
  8
0
100
AcDbLine
 62
7
  6
CONTINUOUS
 10
2.5333330031
 20
-36.6170212626
 11
2.5749999877
 21
-36.4893617034
  0
LINE
  5
47E
100
AcDbEntity
  8
0
100
AcDbLine
 62
7
  6
CONTINUOUS
 10
4.2416660186
 20
-36.7021276653
 11
4.2833339568
 21
-36.5744680762
  0
LINE
  5
47F
100
AcDbEntity
  8
0
100
AcDbLine
 62
7
  6
CONTINUOUS
 10
-7.8416665201
 20
-35.9361702204
 11
-7.9250000123
 21
-36.0638297796
  0
LINE
  5
480
100
AcDbEntity
  8
0
100
AcDbLine
 62
7
  6
CONTINUOUS
 10
-7.1333335046
 20
-36.6595744789
 11
-7.0500000123
 21
-36.5319148898
  0
LINE
  5
481
100
AcDbEntity
  8
0
100
AcDbLine
 62
7
  6
CONTINUOUS
 10
-3.6333330278
 20
-28.7659574747
 11
-3.7583330278
 21
-28.9361702204
  0
LINE
  5
482
100
AcDbEntity
  8
0
100
AcDbLine
 62
7
  6
CONTINUOUS
 10
-10.5500000123
 20
-28.8085106611
 11
-10.4666667585
 21
-28.7234042883
  0
LINE
  5
483
100
AcDbEntity
  8
0
100
AcDbLine
 62
7
  6
CONTINUOUS
 10
-9.7166667585
 20
-28.2978723049
 11
-9.5500000123
 21
-28.1276595593
  0
LINE
  5
484
100
AcDbEntity
  8
0
100
AcDbLine
 62
7
  6
CONTINUOUS
 10
-8.2583335046
 20
-29.7021276653
 11
-8.4250000123
 21
-29.8723404259
  0
LINE
  5
485
100
AcDbEntity
  8
0
100
AcDbLine
 62
253
  6
CONTINUOUS
 10
-34.9250000123
 20
14.9
 11
-35.0250000123
 21
14.9
  0
LINE
  5
486
100
AcDbEntity
  8
0
100
AcDbLine
 62
7
  6
CONTINUOUS
 10
-35.0750000123
 20
15.0
 11
-35.0250000123
 21
15.0
  0
LINE
  5
487
100
AcDbEntity
  8
0
100
AcDbLine
 62
7
  6
CONTINUOUS
 10
-34.9250000123
 20
15.4
 11
-26.9250000123
 21
15.4
  0
LINE
  5
488
100
AcDbEntity
  8
0
100
AcDbLine
 62
7
  6
CONTINUOUS
 10
-8.9250000123
 20
15.4
 11
9.0749999877
 21
15.4
  0
LINE
  5
489
100
AcDbEntity
  8
0
100
AcDbLine
 62
7
  6
CONTINUOUS
 10
27.0749999877
 20
15.4
 11
35.0749999877
 21
15.4
  0
LWPOLYLINE
  5
48A
100
AcDbEntity
  8
0
100
AcDbPolyline
 62
7
  6
CONTINUOUS
 90
31
 70
0
 10
2.4549999877
 20
18.0354010118
 10
2.4414366634
 20
18.0522957406
 10
2.4109496242
 20
18.0846675215
 10
2.3785886592
 20
18.1142817257
 10
2.3454246987
 20
18.140674822
 10
2.3119575077
 20
18.1640377722
 10
2.2781034157
 20
18.1849156563
 10
2.2440697952
 20
18.2035736478
 10
2.2100657217
 20
18.2202575805
 10
2.1758120868
 20
18.235402546
 10
2.1407672864
 20
18.2494508018
 10
2.104851927
 20
18.2625801391
 10
2.0678861424
 20
18.2749823546
 10
2.0292583847
 20
18.286949062
 10
1.9887981211
 20
18.298584892
 10
1.9464580285
 20
18.3099454895
 10
1.9019215071
 20
18.3211458151
 10
1.8550458207
 20
18.3322398688
 10
1.8058113485
 20
18.3432471793
 10
1.7541885804
 20
18.3541883058
 10
1.7001071177
 20
18.3650902726
 10
1.6435781723
 20
18.375964491
 10
1.5848083433
 20
18.3867898117
 10
1.5238788527
 20
18.3975714465
 10
1.4608016423
 20
18.4083261911
 10
1.3957643576
 20
18.4190406602
 10
1.3288553604
 20
18.4297191254
 10
1.2601399438
 20
18.4403690859
 10
1.1898239858
 20
18.4509764347
 10
1.1179960934
 20
18.461546064
 10
0.9704562952
 20
18.482557574
  0
LWPOLYLINE
  5
48B
100
AcDbEntity
  8
0
100
AcDbPolyline
 62
7
  6
CONTINUOUS
 90
32
 70
0
 10
2.4696296109
 20
19.6172075868
 10
2.4415114905
 20
19.6522534389
 10
2.4109646055
 20
19.6847093443
 10
2.378391087
 20
19.7145122847
 10
2.3449969519
 20
19.741052783
 10
2.311259681
 20
19.7645430644
 10
2.2771143804
 20
19.7855195043
 10
2.2430392414
 20
19.8041165952
 10
2.2094075909
 20
19.8205549916
 10
2.1758740603
 20
19.8353545705
 10
2.1418912367
 20
19.8489928317
 10
2.1074973888
 20
19.8616280206
 10
2.0725395807
 20
19.8734620651
 10
2.0362701806
 20
19.8848418917
 10
1.9985192128
 20
19.8958731142
 10
1.9593139357
 20
19.9065911393
 10
1.9182576707
 20
19.9171347065
 10
1.875233942
 20
19.9275521706
 10
1.8302372289
 20
19.9378640085
 10
1.7830777998
 20
19.9481289491
 10
1.7336921362
 20
19.9583714519
 10
1.6820728201
 20
19.9686026122
 10
1.6281591249
 20
19.9788430504
 10
1.5718835453
 20
19.9891126034
 10
1.5132892188
 20
19.9994101665
 10
1.4525365967
 20
20.009716133
 10
1.389630213
 20
20.0200400137
 10
1.3246365743
 20
20.03038392
 10
1.2578724628
 20
20.0407129113
 10
1.1894169331
 20
20.0510314548
 10
1.1193575046
 20
20.0613425631
 10
0.9756907211
 20
20.0818262879
  0
LINE
  5
48C
100
AcDbEntity
  8
0
100
AcDbLine
 62
7
  6
CONTINUOUS
 10
8.0333339568
 20
-36.446808517
 11
7.9916660185
 21
-36.5744680762
  0
LINE
  5
48D
100
AcDbEntity
  8
0
100
AcDbLine
 62
7
  6
CONTINUOUS
 10
1.2416669722
 20
-35.4680850506
 11
1.3249999877
 21
-35.2978723049
  0
LINE
  5
48E
100
AcDbEntity
  8
0
100
AcDbLine
 62
7
  6
CONTINUOUS
 10
3.1999999877
 20
-36.0638297796
 11
3.2833330031
 21
-35.893617034
  0
LINE
  5
48F
100
AcDbEntity
  8
0
100
AcDbLine
 62
7
  6
CONTINUOUS
 10
3.4499999877
 20
-36.0212765932
 11
3.4083330031
 21
-36.106382966
  0
LINE
  5
490
100
AcDbEntity
  8
0
100
AcDbLine
 62
7
  6
CONTINUOUS
 10
1.9083330031
 20
-29.2765957713
 11
1.8249999877
 21
-29.4042553306
  0
LINE
  5
491
100
AcDbEntity
  8
0
100
AcDbLine
 62
7
  6
CONTINUOUS
 10
-2.5083330278
 20
-28.2978723049
 11
-2.2583330278
 21
-28.0
  0
LINE
  5
492
100
AcDbEntity
  8
0
100
AcDbLine
 62
7
  6
CONTINUOUS
 10
-2.2583330278
 20
-28.3404254913
 11
-2.5083330278
 21
-28.6382979155
  0
LINE
  5
493
100
AcDbEntity
  8
0
100
AcDbLine
 62
7
  6
CONTINUOUS
 10
-1.6750000123
 20
-29.1489361525
 11
-0.6750000123
 21
-28.0
  0
LINE
  5
494
100
AcDbEntity
  8
0
100
AcDbLine
 62
7
  6
CONTINUOUS
 10
-0.6750000123
 20
-28.3404254913
 11
-1.3833330278
 21
-29.1489361525
  0
LINE
  5
495
100
AcDbEntity
  8
0
100
AcDbLine
 62
7
  6
CONTINUOUS
 10
-3.9666669969
 20
-28.8085106611
 11
-3.8833330278
 21
-28.7234042883
  0
LINE
  5
496
100
AcDbEntity
  8
0
100
AcDbLine
 62
7
  6
CONTINUOUS
 10
-9.8000000123
 20
-35.8085106611
 11
-9.7166667585
 21
-35.7234042883
  0
LINE
  5
497
100
AcDbEntity
  8
0
100
AcDbLine
 62
7
  6
CONTINUOUS
 10
-9.7583332662
 20
-36.3191489577
 11
-9.6750000123
 21
-36.2340425253
  0
LINE
  5
498
100
AcDbEntity
  8
0
100
AcDbLine
 62
7
  6
CONTINUOUS
 10
-9.5083332662
 20
-36.3617021442
 11
-9.5916667585
 21
-36.446808517
  0
LINE
  5
499
100
AcDbEntity
  8
0
100
AcDbLine
 62
7
  6
CONTINUOUS
 10
-8.9666667585
 20
-36.7446808517
 11
-8.8416667585
 21
-36.6170212627
  0
LINE
  5
49A
100
AcDbEntity
  8
0
100
AcDbLine
 62
7
  6
CONTINUOUS
 10
-8.0916665201
 20
-35.893617034
 11
-7.9666665201
 21
-35.7659574747
  0
LINE
  5
49B
100
AcDbEntity
  8
0
100
AcDbLine
 62
7
  6
CONTINUOUS
 10
-10.3416667585
 20
-28.9361702204
 11
-10.5083332662
 21
-29.0638297796
  0
LINE
  5
49C
100
AcDbEntity
  8
0
100
AcDbLine
 62
7
  6
CONTINUOUS
 10
-9.3416667585
 20
-28.2978723049
 11
-9.4666667585
 21
-28.3829786777
  0
LINE
  5
49D
100
AcDbEntity
  8
0
100
AcDbLine
 62
7
  6
CONTINUOUS
 10
-1.191526072
 20
16.6226198905
 11
-1.1057328333
 21
16.6370571879
  0
LINE
  5
49E
100
AcDbEntity
  8
0
100
AcDbLine
 62
7
  6
CONTINUOUS
 10
-1.1708244028
 20
18.2261773914
 11
-1.0842161617
 21
18.2405752997
  0
LINE
  5
49F
100
AcDbEntity
  8
0
100
AcDbLine
 62
7
  6
CONTINUOUS
 10
1.3107451742
 20
19.5721073109
 11
1.2190825735
 21
19.5569816195
  0
LINE
  5
4A0
100
AcDbEntity
  8
0
100
AcDbLine
 62
7
  6
CONTINUOUS
 10
1.2973309932
 20
17.9698511295
 11
1.1986242348
 21
17.9537075031
  0
LINE
  5
4A1
100
AcDbEntity
  8
0
100
AcDbLine
 62
7
  6
CONTINUOUS
 10
-1.1057328333
 20
16.6370571879
 11
-1.0137899964
 21
16.6517969364
  0
LINE
  5
4A2
100
AcDbEntity
  8
0
100
AcDbLine
 62
7
  6
CONTINUOUS
 10
-1.0842161617
 20
18.2405752997
 11
-0.9915958403
 21
18.2552609025
  0
LINE
  5
4A3
100
AcDbEntity
  8
0
100
AcDbLine
 62
7
  6
CONTINUOUS
 10
1.2190825735
 20
19.5569816195
 11
1.1209246185
 21
19.5415487451
  0
LINE
  5
4A4
100
AcDbEntity
  8
0
100
AcDbLine
 62
7
  6
CONTINUOUS
 10
1.1986242348
 20
17.9537075031
 11
1.0930733794
 21
17.9372855576
  0
LWPOLYLINE
  5
4A5
100
AcDbEntity
  8
0
100
AcDbPolyline
 62
7
  6
CONTINUOUS
 90
30
 70
0
 10
1.2255017337
 20
18.5543743404
 10
1.2932375601
 20
18.5647218317
 10
1.3595139802
 20
18.5751277416
 10
1.4242274644
 20
18.5855973614
 10
1.4868932256
 20
18.5960705107
 10
1.5474600118
 20
18.6065515168
 10
1.6059060009
 20
18.6170497445
 10
1.6619060461
 20
18.6275174087
 10
1.7154612713
 20
18.6379621902
 10
1.7666089654
 20
18.6483991729
 10
1.8151871042
 20
18.658800796
 10
1.861209941
 20
18.6691719639
 10
1.9048223086
 20
18.6795476282
 10
1.9461496716
 20
18.6899607875
 10
1.9851932647
 20
18.7004102291
 10
2.0222060831
 20
18.7109634963
 10
2.0577295639
 20
18.7217928394
 10
2.0917701557
 20
18.7329336289
 10
2.1245184709
 20
18.7444890528
 10
2.1567948688
 20
18.7568302717
 10
2.1887354339
 20
18.7701439027
 10
2.2203204924
 20
18.7845816058
 10
2.2521514376
 20
18.8006424127
 10
2.2845125277
 20
18.8188064435
 10
2.3170333368
 20
18.8392685671
 10
2.3493353678
 20
18.8622044248
 10
2.381382316
 20
18.88806401
 10
2.4127644029
 20
18.9170893804
 10
2.4425616825
 20
18.9489792118
 10
2.4549999877
 20
18.9645681546
  0
LWPOLYLINE
  5
4A6
100
AcDbEntity
  8
0
100
AcDbPolyline
 62
7
  6
CONTINUOUS
 90
29
 70
0
 10
-1.0663080154
 20
19.247012643
 10
-1.133331289
 20
19.2368108897
 10
-1.1989259612
 20
19.2265548749
 10
-1.2629010655
 20
19.2162560244
 10
-1.325183185
 20
19.205909604
 10
-1.3857073471
 20
19.195509031
 10
-1.4443488749
 20
19.1850578219
 10
-1.5010964202
 20
19.1745390325
 10
-1.5558602837
 20
19.1639488753
 10
-1.6084701402
 20
19.1533004794
 10
-1.6589116998
 20
19.1425770856
 10
-1.7071909748
 20
19.1317558943
 10
-1.7532841379
 20
19.1208226757
 10
-1.7971975079
 20
19.1097587935
 10
-1.8390638741
 20
19.0985102032
 10
-1.8791648158
 20
19.0869690468
 10
-1.9174974212
 20
19.0750937293
 10
-1.9542568975
 20
19.0627718015
 10
-1.990133668
 20
19.0496800789
 10
-2.0253276757
 20
19.0356045002
 10
-2.0598456544
 20
19.0203728442
 10
-2.0941870801
 20
19.0035375925
 10
-2.1286654247
 20
18.9846192904
 10
-2.1630193084
 20
18.963370821
 10
-2.196901447
 20
18.9395980427
 10
-2.2303815928
 20
18.9127646486
 10
-2.262971851
 20
18.8826705448
 10
-2.2935307453
 20
18.8498653354
 10
-2.3050000123
 20
18.8353951643
  0
LINE
  5
4A7
100
AcDbEntity
  8
0
100
AcDbLine
 62
7
  6
CONTINUOUS
 10
-1.0137899964
 20
16.6517969364
 11
-0.9160258401
 21
16.6668045433
  0
LWPOLYLINE
  5
4A8
100
AcDbEntity
  8
0
100
AcDbPolyline
 62
7
  6
CONTINUOUS
 90
30
 70
0
 10
1.2019635222
 20
16.950838239
 10
1.2696558608
 20
16.9610912959
 10
1.3364342917
 20
16.9714764645
 10
1.4020835988
 20
16.9819852845
 10
1.4660287831
 20
16.9925486243
 10
1.5281801025
 20
17.0031724621
 10
1.5884608395
 20
17.0138658538
 10
1.6464276712
 20
17.0245698581
 10
1.7020431789
 20
17.0352932847
 10
1.7553253938
 20
17.046052332
 10
1.8060399839
 20
17.0568085481
 10
1.8542262428
 20
17.0675757135
 10
1.8999825584
 20
17.0783823534
 10
1.9432904863
 20
17.0892303277
 10
1.9841895664
 20
17.1001333669
 10
2.0228966812
 20
17.1111554979
 10
2.059755039
 20
17.1224125032
 10
2.094751232
 20
17.1339253349
 10
2.1281920992
 20
17.1458239676
 10
2.1609281917
 20
17.1584796407
 10
2.1931383211
 20
17.1720829437
 10
2.2248283446
 20
17.1867815348
 10
2.2565723196
 20
17.2030457429
 10
2.2886302214
 20
17.2213144569
 10
2.3206986567
 20
17.241779805
 10
2.3524804165
 20
17.2646359332
 10
2.3839374604
 20
17.2903041313
 10
2.4146861046
 20
17.3190098638
 10
2.4439025768
 20
17.3505097901
 10
2.4549999877
 20
17.3644935124
  0
LINE
  5
4A9
100
AcDbEntity
  8
0
100
AcDbLine
 62
7
  6
CONTINUOUS
 10
-0.9915958403
 20
18.2552609025
 11
-0.8933217752
 21
18.2702024066
  0
LWPOLYLINE
  5
4AA
100
AcDbEntity
  8
0
100
AcDbPolyline
 62
7
  6
CONTINUOUS
 90
30
 70
0
 10
-1.0083529811
 20
17.6556353118
 10
-1.0790101571
 20
17.6450946557
 10
-1.1481337167
 20
17.6345142764
 10
-1.2156263242
 20
17.6238901396
 10
-1.2812971352
 20
17.6132331378
 10
-1.3451249521
 20
17.6025268271
 10
-1.4069678163
 20
17.5917740233
 10
-1.4665190044
 20
17.5810088205
 10
-1.5237417218
 20
17.5702213749
 10
-1.5786339182
 20
17.5593985384
 10
-1.6310381965
 20
17.5485598389
 10
-1.6809585376
 20
17.5376948363
 10
-1.7284822159
 20
17.5267735971
 10
-1.7736809221
 20
17.5157661059
 10
-1.8166076034
 20
17.5046438131
 10
-1.8573905434
 20
17.4933543603
 10
-1.8963147277
 20
17.4817890199
 10
-1.9334446959
 20
17.4698886125
 10
-1.9689718026
 20
17.4575474291
 10
-2.0034678959
 20
17.4444943449
 10
-2.0370672956
 20
17.430571314
 10
-2.0699113645
 20
17.4155895983
 10
-2.1026219679
 20
17.3990705356
 10
-2.135485424
 20
17.3805720676
 10
-2.1682322963
 20
17.3598888639
 10
-2.2006103322
 20
17.3368011089
 10
-2.2326406124
 20
17.3108387151
 10
-2.2638915874
 20
17.2818038067
 10
-2.2934318456
 20
17.2500582808
 10
-2.3050000123
 20
17.2355165987
  0
LINE
  5
4AB
100
AcDbEntity
  8
0
100
AcDbLine
 62
7
  6
CONTINUOUS
 10
1.1209246185
 20
19.5415487451
 11
1.0167166711
 21
19.525848936
  0
LINE
  5
4AC
100
AcDbEntity
  8
0
100
AcDbLine
 62
7
  6
CONTINUOUS
 10
1.0930733794
 20
17.9372855576
 11
0.9812315779
 21
17.9206331759
  0
LINE
  5
4AD
100
AcDbEntity
  8
0
100
AcDbLine
 62
7
  6
CONTINUOUS
 10
-0.9160258401
 20
16.6668045433
 11
-0.8127200858
 21
16.6820611466
  0
LINE
  5
4AE
100
AcDbEntity
  8
0
100
AcDbLine
 62
7
  6
CONTINUOUS
 10
1.0865605831
 20
18.5339082446
 11
1.2255017337
 21
18.5543743404
  0
LINE
  5
4AF
100
AcDbEntity
  8
0
100
AcDbLine
 62
7
  6
CONTINUOUS
 10
-0.8933217752
 20
18.2702024066
 11
-0.7897718069
 21
18.2853741071
  0
LINE
  5
4B0
100
AcDbEntity
  8
0
100
AcDbLine
 62
7
  6
CONTINUOUS
 10
-0.9283900893
 20
19.2672687046
 11
-1.0663080154
 21
19.247012643
  0
LINE
  5
4B1
100
AcDbEntity
  8
0
100
AcDbLine
 62
7
  6
CONTINUOUS
 10
1.0643272853
 20
16.9307094367
 11
1.2019635222
 21
16.950838239
  0
LINE
  5
4B2
100
AcDbEntity
  8
0
100
AcDbLine
 62
7
  6
CONTINUOUS
 10
1.0167166711
 20
19.525848936
 11
0.906914248
 21
19.5099138423
  0
LINE
  5
4B3
100
AcDbEntity
  8
0
100
AcDbLine
 62
7
  6
CONTINUOUS
 10
-0.8629590747
 20
17.6765928182
 11
-1.0083529811
 21
17.6556353118
  0
LINE
  5
4B4
100
AcDbEntity
  8
0
100
AcDbLine
 62
7
  6
CONTINUOUS
 10
0.9812315779
 20
17.9206331759
 11
0.8635556359
 21
17.9037657887
  0
LINE
  5
4B5
100
AcDbEntity
  8
0
100
AcDbLine
 62
7
  6
CONTINUOUS
 10
-0.8127200858
 20
16.6820611466
 11
-0.7041946325
 21
16.6975527349
  0
LINE
  5
4B6
100
AcDbEntity
  8
0
100
AcDbLine
 62
7
  6
CONTINUOUS
 10
-0.7897718069
 20
18.2853741071
 11
-0.6813108673
 21
18.3007589587
  0
LINE
  5
4B7
100
AcDbEntity
  8
0
100
AcDbLine
 62
7
  6
CONTINUOUS
 10
0.9452174878
 20
18.5139281329
 11
1.0865605831
 21
18.5339082446
  0
LINE
  5
4B8
100
AcDbEntity
  8
0
100
AcDbLine
 62
7
  6
CONTINUOUS
 10
-0.786420251
 20
19.2872906072
 11
-0.9283900893
 21
19.2672687046
  0
LINE
  5
4B9
100
AcDbEntity
  8
0
100
AcDbLine
 62
7
  6
CONTINUOUS
 10
0.906914248
 20
19.5099138423
 11
0.7919123913
 21
19.4937587243
  0
LINE
  5
4BA
100
AcDbEntity
  8
0
100
AcDbLine
 62
7
  6
CONTINUOUS
 10
0.925502258
 20
16.911195918
 11
1.0643272853
 21
16.9307094367
  0
LINE
  5
4BB
100
AcDbEntity
  8
0
100
AcDbLine
 62
7
  6
CONTINUOUS
 10
-0.7041946325
 20
16.6975527349
 11
-0.5908370479
 21
16.7132669485
  0
LINE
  5
4BC
100
AcDbEntity
  8
0
100
AcDbLine
 62
7
  6
CONTINUOUS
 10
0.8635556359
 20
17.9037657887
 11
0.7403386993
 21
17.8866653452
  0
LINE
  5
4BD
100
AcDbEntity
  8
0
100
AcDbLine
 62
7
  6
CONTINUOUS
 10
-0.7132025749
 20
17.6973555313
 11
-0.8629590747
 21
17.6765928182
  0
LINE
  5
4BE
100
AcDbEntity
  8
0
100
AcDbLine
 62
7
  6
CONTINUOUS
 10
-0.6813108673
 20
18.3007589587
 11
-0.5683443355
 21
18.3163398075
  0
LINE
  5
4BF
100
AcDbEntity
  8
0
100
AcDbLine
 62
7
  6
CONTINUOUS
 10
0.8034079567
 20
18.494536691
 11
0.9452174878
 21
18.5139281329
  0
LINE
  5
4C0
100
AcDbEntity
  8
0
100
AcDbLine
 62
7
  6
CONTINUOUS
 10
0.7919123913
 20
19.4937587243
 11
0.6721170776
 21
19.4773936074
  0
LINE
  5
4C1
100
AcDbEntity
  8
0
100
AcDbLine
 62
7
  6
CONTINUOUS
 10
-0.6415682885
 20
19.3070560396
 11
-0.786420251
 21
19.2872906072
  0
LINE
  5
4C2
100
AcDbEntity
  8
0
100
AcDbLine
 62
7
  6
CONTINUOUS
 10
0.7860499021
 20
16.8922038016
 11
0.925502258
 21
16.911195918
  0
LINE
  5
4C3
100
AcDbEntity
  8
0
100
AcDbLine
 62
7
  6
CONTINUOUS
 10
-0.5908370479
 20
16.7132669485
 11
-0.4730529159
 21
16.7291946858
  0
LINE
  5
4C4
100
AcDbEntity
  8
0
100
AcDbLine
 62
7
  6
CONTINUOUS
 10
0.7403386993
 20
17.8866653452
 11
0.6118076853
 21
17.8693022497
  0
LINE
  5
4C5
100
AcDbEntity
  8
0
100
AcDbLine
 62
7
  6
CONTINUOUS
 10
-0.5683443355
 20
18.3163398075
 11
-0.4512908082
 21
18.3321032406
  0
LINE
  5
4C6
100
AcDbEntity
  8
0
100
AcDbLine
 62
7
  6
CONTINUOUS
 10
-0.5605527416
 20
17.7178773286
 11
-0.7132025749
 21
17.6973555313
  0
LINE
  5
4C7
100
AcDbEntity
  8
0
100
AcDbLine
 62
7
  6
CONTINUOUS
 10
0.6721170776
 20
19.4773936074
 11
0.5477433673
 21
19.4607924837
  0
LINE
  5
4C8
100
AcDbEntity
  8
0
100
AcDbLine
 62
7
  6
CONTINUOUS
 10
0.6118076853
 20
17.8693022497
 11
0.4782926438
 21
17.8516575012
  0
LINE
  5
4C9
100
AcDbEntity
  8
0
100
AcDbLine
 62
7
  6
CONTINUOUS
 10
0.5922837805
 20
18.4665539658
 11
0.8034079567
 21
18.494536691
  0
LINE
  5
4CA
100
AcDbEntity
  8
0
100
AcDbLine
 62
7
  6
CONTINUOUS
 10
0.577248881
 20
16.864592833
 11
0.7860499021
 21
16.8922038016
  0
LINE
  5
4CB
100
AcDbEntity
  8
0
100
AcDbLine
 62
7
  6
CONTINUOUS
 10
-0.4730529159
 20
16.7291946858
 11
-0.2890032439
 21
16.7534737874
  0
LINE
  5
4CC
100
AcDbEntity
  8
0
100
AcDbLine
 62
7
  6
CONTINUOUS
 10
-0.4218638527
 20
19.3361110393
 11
-0.6415682885
 21
19.3070560396
  0
LINE
  5
4CD
100
AcDbEntity
  8
0
100
AcDbLine
 62
7
  6
CONTINUOUS
 10
-0.4512908082
 20
18.3321032406
 11
-0.2690460616
 21
18.3560710244
  0
LINE
  5
4CE
100
AcDbEntity
  8
0
100
AcDbLine
 62
7
  6
CONTINUOUS
 10
-0.3291846687
 20
17.7481292796
 11
-0.5605527416
 21
17.7178773286
  0
LINE
  5
4CF
100
AcDbEntity
  8
0
100
AcDbLine
 62
7
  6
CONTINUOUS
 10
0.5477433673
 20
19.4607924837
 11
0.353310604
 21
19.4354114247
  0
LINE
  5
4D0
100
AcDbEntity
  8
0
100
AcDbLine
 62
7
  6
CONTINUOUS
 10
0.4782926438
 20
17.8516575012
 11
0.2692444947
 21
17.8245864947
  0
LINE
  5
4D1
100
AcDbEntity
  8
0
100
AcDbLine
 62
7
  6
CONTINUOUS
 10
-0.2890032439
 20
16.7534737874
 11
-0.0322741708
 21
16.7865470903
  0
LINE
  5
4D2
100
AcDbEntity
  8
0
100
AcDbLine
 62
7
  6
CONTINUOUS
 10
-0.2690460616
 20
18.3560710244
 11
-0.015572993
 21
18.3886779394
  0
LWPOLYLINE
  5
4D3
100
AcDbEntity
  8
0
100
AcDbPolyline
 62
7
  6
CONTINUOUS
 90
3
 70
0
 10
-0.0322741708
 20
16.7865470903
 10
0.1668401478
 20
16.8119123657
 10
0.577248881
 20
16.864592833
  0
LINE
  5
4D4
100
AcDbEntity
  8
0
100
AcDbLine
 62
7
  6
CONTINUOUS
 10
0.2692444947
 20
17.8245864947
 11
-0.3291846687
 21
17.7481292796
  0
LWPOLYLINE
  5
4D5
100
AcDbEntity
  8
0
100
AcDbPolyline
 62
7
  6
CONTINUOUS
 90
3
 70
0
 10
-0.015572993
 20
18.3886779394
 10
0.1153467956
 20
18.4053592997
 10
0.5922837805
 20
18.4665539658
  0
LWPOLYLINE
  5
4D6
100
AcDbEntity
  8
0
100
AcDbPolyline
 62
7
  6
CONTINUOUS
 90
3
 70
0
 10
0.353310604
 20
19.4354114247
 10
0.0109583908
 20
19.39162421
 10
-0.4218638527
 20
19.3361110393
  0
LWPOLYLINE
  5
4D7
100
AcDbEntity
  8
0
100
AcDbPolyline
 62
253
  6
CONTINUOUS
 90
19
 70
0
 10
-0.6222167156
 20
17.2280247057
 10
-0.7569953602
 20
17.2136027823
 10
-0.8892683786
 20
17.1991641794
 10
-1.0187705192
 20
17.1846886973
 10
-1.1448664308
 20
17.1701965357
 10
-1.2670870107
 20
17.1556924937
 10
-1.3850770363
 20
17.1411733658
 10
-1.4984322319
 20
17.1266423573
 10
-1.6066692396
 20
17.1121138838
 10
-1.7093950979
 20
17.0975922142
 10
-1.8062797777
 20
17.0830730795
 10
-1.8969880834
 20
17.0685580879
 10
-1.9812487048
 20
17.0540508433
 10
-2.0588426736
 20
17.0395477418
 10
-2.1295707773
 20
17.0250395802
 10
-2.1931804406
 20
17.010525713
 10
-2.2494130698
 20
16.9960067857
 10
-2.298083622
 20
16.9814755316
 10
-2.3050000123
 20
16.9790206879
  0
LWPOLYLINE
  5
4D8
100
AcDbEntity
  8
0
100
AcDbPolyline
 62
253
  6
CONTINUOUS
 90
19
 70
0
 10
-0.5953837816
 20
18.8308694751
 10
-0.7321191893
 20
18.816287518
 10
-0.8655485345
 20
18.8017765317
 10
-0.9955607696
 20
18.7873069802
 10
-1.1222398321
 20
18.7728250316
 10
-1.2452861873
 20
18.7583164445
 10
-1.3641518803
 20
18.7437954603
 10
-1.4784989501
 20
18.729250972
 10
-1.5880092772
 20
18.7146710899
 10
-1.6922357774
 20
18.7000677036
 10
-1.7906691755
 20
18.6854653749
 10
-1.8829524182
 20
18.670870133
 10
-1.9688076666
 20
18.6562759487
 10
-2.0478826997
 20
18.6416892953
 10
-2.1198996433
 20
18.6271142749
 10
-2.1847003747
 20
18.6125467855
 10
-2.2421320237
 20
18.597980995
 10
-2.2920101783
 20
18.5834173595
 10
-2.3050000123
 20
18.5789289802
  0
LINE
  5
4D9
100
AcDbEntity
  8
0
100
AcDbLine
 62
253
  6
CONTINUOUS
 10
0.8207163279
 20
18.9771322237
 11
0.5433793564
 21
18.9479942066
  0
LINE
  5
4DA
100
AcDbEntity
  8
0
100
AcDbLine
 62
253
  6
CONTINUOUS
 10
0.7909233529
 20
17.3739616468
 11
0.5112466798
 21
17.3446642427
  0
LINE
  5
4DB
100
AcDbEntity
  8
0
100
AcDbLine
 62
253
  6
CONTINUOUS
 10
-0.3450412032
 20
17.2570108035
 11
-0.6222167156
 21
17.2280247057
  0
LINE
  5
4DC
100
AcDbEntity
  8
0
100
AcDbLine
 62
253
  6
CONTINUOUS
 10
-0.3148824271
 20
18.8601229173
 11
-0.5953837816
 21
18.8308694751
  0
LINE
  5
4DD
100
AcDbEntity
  8
0
100
AcDbLine
 62
253
  6
CONTINUOUS
 10
0.5433793564
 20
18.9479942066
 11
0.2582292708
 21
18.918681252
  0
LINE
  5
4DE
100
AcDbEntity
  8
0
100
AcDbLine
 62
253
  6
CONTINUOUS
 10
0.5112466798
 20
17.3446642427
 11
-0.3450412032
 21
17.2570108035
  0
LINE
  5
4DF
100
AcDbEntity
  8
0
100
AcDbLine
 62
253
  6
CONTINUOUS
 10
0.2582292708
 20
18.918681252
 11
-0.3148824271
 21
18.8601229173
  0
LINE
  5
4E0
100
AcDbEntity
  8
0
100
AcDbLine
 62
7
  6
CONTINUOUS
 10
-35.0250000123
 20
16.5
 11
-34.9250000123
 21
16.5
  0
LINE
  5
4E1
100
AcDbEntity
  8
0
100
AcDbLine
 62
7
  6
CONTINUOUS
 10
-3.4251990666
 20
16.5
 11
3.5751990419
 21
16.5
  0
LINE
  5
4E2
100
AcDbEntity
  8
0
100
AcDbLine
 62
253
  6
CONTINUOUS
 10
2.1319299478
 20
16.7
 11
2.4549999877
 21
16.7
  0
LINE
  5
4E3
100
AcDbEntity
  8
0
100
AcDbLine
 62
7
  6
CONTINUOUS
 10
-1.2007350946
 20
18.0
 11
1.3507350699
 21
18.0
  0
LINE
  5
4E4
100
AcDbEntity
  8
0
100
AcDbLine
 62
7
  6
CONTINUOUS
 10
-2.3050000123
 20
19.5
 11
-4.6902861963
 21
19.5
  0
LINE
  5
4E5
100
AcDbEntity
  8
0
100
AcDbLine
 62
7
  6
CONTINUOUS
 10
2.4549999877
 20
19.5
 11
4.8402861716
 21
19.5
  0
LINE
  5
4E6
100
AcDbEntity
  8
0
100
AcDbLine
 62
7
  6
CONTINUOUS
 10
0.9704562952
 20
18.482557574
 11
0.8436437337
 21
18.4999979821
  0
LINE
  5
4E7
100
AcDbEntity
  8
0
100
AcDbLine
 62
7
  6
CONTINUOUS
 10
-0.8520702907
 20
19.3218766307
 11
-0.6936697894
 21
19.299998827
  0
LWPOLYLINE
  5
4E8
100
AcDbEntity
  8
0
100
AcDbPolyline
 62
253
  6
CONTINUOUS
 90
5
 70
0
 10
0.3003465927
 20
18.0615987713
 10
0.3968116553
 20
18.0449397955
 10
0.4919162497
 20
18.0282762459
 10
0.5852579222
 20
18.0116083775
 10
0.6487506799
 20
18.0
  0
LWPOLYLINE
  5
4E9
100
AcDbEntity
  8
0
100
AcDbPolyline
 62
253
  6
CONTINUOUS
 90
9
 70
0
 10
0.2296642671
 20
19.6736955753
 10
0.4224396046
 20
19.6404742743
 10
0.5168884152
 20
19.6238520766
 10
0.6094675359
 20
19.6072274917
 10
0.6997023075
 20
19.5906129119
 10
0.7871853976
 20
19.5740147541
 10
0.8716035184
 20
19.5574266014
 10
0.9526428475
 20
19.5408415954
 10
1.0201540097
 20
19.5263616957
  0
LWPOLYLINE
  5
4EA
100
AcDbEntity
  8
0
100
AcDbPolyline
 62
253
  6
CONTINUOUS
 90
10
 70
0
 10
-0.8702637998
 20
19.8736172055
 10
-0.7924813033
 20
19.8570333459
 10
-0.7107461279
 20
19.8403998505
 10
-0.6253613154
 20
19.8237096641
 10
-0.5368228387
 20
19.8069902755
 10
-0.4457071355
 20
19.790279448
 10
-0.3524617532
 20
19.7735881262
 10
-0.2574181491
 20
19.7569053654
 10
-0.1610212693
 20
19.7402360945
 10
0.2296642671
 20
19.6736955753
  0
LWPOLYLINE
  5
4EB
100
AcDbEntity
  8
0
100
AcDbPolyline
 62
253
  6
CONTINUOUS
 90
10
 70
0
 10
-0.8700472848
 20
18.2736423933
 10
-0.8094410147
 20
18.2605866182
 10
-0.7288873724
 20
18.2440351922
 10
-0.6449771012
 20
18.2274885827
 10
-0.5580562227
 20
18.2109478192
 10
-0.4684120524
 20
18.1944005182
 10
-0.3764230797
 20
18.1778448467
 10
-0.2824952435
 20
18.1612826377
 10
-0.1869857095
 20
18.1447070058
 10
0.3003465927
 20
18.0615987713
  0
LINE
  5
4EC
100
AcDbEntity
  8
0
100
AcDbLine
 62
7
  6
CONTINUOUS
 10
6.8249999877
 20
-35.893617034
 11
6.7833339568
 21
-35.9787234068
  0
LINE
  5
4ED
100
AcDbEntity
  8
0
100
AcDbLine
 62
7
  6
CONTINUOUS
 10
7.7833339568
 20
-35.893617034
 11
7.8249999877
 21
-35.8085106611
  0
LINE
  5
4EE
100
AcDbEntity
  8
0
100
AcDbLine
 62
7
  6
CONTINUOUS
 10
8.0333339568
 20
-35.893617034
 11
7.9916660185
 21
-35.9787234068
  0
LINE
  5
4EF
100
AcDbEntity
  8
0
100
AcDbLine
 62
7
  6
CONTINUOUS
 10
7.7833339568
 20
-36.4893617034
 11
7.8666660185
 21
-36.3191489577
  0
LINE
  5
4F0
100
AcDbEntity
  8
0
100
AcDbLine
 62
7
  6
CONTINUOUS
 10
1.5749999877
 20
-35.3829786777
 11
1.4916669722
 21
-35.5106383562
  0
LINE
  5
4F1
100
AcDbEntity
  8
0
100
AcDbLine
 62
7
  6
CONTINUOUS
 10
-6.3833335046
 20
-35.893617034
 11
-6.3000000123
 21
-35.8085106611
  0
LINE
  5
4F2
100
AcDbEntity
  8
0
100
AcDbLine
 62
7
  6
CONTINUOUS
 10
-7.0916665201
 20
-36.8297872394
 11
-7.1750000123
 21
-36.9148936197
  0
LINE
  5
4F3
100
AcDbEntity
  8
0
100
AcDbLine
 62
7
  6
CONTINUOUS
 10
-6.0916665201
 20
-35.893617034
 11
-6.2166665201
 21
-36.0212765932
  0
LINE
  5
4F4
100
AcDbEntity
  8
0
100
AcDbLine
 62
7
  6
CONTINUOUS
 10
-5.2166665201
 20
-36.7446808517
 11
-5.3416665201
 21
-36.8723404258
  0
LINE
  5
4F5
100
AcDbEntity
  8
0
100
AcDbLine
 62
7
  6
CONTINUOUS
 10
-8.6333335046
 20
-29.7021276653
 11
-8.5083335046
 21
-29.6170212626
  0
LINE
  5
4F6
100
AcDbEntity
  8
0
100
AcDbLine
 62
7
  6
CONTINUOUS
 10
-12.0500000123
 20
-28.9787234068
 11
-12.8416666765
 21
-29.4042553306
  0
LINE
  5
4F7
100
AcDbEntity
  8
0
100
AcDbLine
 62
7
  6
CONTINUOUS
 10
-12.9250000123
 20
-29.2765957713
 11
-12.3416666989
 21
-28.9787234068
  0
LINE
  5
4F8
100
AcDbEntity
  8
0
100
AcDbLine
 62
7
  6
CONTINUOUS
 10
-9.5500000123
 20
-28.1276595593
 11
-9.3833332662
 21
-28.0425531864
  0
LINE
  5
4F9
100
AcDbEntity
  8
0
100
AcDbLine
 62
7
  6
CONTINUOUS
 10
-8.4250000123
 20
-29.8723404259
 11
-8.59166652
 21
-29.9574468099
  0
LWPOLYLINE
  5
4FA
100
AcDbEntity
  8
0
100
AcDbPolyline
 62
7
  6
CONTINUOUS
 90
15
 70
0
 10
-1.5574947925
 20
21.3467677243
 10
-1.5322695718
 20
21.3533711561
 10
-1.4897500241
 20
21.3637427268
 10
-1.4400730493
 20
21.3749593134
 10
-1.3825964299
 20
21.3870366423
 10
-1.3174104878
 20
21.3998446713
 10
-1.2454970964
 20
21.4131249418
 10
-1.1669180639
 20
21.4268408525
 10
-1.0817108865
 20
21.4409751664
 10
-0.9911469834
 20
21.4553266086
 10
-0.8954816735
 20
21.469881161
 10
-0.7949866073
 20
21.4846266137
 10
-0.6911933122
 20
21.4993788625
 10
-0.5845294644
 20
21.5141309082
 10
-0.4754419651
 20
21.5288755076
  0
LWPOLYLINE
  5
4FB
100
AcDbEntity
  8
0
100
AcDbPolyline
 62
253
  6
CONTINUOUS
 90
24
 70
0
 10
-1.557613275
 20
21.3467357043
 10
-1.5703895567
 20
21.3435214502
 10
-1.6048120251
 20
21.3371448423
 10
-1.6395794933
 20
21.3339566367
 10
-1.6744619318
 20
21.333956821
 10
-1.709229326
 20
21.3371453886
 10
-1.7436516462
 20
21.3435223383
 10
-1.7774988458
 20
21.3530876664
 10
-1.8105424678
 20
21.3658357477
 10
-1.8425776989
 20
21.3816768386
 10
-1.8734179937
 20
21.4004564764
 10
-1.9028773137
 20
21.4220185763
 10
-1.930769581
 20
21.4462070527
 10
-1.9569086412
 20
21.4728657588
 10
-1.9811083385
 20
21.5018385228
 10
-2.003182545
 20
21.5329691806
 10
-2.0229549887
 20
21.5660933905
 10
-2.0403219304
 20
21.6009859689
 10
-2.0552121022
 20
21.6373943681
 10
-2.0675544316
 20
21.6750660051
 10
-2.077277864
 20
21.7137484488
 10
-2.0843112694
 20
21.7531891443
 10
-2.0885834862
 20
21.7931353931
 10
-2.090023369
 20
21.833334552
  0
LWPOLYLINE
  5
4FC
100
AcDbEntity
  8
0
100
AcDbPolyline
 62
7
  6
CONTINUOUS
 90
28
 70
0
 10
-1.7467153492
 20
22.3224163603
 10
-1.76958922
 20
22.3167901004
 10
-1.807554073
 20
22.3070412221
 10
-1.8439081922
 20
22.2971568694
 10
-1.8785969543
 20
22.2871388041
 10
-1.9118272493
 20
22.2769112679
 10
-1.9440869808
 20
22.2662875117
 10
-1.9754062461
 20
22.2552007288
 10
-2.0058911967
 20
22.2435487677
 10
-2.0361710169
 20
22.2309881341
 10
-2.066396909
 20
22.2172989088
 10
-2.0964945143
 20
22.2023321918
 10
-2.1267696987
 20
22.1857083484
 10
-2.1574080493
 20
22.167012
 10
-2.1880999936
 20
22.1460607263
 10
-2.2183980495
 20
22.122784716
 10
-2.2481918168
 20
22.0968572575
 10
-2.2771509771
 20
22.0680739736
 10
-2.3045156386
 20
22.0367069466
 10
-2.3299847966
 20
22.0026148826
 10
-2.3531962852
 20
21.9657650296
 10
-2.373502566
 20
21.9268948457
 10
-2.3907219554
 20
21.8862010568
 10
-2.4046771766
 20
21.8438673873
 10
-2.415025215
 20
21.8008372321
 10
-2.4217044329
 20
21.7576446889
 10
-2.4247513311
 20
21.7143387712
 10
-2.4249551542
 20
21.6998579748
  0
LWPOLYLINE
  5
4FD
100
AcDbEntity
  8
0
100
AcDbPolyline
 62
253
  6
CONTINUOUS
 90
11
 70
0
 10
-2.0900235839
 20
21.8333321146
 10
-2.1576436181
 20
21.8188266896
 10
-2.2181506548
 20
21.8042960216
 10
-2.2713107774
 20
21.7897401106
 10
-2.3169105515
 20
21.7751510508
 10
-2.3546824837
 20
21.760536748
 10
-2.3844130239
 20
21.7459209202
 10
-2.4060515907
 20
21.7313032288
 10
-2.4195514616
 20
21.7166840125
 10
-2.4248646142
 20
21.7020880047
 10
-2.4249551434
 20
21.6999843846
  0
LINE
  5
4FE
100
AcDbEntity
  8
0
100
AcDbLine
 62
7
  6
CONTINUOUS
 10
1.3836388816
 20
22.7847642534
 11
1.3106023978
 21
22.772089842
  0
LINE
  5
4FF
100
AcDbEntity
  8
0
100
AcDbLine
 62
7
  6
CONTINUOUS
 10
-1.2176858458
 20
23.0180581737
 11
-1.1382718754
 21
23.0316708461
  0
LINE
  5
500
100
AcDbEntity
  8
0
100
AcDbLine
 62
7
  6
CONTINUOUS
 10
-1.1696863757
 20
19.8263679746
 11
-1.0804732805
 21
19.8411750555
  0
LINE
  5
501
100
AcDbEntity
  8
0
100
AcDbLine
 62
7
  6
CONTINUOUS
 10
1.3106023978
 20
22.772089842
 11
1.2326928232
 21
22.7591808187
  0
LINE
  5
502
100
AcDbEntity
  8
0
100
AcDbLine
 62
7
  6
CONTINUOUS
 10
1.3106282728
 20
21.1720950505
 11
1.2198825451
 21
21.1571121197
  0
LINE
  5
503
100
AcDbEntity
  8
0
100
AcDbLine
 62
7
  6
CONTINUOUS
 10
-1.1382718754
 20
23.0316708461
 11
-1.0531812598
 21
23.0455699627
  0
LINE
  5
504
100
AcDbEntity
  8
0
100
AcDbLine
 62
7
  6
CONTINUOUS
 10
1.2326928232
 20
22.7591808187
 11
1.1499884793
 21
22.74604201
  0
LINE
  5
505
100
AcDbEntity
  8
0
100
AcDbLine
 62
7
  6
CONTINUOUS
 10
-1.0804732805
 20
19.8411750555
 11
-0.9849385128
 21
19.8562894864
  0
LINE
  5
506
100
AcDbEntity
  8
0
100
AcDbLine
 62
7
  6
CONTINUOUS
 10
1.2198825451
 20
21.1571121197
 11
1.1226919554
 21
21.1418160386
  0
LINE
  5
507
100
AcDbEntity
  8
0
100
AcDbLine
 62
7
  6
CONTINUOUS
 10
-1.0531812598
 20
23.0455699627
 11
-0.9625828825
 21
23.0597366382
  0
LWPOLYLINE
  5
508
100
AcDbEntity
  8
0
100
AcDbPolyline
 62
7
  6
CONTINUOUS
 90
37
 70
0
 10
-1.0519193426
 20
20.8491657669
 10
-1.1199070183
 20
20.8388688897
 10
-1.1865749709
 20
20.828501983
 10
-1.2516870746
 20
20.8180817097
 10
-1.3151462114
 20
20.8076033551
 10
-1.3768672021
 20
20.7970594957
 10
-1.436678347
 20
20.7864573609
 10
-1.4945275081
 20
20.7757849483
 10
-1.5503600401
 20
20.7650329806
 10
-1.6040684506
 20
20.7542026846
 10
-1.655690151
 20
20.7432653356
 10
-1.7051673419
 20
20.7322095656
 10
-1.7523683274
 20
20.7210419731
 10
-1.7973307801
 20
20.7097307647
 10
-1.8401431414
 20
20.6982266486
 10
-1.8809059712
 20
20.6864694285
 10
-1.9196371158
 20
20.674419363
 10
-1.9565949694
 20
20.6619577342
 10
-1.9923762794
 20
20.6488120906
 10
-2.0270953069
 20
20.6348364531
 10
-2.060937736
 20
20.6198297748
 10
-2.0946575383
 20
20.6032568238
 10
-2.1285975614
 20
20.5846301543
 10
-2.1624425014
 20
20.5637378666
 10
-2.1959268041
 20
20.5403364441
 10
-2.2292336633
 20
20.5137840991
 10
-2.2617373541
 20
20.4839581085
 10
-2.2920539936
 20
20.4516642779
 10
-2.3197401637
 20
20.4171174949
 10
-2.3447770364
 20
20.3800339312
 10
-2.3667071811
 20
20.3409165541
 10
-2.3852419933
 20
20.3003350484
 10
-2.4004431359
 20
20.2581645848
 10
-2.4122968186
 20
20.2139807281
 10
-2.4204825307
 20
20.1678054159
 10
-2.424560387
 20
20.1201501302
 10
-2.4249548512
 20
20.1000145172
  0
LINE
  5
509
100
AcDbEntity
  8
0
100
AcDbLine
 62
7
  6
CONTINUOUS
 10
1.1499884793
 20
22.74604201
 11
1.0625145527
 21
22.7326668585
  0
LWPOLYLINE
  5
50A
100
AcDbEntity
  8
0
100
AcDbPolyline
 62
7
  6
CONTINUOUS
 90
13
 70
0
 10
-1.0474591296
 20
22.4498317795
 10
-1.1153691102
 20
22.4395646743
 10
-1.1822163346
 20
22.4291898129
 10
-1.247818377
 20
22.4187115112
 10
-1.3120487561
 20
22.4081246044
 10
-1.3747907302
 20
22.3974209664
 10
-1.43591256
 20
22.3865940963
 10
-1.495295664
 20
22.3756375826
 10
-1.5528809302
 20
22.3645337353
 10
-1.6086899824
 20
22.3532450565
 10
-1.662697457
 20
22.3417369324
 10
-1.714793732
 20
22.329987583
 10
-1.7468234872
 20
22.3223925679
  0
LINE
  5
50B
100
AcDbEntity
  8
0
100
AcDbLine
 62
7
  6
CONTINUOUS
 10
-0.9849385128
 20
19.8562894864
 11
-0.8834685208
 21
19.8716723423
  0
LWPOLYLINE
  5
50C
100
AcDbEntity
  8
0
100
AcDbPolyline
 62
7
  6
CONTINUOUS
 90
40
 70
0
 10
1.1661577904
 20
20.1455136862
 10
1.2343857885
 20
20.1557152739
 10
1.3011033081
 20
20.1659450484
 10
1.3658818181
 20
20.1761508421
 10
1.4286664912
 20
20.1863355086
 10
1.4894208964
 20
20.1965047814
 10
1.5478205525
 20
20.2066137429
 10
1.6038498206
 20
20.2166663375
 10
1.657527946
 20
20.2266724957
 10
1.7086636997
 20
20.2366006102
 10
1.7572228679
 20
20.2464421475
 10
1.8033729453
 20
20.2562262277
 10
1.8472795571
 20
20.2659854771
 10
1.8889596406
 20
20.2757218085
 10
1.9285605876
 20
20.2854682775
 10
1.9664516295
 20
20.2953222234
 10
2.0026434365
 20
20.3052996742
 10
2.0372692799
 20
20.3154534422
 10
2.070878113
 20
20.3259798355
 10
2.1034910358
 20
20.3369423006
 10
2.1351862904
 20
20.3484329195
 10
2.1666257967
 20
20.3607899754
 10
2.1979418087
 20
20.3742141784
 10
2.2290759136
 20
20.3888566813
 10
2.2604479256
 20
20.4051461209
 10
2.2923145663
 20
20.4235472039
 10
2.3243155654
 20
20.444247356
 10
2.3559716335
 20
20.4673332523
 10
2.3872577956
 20
20.4932311841
 10
2.417772287
 20
20.5221422643
 10
2.4465343518
 20
20.5536153818
 10
2.4731632359
 20
20.5876345749
 10
2.4974387759
 20
20.6243775248
 10
2.5188292676
 20
20.6633417652
 10
2.5370623723
 20
20.7041900737
 10
2.5520163189
 20
20.7468920779
 10
2.5634565706
 20
20.7912386413
 10
2.5711226313
 20
20.8369635248
 10
2.5747412899
 20
20.8837597994
 10
2.5749998927
 20
20.9000698472
  0
LINE
  5
50D
100
AcDbEntity
  8
0
100
AcDbLine
 62
7
  6
CONTINUOUS
 10
1.1226919554
 20
21.1418160386
 11
1.0193935532
 21
21.1262398906
  0
LINE
  5
50E
100
AcDbEntity
  8
0
100
AcDbLine
 62
7
  6
CONTINUOUS
 10
-0.9625828825
 20
23.0597366382
 11
-0.8666649417
 21
23.0741612093
  0
LWPOLYLINE
  5
50F
100
AcDbEntity
  8
0
100
AcDbPolyline
 62
7
  6
CONTINUOUS
 90
39
 70
0
 10
1.1287347975
 20
21.7400184949
 10
1.20136086
 20
21.7507453424
 10
1.2714921357
 20
21.7613699777
 10
1.3390966142
 20
21.771894572
 10
1.4041613508
 20
21.7823231479
 10
1.4668107693
 20
21.7926821364
 10
1.5270361088
 20
21.8029772439
 10
1.5848281278
 20
21.813213759
 10
1.6403190686
 20
21.8234230783
 10
1.6935489636
 20
21.8336224884
 10
1.7444818134
 20
21.8438153322
 10
1.7931724938
 20
21.8540210726
 10
1.8396458949
 20
21.8642512853
 10
1.883976128
 20
21.87452949
 10
1.9263494545
 20
21.8849103209
 10
1.9667653887
 20
21.8954086064
 10
2.0053589584
 20
21.9060773563
 10
2.0425644288
 20
21.9170701558
 10
2.0784085668
 20
21.9284452839
 10
2.1129961457
 20
21.9402963924
 10
2.1469444328
 20
21.9529302211
 10
2.1803883489
 20
21.9665344078
 10
2.2133459161
 20
21.9812756157
 10
2.2463318572
 20
21.9976018649
 10
2.2795518811
 20
22.0159273347
 10
2.3127897202
 20
22.0365082472
 10
2.3459151122
 20
22.0596903448
 10
2.3790065942
 20
22.0860745225
 10
2.4114787861
 20
22.1158538782
 10
2.4422153408
 20
22.1485996615
 10
2.4708730783
 20
22.1845083198
 10
2.4969900754
 20
22.2236692563
 10
2.5196325885
 20
22.2650069723
 10
2.5386336061
 20
22.3082358324
 10
2.5538535175
 20
22.3531306373
 10
2.5649052152
 20
22.3983520256
 10
2.5718360021
 20
22.4431761554
 10
2.5748409288
 20
22.4876110848
 10
2.5749927286
 20
22.5001245668
  0
LINE
  5
510
100
AcDbEntity
  8
0
100
AcDbLine
 62
7
  6
CONTINUOUS
 10
1.0625145527
 20
22.7326668585
 11
0.9703055015
 21
22.7190433437
  0
LWPOLYLINE
  5
511
100
AcDbEntity
  8
0
100
AcDbPolyline
 62
7
  6
CONTINUOUS
 90
39
 70
0
 10
1.1052442648
 20
23.3366074213
 10
1.1793938698
 20
23.3474790621
 10
1.2517907904
 20
23.3583609452
 10
1.3223307001
 20
23.3692562063
 10
1.3909230416
 20
23.3801702973
 10
1.4570091835
 20
23.3910307773
 10
1.5205405654
 20
23.4018423093
 10
1.5815077556
 20
23.4126134756
 10
1.639536425
 20
23.4232814969
 10
1.6945789353
 20
23.4338349641
 10
1.7468114747
 20
23.4443044118
 10
1.7962853374
 20
23.454697423
 10
1.8429934973
 20
23.46500764
 10
1.8871395158
 20
23.4752749441
 10
1.9291163822
 20
23.4855932911
 10
1.9689658134
 20
23.4959817768
 10
2.0068306566
 20
23.5064868086
 10
2.0432522296
 20
23.517280038
 10
2.0782400748
 20
23.5284016749
 10
2.111944074
 20
23.5399446292
 10
2.1451278535
 20
23.5522545482
 10
2.1779423029
 20
23.5655214952
 10
2.2103443991
 20
23.579887186
 10
2.2428636847
 20
23.5958022787
 10
2.2757408566
 20
23.6136983628
 10
2.3087086934
 20
23.6338068419
 10
2.3415535427
 20
23.6564104424
 10
2.3743460031
 20
23.6820691181
 10
2.4065676994
 20
23.7109928842
 10
2.4371467249
 20
23.7427716802
 10
2.4656802074
 20
23.7774768549
 10
2.4918429624
 20
23.8153103419
 10
2.514914662
 20
23.8556536536
 10
2.534634173
 20
23.8982777353
 10
2.5507740766
 20
23.9430226686
 10
2.5629325151
 20
23.9890922106
 10
2.5709272245
 20
24.0359665582
 10
2.5746534007
 20
24.0834776197
 10
2.5749193702
 20
24.1000316566
  0
LINE
  5
512
100
AcDbEntity
  8
0
100
AcDbLine
 62
7
  6
CONTINUOUS
 10
-0.8834685208
 20
19.8716723423
 11
-0.7764398362
 21
19.8872956386
  0
LINE
  5
513
100
AcDbEntity
  8
0
100
AcDbLine
 62
7
  6
CONTINUOUS
 10
-0.9123969447
 20
20.8695653957
 11
-1.0519193426
 21
20.8491657669
  0
LINE
  5
514
100
AcDbEntity
  8
0
100
AcDbLine
 62
7
  6
CONTINUOUS
 10
-0.9089422581
 20
22.4700582281
 11
-1.0474591296
 21
22.4498317795
  0
LINE
  5
515
100
AcDbEntity
  8
0
100
AcDbLine
 62
7
  6
CONTINUOUS
 10
-0.8666649417
 20
23.0741612093
 11
-0.7656568481
 21
23.0888359917
  0
LINE
  5
516
100
AcDbEntity
  8
0
100
AcDbLine
 62
7
  6
CONTINUOUS
 10
1.0193935532
 20
21.1262398906
 11
0.9103726774
 21
21.1104072198
  0
LINE
  5
517
100
AcDbEntity
  8
0
100
AcDbLine
 62
7
  6
CONTINUOUS
 10
1.0255018045
 20
20.1251818544
 11
1.1661577904
 21
20.1455136862
  0
LINE
  5
518
100
AcDbEntity
  8
0
100
AcDbLine
 62
7
  6
CONTINUOUS
 10
0.9703055015
 20
22.7190433437
 11
0.8734540588
 21
22.7051642812
  0
LINE
  5
519
100
AcDbEntity
  8
0
100
AcDbLine
 62
7
  6
CONTINUOUS
 10
0.9758365859
 20
21.7181942864
 11
1.1287347975
 21
21.7400184949
  0
LINE
  5
51A
100
AcDbEntity
  8
0
100
AcDbLine
 62
7
  6
CONTINUOUS
 10
0.9538613284
 20
23.3151272389
 11
1.1052442648
 21
23.3366074213
  0
LINE
  5
51B
100
AcDbEntity
  8
0
100
AcDbLine
 62
7
  6
CONTINUOUS
 10
-0.7764398362
 20
19.8872956386
 11
-0.6642499603
 21
19.9031399947
  0
LINE
  5
51C
100
AcDbEntity
  8
0
100
AcDbLine
 62
7
  6
CONTINUOUS
 10
-0.7656568481
 20
23.0888359917
 11
-0.6597987848
 21
23.1037564967
  0
LINE
  5
51D
100
AcDbEntity
  8
0
100
AcDbLine
 62
7
  6
CONTINUOUS
 10
0.9103726774
 20
21.1104072198
 11
0.7960464946
 21
21.0943348096
  0
LINE
  5
51E
100
AcDbEntity
  8
0
100
AcDbLine
 62
7
  6
CONTINUOUS
 10
-0.7694176847
 20
20.88964597
 11
-0.9123969447
 21
20.8695653957
  0
LINE
  5
51F
100
AcDbEntity
  8
0
100
AcDbLine
 62
7
  6
CONTINUOUS
 10
-0.767896002
 20
22.4898561874
 11
-0.9089422581
 21
22.4700582281
  0
LINE
  5
520
100
AcDbEntity
  8
0
100
AcDbLine
 62
7
  6
CONTINUOUS
 10
0.8734540588
 20
22.7051642812
 11
0.7720070688
 21
22.6910134283
  0
LINE
  5
521
100
AcDbEntity
  8
0
100
AcDbLine
 62
7
  6
CONTINUOUS
 10
0.881229908
 20
20.1051088933
 11
1.0255018045
 21
20.1251818544
  0
LINE
  5
522
100
AcDbEntity
  8
0
100
AcDbLine
 62
7
  6
CONTINUOUS
 10
-0.6642499603
 20
19.9031399947
 11
-0.547407427
 21
19.9191827721
  0
LINE
  5
523
100
AcDbEntity
  8
0
100
AcDbLine
 62
7
  6
CONTINUOUS
 10
-0.6597987848
 20
23.1037564967
 11
-0.5493085901
 21
23.1189256748
  0
LINE
  5
524
100
AcDbEntity
  8
0
100
AcDbLine
 62
7
  6
CONTINUOUS
 10
0.8130939707
 20
21.6958473425
 11
0.9758365859
 21
21.7181942864
  0
LINE
  5
525
100
AcDbEntity
  8
0
100
AcDbLine
 62
7
  6
CONTINUOUS
 10
0.7960464946
 20
21.0943348096
 11
0.6768972539
 21
21.0780417741
  0
LINE
  5
526
100
AcDbEntity
  8
0
100
AcDbLine
 62
7
  6
CONTINUOUS
 10
0.799902864
 20
23.2940644595
 11
0.9538613284
 21
23.3151272389
  0
LINE
  5
527
100
AcDbEntity
  8
0
100
AcDbLine
 62
7
  6
CONTINUOUS
 10
-0.6254349064
 20
22.509223509
 11
-0.767896002
 21
22.4898561874
  0
LINE
  5
528
100
AcDbEntity
  8
0
100
AcDbLine
 62
7
  6
CONTINUOUS
 10
-0.6243081826
 20
20.9093737474
 11
-0.7694176847
 21
20.88964597
  0
LINE
  5
529
100
AcDbEntity
  8
0
100
AcDbLine
 62
7
  6
CONTINUOUS
 10
0.7720070688
 20
22.6910134283
 11
0.6113489121
 21
22.6692395508
  0
LINE
  5
52A
100
AcDbEntity
  8
0
100
AcDbLine
 62
7
  6
CONTINUOUS
 10
0.7351120176
 20
20.0853886403
 11
0.881229908
 21
20.1051088933
  0
LINE
  5
52B
100
AcDbEntity
  8
0
100
AcDbLine
 62
7
  6
CONTINUOUS
 10
-0.547407427
 20
19.9191827721
 11
-0.4263642983
 21
19.935415408
  0
LINE
  5
52C
100
AcDbEntity
  8
0
100
AcDbLine
 62
7
  6
CONTINUOUS
 10
0.6768972539
 20
21.0780417741
 11
0.5533278652
 21
21.0615304455
  0
LINE
  5
52D
100
AcDbEntity
  8
0
100
AcDbLine
 62
7
  6
CONTINUOUS
 10
0.6409415351
 20
21.6729289132
 11
0.8130939707
 21
21.6958473425
  0
LINE
  5
52E
100
AcDbEntity
  8
0
100
AcDbLine
 62
7
  6
CONTINUOUS
 10
-0.5493085901
 20
23.1189256748
 11
-0.3751485892
 21
23.1421903528
  0
LINE
  5
52F
100
AcDbEntity
  8
0
100
AcDbLine
 62
7
  6
CONTINUOUS
 10
0.6113489121
 20
22.6692395508
 11
0.4407861792
 21
22.6467575604
  0
LINE
  5
530
100
AcDbEntity
  8
0
100
AcDbLine
 62
7
  6
CONTINUOUS
 10
0.5709840547
 20
23.2637766764
 11
0.799902864
 21
23.2940644595
  0
LINE
  5
531
100
AcDbEntity
  8
0
100
AcDbLine
 62
7
  6
CONTINUOUS
 10
-0.4061018082
 20
20.9381606254
 11
-0.6243081826
 21
20.9093737474
  0
LINE
  5
532
100
AcDbEntity
  8
0
100
AcDbLine
 62
7
  6
CONTINUOUS
 10
-0.4754419651
 20
21.5288755076
 11
-0.2557356765
 21
21.5577999639
  0
LINE
  5
533
100
AcDbEntity
  8
0
100
AcDbLine
 62
7
  6
CONTINUOUS
 10
-0.4116108269
 20
22.5374437055
 11
-0.6254349064
 21
22.509223509
  0
LINE
  5
534
100
AcDbEntity
  8
0
100
AcDbLine
 62
7
  6
CONTINUOUS
 10
0.5171464637
 20
20.0567798019
 11
0.7351120176
 21
20.0853886403
  0
LINE
  5
535
100
AcDbEntity
  8
0
100
AcDbLine
 62
7
  6
CONTINUOUS
 10
-0.4263642983
 20
19.935415408
 11
-0.2376357721
 21
19.9601486311
  0
LINE
  5
536
100
AcDbEntity
  8
0
100
AcDbLine
 62
7
  6
CONTINUOUS
 10
0.5533278652
 20
21.0615304455
 11
0.3604562481
 21
21.0363325606
  0
LINE
  5
537
100
AcDbEntity
  8
0
100
AcDbLine
 62
7
  6
CONTINUOUS
 10
-0.3751485892
 20
23.1421903528
 11
-0.1907763121
 21
23.1662082673
  0
LINE
  5
538
100
AcDbEntity
  8
0
100
AcDbLine
 62
7
  6
CONTINUOUS
 10
0.3661407259
 20
21.6373363791
 11
0.6409415351
 21
21.6729289132
  0
LINE
  5
539
100
AcDbEntity
  8
0
100
AcDbLine
 62
7
  6
CONTINUOUS
 10
-0.2557356765
 20
21.5577999639
 11
-0.0381779243
 21
21.5857930154
  0
LINE
  5
53A
100
AcDbEntity
  8
0
100
AcDbLine
 62
7
  6
CONTINUOUS
 10
0.4407861792
 20
22.6467575604
 11
0.1977816095
 21
22.6154355532
  0
LINE
  5
53B
100
AcDbEntity
  8
0
100
AcDbLine
 62
7
  6
CONTINUOUS
 10
-0.2376357721
 20
19.9601486311
 11
0.0264296333
 21
19.9940371143
  0
LWPOLYLINE
  5
53C
100
AcDbEntity
  8
0
100
AcDbPolyline
 62
7
  6
CONTINUOUS
 90
3
 70
0
 10
0.0264296333
 20
19.9940371143
 10
0.1633483637
 20
20.0114684311
 10
0.5171464637
 20
20.0567798019
  0
LWPOLYLINE
  5
53D
100
AcDbEntity
  8
0
100
AcDbPolyline
 62
7
  6
CONTINUOUS
 90
3
 70
0
 10
0.3604562481
 20
21.0363325606
 10
0.0215505388
 20
20.9929738181
 10
-0.4061018082
 20
20.9381606254
  0
LINE
  5
53E
100
AcDbEntity
  8
0
100
AcDbLine
 62
7
  6
CONTINUOUS
 10
-0.0381779243
 20
21.5857930154
 11
0.3661407259
 21
21.6373363791
  0
LINE
  5
53F
100
AcDbEntity
  8
0
100
AcDbLine
 62
7
  6
CONTINUOUS
 10
0.1977816095
 20
22.6154355532
 11
-0.4116108269
 21
22.5374437055
  0
LWPOLYLINE
  5
540
100
AcDbEntity
  8
0
100
AcDbPolyline
 62
7
  6
CONTINUOUS
 90
3
 70
0
 10
-0.1907763121
 20
23.1662082673
 10
0.1391318087
 20
23.2083856112
 10
0.5709840547
 20
23.2637766764
  0
LWPOLYLINE
  5
541
100
AcDbEntity
  8
0
100
AcDbPolyline
 62
253
  6
CONTINUOUS
 90
23
 70
0
 10
-0.6967575387
 20
20.4200813405
 10
-0.8301142715
 20
20.4056611801
 10
-0.9607510213
 20
20.3912209237
 10
-1.0884024383
 20
20.3767392748
 10
-1.2124388802
 20
20.3622375298
 10
-1.3323848279
 20
20.3477257592
 10
-1.4478516306
 20
20.3332048739
 10
-1.5584639153
 20
20.3186739628
 10
-1.6637853239
 20
20.3041403632
 10
-1.7634236012
 20
20.2896063798
 10
-1.8570553768
 20
20.2750697079
 10
-1.9444072997
 20
20.26053077
 10
-2.0252096824
 20
20.2459908693
 10
-2.0992077172
 20
20.2314487026
 10
-2.1661534118
 20
20.216900784
 10
-2.2257801931
 20
20.2023467027
 10
-2.2778675424
 20
20.1877868695
 10
-2.3222886983
 20
20.1732190303
 10
-2.3589173052
 20
20.1586422034
 10
-2.3876211389
 20
20.1440573705
 10
-2.4082700543
 20
20.1294652231
 10
-2.4207400262
 20
20.11485982
 10
-2.4249548412
 20
20.1001521606
  0
LWPOLYLINE
  5
542
100
AcDbEntity
  8
0
100
AcDbPolyline
 62
253
  6
CONTINUOUS
 90
14
 70
0
 10
-0.6687049956
 20
22.0230802753
 10
-0.8042505569
 20
22.0084819319
 10
-0.9362718736
 20
21.9939541527
 10
-1.0646716403
 20
21.9794619931
 10
-1.1896143798
 20
21.9649404059
 10
-1.3109176949
 20
21.9503620668
 10
-1.427931746
 20
21.9357543001
 10
-1.5401138301
 20
21.9211340313
 10
-1.647062141
 20
21.9065013187
 10
-1.7483770215
 20
21.8918561041
 10
-1.843609805
 20
21.8772151384
 10
-1.9324559591
 20
21.8625840054
 10
-2.0146835654
 20
21.8479571213
 10
-2.0900236925
 20
21.8333344862
  0
LINE
  5
543
100
AcDbEntity
  8
0
100
AcDbLine
 62
253
  6
CONTINUOUS
 10
0.8819095402
 20
22.183692473
 11
0.6069913618
 21
22.1546054378
  0
LINE
  5
544
100
AcDbEntity
  8
0
100
AcDbLine
 62
253
  6
CONTINUOUS
 10
0.8538276367
 20
20.5806765363
 11
0.5761433302
 21
20.5513941089
  0
LINE
  5
545
100
AcDbEntity
  8
0
100
AcDbLine
 62
253
  6
CONTINUOUS
 10
-0.4219376788
 20
20.4490412313
 11
-0.6967575387
 21
20.4200813405
  0
LINE
  5
546
100
AcDbEntity
  8
0
100
AcDbLine
 62
253
  6
CONTINUOUS
 10
-0.3901168823
 20
22.052344035
 11
-0.6687049956
 21
22.0230802753
  0
LINE
  5
547
100
AcDbEntity
  8
0
100
AcDbLine
 62
253
  6
CONTINUOUS
 10
0.6069913618
 20
22.1546054378
 11
0.3242427028
 21
22.1254301969
  0
LINE
  5
548
100
AcDbEntity
  8
0
100
AcDbLine
 62
253
  6
CONTINUOUS
 10
0.5761433302
 20
20.5513941089
 11
0.291322246
 21
20.5220619576
  0
LINE
  5
549
100
AcDbEntity
  8
0
100
AcDbLine
 62
253
  6
CONTINUOUS
 10
0.3242427028
 20
22.1254301969
 11
-0.3901168823
 21
22.052344035
  0
LWPOLYLINE
  5
54A
100
AcDbEntity
  8
0
100
AcDbPolyline
 62
253
  6
CONTINUOUS
 90
3
 70
0
 10
0.291322246
 20
20.5220619576
 10
0.0039729213
 20
20.49276498
 10
-0.4219376788
 20
20.4490412313
  0
LINE
  5
54B
100
AcDbEntity
  8
0
100
AcDbLine
 62
7
  6
CONTINUOUS
 10
-3.0780572491
 20
20.0
 11
-2.6750000123
 21
20.0
  0
LINE
  5
54C
100
AcDbEntity
  8
0
100
AcDbLine
 62
7
  6
CONTINUOUS
 10
2.8249999877
 20
20.0
 11
3.2280572245
 21
20.0
  0
LINE
  5
54D
100
AcDbEntity
  8
0
100
AcDbLine
 62
7
  6
CONTINUOUS
 10
9.0749999877
 20
20.0
 11
27.0749999877
 21
20.0
  0
LINE
  5
54E
100
AcDbEntity
  8
0
100
AcDbLine
 62
7
  6
CONTINUOUS
 10
-8.9250000123
 20
20.0
 11
-26.9250000123
 21
20.0
  0
LINE
  5
54F
100
AcDbEntity
  8
0
100
AcDbLine
 62
7
  6
CONTINUOUS
 10
-0.7891470711
 20
22.5130834114
 11
-0.6937121625
 21
22.5000068539
  0
LINE
  5
550
100
AcDbEntity
  8
0
100
AcDbLine
 62
7
  6
CONTINUOUS
 10
0.9398206109
 20
23.2868222985
 11
0.8436475177
 21
23.3000006805
  0
LINE
  5
551
100
AcDbEntity
  8
0
100
AcDbLine
 62
7
  6
CONTINUOUS
 10
0.9531616604
 20
21.6849688065
 11
0.8436136404
 21
21.7000021934
  0
LINE
  5
552
100
AcDbEntity
  8
0
100
AcDbLine
 62
7
  6
CONTINUOUS
 10
-0.8130254874
 20
20.9164023734
 11
-0.6937017641
 21
20.9000072405
  0
LINE
  5
553
100
AcDbEntity
  8
0
100
AcDbLine
 62
7
  6
CONTINUOUS
 10
0.9756907211
 20
20.0818262879
 11
0.8436602633
 21
20.1000044504
  0
LINE
  5
554
100
AcDbEntity
  8
0
100
AcDbLine
 62
7
  6
CONTINUOUS
 10
1.0951949105
 20
21.664851536
 11
0.9531616604
 21
21.6849688065
  0
LINE
  5
555
100
AcDbEntity
  8
0
100
AcDbLine
 62
253
  6
CONTINUOUS
 10
-0.1303336314
 20
21.334968443
 11
0.2607893571
 21
21.2683785271
  0
LWPOLYLINE
  5
556
100
AcDbEntity
  8
0
100
AcDbPolyline
 62
253
  6
CONTINUOUS
 90
9
 70
0
 10
0.2607893571
 20
21.2683785271
 10
0.453470907
 20
21.2350454837
 10
0.5475277123
 20
21.2183882455
 10
0.6395425768
 20
21.2017363917
 10
0.7290775299
 20
21.1850991013
 10
0.815725188
 20
21.1684810148
 10
0.8991310741
 20
21.1518774917
 10
0.9789745671
 20
21.1352837887
 10
1.0199945688
 20
21.1263296174
  0
LWPOLYLINE
  5
557
100
AcDbEntity
  8
0
100
AcDbPolyline
 62
253
  6
CONTINUOUS
 90
9
 70
0
 10
0.2911944874
 20
22.8631698559
 10
0.4820252683
 20
22.8300213406
 10
0.5750941049
 20
22.813440871
 10
0.6660360534
 20
22.7968636571
 10
0.7543613232
 20
22.7803089362
 10
0.839601966
 20
22.763794556
 10
0.9214999482
 20
22.747302669
 10
0.9999068924
 20
22.7307989692
 10
1.0200435353
 20
22.7263404692
  0
LWPOLYLINE
  5
558
100
AcDbEntity
  8
0
100
AcDbPolyline
 62
253
  6
CONTINUOUS
 90
10
 70
0
 10
-0.8700099632
 20
23.0736627256
 10
-0.8202808437
 20
23.062873144
 10
-0.7403832575
 20
23.0463517941
 10
-0.6567975981
 20
23.0297796823
 10
-0.5696336931
 20
23.0131206573
 10
-0.4794240732
 20
22.9964108704
 10
-0.3868522547
 20
22.9797045388
 10
-0.2924013805
 20
22.9630154572
 10
-0.1963988091
 20
22.9463298308
 10
0.2911944874
 20
22.8631698559
  0
LWPOLYLINE
  5
559
100
AcDbEntity
  8
0
100
AcDbPolyline
 62
253
  6
CONTINUOUS
 90
9
 70
0
 10
-0.869880628
 20
21.4736375544
 10
-0.842603784
 20
21.4676294288
 10
-0.7635603356
 20
21.4510701578
 10
-0.6809724329
 20
21.4345081734
 10
-0.5951561345
 20
21.417940713
 10
-0.5064710838
 20
21.4013705393
 10
-0.415257719
 20
21.3847890824
 10
-0.3218938392
 20
21.3681937053
 10
-0.1303336314
 20
21.334968443
  0
LINE
  5
55A
100
AcDbEntity
  8
0
100
AcDbLine
 62
7
  6
CONTINUOUS
 10
27.0749999877
 20
20.0
 11
27.0749999877
 21
15.4
  0
LINE
  5
55B
100
AcDbEntity
  8
0
100
AcDbLine
 62
7
  6
CONTINUOUS
 10
27.0749999877
 20
-16.5
 11
27.0749999877
 21
-17.5
  0
LINE
  5
55C
100
AcDbEntity
  8
0
100
AcDbLine
 62
7
  6
CONTINUOUS
 10
11.1999999877
 20
-37.6808510423
 11
11.5333339568
 21
-36.8297872394
  0
LINE
  5
55D
100
AcDbEntity
  8
0
100
AcDbLine
 62
7
  6
CONTINUOUS
 10
12.2833339568
 20
-35.6382979155
 11
11.4499999877
 21
-37.6808510423
  0
LINE
  5
55E
100
AcDbEntity
  8
0
100
AcDbLine
 62
7
  6
CONTINUOUS
 10
11.6583339568
 20
-36.5319148898
 11
12.0333339568
 21
-35.6382979155
  0
LINE
  5
55F
100
AcDbEntity
  8
0
100
AcDbLine
 62
7
  6
CONTINUOUS
 10
8.7833339568
 20
-36.6170212627
 11
8.8249999877
 21
-36.5319148898
  0
LINE
  5
560
100
AcDbEntity
  8
0
100
AcDbLine
 62
7
  6
CONTINUOUS
 10
8.8249999877
 20
-36.7872340381
 11
8.7833339568
 21
-36.8723404259
  0
LINE
  5
561
100
AcDbEntity
  8
0
100
AcDbLine
 62
7
  6
CONTINUOUS
 10
5.1583339568
 20
-35.9787234068
 11
5.0333339568
 21
-36.1489361525
  0
LINE
  5
562
100
AcDbEntity
  8
0
100
AcDbLine
 62
7
  6
CONTINUOUS
 10
-2.0916669969
 20
-35.8510638475
 11
-2.0083330278
 21
-35.7659574747
  0
LINE
  5
563
100
AcDbEntity
  8
0
100
AcDbLine
 62
7
  6
CONTINUOUS
 10
-2.0083330278
 20
-35.9361702204
 11
-2.0916669969
 21
-36.0212765932
  0
LINE
  5
564
100
AcDbEntity
  8
0
100
AcDbLine
 62
7
  6
CONTINUOUS
 10
1.3249999877
 20
-35.2978723049
 11
1.4916669722
 21
-35.1276595593
  0
LINE
  5
565
100
AcDbEntity
  8
0
100
AcDbLine
 62
7
  6
CONTINUOUS
 10
-7.9666665201
 20
-35.7659574747
 11
-7.84166652
 21
-35.6808511019
  0
LINE
  5
566
100
AcDbEntity
  8
0
100
AcDbLine
 62
7
  6
CONTINUOUS
 10
-8.8416667585
 20
-36.8723404259
 11
-8.9666667585
 21
-36.9574468099
  0
LINE
  5
567
100
AcDbEntity
  8
0
100
AcDbLine
 62
7
  6
CONTINUOUS
 10
-6.3000000123
 20
-35.8085106611
 11
-6.1750000123
 21
-35.7234042883
  0
LINE
  5
568
100
AcDbEntity
  8
0
100
AcDbLine
 62
7
  6
CONTINUOUS
 10
-7.2583335046
 20
-36.7446808517
 11
-7.1333335046
 21
-36.6595744789
  0
LINE
  5
569
100
AcDbEntity
  8
0
100
AcDbLine
 62
7
  6
CONTINUOUS
 10
1.0333330031
 20
-28.9787234068
 11
1.8249999877
 21
-28.5531915426
  0
LINE
  5
56A
100
AcDbEntity
  8
0
100
AcDbLine
 62
7
  6
CONTINUOUS
 10
-3.7583330278
 20
-28.9361702204
 11
-3.9250000123
 21
-29.0212765932
  0
LINE
  5
56B
100
AcDbEntity
  8
0
100
AcDbLine
 62
7
  6
CONTINUOUS
 10
1.9083330031
 20
-28.6808511019
 11
1.3249999877
 21
-28.9787234068
  0
LINE
  5
56C
100
AcDbEntity
  8
0
100
AcDbLine
 62
7
  6
CONTINUOUS
 10
-10.6750000123
 20
-28.8510638475
 11
-10.5500000123
 21
-28.8085106611
  0
LINE
  5
56D
100
AcDbEntity
  8
0
100
AcDbLine
 62
7
  6
CONTINUOUS
 10
-4.0916669969
 20
-28.8510638475
 11
-3.9666669969
 21
-28.8085106611
  0
LWPOLYLINE
  5
56E
100
AcDbEntity
  8
0
100
AcDbPolyline
 62
7
  6
CONTINUOUS
 90
15
 70
0
 10
1.7075064574
 20
27.6532354366
 10
1.6812898185
 20
27.6463799657
 10
1.6386048728
 20
27.6359888558
 10
1.588742428
 20
27.6247511576
 10
1.5310456088
 20
27.6126486065
 10
1.4656082658
 20
27.5998125073
 10
1.3934428834
 20
27.5865067825
 10
1.3146152424
 20
27.572767827
 10
1.2291670559
 20
27.5586129729
 10
1.1384158519
 20
27.5442498649
 10
1.0426248686
 20
27.5296925007
 10
0.9420730152
 20
27.5149531207
 10
0.8383462714
 20
27.5002224065
 10
0.7318830687
 20
27.4855076123
 10
0.6231344777
 20
27.4708158079
  0
LWPOLYLINE
  5
56F
100
AcDbEntity
  8
0
100
AcDbPolyline
 62
7
  6
CONTINUOUS
 90
28
 70
0
 10
1.8967089926
 20
26.6775821074
 10
1.9182476503
 20
26.6828750507
 10
1.9563916062
 20
26.6926520404
 10
1.9929144602
 20
26.7025650333
 10
2.0277625903
 20
26.7126127729
 10
2.061142071
 20
26.7228709262
 10
2.0935391465
 20
26.7335257146
 10
2.1249805694
 20
26.74464291
 10
2.1555777149
 20
26.7563266216
 10
2.1859715339
 20
26.7689255518
 10
2.2163146693
 20
26.782662127
 10
2.2465310201
 20
26.79768687
 10
2.2769330717
 20
26.8143860999
 10
2.3077113574
 20
26.833183573
 10
2.3385469972
 20
26.8542628208
 10
2.3689782715
 20
26.8776894832
 10
2.3988926735
 20
26.9037943311
 10
2.427953901
 20
26.9327832006
 10
2.4553854315
 20
26.9643704689
 10
2.4808822134
 20
26.9986942985
 10
2.5040835586
 20
27.0357838905
 10
2.5243378319
 20
27.0748831633
 10
2.5414643452
 20
27.1157855863
 10
2.5552904287
 20
27.1583054088
 10
2.5654789838
 20
27.2014918525
 10
2.5719741688
 20
27.2448065672
 10
2.5748166703
 20
27.2881989113
 10
2.5749551253
 20
27.3001438003
  0
LWPOLYLINE
  5
570
100
AcDbEntity
  8
0
100
AcDbPolyline
 62
253
  6
CONTINUOUS
 90
14
 70
0
 10
2.2400233444
 20
27.166665448
 10
2.1653147373
 20
27.1521600229
 10
2.0837034205
 20
27.1376293549
 10
1.995424177
 20
27.123073444
 10
1.9006615374
 20
27.1084843841
 10
1.7997038275
 20
27.0938700813
 10
1.6930223002
 20
27.0792542535
 10
1.5809967482
 20
27.0646365622
 10
1.4640160008
 20
27.0500173458
 10
1.3426759744
 20
27.035421338
 10
1.2176255879
 20
27.020876242
 10
1.0890410883
 20
27.0063543545
 10
0.9568164687
 20
26.9917972992
 10
0.8210596669
 20
26.9771709682
  0
LINE
  5
571
100
AcDbEntity
  8
0
100
AcDbLine
 62
7
  6
CONTINUOUS
 10
-1.2313885912
 20
26.2156357473
 11
-1.1579221089
 21
26.2283640223
  0
LINE
  5
572
100
AcDbEntity
  8
0
100
AcDbLine
 62
7
  6
CONTINUOUS
 10
1.3721167419
 20
24.3827147734
 11
1.2968364921
 21
24.369763398
  0
LINE
  5
573
100
AcDbEntity
  8
0
100
AcDbLine
 62
7
  6
CONTINUOUS
 10
1.3725912089
 20
25.9828062629
 11
1.2939194637
 21
25.9692751695
  0
LINE
  5
574
100
AcDbEntity
  8
0
100
AcDbLine
 62
7
  6
CONTINUOUS
 10
-1.2175273622
 20
24.6180935364
 11
-1.1414944752
 21
24.6311325653
  0
LINE
  5
575
100
AcDbEntity
  8
0
100
AcDbLine
 62
7
  6
CONTINUOUS
 10
-1.1579221089
 20
26.2283640223
 11
-1.0795519312
 21
26.2413280877
  0
LINE
  5
576
100
AcDbEntity
  8
0
100
AcDbLine
 62
7
  6
CONTINUOUS
 10
1.2968364921
 20
24.369763398
 11
1.216364539
 21
24.3565473673
  0
LINE
  5
577
100
AcDbEntity
  8
0
100
AcDbLine
 62
7
  6
CONTINUOUS
 10
-1.1414944752
 20
24.6311325653
 11
-1.0602498611
 21
24.6444339553
  0
LINE
  5
578
100
AcDbEntity
  8
0
100
AcDbLine
 62
7
  6
CONTINUOUS
 10
1.2939194637
 20
25.9692751695
 11
1.2095686564
 21
25.9554518844
  0
LINE
  5
579
100
AcDbEntity
  8
0
100
AcDbLine
 62
7
  6
CONTINUOUS
 10
-1.0795519312
 20
26.2413280877
 11
-0.9963735399
 21
26.2545206555
  0
LINE
  5
57A
100
AcDbEntity
  8
0
100
AcDbLine
 62
7
  6
CONTINUOUS
 10
1.216364539
 20
24.3565473673
 11
1.1308285599
 21
24.3430761807
  0
LINE
  5
57B
100
AcDbEntity
  8
0
100
AcDbLine
 62
7
  6
CONTINUOUS
 10
-1.0602498611
 20
24.6444339553
 11
-0.9739416237
 21
24.6579860309
  0
LINE
  5
57C
100
AcDbEntity
  8
0
100
AcDbLine
 62
7
  6
CONTINUOUS
 10
1.2095686564
 20
25.9554518844
 11
1.1196777082
 21
25.9413522432
  0
LINE
  5
57D
100
AcDbEntity
  8
0
100
AcDbLine
 62
7
  6
CONTINUOUS
 10
-0.9963735399
 20
26.2545206555
 11
-0.9084411443
 21
26.2679445802
  0
LWPOLYLINE
  5
57E
100
AcDbEntity
  8
0
100
AcDbPolyline
 62
7
  6
CONTINUOUS
 90
13
 70
0
 10
1.1933491586
 20
26.5495548933
 10
1.2612687299
 20
26.5598079751
 10
1.3281726733
 20
26.5701743514
 10
1.3938785708
 20
26.5806501355
 10
1.4582566451
 20
26.5912404782
 10
1.5211864787
 20
26.601953496
 10
1.5825342001
 20
26.6127961575
 10
1.6421754511
 20
26.6237749053
 10
1.700046261
 20
26.6349074652
 10
1.7561659531
 20
26.6462319397
 10
1.8105046604
 20
26.6577833119
 10
1.8629458425
 20
26.6695834036
 10
1.8968169555
 20
26.6776058555
  0
LINE
  5
57F
100
AcDbEntity
  8
0
100
AcDbLine
 62
7
  6
CONTINUOUS
 10
1.1308285599
 20
24.3430761807
 11
1.0403253419
 21
24.3293508429
  0
LINE
  5
580
100
AcDbEntity
  8
0
100
AcDbLine
 62
7
  6
CONTINUOUS
 10
-0.9739416237
 20
24.6579860309
 11
-0.8826960382
 21
24.6717845646
  0
LINE
  5
581
100
AcDbEntity
  8
0
100
AcDbLine
 62
7
  6
CONTINUOUS
 10
1.1196777082
 20
25.9413522432
 11
1.024396982
 21
25.9269825223
  0
LWPOLYLINE
  5
582
100
AcDbEntity
  8
0
100
AcDbPolyline
 62
7
  6
CONTINUOUS
 90
39
 70
0
 10
1.1406518683
 20
24.9417616887
 10
1.2118573529
 20
24.9523174564
 10
1.2814933387
 20
24.9629069188
 10
1.3494586925
 20
24.9735330261
 10
1.415676461
 20
24.9842015412
 10
1.4796711095
 20
24.9948513791
 10
1.5413938023
 20
25.0054871106
 10
1.6008218844
 20
25.0161178821
 10
1.6576242608
 20
25.0266946378
 10
1.7117993283
 20
25.0372236104
 10
1.7634012775
 20
25.0477218996
 10
1.8122931254
 20
25.0581647356
 10
1.8584721709
 20
25.0685461594
 10
1.9021531671
 20
25.0789084234
 10
1.9436043561
 20
25.0893148048
 10
1.9828561073
 20
25.0997755875
 10
2.0201029475
 20
25.1103472839
 10
2.0558751932
 20
25.1212019959
 10
2.0901839453
 20
25.1323807513
 10
2.1232055983
 20
25.1439867213
 10
2.1557301652
 20
25.1563835302
 10
2.1879256878
 20
25.1697748009
 10
2.2197452758
 20
25.184303073
 10
2.2516795552
 20
25.2004062525
 10
2.2839246826
 20
25.2184893312
 10
2.3162389059
 20
25.2387825916
 10
2.3484387258
 20
25.2615773439
 10
2.3805515878
 20
25.2873981925
 10
2.4120705739
 20
25.3164452289
 10
2.4420137318
 20
25.3483805476
 10
2.4700236615
 20
25.3833712985
 10
2.495675568
 20
25.4215396419
 10
2.5181580388
 20
25.4620751811
 10
2.5372595733
 20
25.504787633
 10
2.552748052
 20
25.5494499297
 10
2.5641827206
 20
25.5948802529
 10
2.5715034613
 20
25.6404170387
 10
2.5747821422
 20
25.6860254995
 10
2.5749757271
 20
25.7001513172
  0
LWPOLYLINE
  5
583
100
AcDbEntity
  8
0
100
AcDbPolyline
 62
7
  6
CONTINUOUS
 90
39
 70
0
 10
-0.985569036
 20
24.0589822663
 10
-1.0569191221
 20
24.0484230568
 10
-1.1267036525
 20
24.037830654
 10
-1.1948202488
 20
24.027202119
 10
-1.2611915437
 20
24.0165317713
 10
-1.3253477468
 20
24.0058796067
 10
-1.3872389263
 20
23.9952411454
 10
-1.4468414961
 20
23.9846073168
 10
-1.5038286309
 20
23.9740260967
 10
-1.5581992498
 20
23.9634908606
 10
-1.6100029489
 20
23.9529851168
 10
-1.6590977397
 20
23.9425340736
 10
-1.7054816025
 20
23.9321430155
 10
-1.7493645319
 20
23.9217705955
 10
-1.7910029364
 20
23.9113565351
 10
-1.8304272457
 20
23.9008907966
 10
-1.867832137
 20
23.8903173058
 10
-1.9037383255
 20
23.8794679964
 10
-1.9381556724
 20
23.8683035409
 10
-1.9712641416
 20
23.8567213347
 10
-2.0038522023
 20
23.8443613585
 10
-2.0360870471
 20
23.8310233756
 10
-2.0679256603
 20
23.8165662268
 10
-2.0998655102
 20
23.8005538516
 10
-2.1321018088
 20
23.7825872382
 10
-2.1644016598
 20
23.7624362262
 10
-2.1966033033
 20
23.7397995694
 10
-2.2287426999
 20
23.7141495826
 10
-2.2603136881
 20
23.6852860643
 10
-2.2903416292
 20
23.6535358946
 10
-2.3184723392
 20
23.6187267242
 10
-2.3442787295
 20
23.5807302656
 10
-2.3669422601
 20
23.5403414023
 10
-2.3862497087
 20
23.4977412548
 10
-2.4019630626
 20
23.4531555901
 10
-2.4136308373
 20
23.4077688835
 10
-2.421187319
 20
23.3622442692
 10
-2.4247027058
 20
23.3166146568
 10
-2.424975757
 20
23.2998505087
  0
LWPOLYLINE
  5
584
100
AcDbEntity
  8
0
100
AcDbPolyline
 62
7
  6
CONTINUOUS
 90
39
 70
0
 10
-0.9734309226
 20
27.260754907
 10
-1.0464148486
 20
27.249993669
 10
-1.1169122902
 20
27.2393325532
 10
-1.1848885115
 20
27.2287693675
 10
-1.2503284414
 20
27.2183000707
 10
-1.3133280311
 20
27.2079026665
 10
-1.3738753694
 20
27.1975720564
 10
-1.4319651865
 20
27.1873023895
 10
-1.4877158259
 20
27.1770650405
 10
-1.5411626057
 20
27.1668441616
 10
-1.5922791998
 20
27.1566351634
 10
-1.6411281989
 20
27.1464174276
 10
-1.6877360347
 20
27.1361795442
 10
-1.7321788432
 20
27.1258981679
 10
-1.7746498765
 20
27.1155176964
 10
-1.8151501058
 20
27.1050234495
 10
-1.8538148625
 20
27.0943630027
 10
-1.891081414
 20
27.0833829328
 10
-1.9269770083
 20
27.072025621
 10
-1.9616059406
 20
27.0601986054
 10
-1.9955855972
 20
27.0475968776
 10
-2.0290502813
 20
27.0340345678
 10
-2.062018482
 20
27.0193467053
 10
-2.0950068791
 20
27.0030877452
 10
-2.1282189657
 20
26.9848485792
 10
-2.1614459602
 20
26.9643726109
 10
-2.1945749616
 20
26.941305902
 10
-2.2276934633
 20
26.915042673
 10
-2.2602131048
 20
26.885391091
 10
-2.2910162814
 20
26.8527775988
 10
-2.3197647679
 20
26.8170007258
 10
-2.3459940555
 20
26.77796855
 10
-2.3687585765
 20
26.7367596022
 10
-2.3878939788
 20
26.6936571772
 10
-2.4032630994
 20
26.648885046
 10
-2.4144741929
 20
26.6037935898
 10
-2.4215775208
 20
26.5591107503
 10
-2.4247758262
 20
26.5148231671
 10
-2.4249927591
 20
26.4998774955
  0
LWPOLYLINE
  5
585
100
AcDbEntity
  8
0
100
AcDbPolyline
 62
7
  6
CONTINUOUS
 90
39
 70
0
 10
-0.9511535388
 20
25.6639850352
 10
-1.025378006
 20
25.6531164863
 10
-1.0978525747
 20
25.642238442
 10
-1.168473004
 20
25.6313478219
 10
-1.2371488947
 20
25.6204392332
 10
-1.3033338478
 20
25.6095830189
 10
-1.3669789314
 20
25.5987743951
 10
-1.4280710486
 20
25.5880050133
 10
-1.4862421272
 20
25.577336076
 10
-1.5414483827
 20
25.5667777702
 10
-1.5938567466
 20
25.5563008872
 10
-1.6435055083
 20
25.5459001517
 10
-1.6903861795
 20
25.5355820454
 10
-1.7347013918
 20
25.5253068446
 10
-1.7768344895
 20
25.5149831422
 10
-1.8168281987
 20
25.5045918688
 10
-1.8548240902
 20
25.4940871483
 10
-1.8913533898
 20
25.4833012784
 10
-1.9264248975
 20
25.4721956105
 10
-1.9601924518
 20
25.4606776943
 10
-1.9934171405
 20
25.4484056557
 10
-2.0262477542
 20
25.4351933436
 10
-2.0586463455
 20
25.420900468
 10
-2.0911500907
 20
25.4050780709
 10
-2.1239951156
 20
25.3873027871
 10
-2.1569255025
 20
25.367342763
 10
-2.1897580955
 20
25.3448997369
 10
-2.2225730945
 20
25.3194080123
 10
-2.2548486049
 20
25.2906580246
 10
-2.2855195578
 20
25.2590457481
 10
-2.3141881199
 20
25.2244867802
 10
-2.3405200001
 20
25.186777899
 10
-2.363776296
 20
25.1465390369
 10
-2.3836965786
 20
25.1039883933
 10
-2.4000476249
 20
25.0592889684
 10
-2.4124144035
 20
25.0132701682
 10
-2.4206185442
 20
24.9664648032
 10
-2.4245664768
 20
24.919029149
 10
-2.4249194015
 20
24.8999705684
  0
LINE
  5
586
100
AcDbEntity
  8
0
100
AcDbLine
 62
7
  6
CONTINUOUS
 10
-0.9084411443
 20
26.2679445802
 11
-0.8158233953
 21
26.2816080264
  0
LINE
  5
587
100
AcDbEntity
  8
0
100
AcDbLine
 62
7
  6
CONTINUOUS
 10
1.0403253419
 20
24.3293508429
 11
0.9449262974
 21
24.3153657575
  0
LINE
  5
588
100
AcDbEntity
  8
0
100
AcDbLine
 62
7
  6
CONTINUOUS
 10
-0.8826960382
 20
24.6717845646
 11
-0.7866166893
 21
24.6858319163
  0
LINE
  5
589
100
AcDbEntity
  8
0
100
AcDbLine
 62
7
  6
CONTINUOUS
 10
1.024396982
 20
25.9269825223
 11
0.9239271846
 21
25.9123482184
  0
LINE
  5
58A
100
AcDbEntity
  8
0
100
AcDbLine
 62
7
  6
CONTINUOUS
 10
1.0549633618
 20
26.5293731944
 11
1.1933491586
 21
26.5495548933
  0
LINE
  5
58B
100
AcDbEntity
  8
0
100
AcDbLine
 62
7
  6
CONTINUOUS
 10
-0.8158233953
 20
26.2816080264
 11
-0.7186394943
 21
26.2955156337
  0
LINE
  5
58C
100
AcDbEntity
  8
0
100
AcDbLine
 62
7
  6
CONTINUOUS
 10
0.9955154683
 20
24.9209538754
 11
1.1406518683
 21
24.9417616887
  0
LINE
  5
58D
100
AcDbEntity
  8
0
100
AcDbLine
 62
7
  6
CONTINUOUS
 10
-0.840134005
 20
24.0798018607
 11
-0.985569036
 21
24.0589822663
  0
LINE
  5
58E
100
AcDbEntity
  8
0
100
AcDbLine
 62
7
  6
CONTINUOUS
 10
0.9449262974
 20
24.3153657575
 11
0.8447344384
 21
24.3011172596
  0
LINE
  5
58F
100
AcDbEntity
  8
0
100
AcDbLine
 62
7
  6
CONTINUOUS
 10
-0.7866166893
 20
24.6858319163
 11
-0.6858337282
 21
24.700129563
  0
LINE
  5
590
100
AcDbEntity
  8
0
100
AcDbLine
 62
7
  6
CONTINUOUS
 10
-0.8199481278
 20
27.2826285394
 11
-0.9734309226
 21
27.260754907
  0
LINE
  5
591
100
AcDbEntity
  8
0
100
AcDbLine
 62
7
  6
CONTINUOUS
 10
0.9239271846
 20
25.9123482184
 11
0.8184692751
 21
25.8974502046
  0
LINE
  5
592
100
AcDbEntity
  8
0
100
AcDbLine
 62
7
  6
CONTINUOUS
 10
-0.799584848
 20
25.6854674686
 11
-0.9511535388
 21
25.6639850352
  0
LINE
  5
593
100
AcDbEntity
  8
0
100
AcDbLine
 62
7
  6
CONTINUOUS
 10
0.9142482065
 20
26.5096407543
 11
1.0549633618
 21
26.5293731944
  0
LINE
  5
594
100
AcDbEntity
  8
0
100
AcDbLine
 62
7
  6
CONTINUOUS
 10
-0.7186394943
 20
26.2955156337
 11
-0.6169724576
 21
26.3096798939
  0
LINE
  5
595
100
AcDbEntity
  8
0
100
AcDbLine
 62
7
  6
CONTINUOUS
 10
0.8447344384
 20
24.3011172596
 11
0.7398370496
 21
24.2865939038
  0
LINE
  5
596
100
AcDbEntity
  8
0
100
AcDbLine
 62
7
  6
CONTINUOUS
 10
-0.6858337282
 20
24.700129563
 11
-0.5804741193
 21
24.7146855637
  0
LINE
  5
597
100
AcDbEntity
  8
0
100
AcDbLine
 62
7
  6
CONTINUOUS
 10
0.8481655127
 20
24.9005993817
 11
0.9955154683
 21
24.9209538754
  0
LINE
  5
598
100
AcDbEntity
  8
0
100
AcDbLine
 62
7
  6
CONTINUOUS
 10
-0.6924562499
 20
24.1001764275
 11
-0.840134005
 21
24.0798018607
  0
LINE
  5
599
100
AcDbEntity
  8
0
100
AcDbLine
 62
7
  6
CONTINUOUS
 10
0.8184692751
 20
25.8974502046
 11
0.7082157476
 21
25.882283913
  0
LINE
  5
59A
100
AcDbEntity
  8
0
100
AcDbLine
 62
7
  6
CONTINUOUS
 10
-0.6453700837
 20
25.7065458788
 11
-0.799584848
 21
25.6854674686
  0
LINE
  5
59B
100
AcDbEntity
  8
0
100
AcDbLine
 62
7
  6
CONTINUOUS
 10
0.7723199144
 20
26.490358834
 11
0.9142482065
 21
26.5096407543
  0
LINE
  5
59C
100
AcDbEntity
  8
0
100
AcDbLine
 62
7
  6
CONTINUOUS
 10
-0.6169724576
 20
26.3096798939
 11
-0.456271929
 21
26.3314379675
  0
LINE
  5
59D
100
AcDbEntity
  8
0
100
AcDbLine
 62
7
  6
CONTINUOUS
 10
0.7398370496
 20
24.2865939038
 11
0.5739913282
 21
24.2642692099
  0
LINE
  5
59E
100
AcDbEntity
  8
0
100
AcDbLine
 62
7
  6
CONTINUOUS
 10
-0.5804741193
 20
24.7146855637
 11
-0.4142519265
 21
24.7370220438
  0
LINE
  5
59F
100
AcDbEntity
  8
0
100
AcDbLine
 62
7
  6
CONTINUOUS
 10
0.7082157476
 20
25.882283913
 11
0.5340950711
 21
25.8589889418
  0
LINE
  5
5A0
100
AcDbEntity
  8
0
100
AcDbLine
 62
7
  6
CONTINUOUS
 10
0.6287608389
 20
24.8713284685
 11
0.8481655127
 21
24.9005993817
  0
LINE
  5
5A1
100
AcDbEntity
  8
0
100
AcDbLine
 62
7
  6
CONTINUOUS
 10
-0.4724012562
 20
24.129505687
 11
-0.6924562499
 21
24.1001764275
  0
LINE
  5
5A2
100
AcDbEntity
  8
0
100
AcDbLine
 62
7
  6
CONTINUOUS
 10
-0.4158090562
 20
25.7368974065
 11
-0.6453700837
 21
25.7065458788
  0
LINE
  5
5A3
100
AcDbEntity
  8
0
100
AcDbLine
 62
7
  6
CONTINUOUS
 10
0.5596509688
 20
26.4623012195
 11
0.7723199144
 21
26.490358834
  0
LINE
  5
5A4
100
AcDbEntity
  8
0
100
AcDbLine
 62
7
  6
CONTINUOUS
 10
-0.456271929
 20
26.3314379675
 11
-0.2861101045
 21
26.3538517153
  0
LINE
  5
5A5
100
AcDbEntity
  8
0
100
AcDbLine
 62
7
  6
CONTINUOUS
 10
0.5739913282
 20
24.2642692099
 11
0.3982278763
 21
24.2412259935
  0
LINE
  5
5A6
100
AcDbEntity
  8
0
100
AcDbLine
 62
7
  6
CONTINUOUS
 10
-0.4142519265
 20
24.7370220438
 11
-0.2385065696
 21
24.7600346738
  0
LINE
  5
5A7
100
AcDbEntity
  8
0
100
AcDbLine
 62
7
  6
CONTINUOUS
 10
0.5340950711
 20
25.8589889418
 11
0.3494141936
 21
25.8349067272
  0
LINE
  5
5A8
100
AcDbEntity
  8
0
100
AcDbLine
 62
7
  6
CONTINUOUS
 10
-0.2861101045
 20
26.3538517153
 11
-0.0445264419
 21
26.3849804862
  0
LINE
  5
5A9
100
AcDbEntity
  8
0
100
AcDbLine
 62
7
  6
CONTINUOUS
 10
0.3982278763
 20
24.2412259935
 11
0.1484735499
 21
24.20913837
  0
LINE
  5
5AA
100
AcDbEntity
  8
0
100
AcDbLine
 62
7
  6
CONTINUOUS
 10
-0.2385065696
 20
24.7600346738
 11
0.0106331756
 21
24.7920231818
  0
LWPOLYLINE
  5
5AB
100
AcDbEntity
  8
0
100
AcDbPolyline
 62
7
  6
CONTINUOUS
 90
3
 70
0
 10
0.1484735499
 20
24.20913837
 10
0.0171029811
 20
24.1924060623
 10
-0.4724012562
 20
24.129505687
  0
LWPOLYLINE
  5
5AC
100
AcDbEntity
  8
0
100
AcDbPolyline
 62
7
  6
CONTINUOUS
 90
3
 70
0
 10
0.0106331756
 20
24.7920231818
 10
0.1414560238
 20
24.8086831415
 10
0.6287608389
 20
24.8713284685
  0
LWPOLYLINE
  5
5AD
100
AcDbEntity
  8
0
100
AcDbPolyline
 62
7
  6
CONTINUOUS
 90
3
 70
0
 10
0.3494141936
 20
25.8349067272
 10
0.0182708751
 20
25.792556479
 10
-0.4158090562
 20
25.7368974065
  0
LINE
  5
5AE
100
AcDbEntity
  8
0
100
AcDbLine
 62
7
  6
CONTINUOUS
 10
-0.0445264419
 20
26.3849804862
 11
0.5596509688
 21
26.4623012195
  0
LWPOLYLINE
  5
5AF
100
AcDbEntity
  8
0
100
AcDbPolyline
 62
253
  6
CONTINUOUS
 90
23
 70
0
 10
-0.7287253573
 20
26.8166501695
 10
-0.8622891469
 20
26.8021333941
 10
-0.9928952371
 20
26.7876084296
 10
-1.1202576128
 20
26.7730581378
 10
-1.2440550353
 20
26.7584670998
 10
-1.3636988313
 20
26.7438507346
 10
-1.4785584505
 20
26.7292381612
 10
-1.5882533692
 20
26.7146341782
 10
-1.692478265
 20
26.7000339871
 10
-1.7907936015
 20
26.6854523113
 10
-1.8828362408
 20
26.6708956105
 10
-1.9683378584
 20
26.656357425
 10
-2.0470864389
 20
26.6418331
 10
-2.1188756094
 20
26.6273243838
 10
-2.1835189242
 20
26.612829528
 10
-2.2408579096
 20
26.5983386325
 10
-2.290686483
 20
26.5838506289
 10
-2.3328007949
 20
26.5693665855
 10
-2.3671059651
 20
26.5548798072
 10
-2.3935348051
 20
26.5403876541
 10
-2.4120094217
 20
26.5258927662
 10
-2.4224582702
 20
26.5113963679
 10
-2.4249927525
 20
26.5000234531
  0
LWPOLYLINE
  5
5B0
100
AcDbEntity
  8
0
100
AcDbPolyline
 62
253
  6
CONTINUOUS
 90
24
 70
0
 10
-0.6501946058
 20
23.6250541335
 10
-0.7854251518
 20
23.6105252939
 10
-0.9178338277
 20
23.5959997876
 10
-1.047273624
 20
23.5814463475
 10
-1.1734650415
 20
23.5668454418
 10
-1.2957797296
 20
23.5522166023
 10
-1.4135485117
 20
23.5375871573
 10
-1.5263566803
 20
23.5229618119
 10
-1.6339005054
 20
23.508335861
 10
-1.7357489173
 20
23.493722518
 10
-1.8315528032
 20
23.4791255591
 10
-1.9210161012
 20
23.4645412082
 10
-2.0038141729
 20
23.4499713494
 10
-2.0797030616
 20
23.435417845
 10
-2.148506385
 20
23.4208788327
 10
-2.2100533677
 20
23.4063506105
 10
-2.2641513607
 20
23.3918339284
 10
-2.31061462
 20
23.3773280364
 10
-2.3492787311
 20
23.3628269812
 10
-2.380046558
 20
23.3483307163
 10
-2.4028708869
 20
23.3338392883
 10
-2.4177096162
 20
23.3193468841
 10
-2.4245074559
 20
23.3048495292
 10
-2.4249757568
 20
23.2999966847
  0
LWPOLYLINE
  5
5B1
100
AcDbEntity
  8
0
100
AcDbPolyline
 62
253
  6
CONTINUOUS
 90
24
 70
0
 10
-0.6111907308
 20
25.2291944283
 10
-0.7477987627
 20
25.2145976975
 10
-0.8814534083
 20
25.2000283069
 10
-1.0114656285
 20
25.1855146708
 10
-1.1377007725
 20
25.1710283749
 10
-1.2603229119
 20
25.1565057342
 10
-1.3791686539
 20
25.141914818
 10
-1.4935369235
 20
25.127287557
 10
-1.6027610595
 20
25.1126560584
 10
-1.7064076524
 20
25.0980256014
 10
-1.8041790311
 20
25.0833909067
 10
-1.8956851118
 20
25.0687682435
 10
-1.9806349556
 20
25.0541615409
 10
-2.0587866254
 20
25.0395668698
 10
-2.1298533949
 20
25.0249887125
 10
-2.1935605807
 20
25.0104328018
 10
-2.2497690592
 20
24.995893405
 10
-2.2984039588
 20
24.981357806
 10
-2.3393453095
 20
24.9668210619
 10
-2.3724427881
 20
24.9522881156
 10
-2.3975610514
 20
24.9377610801
 10
-2.4145771699
 20
24.9232435298
 10
-2.4234707818
 20
24.9087318903
 10
-2.4249194008
 20
24.9001232606
  0
LINE
  5
5B2
100
AcDbEntity
  8
0
100
AcDbLine
 62
253
  6
CONTINUOUS
 10
-0.4546149861
 20
26.8456422759
 11
-0.7287253573
 21
26.8166501695
  0
LINE
  5
5B3
100
AcDbEntity
  8
0
100
AcDbLine
 62
253
  6
CONTINUOUS
 10
0.8210596669
 20
26.9771709682
 11
0.5420533439
 21
26.9478567499
  0
LINE
  5
5B4
100
AcDbEntity
  8
0
100
AcDbLine
 62
253
  6
CONTINUOUS
 10
-0.3729021559
 20
23.6541294726
 11
-0.6501946058
 21
23.6250541335
  0
LINE
  5
5B5
100
AcDbEntity
  8
0
100
AcDbLine
 62
253
  6
CONTINUOUS
 10
0.8031458496
 20
25.3752600878
 11
0.5250689957
 21
25.3460948818
  0
LINE
  5
5B6
100
AcDbEntity
  8
0
100
AcDbLine
 62
253
  6
CONTINUOUS
 10
0.7634016897
 20
23.7710397917
 11
0.4833420769
 21
23.7417824011
  0
LINE
  5
5B7
100
AcDbEntity
  8
0
100
AcDbLine
 62
253
  6
CONTINUOUS
 10
-0.3315966798
 20
25.2583978081
 11
-0.6111907308
 21
25.2291944283
  0
LINE
  5
5B8
100
AcDbEntity
  8
0
100
AcDbLine
 62
253
  6
CONTINUOUS
 10
0.5420533439
 20
26.9478567499
 11
0.2575475808
 21
26.9186102209
  0
LWPOLYLINE
  5
5B9
100
AcDbEntity
  8
0
100
AcDbPolyline
 62
253
  6
CONTINUOUS
 90
3
 70
0
 10
0.4833420769
 20
23.7417824011
 10
0.0545214112
 20
23.6979130446
 10
-0.3729021559
 20
23.6541294726
  0
LINE
  5
5BA
100
AcDbEntity
  8
0
100
AcDbLine
 62
253
  6
CONTINUOUS
 10
0.5250689957
 20
25.3460948818
 11
-0.3315966798
 21
25.2583978081
  0
LWPOLYLINE
  5
5BB
100
AcDbEntity
  8
0
100
AcDbPolyline
 62
253
  6
CONTINUOUS
 90
3
 70
0
 10
0.2575475808
 20
26.9186102209
 10
-0.0292994246
 20
26.8893723089
 10
-0.4546149861
 20
26.8456422759
  0
LINE
  5
5BC
100
AcDbEntity
  8
0
100
AcDbLine
 62
7
  6
CONTINUOUS
 10
-33.4250000123
 20
23.7
 11
-31.9250000123
 21
23.7
  0
LINE
  5
5BD
100
AcDbEntity
  8
0
100
AcDbLine
 62
7
  6
CONTINUOUS
 10
33.5749999877
 20
23.7
 11
32.0749999877
 21
23.7
  0
LINE
  5
5BE
100
AcDbEntity
  8
0
100
AcDbLine
 62
7
  6
CONTINUOUS
 10
-0.7890542782
 20
25.7130714658
 11
-0.6936522328
 21
25.6999996123
  0
LINE
  5
5BF
100
AcDbEntity
  8
0
100
AcDbLine
 62
7
  6
CONTINUOUS
 10
0.9401881087
 20
26.4867722608
 11
0.8437188827
 21
26.4999917595
  0
LINE
  5
5C0
100
AcDbEntity
  8
0
100
AcDbLine
 62
7
  6
CONTINUOUS
 10
-0.8295863347
 20
27.3187177739
 11
-0.6936522746
 21
27.2999913877
  0
LINE
  5
5C1
100
AcDbEntity
  8
0
100
AcDbLine
 62
7
  6
CONTINUOUS
 10
-0.8392324414
 20
24.1200726349
 11
-0.6937457359
 21
24.0999999785
  0
LINE
  5
5C2
100
AcDbEntity
  8
0
100
AcDbLine
 62
7
  6
CONTINUOUS
 10
0.9913822136
 20
24.8796255985
 11
0.8437435967
 21
24.900002319
  0
LINE
  5
5C3
100
AcDbEntity
  8
0
100
AcDbLine
 62
253
  6
CONTINUOUS
 10
-0.141585058
 20
26.1368971475
 11
0.2490605044
 21
26.0703843505
  0
LWPOLYLINE
  5
5C4
100
AcDbEntity
  8
0
100
AcDbPolyline
 62
253
  6
CONTINUOUS
 90
9
 70
0
 10
0.2197477659
 20
24.4753870422
 10
0.4120276048
 20
24.4422908684
 10
0.5063414154
 20
24.4257246158
 10
0.5989265618
 20
24.4091393482
 10
0.6893637681
 20
24.3925382185
 10
0.7772878028
 20
24.3759194298
 10
0.8623543453
 20
24.3592769767
 10
0.9441539502
 20
24.3426168646
 10
1.02023484
 20
24.3263817107
  0
LWPOLYLINE
  5
5C5
100
AcDbEntity
  8
0
100
AcDbPolyline
 62
253
  6
CONTINUOUS
 90
9
 70
0
 10
0.2490605044
 20
26.0703843505
 10
0.4413121596
 20
26.0371752592
 10
0.5352916204
 20
26.0205738773
 10
0.6274038386
 20
26.0039580863
 10
0.7171709613
 20
25.9873421178
 10
0.8040119941
 20
25.970761806
 10
0.8874145221
 20
25.954248338
 10
0.9672361288
 20
25.9377705268
 10
1.0200248074
 20
25.9263404108
  0
LWPOLYLINE
  5
5C6
100
AcDbEntity
  8
0
100
AcDbPolyline
 62
253
  6
CONTINUOUS
 90
10
 70
0
 10
-0.8702190675
 20
24.6736235059
 10
-0.7959177268
 20
24.65775064
 10
-0.7142517565
 20
24.6411015842
 10
-0.6293079298
 20
24.624468852
 10
-0.5414811317
 20
24.6078559994
 10
-0.4511269395
 20
24.5912594705
 10
-0.3586048948
 20
24.5746766665
 10
-0.264325594
 20
24.5581095295
 10
-0.168691291
 20
24.5415561173
 10
0.2197477659
 20
24.4753870422
  0
LWPOLYLINE
  5
5C7
100
AcDbEntity
  8
0
100
AcDbPolyline
 62
253
  6
CONTINUOUS
 90
10
 70
0
 10
-0.8699532392
 20
27.8736620204
 10
-0.8307325438
 20
27.8650904907
 10
-0.7510060837
 20
27.8485037373
 10
-0.6677402104
 20
27.8319125185
 10
-0.581216922
 20
27.8153045802
 10
-0.4917743199
 20
27.7986726625
 10
-0.3998317594
 20
27.7820240253
 10
-0.3058280526
 20
27.7653681942
 10
-0.2101411544
 20
27.748703178
 10
0.2779462911
 20
27.6654406802
  0
LWPOLYLINE
  5
5C8
100
AcDbEntity
  8
0
100
AcDbPolyline
 62
253
  6
CONTINUOUS
 90
9
 70
0
 10
-0.8700558284
 20
26.2736536612
 10
-0.8529536651
 20
26.2698587565
 10
-0.7745125196
 20
26.2533175044
 10
-0.6924581338
 20
26.2367694821
 10
-0.6069636897
 20
26.2201867799
 10
-0.5182598346
 20
26.2035471871
 10
-0.4268363516
 20
26.1868729144
 10
-0.3332951126
 20
26.1702026838
 10
-0.141585058
 20
26.1368971475
  0
LINE
  5
5C9
100
AcDbEntity
  8
0
100
AcDbLine
 62
7
  6
CONTINUOUS
 10
3.2833330031
 20
-35.893617034
 11
3.3666669722
 21
-35.8085106611
  0
LINE
  5
5CA
100
AcDbEntity
  8
0
100
AcDbLine
 62
7
  6
CONTINUOUS
 10
2.7833330031
 20
-36.7021276653
 11
2.6166669722
 21
-36.8723404258
  0
LINE
  5
5CB
100
AcDbEntity
  8
0
100
AcDbLine
 62
7
  6
CONTINUOUS
 10
3.5749999877
 20
-35.893617034
 11
3.4499999877
 21
-36.0212765932
  0
LINE
  5
5CC
100
AcDbEntity
  8
0
100
AcDbLine
 62
7
  6
CONTINUOUS
 10
5.0333339568
 20
-35.893617034
 11
5.1166660186
 21
-35.8085106611
  0
LINE
  5
5CD
100
AcDbEntity
  8
0
100
AcDbLine
 62
7
  6
CONTINUOUS
 10
4.4499999877
 20
-36.7446808517
 11
4.3249999877
 21
-36.8723404259
  0
LINE
  5
5CE
100
AcDbEntity
  8
0
100
AcDbLine
 62
7
  6
CONTINUOUS
 10
6.1166660185
 20
-35.7659574747
 11
6.1999999877
 21
-35.6808511019
  0
LINE
  5
5CF
100
AcDbEntity
  8
0
100
AcDbLine
 62
7
  6
CONTINUOUS
 10
6.1999999877
 20
-35.8510638475
 11
6.1166660185
 21
-35.9361702204
  0
LINE
  5
5D0
100
AcDbEntity
  8
0
100
AcDbLine
 62
7
  6
CONTINUOUS
 10
6.7416660185
 20
-35.8085106611
 11
6.8666660186
 21
-35.6808511019
  0
LINE
  5
5D1
100
AcDbEntity
  8
0
100
AcDbLine
 62
7
  6
CONTINUOUS
 10
6.8666660186
 20
-35.8510638475
 11
6.8249999877
 21
-35.893617034
  0
LINE
  5
5D2
100
AcDbEntity
  8
0
100
AcDbLine
 62
7
  6
CONTINUOUS
 10
7.8249999877
 20
-35.8085106611
 11
7.9083339568
 21
-35.7234042883
  0
LINE
  5
5D3
100
AcDbEntity
  8
0
100
AcDbLine
 62
7
  6
CONTINUOUS
 10
-5.5500000123
 20
-36.7872340381
 11
-5.4250000123
 21
-36.7021276653
  0
LINE
  5
5D4
100
AcDbEntity
  8
0
100
AcDbLine
 62
7
  6
CONTINUOUS
 10
-2.0083330278
 20
-35.7659574747
 11
-1.8833330278
 21
-35.6808511019
  0
LINE
  5
5D5
100
AcDbEntity
  8
0
100
AcDbLine
 62
7
  6
CONTINUOUS
 10
-1.8833330278
 20
-35.8510638475
 11
-2.0083330278
 21
-35.9361702204
  0
LINE
  5
5D6
100
AcDbEntity
  8
0
100
AcDbLine
 62
7
  6
CONTINUOUS
 10
1.6999999877
 20
-35.2978723049
 11
1.5749999877
 21
-35.3829786777
  0
LINE
  5
5D7
100
AcDbEntity
  8
0
100
AcDbLine
 62
7
  6
CONTINUOUS
 10
-9.7166667585
 20
-35.7234042883
 11
-9.6333332662
 21
-35.6808511019
  0
LINE
  5
5D8
100
AcDbEntity
  8
0
100
AcDbLine
 62
7
  6
CONTINUOUS
 10
-9.5083332662
 20
-35.8510638475
 11
-9.5916667585
 21
-35.893617034
  0
LINE
  5
5D9
100
AcDbEntity
  8
0
100
AcDbLine
 62
7
  6
CONTINUOUS
 10
-9.6750000123
 20
-36.2340425253
 11
-9.5083332662
 21
-36.1489361525
  0
LINE
  5
5DA
100
AcDbEntity
  8
0
100
AcDbLine
 62
7
  6
CONTINUOUS
 10
-9.4250000123
 20
-36.3191489577
 11
-9.5083332662
 21
-36.3617021442
  0
LINE
  5
5DB
100
AcDbEntity
  8
0
100
AcDbLine
 62
7
  6
CONTINUOUS
 10
-7.6750000123
 20
-35.8510638475
 11
-7.8416665201
 21
-35.9361702204
  0
LINE
  5
5DC
100
AcDbEntity
  8
0
100
AcDbLine
 62
7
  6
CONTINUOUS
 10
-6.0083335046
 20
-35.8510638475
 11
-6.0916665201
 21
-35.893617034
  0
LINE
  5
5DD
100
AcDbEntity
  8
0
100
AcDbLine
 62
7
  6
CONTINUOUS
 10
-7.1750000123
 20
-36.9148936197
 11
-7.2583335046
 21
-36.9574468099
  0
LINE
  5
5DE
100
AcDbEntity
  8
0
100
AcDbLine
 62
7
  6
CONTINUOUS
 10
-5.3416665201
 20
-36.8723404258
 11
-5.5083335046
 21
-36.9574468099
  0
LINE
  5
5DF
100
AcDbEntity
  8
0
100
AcDbLine
 62
7
  6
CONTINUOUS
 10
-9.1750000123
 20
-36.8297872394
 11
-8.9666667585
 21
-36.7446808517
  0
LINE
  5
5E0
100
AcDbEntity
  8
0
100
AcDbLine
 62
7
  6
CONTINUOUS
 10
-1.2096982544
 20
27.8194589709
 11
-1.1283615988
 21
27.8333203327
  0
LINE
  5
5E1
100
AcDbEntity
  8
0
100
AcDbLine
 62
7
  6
CONTINUOUS
 10
-1.1930124182
 20
31.0223617612
 11
-1.1074903632
 21
31.0367689072
  0
LINE
  5
5E2
100
AcDbEntity
  8
0
100
AcDbLine
 62
7
  6
CONTINUOUS
 10
-1.1806825104
 20
29.4244933292
 11
-1.0948396645
 21
29.4388452099
  0
LINE
  5
5E3
100
AcDbEntity
  8
0
100
AcDbLine
 62
7
  6
CONTINUOUS
 10
1.3023188913
 20
29.1706891691
 11
1.2082586583
 21
29.1552481656
  0
LINE
  5
5E4
100
AcDbEntity
  8
0
100
AcDbLine
 62
7
  6
CONTINUOUS
 10
-1.1283615988
 20
27.8333203327
 11
-1.0412531134
 21
27.8474667894
  0
LINE
  5
5E5
100
AcDbEntity
  8
0
100
AcDbLine
 62
7
  6
CONTINUOUS
 10
-1.1074903632
 20
31.0367689072
 11
-1.0158513419
 21
31.0514750631
  0
LINE
  5
5E6
100
AcDbEntity
  8
0
100
AcDbLine
 62
7
  6
CONTINUOUS
 10
-1.0948396645
 20
29.4388452099
 11
-1.0029068769
 21
29.4534988141
  0
LINE
  5
5E7
100
AcDbEntity
  8
0
100
AcDbLine
 62
7
  6
CONTINUOUS
 10
1.2082586583
 20
29.1552481656
 11
1.1076981308
 21
29.139519138
  0
LINE
  5
5E8
100
AcDbEntity
  8
0
100
AcDbLine
 62
7
  6
CONTINUOUS
 10
-1.0412531134
 20
27.8474667894
 11
-0.948671905
 21
27.861863011
  0
LWPOLYLINE
  5
5E9
100
AcDbEntity
  8
0
100
AcDbPolyline
 62
7
  6
CONTINUOUS
 90
37
 70
0
 10
1.2445479305
 20
31.3572592083
 10
1.3110606317
 20
31.3674968913
 10
1.3767869269
 20
31.3778975212
 10
1.4412245239
 20
31.3884082277
 10
1.504311383
 20
31.3990454547
 10
1.5658697206
 20
31.4098080219
 10
1.6253307696
 20
31.4206223747
 10
1.6826249632
 20
31.4314966655
 10
1.7377444098
 20
31.4424480031
 10
1.7903595263
 20
31.4534262604
 10
1.840474953
 20
31.4644438375
 10
1.888176152
 20
31.4755325713
 10
1.9334053573
 20
31.4866921783
 10
1.9762440959
 20
31.4979552736
 10
2.0168360185
 20
31.5093755254
 10
2.0553555942
 20
31.5210243574
 10
2.0918199712
 20
31.5329301426
 10
2.1265566309
 20
31.5452255394
 10
2.1602842773
 20
31.5582268747
 10
2.1931686612
 20
31.5721021956
 10
2.2253184919
 20
31.587023743
 10
2.2573587826
 20
31.6034705447
 10
2.2895750554
 20
31.6218801953
 10
2.3216804407
 20
31.6424366627
 10
2.353391093
 20
31.665320775
 10
2.3846649026
 20
31.6909221385
 10
2.4151576216
 20
31.7194628931
 10
2.44410819
 20
31.7507274878
 10
2.4711747598
 20
31.7848456721
 10
2.4959864143
 20
31.8219358366
 10
2.517905452
 20
31.8614448818
 10
2.5366818181
 20
31.9032004623
 10
2.5520618072
 20
31.9470264137
 10
2.5636386623
 20
31.9921200748
 10
2.5712322452
 20
32.0379756614
 10
2.5747412276
 20
32.0844568351
 10
2.5749757308
 20
32.0999957103
  0
LINE
  5
5EA
100
AcDbEntity
  8
0
100
AcDbLine
 62
7
  6
CONTINUOUS
 10
1.1888916148
 20
30.7521562854
 11
1.0715616006
 21
30.7340317705
  0
LINE
  5
5EB
100
AcDbEntity
  8
0
100
AcDbLine
 62
7
  6
CONTINUOUS
 10
-1.0158513419
 20
31.0514750631
 11
-0.9184519888
 21
31.0664403984
  0
LWPOLYLINE
  5
5EC
100
AcDbEntity
  8
0
100
AcDbPolyline
 62
7
  6
CONTINUOUS
 90
39
 70
0
 10
1.2070422666
 20
28.1516012281
 10
1.2733546252
 20
28.1616603561
 10
1.3383683508
 20
28.1717809321
 10
1.4019847569
 20
28.1819666686
 10
1.4641136749
 20
28.1922233589
 10
1.5243076346
 20
28.2024956558
 10
1.5825065759
 20
28.2127896281
 10
1.6386739536
 20
28.223114659
 10
1.692508195
 20
28.2334255416
 10
1.7440140066
 20
28.2437298944
 10
1.7932381366
 20
28.2540443346
 10
1.8400479478
 20
28.2643465587
 10
1.8844832954
 20
28.2746481493
 10
1.9266617742
 20
28.2849800479
 10
1.9666634487
 20
28.2953671598
 10
2.0044855196
 20
28.3058127273
 10
2.0403697793
 20
28.3163895813
 10
2.0748147015
 20
28.3272656301
 10
2.1078413646
 20
28.3384811266
 10
2.1396518312
 20
28.3501449707
 10
2.1710234894
 20
28.36262276
 10
2.2021108713
 20
28.3761104516
 10
2.2328827235
 20
28.3907540246
 10
2.2638362094
 20
28.4070063946
 10
2.2952034162
 20
28.4253050558
 10
2.3266610926
 20
28.4458370668
 10
2.3578567527
 20
28.4687631096
 10
2.3887263108
 20
28.4944853916
 10
2.4188879398
 20
28.5232240912
 10
2.4475163361
 20
28.5547184062
 10
2.4742803403
 20
28.5891335886
 10
2.4987710166
 20
28.6265499367
 10
2.5202684232
 20
28.6662318386
 10
2.5385529902
 20
28.7079769068
 10
2.5534115039
 20
28.751600115
 10
2.5644500387
 20
28.7961294335
 10
2.5715684546
 20
28.8409997792
 10
2.5747686015
 20
28.8861365978
 10
2.5749548203
 20
28.8999878501
  0
LINE
  5
5ED
100
AcDbEntity
  8
0
100
AcDbLine
 62
7
  6
CONTINUOUS
 10
-1.0029068769
 20
29.4534988141
 11
-0.9052476073
 21
29.4684184624
  0
LWPOLYLINE
  5
5EE
100
AcDbEntity
  8
0
100
AcDbPolyline
 62
7
  6
CONTINUOUS
 90
38
 70
0
 10
-1.04385294
 20
28.8503748708
 10
-1.1115076478
 20
28.8401582969
 10
-1.177546053
 20
28.8299234848
 10
-1.2419027382
 20
28.8196653964
 10
-1.3043744718
 20
28.8094015855
 10
-1.3648937199
 20
28.7991288778
 10
-1.4234253232
 20
28.7888384023
 10
-1.4798634907
 20
28.7785337455
 10
-1.5341935612
 20
28.7682022827
 10
-1.5863817206
 20
28.7578349147
 10
-1.636370012
 20
28.7474313223
 10
-1.6841559607
 20
28.7369816211
 10
-1.7298107237
 20
28.7264584155
 10
-1.7734625566
 20
28.7158162685
 10
-1.8151105238
 20
28.7050363289
 10
-1.8548804285
 20
28.6940633703
 10
-1.8931620182
 20
28.6827519159
 10
-1.9299811933
 20
28.6710399145
 10
-1.9654602223
 20
28.6588229096
 10
-2.0002259023
 20
28.6457847314
 10
-2.0344722366
 20
28.6317080461
 10
-2.0681864456
 20
28.6164249849
 10
-2.1017881179
 20
28.5995189215
 10
-2.135556986
 20
28.5805268032
 10
-2.169226381
 20
28.5592097674
 10
-2.2024156284
 20
28.5354050765
 10
-2.2351773473
 20
28.5085992939
 10
-2.2670299467
 20
28.4786110062
 10
-2.2968474874
 20
28.4460148786
 10
-2.3242577908
 20
28.4108416159
 10
-2.3490489986
 20
28.372937529
 10
-2.3706183944
 20
28.3330226434
 10
-2.3888005645
 20
28.2913839935
 10
-2.4034844207
 20
28.2481932021
 10
-2.4144017559
 20
28.2042251339
 10
-2.4214904243
 20
28.1599676947
 10
-2.4247626028
 20
28.1155567923
 10
-2.4249999256
 20
28.0999332609
  0
LWPOLYLINE
  5
5EF
100
AcDbEntity
  8
0
100
AcDbPolyline
 62
7
  6
CONTINUOUS
 90
38
 70
0
 10
1.1899437909
 20
29.7490433138
 10
1.2578145339
 20
29.7592741316
 10
1.3249143471
 20
29.7696572168
 10
1.3909926549
 20
29.7801817719
 10
1.4554379858
 20
29.7907734694
 10
1.5181575911
 20
29.8014372178
 10
1.5790801555
 20
29.8121824635
 10
1.6377457696
 20
29.8229471876
 10
1.6941140945
 20
29.833739866
 10
1.7481830063
 20
29.8445771011
 10
1.7996835374
 20
29.855419533
 10
1.8486485057
 20
29.8662854316
 10
1.8951534986
 20
29.8772014853
 10
1.9391387081
 20
29.8881582764
 10
1.9806563774
 20
29.8991698891
 10
2.0199265987
 20
29.9102981567
 10
2.0572482478
 20
29.9216412978
 10
2.0925832112
 20
29.9332050251
 10
2.126286677
 20
29.9451292877
 10
2.159281503
 20
29.9578115883
 10
2.1917830629
 20
29.9714642472
 10
2.2237608612
 20
29.986229401
 10
2.2557537719
 20
30.0025660434
 10
2.2880275086
 20
30.0209156856
 10
2.3202876753
 20
30.0414750566
 10
2.3522101566
 20
30.0644172457
 10
2.3837498297
 20
30.0901479932
 10
2.414541669
 20
30.1188957613
 10
2.443772695
 20
30.1504158445
 10
2.4711017949
 20
30.1848545344
 10
2.4961361144
 20
30.2223216085
 10
2.5181841763
 20
30.2621748988
 10
2.5370129358
 20
30.304239853
 10
2.5523756897
 20
30.3483194439
 10
2.5638542779
 20
30.3934723741
 10
2.571313879
 20
30.439137195
 10
2.5747185663
 20
30.4852168613
 10
2.5749347989
 20
30.5001433472
  0
LINE
  5
5F0
100
AcDbEntity
  8
0
100
AcDbLine
 62
7
  6
CONTINUOUS
 10
1.1076981308
 20
29.139519138
 11
1.0011463591
 21
29.1235501957
  0
LINE
  5
5F1
100
AcDbEntity
  8
0
100
AcDbLine
 62
7
  6
CONTINUOUS
 10
-0.948671905
 20
27.861863011
 11
-0.850909284
 21
27.8764845123
  0
LINE
  5
5F2
100
AcDbEntity
  8
0
100
AcDbLine
 62
7
  6
CONTINUOUS
 10
1.1100582778
 20
31.3373018445
 11
1.2445479305
 21
31.3572592083
  0
LINE
  5
5F3
100
AcDbEntity
  8
0
100
AcDbLine
 62
7
  6
CONTINUOUS
 10
-0.9184519888
 20
31.0664403984
 11
-0.8155721668
 21
31.0816465821
  0
LINE
  5
5F4
100
AcDbEntity
  8
0
100
AcDbLine
 62
7
  6
CONTINUOUS
 10
-0.9052476073
 20
29.4684184624
 11
-0.8022207431
 21
29.4835780557
  0
LINE
  5
5F5
100
AcDbEntity
  8
0
100
AcDbLine
 62
7
  6
CONTINUOUS
 10
1.0715616006
 20
30.7340317705
 11
0.9455087924
 21
30.7154531326
  0
LINE
  5
5F6
100
AcDbEntity
  8
0
100
AcDbLine
 62
7
  6
CONTINUOUS
 10
1.0723434905
 20
28.131860142
 11
1.2070422666
 21
28.1516012281
  0
LINE
  5
5F7
100
AcDbEntity
  8
0
100
AcDbLine
 62
7
  6
CONTINUOUS
 10
-0.9042224216
 20
28.8707346513
 11
-1.04385294
 21
28.8503748708
  0
LINE
  5
5F8
100
AcDbEntity
  8
0
100
AcDbLine
 62
7
  6
CONTINUOUS
 10
1.0523950309
 20
29.7290087922
 11
1.1899437909
 21
29.7490433138
  0
LINE
  5
5F9
100
AcDbEntity
  8
0
100
AcDbLine
 62
7
  6
CONTINUOUS
 10
-0.850909284
 20
27.8764845123
 11
-0.7483010779
 21
27.8913133768
  0
LINE
  5
5FA
100
AcDbEntity
  8
0
100
AcDbLine
 62
7
  6
CONTINUOUS
 10
1.0011463591
 20
29.1235501957
 11
0.8891072097
 21
29.1073774441
  0
LWPOLYLINE
  5
5FB
100
AcDbEntity
  8
0
100
AcDbPolyline
 62
7
  6
CONTINUOUS
 90
39
 70
0
 10
-0.8516012806
 20
30.4781894072
 10
-0.9343638813
 20
30.4664081883
 10
-1.0147149712
 20
30.4546947832
 10
-1.0925332851
 20
30.4430490992
 10
-1.1677514572
 20
30.4314638358
 10
-1.2399393122
 20
30.4199906918
 10
-1.3089714123
 20
30.4086396114
 10
-1.3749438529
 20
30.3973892238
 10
-1.4378356375
 20
30.3862397579
 10
-1.4976436284
 20
30.3751899059
 10
-1.5544558637
 20
30.3642221011
 10
-1.6084320466
 20
30.3533027141
 10
-1.6596105767
 20
30.3424200359
 10
-1.7080881771
 20
30.3315491983
 10
-1.7541451994
 20
30.3206180199
 10
-1.7978156297
 20
30.3096062002
 10
-1.8392567816
 20
30.2984638912
 10
-1.8789600096
 20
30.2870340534
 10
-1.9169612237
 20
30.2752651932
 10
-1.9534108633
 20
30.26306042
 10
-1.9890335451
 20
30.2500876653
 10
-2.0240371765
 20
30.2361306825
 10
-2.0583961606
 20
30.22103144
 10
-2.0925894006
 20
30.2043569421
 10
-2.1269302737
 20
30.1856322967
 10
-2.1611588214
 20
30.1646093052
 10
-2.1949258686
 20
30.1410980647
 10
-2.2282877242
 20
30.1145862645
 10
-2.2607937806
 20
30.0848584229
 10
-2.2913661234
 20
30.052397433
 10
-2.3196336615
 20
30.0171762522
 10
-2.3453206065
 20
29.9790362235
 10
-2.3677578838
 20
29.9386918362
 10
-2.3867565178
 20
29.8964062085
 10
-2.4021631914
 20
29.8523672087
 10
-2.4136517907
 20
29.8074406571
 10
-2.4211412228
 20
29.7621621957
 10
-2.4246386128
 20
29.7166602074
 10
-2.4249110842
 20
29.6999126838
  0
LINE
  5
5FC
100
AcDbEntity
  8
0
100
AcDbLine
 62
7
  6
CONTINUOUS
 10
-0.8155721668
 20
31.0816465821
 11
-0.7075553972
 21
31.0970791172
  0
LINE
  5
5FD
100
AcDbEntity
  8
0
100
AcDbLine
 62
7
  6
CONTINUOUS
 10
-0.8022207431
 20
29.4835780557
 11
-0.6941745063
 21
29.498959979
  0
LINE
  5
5FE
100
AcDbEntity
  8
0
100
AcDbLine
 62
7
  6
CONTINUOUS
 10
0.9738956939
 20
31.3179200942
 11
1.1100582778
 21
31.3373018445
  0
LINE
  5
5FF
100
AcDbEntity
  8
0
100
AcDbLine
 62
7
  6
CONTINUOUS
 10
0.9455087924
 20
30.7154531326
 11
0.8110939947
 21
30.6964222205
  0
LINE
  5
600
100
AcDbEntity
  8
0
100
AcDbLine
 62
7
  6
CONTINUOUS
 10
0.935902648
 20
28.1126332505
 11
1.0723434905
 21
28.131860142
  0
LINE
  5
601
100
AcDbEntity
  8
0
100
AcDbLine
 62
7
  6
CONTINUOUS
 10
-0.7483010779
 20
27.8913133768
 11
-0.6412391622
 21
27.9063308798
  0
LINE
  5
602
100
AcDbEntity
  8
0
100
AcDbLine
 62
7
  6
CONTINUOUS
 10
0.9142866727
 20
29.7096503003
 11
1.0523950309
 21
29.7290087922
  0
LINE
  5
603
100
AcDbEntity
  8
0
100
AcDbLine
 62
7
  6
CONTINUOUS
 10
0.8891072097
 20
29.1073774441
 11
0.7720006416
 21
29.0910106949
  0
LINE
  5
604
100
AcDbEntity
  8
0
100
AcDbLine
 62
7
  6
CONTINUOUS
 10
-0.760007194
 20
28.8909405281
 11
-0.9042224216
 21
28.8707346513
  0
LINE
  5
605
100
AcDbEntity
  8
0
100
AcDbLine
 62
7
  6
CONTINUOUS
 10
-0.7075553972
 20
31.0970791172
 11
-0.5947933764
 21
31.1127248991
  0
LINE
  5
606
100
AcDbEntity
  8
0
100
AcDbLine
 62
7
  6
CONTINUOUS
 10
-0.6941745063
 20
29.498959979
 11
-0.5815006113
 21
29.5145463428
  0
LINE
  5
607
100
AcDbEntity
  8
0
100
AcDbLine
 62
7
  6
CONTINUOUS
 10
-0.6807864512
 20
30.5017629125
 11
-0.8516012806
 21
30.4781894072
  0
LINE
  5
608
100
AcDbEntity
  8
0
100
AcDbLine
 62
7
  6
CONTINUOUS
 10
0.8368937692
 20
31.2990667305
 11
0.9738956939
 21
31.3179200942
  0
LINE
  5
609
100
AcDbEntity
  8
0
100
AcDbLine
 62
7
  6
CONTINUOUS
 10
-0.6568543233
 20
27.3049948192
 11
-0.8199481278
 21
27.2826285394
  0
LINE
  5
60A
100
AcDbEntity
  8
0
100
AcDbLine
 62
7
  6
CONTINUOUS
 10
-0.6412391622
 20
27.9063308798
 11
-0.5301235793
 21
27.9215222861
  0
LINE
  5
60B
100
AcDbEntity
  8
0
100
AcDbLine
 62
7
  6
CONTINUOUS
 10
0.8110939947
 20
30.6964222205
 11
0.6685795572
 21
30.6769161643
  0
LINE
  5
60C
100
AcDbEntity
  8
0
100
AcDbLine
 62
7
  6
CONTINUOUS
 10
0.799621268
 20
28.0940280728
 11
0.935902648
 21
28.1126332505
  0
LINE
  5
60D
100
AcDbEntity
  8
0
100
AcDbLine
 62
7
  6
CONTINUOUS
 10
0.7720006416
 20
29.0910106949
 11
0.6501223995
 21
29.0744344549
  0
LINE
  5
60E
100
AcDbEntity
  8
0
100
AcDbLine
 62
7
  6
CONTINUOUS
 10
0.7760616883
 20
29.6908606763
 11
0.9142866727
 21
29.7096503003
  0
LINE
  5
60F
100
AcDbEntity
  8
0
100
AcDbLine
 62
7
  6
CONTINUOUS
 10
-0.6127535365
 20
28.9109201551
 11
-0.760007194
 21
28.8909405281
  0
LINE
  5
610
100
AcDbEntity
  8
0
100
AcDbLine
 62
7
  6
CONTINUOUS
 10
-0.5947933764
 20
31.1127248991
 11
-0.4776888356
 21
31.1285745939
  0
LINE
  5
611
100
AcDbEntity
  8
0
100
AcDbLine
 62
7
  6
CONTINUOUS
 10
-0.5815006113
 20
29.5145463428
 11
-0.4646261335
 21
29.5303233055
  0
LINE
  5
612
100
AcDbEntity
  8
0
100
AcDbLine
 62
7
  6
CONTINUOUS
 10
0.6685795572
 20
30.6769161643
 11
0.518392857
 21
30.6569207404
  0
LINE
  5
613
100
AcDbEntity
  8
0
100
AcDbLine
 62
7
  6
CONTINUOUS
 10
-0.5044557788
 20
30.5252946335
 11
-0.6807864512
 21
30.5017629125
  0
LINE
  5
614
100
AcDbEntity
  8
0
100
AcDbLine
 62
7
  6
CONTINUOUS
 10
-0.4847101908
 20
27.3278897379
 11
-0.6568543233
 21
27.3049948192
  0
LINE
  5
615
100
AcDbEntity
  8
0
100
AcDbLine
 62
7
  6
CONTINUOUS
 10
-0.5301235793
 20
27.9215222861
 11
-0.3567385942
 21
27.9446119278
  0
LINE
  5
616
100
AcDbEntity
  8
0
100
AcDbLine
 62
7
  6
CONTINUOUS
 10
0.6310656225
 20
31.2716334617
 11
0.8368937692
 21
31.2990667305
  0
LINE
  5
617
100
AcDbEntity
  8
0
100
AcDbLine
 62
7
  6
CONTINUOUS
 10
0.5965367339
 20
28.0671114761
 11
0.799621268
 21
28.0940280728
  0
LINE
  5
618
100
AcDbEntity
  8
0
100
AcDbLine
 62
7
  6
CONTINUOUS
 10
0.6501223995
 20
29.0744344549
 11
0.4588146734
 21
29.0491116294
  0
LINE
  5
619
100
AcDbEntity
  8
0
100
AcDbLine
 62
7
  6
CONTINUOUS
 10
-0.4776888356
 20
31.1285745939
 11
-0.2948050185
 21
31.1527180962
  0
LINE
  5
61A
100
AcDbEntity
  8
0
100
AcDbLine
 62
7
  6
CONTINUOUS
 10
0.569837607
 20
29.6636249646
 11
0.7760616883
 21
29.6908606763
  0
LINE
  5
61B
100
AcDbEntity
  8
0
100
AcDbLine
 62
7
  6
CONTINUOUS
 10
0.6231344777
 20
27.4708158079
 11
0.4047120121
 21
27.4420671267
  0
LINE
  5
61C
100
AcDbEntity
  8
0
100
AcDbLine
 62
7
  6
CONTINUOUS
 10
-0.4646261335
 20
29.5303233055
 11
-0.2824674489
 21
29.5543238522
  0
LINE
  5
61D
100
AcDbEntity
  8
0
100
AcDbLine
 62
7
  6
CONTINUOUS
 10
-0.3893473343
 20
28.9403402029
 11
-0.6127535365
 21
28.9109201551
  0
LINE
  5
61E
100
AcDbEntity
  8
0
100
AcDbLine
 62
7
  6
CONTINUOUS
 10
0.518392857
 20
30.6569207404
 11
0.3610130869
 21
30.636406275
  0
LINE
  5
61F
100
AcDbEntity
  8
0
100
AcDbLine
 62
7
  6
CONTINUOUS
 10
-0.3567385942
 20
27.9446119278
 11
-0.1765658754
 21
27.9680416383
  0
LINE
  5
620
100
AcDbEntity
  8
0
100
AcDbLine
 62
7
  6
CONTINUOUS
 10
-0.2363662465
 20
30.5600696182
 11
-0.5044557788
 21
30.5252946335
  0
LINE
  5
621
100
AcDbEntity
  8
0
100
AcDbLine
 62
7
  6
CONTINUOUS
 10
-0.2108366918
 20
27.3633428234
 11
-0.4847101908
 21
27.3278897379
  0
LINE
  5
622
100
AcDbEntity
  8
0
100
AcDbLine
 62
7
  6
CONTINUOUS
 10
0.4588146734
 20
29.0491116294
 11
0.2580673232
 21
29.0231524485
  0
LINE
  5
623
100
AcDbEntity
  8
0
100
AcDbLine
 62
7
  6
CONTINUOUS
 10
0.4047120121
 20
27.4420671267
 11
0.1891555147
 21
27.4143318963
  0
LINE
  5
624
100
AcDbEntity
  8
0
100
AcDbLine
 62
7
  6
CONTINUOUS
 10
-0.2824674489
 20
29.5543238522
 11
-0.0294836821
 21
29.5869024477
  0
LINE
  5
625
100
AcDbEntity
  8
0
100
AcDbLine
 62
7
  6
CONTINUOUS
 10
-0.2948050185
 20
31.1527180962
 11
-0.0398783999
 21
31.1855753118
  0
LINE
  5
626
100
AcDbEntity
  8
0
100
AcDbLine
 62
7
  6
CONTINUOUS
 10
0.2912292339
 20
31.2277596982
 11
0.6310656225
 21
31.2716334617
  0
LINE
  5
627
100
AcDbEntity
  8
0
100
AcDbLine
 62
7
  6
CONTINUOUS
 10
0.1891555147
 20
27.4143318963
 11
-0.2108366918
 21
27.3633428234
  0
LWPOLYLINE
  5
628
100
AcDbEntity
  8
0
100
AcDbPolyline
 62
7
  6
CONTINUOUS
 90
3
 70
0
 10
-0.1765658754
 20
27.9680416383
 10
0.1361883004
 20
28.0080110087
 10
0.5965367339
 20
28.0671114761
  0
LINE
  5
629
100
AcDbEntity
  8
0
100
AcDbLine
 62
7
  6
CONTINUOUS
 10
0.2580673232
 20
29.0231524485
 11
-0.3893473343
 21
28.9403402029
  0
LWPOLYLINE
  5
62A
100
AcDbEntity
  8
0
100
AcDbPolyline
 62
7
  6
CONTINUOUS
 90
3
 70
0
 10
-0.0294836821
 20
29.5869024477
 10
0.1661692854
 20
29.6118282496
 10
0.569837607
 20
29.6636249646
  0
LINE
  5
62B
100
AcDbEntity
  8
0
100
AcDbLine
 62
7
  6
CONTINUOUS
 10
0.3610130869
 20
30.636406275
 11
-0.2363662465
 21
30.5600696182
  0
LWPOLYLINE
  5
62C
100
AcDbEntity
  8
0
100
AcDbPolyline
 62
253
  6
CONTINUOUS
 90
23
 70
0
 10
-0.7014431572
 20
28.4195790478
 10
-0.836084596
 20
28.4050063429
 10
-0.9675408325
 20
28.3904578867
 10
-1.0952112821
 20
28.3759545825
 10
-1.2188739885
 20
28.3614755269
 10
-1.3386282697
 20
28.3469591718
 10
-1.4543237401
 20
28.3323730922
 10
-1.5652960699
 20
28.3177497131
 10
-1.6708966814
 20
28.303124762
 10
-1.7707069702
 20
28.2885071506
 10
-1.8644338095
 20
28.2738879672
 10
-1.9516847319
 20
28.2592762034
 10
-2.0321991191
 20
28.2446747785
 10
-2.1057739984
 20
28.2300807732
 10
-2.1721880063
 20
28.215494422
 10
-2.2312078071
 20
28.2009194274
 10
-2.2826327684
 20
28.186352087
 10
-2.326301506
 20
28.1717815279
 10
-2.3621235351
 20
28.1571995855
 10
-2.3899870667
 20
28.1426144245
 10
-2.4097921406
 20
28.1280396662
 10
-2.4214698796
 20
28.1134875732
 10
-2.4249999123
 20
28.1000716798
  0
LWPOLYLINE
  5
62D
100
AcDbEntity
  8
0
100
AcDbPolyline
 62
253
  6
CONTINUOUS
 90
24
 70
0
 10
-0.6676697833
 20
30.0231928127
 10
-0.8024765727
 20
30.0086760428
 10
-0.9347083133
 20
29.9941263608
 10
-1.0637732571
 20
29.9795614144
 10
-1.1892675185
 20
29.9649798896
 10
-1.3108152527
 20
29.9503765404
 10
-1.4279486729
 20
29.9357566128
 10
-1.5401349615
 20
29.9211345304
 10
-1.6469533695
 20
29.9065135857
 10
-1.7481014635
 20
29.8918904862
 10
-1.8432438551
 20
29.8772697784
 10
-1.9320746207
 20
29.8626523006
 10
-2.014298726
 20
29.8480372145
 10
-2.0896058282
 20
29.8334265511
 10
-2.1577196786
 20
29.8188207583
 10
-2.2184615966
 20
29.8042193883
 10
-2.2716720947
 20
29.789623129
 10
-2.3171895814
 20
29.7750340214
 10
-2.3548666668
 20
29.7604500244
 10
-2.3845578943
 20
29.7458657027
 10
-2.4061330058
 20
29.7312786556
 10
-2.4195576045
 20
29.7166912838
 10
-2.4248248212
 20
29.7021053547
 10
-2.4249110759
 20
29.7000575024
  0
LINE
  5
62E
100
AcDbEntity
  8
0
100
AcDbLine
 62
253
  6
CONTINUOUS
 10
0.8498393383
 20
28.5802487449
 11
0.5742770565
 21
28.5512019574
  0
LINE
  5
62F
100
AcDbEntity
  8
0
100
AcDbLine
 62
253
  6
CONTINUOUS
 10
-0.4242662811
 20
28.4488010459
 11
-0.7014431572
 21
28.4195790478
  0
LINE
  5
630
100
AcDbEntity
  8
0
100
AcDbLine
 62
253
  6
CONTINUOUS
 10
-0.3911705326
 20
30.0522348163
 11
-0.6676697833
 21
30.0231928127
  0
LINE
  5
631
100
AcDbEntity
  8
0
100
AcDbLine
 62
253
  6
CONTINUOUS
 10
0.7476333513
 20
30.1693684039
 11
0.4666658904
 21
30.140061001
  0
LINE
  5
632
100
AcDbEntity
  8
0
100
AcDbLine
 62
253
  6
CONTINUOUS
 10
0.5742770565
 20
28.5512019574
 11
0.2909533733
 21
28.5220237055
  0
LWPOLYLINE
  5
633
100
AcDbEntity
  8
0
100
AcDbPolyline
 62
253
  6
CONTINUOUS
 90
3
 70
0
 10
0.4666658904
 20
30.140061001
 10
0.0371483274
 20
30.0961445224
 10
-0.3911705326
 20
30.0522348163
  0
LWPOLYLINE
  5
634
100
AcDbEntity
  8
0
100
AcDbPolyline
 62
253
  6
CONTINUOUS
 90
3
 70
0
 10
0.2909533733
 20
28.5220237055
 10
0.003821188
 20
28.4927483674
 10
-0.4242662811
 20
28.4488010459
  0
LINE
  5
635
100
AcDbEntity
  8
0
100
AcDbLine
 62
7
  6
CONTINUOUS
 10
32.0749999877
 20
30.3
 11
33.5749999877
 21
30.3
  0
LINE
  5
636
100
AcDbEntity
  8
0
100
AcDbLine
 62
7
  6
CONTINUOUS
 10
-31.9250000123
 20
30.3
 11
-33.4250000123
 21
30.3
  0
LINE
  5
637
100
AcDbEntity
  8
0
100
AcDbLine
 62
7
  6
CONTINUOUS
 10
0.9475517056
 20
28.0857509048
 11
0.843659372
 21
28.0999980369
  0
LINE
  5
638
100
AcDbEntity
  8
0
100
AcDbLine
 62
7
  6
CONTINUOUS
 10
0.9722482301
 20
29.6823057041
 11
0.8436971148
 21
29.6999921374
  0
LINE
  5
639
100
AcDbEntity
  8
0
100
AcDbLine
 62
7
  6
CONTINUOUS
 10
-0.8273126021
 20
30.5184007197
 11
-0.6937052248
 21
30.4999968733
  0
LINE
  5
63A
100
AcDbEntity
  8
0
100
AcDbLine
 62
7
  6
CONTINUOUS
 10
-0.8362150877
 20
28.9196477139
 11
-0.6937370535
 21
28.8999963754
  0
LWPOLYLINE
  5
63B
100
AcDbEntity
  8
0
100
AcDbPolyline
 62
253
  6
CONTINUOUS
 90
10
 70
0
 10
0.3105086309
 20
29.2598520205
 10
0.4065029122
 20
29.2432539505
 10
0.5010524831
 20
29.2266614469
 10
0.5938363341
 20
29.2100591739
 10
0.6845382891
 20
29.1934343693
 10
0.772705898
 20
29.1767997952
 10
0.8578421212
 20
29.1601784019
 10
0.9394655748
 20
29.1435936544
 10
1.0173401701
 20
29.1270220877
 10
1.0202081256
 20
29.1263787367
  0
LWPOLYLINE
  5
63C
100
AcDbEntity
  8
0
100
AcDbPolyline
 62
253
  6
CONTINUOUS
 90
9
 70
0
 10
0.237918654
 20
30.8722873177
 10
0.430172066
 20
30.8391233843
 10
0.5241372104
 20
30.8225619458
 10
0.6161886735
 20
30.8060042738
 10
0.70593144
 20
30.7894499298
 10
0.7929719886
 20
30.7728993523
 10
0.8769980701
 20
30.7563445799
 10
0.9576705733
 20
30.7397852842
 10
1.0200693666
 20
30.7263584891
  0
LWPOLYLINE
  5
63D
100
AcDbEntity
  8
0
100
AcDbPolyline
 62
253
  6
CONTINUOUS
 90
9
 70
0
 10
0.2779462911
 20
27.6654406802
 10
0.4695493741
 20
27.6322189275
 10
0.5629646463
 20
27.6156226748
 10
0.6542637956
 20
27.5990357831
 10
0.7430568461
 20
27.5824574941
 10
0.8289864116
 20
27.5658820943
 10
0.9117011603
 20
27.5493103664
 10
0.990874106
 20
27.5327415276
 10
1.0198847846
 20
27.5263591485
  0
LWPOLYLINE
  5
63E
100
AcDbEntity
  8
0
100
AcDbPolyline
 62
253
  6
CONTINUOUS
 90
10
 70
0
 10
-0.870092879
 20
29.4736373535
 10
-0.8056855284
 20
29.4597958047
 10
-0.7245456994
 20
29.4431632927
 10
-0.6399006751
 20
29.4265093755
 10
-0.55210688
 20
29.4098363505
 10
-0.4614572918
 20
29.3931341158
 10
-0.3683791881
 20
29.3764127734
 10
-0.27346646
 20
29.3597049268
 10
-0.1771917588
 20
29.3430197567
 10
0.3105086309
 20
29.2598520205
  0
LWPOLYLINE
  5
63F
100
AcDbEntity
  8
0
100
AcDbPolyline
 62
253
  6
CONTINUOUS
 90
11
 70
0
 10
-0.8701765054
 20
31.0736415491
 10
-0.8626844663
 20
31.0719668691
 10
-0.7843710903
 20
31.0553511275
 10
-0.7023454367
 20
31.0387272415
 10
-0.6169565601
 20
31.0220969112
 10
-0.5285638639
 20
31.0054562735
 10
-0.4375168172
 20
30.9887995746
 10
-0.3442286477
 20
30.9721325682
 10
-0.249161111
 20
30.9554686522
 10
-0.1527141859
 20
30.9388078104
 10
0.237918654
 20
30.8722873177
  0
LINE
  5
640
100
AcDbEntity
  8
0
100
AcDbLine
 62
7
  6
CONTINUOUS
 10
32.0749999877
 20
-19.5
 11
32.0749999877
 21
-22.0
  0
LINE
  5
641
100
AcDbEntity
  8
0
100
AcDbLine
 62
7
  6
CONTINUOUS
 10
32.0749999877
 20
-25.7
 11
32.0749999877
 21
-32.3
  0
LINE
  5
642
100
AcDbEntity
  8
0
100
AcDbLine
 62
7
  6
CONTINUOUS
 10
32.0749999877
 20
-36.0
 11
32.0749999877
 21
-42.0
  0
LINE
  5
643
100
AcDbEntity
  8
0
100
AcDbLine
 62
7
  6
CONTINUOUS
 10
32.0749999877
 20
23.7
 11
32.0749999877
 21
30.3
  0
LINE
  5
644
100
AcDbEntity
  8
0
100
AcDbLine
 62
7
  6
CONTINUOUS
 10
32.0749999877
 20
34.0
 11
32.0749999877
 21
42.0
  0
LINE
  5
645
100
AcDbEntity
  8
0
100
AcDbLine
 62
7
  6
CONTINUOUS
 10
33.5749999877
 20
43.5
 11
33.5749999877
 21
34.0
  0
LINE
  5
646
100
AcDbEntity
  8
0
100
AcDbLine
 62
7
  6
CONTINUOUS
 10
33.5749999877
 20
30.3
 11
33.5749999877
 21
23.7
  0
LINE
  5
647
100
AcDbEntity
  8
0
100
AcDbLine
 62
7
  6
CONTINUOUS
 10
33.5749999877
 20
-43.5
 11
33.5749999877
 21
-36.0
  0
LINE
  5
648
100
AcDbEntity
  8
0
100
AcDbLine
 62
7
  6
CONTINUOUS
 10
33.5749999877
 20
-19.5
 11
33.5749999877
 21
-22.0
  0
LINE
  5
649
100
AcDbEntity
  8
0
100
AcDbLine
 62
7
  6
CONTINUOUS
 10
33.5749999877
 20
-25.7
 11
33.5749999877
 21
-32.3
  0
LINE
  5
64A
100
AcDbEntity
  8
0
100
AcDbLine
 62
7
  6
CONTINUOUS
 10
7.8666660185
 20
-36.3191489577
 11
7.9499999877
 21
-36.2340425253
  0
LINE
  5
64B
100
AcDbEntity
  8
0
100
AcDbLine
 62
7
  6
CONTINUOUS
 10
8.1166660186
 20
-36.3617021441
 11
8.0333339568
 21
-36.446808517
  0
LINE
  5
64C
100
AcDbEntity
  8
0
100
AcDbLine
 62
7
  6
CONTINUOUS
 10
8.6583339568
 20
-36.7446808517
 11
8.7833339568
 21
-36.6170212627
  0
LINE
  5
64D
100
AcDbEntity
  8
0
100
AcDbLine
 62
7
  6
CONTINUOUS
 10
9.6583339568
 20
-35.8510638475
 11
9.7416660185
 21
-35.7659574747
  0
LINE
  5
64E
100
AcDbEntity
  8
0
100
AcDbLine
 62
7
  6
CONTINUOUS
 10
9.7416660186
 20
-35.9361702204
 11
9.6583339568
 21
-36.0212765932
  0
LINE
  5
64F
100
AcDbEntity
  8
0
100
AcDbLine
 62
7
  6
CONTINUOUS
 10
3.3666669722
 20
-35.8085106611
 11
3.4916669722
 21
-35.7234042883
  0
LINE
  5
650
100
AcDbEntity
  8
0
100
AcDbLine
 62
7
  6
CONTINUOUS
 10
2.4083330031
 20
-36.7021276653
 11
2.5333330031
 21
-36.6170212626
  0
LINE
  5
651
100
AcDbEntity
  8
0
100
AcDbLine
 62
7
  6
CONTINUOUS
 10
5.1166660186
 20
-35.8085106611
 11
5.2416660185
 21
-35.7234042883
  0
LINE
  5
652
100
AcDbEntity
  8
0
100
AcDbLine
 62
7
  6
CONTINUOUS
 10
4.1166660186
 20
-36.7872340381
 11
4.2416660186
 21
-36.7021276653
  0
LINE
  5
653
100
AcDbEntity
  8
0
100
AcDbLine
 62
7
  6
CONTINUOUS
 10
1.4916669722
 20
-35.1276595593
 11
1.6583330031
 21
-35.0425531864
  0
LINE
  5
654
100
AcDbEntity
  8
0
100
AcDbLine
 62
7
  6
CONTINUOUS
 10
3.6583330031
 20
-35.8510638475
 11
3.5749999877
 21
-35.893617034
  0
LINE
  5
655
100
AcDbEntity
  8
0
100
AcDbLine
 62
7
  6
CONTINUOUS
 10
2.6166669722
 20
-36.8723404258
 11
2.4499999877
 21
-36.9574468099
  0
LINE
  5
656
100
AcDbEntity
  8
0
100
AcDbLine
 62
7
  6
CONTINUOUS
 10
5.3249999877
 20
-35.893617034
 11
5.1583339568
 21
-35.9787234068
  0
LINE
  5
657
100
AcDbEntity
  8
0
100
AcDbLine
 62
7
  6
CONTINUOUS
 10
-6.1750000123
 20
-35.7234042883
 11
-6.0500000123
 21
-35.6808511019
  0
LWPOLYLINE
  5
658
100
AcDbEntity
  8
0
100
AcDbPolyline
 62
7
  6
CONTINUOUS
 90
35
 70
0
 10
-1.2297781231
 20
32.0216211259
 10
-1.2929385448
 20
32.0113059479
 10
-1.3548834597
 20
32.000854313
 10
-1.4153966621
 20
31.9902746519
 10
-1.4739667404
 20
31.9796309678
 10
-1.530521459
 20
31.9689135888
 10
-1.585026965
 20
31.9581072911
 10
-1.637168728
 20
31.947257943
 10
-1.686939632
 20
31.9363540232
 10
-1.7344150923
 20
31.9253642239
 10
-1.7795451789
 20
31.9142845617
 10
-1.8223866377
 20
31.903085689
 10
-1.8630748638
 20
31.8917131911
 10
-1.9018138719
 20
31.8800827284
 10
-1.9386529238
 20
31.8681453627
 10
-1.9738339131
 20
31.8557820195
 10
-2.0079609527
 20
31.8427131779
 10
-2.0411633031
 20
31.8287877199
 10
-2.0736021006
 20
31.8138142092
 10
-2.1059409034
 20
31.7972944928
 10
-2.1384770904
 20
31.7787777334
 10
-2.1709104044
 20
31.7580769197
 10
-2.202955176
 20
31.7350007231
 10
-2.234606872
 20
31.7091119689
 10
-2.2654644044
 20
31.6802093381
 10
-2.2946461205
 20
31.6486240049
 10
-2.3218007766
 20
31.6142741122
 10
-2.3466060099
 20
31.5770280516
 10
-2.3684297077
 20
31.5374937073
 10
-2.3870555024
 20
31.4958604156
 10
-2.4022654414
 20
31.4523165055
 10
-2.4136832757
 20
31.4077130951
 10
-2.4211791336
 20
31.3625713105
 10
-2.4247109548
 20
31.3170062232
 10
-2.4249927636
 20
31.2999805262
  0
LINE
  5
659
100
AcDbEntity
  8
0
100
AcDbLine
 62
7
  6
CONTINUOUS
 10
-1.1654198353
 20
32.0318228165
 11
-1.2297781231
 21
32.0216211259
  0
LINE
  5
65A
100
AcDbEntity
  8
0
100
AcDbLine
 62
7
  6
CONTINUOUS
 10
-1.1001614213
 20
32.0418881843
 11
-1.1654198353
 21
32.0318228165
  0
LINE
  5
65B
100
AcDbEntity
  8
0
100
AcDbLine
 62
7
  6
CONTINUOUS
 10
-0.9676301923
 20
32.061599123
 11
-1.1001614213
 21
32.0418881843
  0
LINE
  5
65C
100
AcDbEntity
  8
0
100
AcDbLine
 62
7
  6
CONTINUOUS
 10
-0.8327350553
 20
32.0808423528
 11
-0.9676301923
 21
32.061599123
  0
LINE
  5
65D
100
AcDbEntity
  8
0
100
AcDbLine
 62
7
  6
CONTINUOUS
 10
-0.6962789652
 20
32.0996582108
 11
-0.8327350553
 21
32.0808423528
  0
LINE
  5
65E
100
AcDbEntity
  8
0
100
AcDbLine
 62
7
  6
CONTINUOUS
 10
-0.490143212
 20
32.1271746585
 11
-0.6962789652
 21
32.0996582108
  0
LINE
  5
65F
100
AcDbEntity
  8
0
100
AcDbLine
 62
7
  6
CONTINUOUS
 10
-0.0799977471
 20
32.1800468
 11
-0.490143212
 21
32.1271746585
  0
LINE
  5
660
100
AcDbEntity
  8
0
100
AcDbLine
 62
7
  6
CONTINUOUS
 10
-0.0398783999
 20
31.1855753118
 11
0.2912292339
 21
31.2277596982
  0
LINE
  5
661
100
AcDbEntity
  8
0
100
AcDbLine
 62
7
  6
CONTINUOUS
 10
0.0767489629
 20
32.2
 11
-0.0799977471
 21
32.1800468
  0
LWPOLYLINE
  5
662
100
AcDbEntity
  8
0
100
AcDbPolyline
 62
253
  6
CONTINUOUS
 90
5
 70
0
 10
1.2985227151
 20
31.8302303929
 10
1.1724618231
 20
31.8157295742
 10
1.0428621629
 20
31.8012326682
 10
0.9102978953
 20
31.7867540196
 10
0.7750820623
 20
31.7722792837
  0
LWPOLYLINE
  5
663
100
AcDbEntity
  8
0
100
AcDbPolyline
 62
253
  6
CONTINUOUS
 90
24
 70
0
 10
-0.638706614
 20
31.6262740072
 10
-0.7745325815
 20
31.6117055527
 10
-0.9073700835
 20
31.597161674
 10
-1.0369918308
 20
31.582620004
 10
-1.1629299329
 20
31.5680841265
 10
-1.2847898397
 20
31.5535504576
 10
-1.4024592824
 20
31.5389858776
 10
-1.5157168445
 20
31.5243680113
 10
-1.6239809587
 20
31.5097192339
 10
-1.726618125
 20
31.4950735517
 10
-1.8232152292
 20
31.48043869
 10
-1.9134838735
 20
31.4658069235
 10
-1.9971026789
 20
31.451189082
 10
-2.0738246853
 20
31.4365897697
 10
-2.1434550065
 20
31.4220043823
 10
-2.2057847362
 20
31.4074299374
 10
-2.2605770437
 20
31.3928700405
 10
-2.3076524135
 20
31.378321086
 10
-2.3469479994
 20
31.3637692751
 10
-2.3783879911
 20
31.3492038646
 10
-2.4018441078
 20
31.3346355976
 10
-2.417205557
 20
31.3200829038
 10
-2.4244023018
 20
31.3055673886
 10
-2.4249927562
 20
31.3001235212
  0
LINE
  5
664
100
AcDbEntity
  8
0
100
AcDbLine
 62
253
  6
CONTINUOUS
 10
-0.3594915613
 20
31.6555173201
 11
-0.638706614
 21
31.6262740072
  0
LINE
  5
665
100
AcDbEntity
  8
0
100
AcDbLine
 62
253
  6
CONTINUOUS
 10
0.7750820623
 20
31.7722792837
 11
0.4971616151
 21
31.7432083333
  0
LWPOLYLINE
  5
666
100
AcDbEntity
  8
0
100
AcDbPolyline
 62
253
  6
CONTINUOUS
 90
3
 70
0
 10
0.4971616151
 20
31.7432083333
 10
0.0690560899
 20
31.6993943578
 10
-0.3594915613
 20
31.6555173201
  0
LWPOLYLINE
  5
667
100
AcDbEntity
  8
0
100
AcDbPolyline
 62
7
  6
CONTINUOUS
 90
12
 70
0
 10
0.0749999877
 20
32.2
 10
-0.0370662043
 20
32.1987466826
 10
-0.1474686438
 20
32.1948882899
 10
-0.2562073307
 20
32.1884248219
 10
-0.36503675
 20
32.1790946234
 10
-0.4722024167
 20
32.1671593495
 10
-0.5724408763
 20
32.1534039664
 10
-0.6632896527
 20
32.1382119195
 10
-0.747211222
 20
32.1211997634
 10
-0.826329558
 20
32.1020021272
 10
-0.9024788581
 20
32.0802633381
 10
-0.9509944469
 20
32.0639947468
  0
LINE
  5
668
100
AcDbEntity
  8
0
100
AcDbLine
 62
7
  6
CONTINUOUS
 10
-34.9250000123
 20
31.5
 11
-4.6902861963
 21
31.5
  0
LINE
  5
669
100
AcDbEntity
  8
0
100
AcDbLine
 62
7
  6
CONTINUOUS
 10
4.8402861716
 20
31.5
 11
35.0749999877
 21
31.5
  0
LINE
  5
66A
100
AcDbEntity
  8
0
100
AcDbLine
 62
7
  6
CONTINUOUS
 10
3.8998192858
 20
32.2
 11
-3.7498193104
 21
32.2
  0
LINE
  5
66B
100
AcDbEntity
  8
0
100
AcDbLine
 62
7
  6
CONTINUOUS
 10
-4.5423940872
 20
33.9325124059
 11
4.6923940626
 21
33.9325124059
  0
LINE
  5
66C
100
AcDbEntity
  8
0
100
AcDbLine
 62
7
  6
CONTINUOUS
 10
-33.4250000123
 20
34.0
 11
-31.9250000123
 21
34.0
  0
LINE
  5
66D
100
AcDbEntity
  8
0
100
AcDbLine
 62
7
  6
CONTINUOUS
 10
33.5749999877
 20
34.0
 11
32.0749999877
 21
34.0
  0
LINE
  5
66E
100
AcDbEntity
  8
0
100
AcDbLine
 62
7
  6
CONTINUOUS
 10
0.95866748
 20
31.2842046102
 11
0.8436827652
 21
31.2999939866
  0
LINE
  5
66F
100
AcDbEntity
  8
0
100
AcDbLine
 62
7
  6
CONTINUOUS
 10
35.0749999877
 20
-44.5
 11
35.0749999877
 21
44.5
  0
LINE
  5
670
100
AcDbEntity
  8
0
100
AcDbLine
 62
7
  6
CONTINUOUS
 10
9.7416660185
 20
-35.7659574747
 11
9.8666660186
 21
-35.6808511019
  0
LINE
  5
671
100
AcDbEntity
  8
0
100
AcDbLine
 62
7
  6
CONTINUOUS
 10
9.8666660186
 20
-35.8510638475
 11
9.7416660186
 21
-35.9361702204
  0
LINE
  5
672
100
AcDbEntity
  8
0
100
AcDbLine
 62
7
  6
CONTINUOUS
 10
8.7833339568
 20
-36.8723404259
 11
8.6583339568
 21
-36.9574468099
  0
LINE
  5
673
100
AcDbEntity
  8
0
100
AcDbLine
 62
7
  6
CONTINUOUS
 10
4.3249999877
 20
-36.8723404259
 11
4.1583339568
 21
-36.9574468099
  0
LINE
  5
674
100
AcDbEntity
  8
0
100
AcDbLine
 62
7
  6
CONTINUOUS
 10
6.9499999877
 20
-35.8085106611
 11
6.8666660186
 21
-35.8510638475
  0
LINE
  5
675
100
AcDbEntity
  8
0
100
AcDbLine
 62
7
  6
CONTINUOUS
 10
7.9083339568
 20
-35.7234042883
 11
7.9916660186
 21
-35.6808511019
  0
LINE
  5
676
100
AcDbEntity
  8
0
100
AcDbLine
 62
7
  6
CONTINUOUS
 10
8.1166660186
 20
-35.8510638475
 11
8.0333339568
 21
-35.893617034
  0
LINE
  5
677
100
AcDbEntity
  8
0
100
AcDbLine
 62
7
  6
CONTINUOUS
 10
7.9499999877
 20
-36.2340425253
 11
8.1166660186
 21
-36.1489361525
  0
LINE
  5
678
100
AcDbEntity
  8
0
100
AcDbLine
 62
7
  6
CONTINUOUS
 10
8.1999999877
 20
-36.3191489577
 11
8.1166660186
 21
-36.3617021441
  0
LINE
  5
679
100
AcDbEntity
  8
0
100
AcDbLine
 62
7
  6
CONTINUOUS
 10
8.4499999877
 20
-36.8297872394
 11
8.6583339568
 21
-36.7446808517
  0
LINE
  5
67A
100
AcDbEntity
  8
0
100
AcDbLine
 62
7
  6
CONTINUOUS
 10
3.4916669722
 20
-35.7234042883
 11
3.6166669723
 21
-35.6808511019
  0
LINE
  5
67B
100
AcDbEntity
  8
0
100
AcDbLine
 62
7
  6
CONTINUOUS
 10
5.2416660185
 20
-35.7234042883
 11
5.3666660186
 21
-35.6808511019
  0
LINE
  5
67C
100
AcDbEntity
  8
0
100
AcDbLine
 62
7
  6
CONTINUOUS
 10
6.1999999877
 20
-35.6808511019
 11
6.3249999877
 21
-35.6382979155
  0
LINE
  5
67D
100
AcDbEntity
  8
0
100
AcDbLine
 62
7
  6
CONTINUOUS
 10
6.3249999877
 20
-35.8085106611
 11
6.1999999877
 21
-35.8510638475
  0
LINE
  5
67E
100
AcDbEntity
  8
0
100
AcDbLine
 62
7
  6
CONTINUOUS
 10
6.8666660186
 20
-35.6808511019
 11
6.9916660185
 21
-35.6382979155
  0
LINE
  5
67F
100
AcDbEntity
  8
0
100
AcDbLine
 62
7
  6
CONTINUOUS
 10
-2.9250000123
 20
36.0
 11
3.0749999877
 21
36.0
  0
LINE
  5
680
100
AcDbEntity
  8
0
100
AcDbLine
 62
7
  6
CONTINUOUS
 10
-31.9250000123
 20
42.0
 11
-4.9250000123
 21
42.0
  0
LINE
  5
681
100
AcDbEntity
  8
0
100
AcDbLine
 62
7
  6
CONTINUOUS
 10
32.0749999877
 20
42.0
 11
5.0749999877
 21
42.0
  0
LINE
  5
682
100
AcDbEntity
  8
0
100
AcDbLine
 62
7
  6
CONTINUOUS
 10
-2.9250000123
 20
43.5
 11
3.0749999877
 21
43.5
  0
LINE
  5
683
100
AcDbEntity
  8
0
100
AcDbLine
 62
7
  6
CONTINUOUS
 10
5.0749999877
 20
43.5
 11
33.5749999877
 21
43.5
  0
LINE
  5
684
100
AcDbEntity
  8
0
100
AcDbLine
 62
7
  6
CONTINUOUS
 10
-4.9250000123
 20
43.5
 11
-33.4250000123
 21
43.5
  0
LINE
  5
685
100
AcDbEntity
  8
0
100
AcDbLine
 62
7
  6
CONTINUOUS
 10
-34.4250000123
 20
45.0
 11
34.5749999877
 21
45.0
  0
ARC
  5
686
100
AcDbEntity
  8
0
100
AcDbCircle
 62
7
  6
CONTINUOUS
 10
13.0749999877
 20
-29.395
 40
3.195
100
AcDbArc
 50
90.0
 51
270.0
  0
ARC
  5
687
100
AcDbEntity
  8
0
100
AcDbCircle
 62
7
  6
CONTINUOUS
 10
7.6249999877
 20
-29.395
 40
3.195
100
AcDbArc
 50
90.0
 51
270.0
  0
ARC
  5
688
100
AcDbEntity
  8
0
100
AcDbCircle
 62
7
  6
CONTINUOUS
 10
13.0749999877
 20
-29.395
 40
2.225
100
AcDbArc
 50
191.5428636527
 51
270.0
  0
ARC
  5
689
100
AcDbEntity
  8
0
100
AcDbCircle
 62
7
  6
CONTINUOUS
 10
13.0749999877
 20
-29.395
 40
2.225
100
AcDbArc
 50
90.0
 51
168.4571363473
  0
ARC
  5
68A
100
AcDbEntity
  8
0
100
AcDbCircle
 62
7
  6
CONTINUOUS
 10
7.6249999877
 20
-29.395
 40
2.225
100
AcDbArc
 50
90.0
 51
270.0
  0
ARC
  5
68B
100
AcDbEntity
  8
0
100
AcDbCircle
 62
7
  6
CONTINUOUS
 10
34.5749999877
 20
44.5
 40
0.5
100
AcDbArc
 50
0.0
 51
90.0
  0
ARC
  5
68C
100
AcDbEntity
  8
0
100
AcDbCircle
 62
7
  6
CONTINUOUS
 10
-34.4250000123
 20
44.5
 40
0.5
100
AcDbArc
 50
90.0
 51
180.0
  0
ARC
  5
68D
100
AcDbEntity
  8
0
100
AcDbCircle
 62
7
  6
CONTINUOUS
 10
-34.4250000123
 20
-44.5
 40
0.5
100
AcDbArc
 50
180.0
 51
270.0
  0
ARC
  5
68E
100
AcDbEntity
  8
0
100
AcDbCircle
 62
7
  6
CONTINUOUS
 10
34.5749999877
 20
-44.5
 40
0.5
100
AcDbArc
 50
270.0
 51
360.0
  0
ELLIPSE
  5
68F
100
AcDbEntity
  8
0
100
AcDbEllipse
 62
7
  6
CONTINUOUS
 10
1.9209140183
 20
16.7
 30
0.0
 11
-0.2110159295
 21
-0.0
 31
0.0
 40
0.9477957445
 41
1.5707963268
 42
3.1415926536
  0
ENDSEC
  0
SECTION
  2
OBJECTS
  0
DICTIONARY
  5
C
100
AcDbDictionary
280
0
281
1
  3
ACAD_GROUP
350
D
  3
ACAD_MLINESTYLE
350
17
  3
ACAD_LAYOUT
350
1A
  3
ACAD_PLOTSETTINGS
350
19
  3
ACAD_PLOTSTYLENAME
350
E
  0
DICTIONARY
  5
D
102
{ACAD_REACTORS
330
C
102
}
100
AcDbDictionary
280
0
281
1
  0
ACDBDICTIONARYWDFLT
  5
E
102
{ACAD_REACTORS
330
C
102
}
100
AcDbDictionary
281
1
  3
Normal
350
F
100
AcDbDictionaryWithDefault
340
F
  0
DICTIONARY
  5
17
102
{ACAD_REACTORS
330
C
102
}
100
AcDbDictionary
280
0
281
1
  3
Standard
350
18
  0
DICTIONARY
  5
19
102
{ACAD_REACTORS
330
C
102
}
100
AcDbDictionary
281
1
  0
DICTIONARY
  5
1A
102
{ACAD_REACTORS
330
C
102
}
100
AcDbDictionary
281
1
  3
Model
350
690
  3
Layout1
350
691
  0
ACDBPLACEHOLDER
  5
F
102
{ACAD_REACTORS
330
E
102
}
  0
MLINESTYLE
  5
18
102
{ACAD_REACTORS
330
17
102
}
100
AcDbMlineStyle
  2
STANDARD
 70
0
  3

 62
256
 51
90.0
 52
90.0
 71
2
 49
0.5
 62
256
  6
BYLAYER
 49
-0.5
 62
256
  6
BYLAYER
  0
LAYOUT
  5
690
102
{ACAD_REACTORS
330
1A
102
}
100
AcDbPlotSettings
  1

  2
none_device
  4
ISO_A4_(297.00_x_210.00_MM)
  6

 40
0.0
 41
0.0
 42
0.0
 43
0.0
 44
297.0
 45
210.0
 46
0.0
 47
0.0
 48
0.0
 49
0.0
140
0.0
141
0.0
142
1.0
143
1.0
 70
1024
 72
1
 73
0
 74
0
  7

 75
0
147
1.0
148
0.0
149
0.0
100
AcDbLayout
  1
Model
 70
0
 71
0
 10
0.0
 20
0.0
 11
297.0
 21
210.0
 12
0.0
 22
0.0
 32
0.0
 14
0.0
 24
0.0
 34
0.0
 15
0.0
 25
0.0
 35
0.0
146
0.0
 13
0.0
 23
0.0
 33
0.0
 16
1.0
 26
0.0
 36
0.0
 17
0.0
 27
1.0
 37
0.0
 76
0
330
211
345
0
346
0
  0
LAYOUT
  5
691
102
{ACAD_REACTORS
330
1A
102
}
100
AcDbPlotSettings
  1

  2
none_device
  4
ISO_A4_(297.00_x_210.00_MM)
  6

 40
0.0
 41
0.0
 42
0.0
 43
0.0
 44
297.0
 45
210.0
 46
0.0
 47
0.0
 48
0.0
 49
0.0
140
0.0
141
0.0
142
1.0
143
1.0
 70
0
 72
1
 73
0
 74
0
  7

 75
0
147
1.0
148
0.0
149
0.0
100
AcDbLayout
  1
Layout1
 70
0
 71
1
 10
0.0
 20
0.0
 11
297.0
 21
210.0
 12
0.0
 22
0.0
 32
0.0
 14
0.0
 24
0.0
 34
0.0
 15
0.0
 25
0.0
 35
0.0
146
0.0
 13
0.0
 23
0.0
 33
0.0
 16
1.0
 26
0.0
 36
0.0
 17
0.0
 27
1.0
 37
0.0
 76
0
330
212
345
0
346
0
  0
ENDSEC
  0
EOF
