  0
SECTION
  2
HEADER
  9
$ACADVER
  1
AC1024
  9
$DWGCODEPAGE
  3
ANSI_1252
  9
$EXTMAX
 10
297.0
 20
210.0
 30
0.0
  9
$EXTMIN
 10
0.0
 20
0.0
 30
0.0
  9
$LIMMIN
 10
0.0
 20
0.0
  9
$LIMMAX
 10
297.0
 20
210.0
  9
$VIEWCTR
 10
148.5
 20
105.0
  9
$VIEWSIZE
 40
210.0
  9
$CLAYER
  8
0
  9
$LTSCALE
 40
16.335
  9
$CELTYPE
  6
BYLAYER
  9
$DIMSCALE
 40
1.0
  9
$DIMASZ
 40
3.0
  9
$DIMEXO
 40
0.5
  9
$DIMDLI
 40
11.286
  9
$DIMEXE
 40
1.5
  9
$DIMCEN
 40
2.673
  9
$DIMLFAC
 40
1.0
  9
$DIMBLK
  1
_FILLED
  9
$DIMALT
 70
0
  9
$DIMALTF
 40
0.0393700787
  9
$DIMTXT
 40
3.0
  9
$DIMTOL
 70
1
  9
$DIMLIM
 70
0
  9
$DIMTFAC
 40
1.0
  9
$DIMTP
 40
0.01
  9
$DIMTM
 40
0.01
  9
$DIMGAP
 40
0.625
  9
$DIMDSEP
 70
44
  9
$AUNITS
 70
0
  9
$PDMODE
 70
3
  9
$PDSIZE
 40
3.0
  9
$HANDSEED
  5
444
  9
$TILEMODE
 70
1
  9
$MEASUREMENT
 70
1
  9
$INSUNITS
 70
4
  0
ENDSEC
  0
SECTION
  2
CLASSES
  0
CLASS
  1
ACDBDICTIONARYWDFLT
  2
AcDbDictionaryWithDefault
  3
AutoCAD 2000
 90
0
 91
1
280
0
281
0
  0
CLASS
  1
ACDBPLACEHOLDER
  2
AcDbPlaceHolder
  3
AutoCAD 2000
 90
0
 91
1
280
0
281
0
  0
CLASS
  1
LAYOUT
  2
AcDbLayout
  3
AutoCAD 2000
 90
0
 91
0
280
0
281
0
  0
ENDSEC
  0
SECTION
  2
TABLES
  0
TABLE
  2
VPORT
  5
8
100
AcDbSymbolTable
 70
2
  0
VPORT
  5
1F4
100
AcDbSymbolTableRecord
100
AcDbViewportTableRecord
  2
*ACTIVE
 70
0
 10
0.0
 20
0.0
 11
1.0
 21
1.0
 12
148.5
 22
105.0
 13
0.0
 23
0.0
 14
1.0
 24
1.0
 15
0.0
 25
0.0
 16
0.0
 26
0.0
 36
1.0
 17
0.0
 27
0.0
 37
0.0
 40
210.0
 41
1.4142857143
 42
50.0
 43
0.0
 44
0.0
 50
0.0
 51
0.0
 71
0
 72
100
 73
1
 74
1
 75
0
 76
0
 77
0
 78
0
  0
ENDTAB
  0
TABLE
  2
LTYPE
  5
5
100
AcDbSymbolTable
 70
6
  0
LTYPE
  5
14
100
AcDbSymbolTableRecord
100
AcDbLinetypeTableRecord
  2
BYBLOCK
 70
0
  3

 72
65
 73
0
 40
0.0
  0
LTYPE
  5
15
100
AcDbSymbolTableRecord
100
AcDbLinetypeTableRecord
  2
BYLAYER
 70
0
  3

 72
65
 73
0
 40
0.0
  0
LTYPE
  5
16
100
AcDbSymbolTableRecord
100
AcDbLinetypeTableRecord
  2
CONTINUOUS
 70
64
  3
Solid line
 72
65
 73
0
 40
0.0
  0
LTYPE
  5
1F5
100
AcDbSymbolTableRecord
100
AcDbLinetypeTableRecord
  2
CENTER
 70
64
  3
____ _ ____ _ ____ _ ____ _ ____ _ ____ _ ____
 72
65
 73
4
 40
0.6
 49
0.375
 74
0
 49
-0.075
 74
0
 49
0.075
 74
0
 49
-0.075
 74
0
  0
LTYPE
  5
1F6
100
AcDbSymbolTableRecord
100
AcDbLinetypeTableRecord
  2
HIDDEN
 70
64
  3
- - - - - - - - - - - - - - - - - - - -
 72
65
 73
2
 40
0.2
 49
0.1
 74
0
 49
-0.1
 74
0
  0
LTYPE
  5
1F7
100
AcDbSymbolTableRecord
100
AcDbLinetypeTableRecord
  2
PHANTOM
 70
64
  3
_____ _ _ _____ _ _ _____ _ _ _____
 72
65
 73
6
 40
0.8
 49
0.45
 74
0
 49
-0.05
 74
0
 49
0.1
 74
0
 49
-0.05
 74
0
 49
0.1
 74
0
 49
-0.05
 74
0
  0
LTYPE
  5
1F8
100
AcDbSymbolTableRecord
100
AcDbLinetypeTableRecord
  2
DOT
 70
64
  3
. . . . . . . . . . . . . . . . . . . .
 72
65
 73
2
 40
0.2
 49
0.1
 74
0
 49
-0.1
 74
0
  0
LTYPE
  5
1F9
100
AcDbSymbolTableRecord
100
AcDbLinetypeTableRecord
  2
DASHED
 70
64
  3
- - - - - - - - - - - - - - - - - - - -
 72
65
 73
2
 40
0.2
 49
0.1
 74
0
 49
-0.1
 74
0
  0
ENDTAB
  0
TABLE
  2
LAYER
  5
2
100
AcDbSymbolTable
 70
36
  0
LAYER
  5
10
100
AcDbSymbolTableRecord
100
AcDbLayerTableRecord
  2
0
 70
0
 62
7
  6
CONTINUOUS
370
-3
390
F
  0
LAYER
  5
1FA
100
AcDbSymbolTableRecord
100
AcDbLayerTableRecord
  2
DEFAULT_1
 70
0
 62
7
  6
CENTER
370
-3
390
F
  0
LAYER
  5
1FB
100
AcDbSymbolTableRecord
100
AcDbLayerTableRecord
  2
DEFAULT_2
 70
0
 62
7
  6
HIDDEN
370
-3
390
F
  0
LAYER
  5
1FC
100
AcDbSymbolTableRecord
100
AcDbLayerTableRecord
  2
DEFAULT_3
 70
0
 62
7
  6
PHANTOM
370
-3
390
F
  0
LAYER
  5
1FD
100
AcDbSymbolTableRecord
100
AcDbLayerTableRecord
  2
ASSI
 70
0
 62
7
  6
CONTINUOUS
370
-3
390
F
  0
LAYER
  5
1FE
100
AcDbSymbolTableRecord
100
AcDbLayerTableRecord
  2
COORDINATE
 70
0
 62
7
  6
CONTINUOUS
370
-3
390
F
  0
LAYER
  5
1FF
100
AcDbSymbolTableRecord
100
AcDbLayerTableRecord
  2
COORD_ORIGINE
 70
0
 62
7
  6
CONTINUOUS
370
-3
390
F
  0
LAYER
  5
200
100
AcDbSymbolTableRecord
100
AcDbLayerTableRecord
  2
COPY_PUBLISH
 70
0
 62
7
  6
CONTINUOUS
370
-3
390
F
  0
LAYER
  5
201
100
AcDbSymbolTableRecord
100
AcDbLayerTableRecord
  2
COSMETICI
 70
0
 62
7
  6
CONTINUOUS
370
-3
390
F
  0
LAYER
  5
202
100
AcDbSymbolTableRecord
100
AcDbLayerTableRecord
  2
CURVE
 70
0
 62
7
  6
CONTINUOUS
370
-3
390
F
  0
LAYER
  5
203
100
AcDbSymbolTableRecord
100
AcDbLayerTableRecord
  2
DRAFT
 70
0
 62
7
  6
CONTINUOUS
370
-3
390
F
  0
LAYER
  5
204
100
AcDbSymbolTableRecord
100
AcDbLayerTableRecord
  2
IMPORT_IGES
 70
0
 62
7
  6
CONTINUOUS
370
-3
390
F
  0
LAYER
  5
205
100
AcDbSymbolTableRecord
100
AcDbLayerTableRecord
  2
INTFCLR_10
 70
0
 62
7
  6
CONTINUOUS
370
-3
390
F
  0
LAYER
  5
206
100
AcDbSymbolTableRecord
100
AcDbLayerTableRecord
  2
INTFCLR_3
 70
0
 62
7
  6
CONTINUOUS
370
-3
390
F
  0
LAYER
  5
207
100
AcDbSymbolTableRecord
100
AcDbLayerTableRecord
  2
INTFCLR_4
 70
0
 62
7
  6
CONTINUOUS
370
-3
390
F
  0
LAYER
  5
208
100
AcDbSymbolTableRecord
100
AcDbLayerTableRecord
  2
INTFCLR_5
 70
0
 62
7
  6
CONTINUOUS
370
-3
390
F
  0
LAYER
  5
209
100
AcDbSymbolTableRecord
100
AcDbLayerTableRecord
  2
INTFCLR_6
 70
0
 62
7
  6
CONTINUOUS
370
-3
390
F
  0
LAYER
  5
20A
100
AcDbSymbolTableRecord
100
AcDbLayerTableRecord
  2
INTFCLR_7
 70
0
 62
7
  6
CONTINUOUS
370
-3
390
F
  0
LAYER
  5
20B
100
AcDbSymbolTableRecord
100
AcDbLayerTableRecord
  2
INTFCLR_8
 70
0
 62
7
  6
CONTINUOUS
370
-3
390
F
  0
LAYER
  5
20C
100
AcDbSymbolTableRecord
100
AcDbLayerTableRecord
  2
INTFCLR_9
 70
0
 62
7
  6
CONTINUOUS
370
-3
390
F
  0
LAYER
  5
20D
100
AcDbSymbolTableRecord
100
AcDbLayerTableRecord
  2
LIVELLO_1
 70
0
 62
7
  6
CONTINUOUS
370
-3
390
F
  0
LAYER
  5
20E
100
AcDbSymbolTableRecord
100
AcDbLayerTableRecord
  2
LIVELLO_2
 70
0
 62
7
  6
CONTINUOUS
370
-3
390
F
  0
LAYER
  5
20F
100
AcDbSymbolTableRecord
100
AcDbLayerTableRecord
  2
NONE
 70
0
 62
7
  6
CONTINUOUS
370
-3
390
F
  0
LAYER
  5
210
100
AcDbSymbolTableRecord
100
AcDbLayerTableRecord
  2
NOTE
 70
0
 62
7
  6
CONTINUOUS
370
-3
390
F
  0
LAYER
  5
211
100
AcDbSymbolTableRecord
100
AcDbLayerTableRecord
  2
PIANI
 70
0
 62
7
  6
CONTINUOUS
370
-3
390
F
  0
LAYER
  5
212
100
AcDbSymbolTableRecord
100
AcDbLayerTableRecord
  2
PIANI_ORIGINE
 70
0
 62
7
  6
CONTINUOUS
370
-3
390
F
  0
LAYER
  5
213
100
AcDbSymbolTableRecord
100
AcDbLayerTableRecord
  2
PUNTI
 70
0
 62
7
  6
CONTINUOUS
370
-3
390
F
  0
LAYER
  5
214
100
AcDbSymbolTableRecord
100
AcDbLayerTableRecord
  2
RACCORDO
 70
0
 62
7
  6
CONTINUOUS
370
-3
390
F
  0
LAYER
  5
215
100
AcDbSymbolTableRecord
100
AcDbLayerTableRecord
  2
SIMBOLI
 70
0
 62
7
  6
CONTINUOUS
370
-3
390
F
  0
LAYER
  5
216
100
AcDbSymbolTableRecord
100
AcDbLayerTableRecord
  2
SMUSSO
 70
0
 62
7
  6
CONTINUOUS
370
-3
390
F
  0
LAYER
  5
217
100
AcDbSymbolTableRecord
100
AcDbLayerTableRecord
  2
SNAPLINE
 70
0
 62
7
  6
CONTINUOUS
370
-3
390
F
  0
LAYER
  5
218
100
AcDbSymbolTableRecord
100
AcDbLayerTableRecord
  2
SUPERFICI
 70
0
 62
7
  6
CONTINUOUS
370
-3
390
F
  0
LAYER
  5
219
100
AcDbSymbolTableRecord
100
AcDbLayerTableRecord
  2
TRASH
 70
0
 62
7
  6
CONTINUOUS
370
-3
390
F
  0
LAYER
  5
21A
100
AcDbSymbolTableRecord
100
AcDbLayerTableRecord
  2
WHITE
 70
0
 62
7
  6
CONTINUOUS
370
-3
390
F
  0
ENDTAB
  0
TABLE
  2
STYLE
  5
3
100
AcDbSymbolTable
 70
1
  0
STYLE
  5
11
100
AcDbSymbolTableRecord
100
AcDbTextStyleTableRecord
  2
STANDARD
 70
0
 40
0.0
 41
0.8
 50
0.0
 71
0
 42
0.2
  3
txt
  4

  0
STYLE
  5
21B
100
AcDbSymbolTableRecord
100
AcDbTextStyleTableRecord
  2
TEXTSTYLE_1
 70
0
 40
0.0
 41
0.8
 50
0.0
 71
0
 42
0.2
  3
gdt
  4

  0
ENDTAB
  0
TABLE
  2
VIEW
  5
6
100
AcDbSymbolTable
 70
0
  0
ENDTAB
  0
TABLE
  2
UCS
  5
7
100
AcDbSymbolTable
 70
0
  0
ENDTAB
  0
TABLE
  2
APPID
  5
9
100
AcDbSymbolTable
 70
1
  0
APPID
  5
21C
100
AcDbSymbolTableRecord
100
AcDbRegAppTableRecord
  2
ACAD
 70
0
  0
ENDTAB
  0
TABLE
  2
BLOCK_RECORD
  5
1
100
AcDbSymbolTable
 70
0
  0
BLOCK_RECORD
  5
21D
100
AcDbSymbolTableRecord
100
AcDbBlockTableRecord
  2
*Model_Space
  0
BLOCK_RECORD
  5
21E
100
AcDbSymbolTableRecord
100
AcDbBlockTableRecord
  2
*Paper_Space
  0
BLOCK_RECORD
  5
21F
100
AcDbSymbolTableRecord
100
AcDbBlockTableRecord
  2
_FILLED
  0
ENDTAB
  0
TABLE
  2
DIMSTYLE
  5
A
100
AcDbSymbolTable
 70
1
100
AcDbDimStyleTable
 71
0
  0
DIMSTYLE
105
220
100
AcDbSymbolTableRecord
100
AcDbDimStyleTableRecord
  2
STANDARD
 70
0
  3

  4

 40
1.0
 41
3.0
 42
0.5
 43
0.38
 44
1.5
 45
0.0
 46
0.0
 47
0.01
 48
0.01
140
3.0
141
0.09
142
0.0
143
25.4
144
1.0
145
0.0
146
1.0
147
0.625
 71
1
 72
0
 73
0
 74
0
 75
0
 76
0
 77
1
 78
8
 79
2
170
0
171
1
172
0
173
0
174
0
175
0
176
0
177
0
178
0
270
2
179
2
271
2
272
2
273
2
274
2
275
0
280
0
281
0
282
0
283
1
284
8
285
0
286
0
287
3
288
0
340
11
278
44
341
21F
342
21F
343
21F
344
21F
  0
ENDTAB
  0
ENDSEC
  0
SECTION
  2
BLOCKS
  0
BLOCK
  5
20
100
AcDbEntity
  8
0
100
AcDbBlockBegin
  2
*Model_Space
 70
0
 10
0.0
 20
0.0
 30
0.0
  3
*Model_Space
  1

  0
ENDBLK
  5
21
100
AcDbEntity
  8
0
100
AcDbBlockEnd
  0
BLOCK
  5
1C
100
AcDbEntity
  8
0
100
AcDbBlockBegin
  2
*Paper_Space
 70
0
 10
0.0
 20
0.0
 30
0.0
  3
*Paper_Space
  1

  0
ENDBLK
  5
1D
100
AcDbEntity
  8
0
100
AcDbBlockEnd
  0
BLOCK
  5
221
100
AcDbEntity
  8
0
100
AcDbBlockBegin
  2
_FILLED
 70
64
 10
0.0
 20
0.0
  3
_FILLED
  1

  0
SOLID
  5
222
100
AcDbEntity
  8
0
  6
BYBLOCK
 62
0
100
AcDbTrace
 10
0.0
 20
0.0
 11
-1.0
 21
0.3166666667
 12
-1.0
 22
-0.3166666667
 13
-1.0
 23
-0.3166666667
  0
ENDBLK
  5
223
100
AcDbEntity
  8
0
  6
BYBLOCK
 62
0
100
AcDbBlockEnd
  0
ENDSEC
  0
SECTION
  2
ENTITIES
  0
LINE
  5
224
100
AcDbEntity
  8
IMPORT_IGES
100
AcDbLine
 62
7
  6
CONTINUOUS
 10
-24.7385694962
 20
68.9064559117
 11
-24.7235024683
 21
68.9215229395
  0
LINE
  5
225
100
AcDbEntity
  8
IMPORT_IGES
100
AcDbLine
 62
7
  6
CONTINUOUS
 10
-8.093827898
 20
86.5562435467
 11
-8.0911694467
 21
86.5587741929
  0
LINE
  5
226
100
AcDbEntity
  8
IMPORT_IGES
100
AcDbLine
 62
7
  6
CONTINUOUS
 10
-4.2265780802
 20
83.1322098394
 11
-4.2233202397
 21
83.134864203
  0
LINE
  5
227
100
AcDbEntity
  8
IMPORT_IGES
100
AcDbLine
 62
7
  6
CONTINUOUS
 10
-8.093827898
 20
79.7099946875
 11
-8.0911694467
 21
79.7128326039
  0
LINE
  5
228
100
AcDbEntity
  8
IMPORT_IGES
100
AcDbLine
 62
250
  6
CONTINUOUS
 10
10.6496936013
 20
96.0961884906
 11
10.7142863786
 21
96.1607812679
  0
LINE
  5
229
100
AcDbEntity
  8
IMPORT_IGES
100
AcDbLine
 62
250
  6
CONTINUOUS
 10
11.2142673401
 20
95.6608003064
 11
11.1496745628
 21
95.5962075291
  0
LINE
  5
22A
100
AcDbEntity
  8
IMPORT_IGES
100
AcDbLine
 62
7
  6
CONTINUOUS
 10
-1.9985898027
 20
83.1322098394
 11
-1.9959313515
 21
83.134864203
  0
LINE
  5
22B
100
AcDbEntity
  8
IMPORT_IGES
100
AcDbLine
 62
7
  6
CONTINUOUS
 10
-1.2366850408
 20
86.5562435467
 11
-1.2340265896
 21
86.5587741929
  0
LINE
  5
22C
100
AcDbEntity
  8
IMPORT_IGES
100
AcDbLine
 62
7
  6
CONTINUOUS
 10
-1.2366850408
 20
79.7099946875
 11
-1.2340265896
 21
79.7128326039
  0
LINE
  5
22D
100
AcDbEntity
  8
IMPORT_IGES
100
AcDbLine
 62
7
  6
CONTINUOUS
 10
7.6039583549
 20
68.9640971821
 11
7.5182498569
 21
68.9212461968
  0
LWPOLYLINE
  5
22E
100
AcDbEntity
  8
IMPORT_IGES
100
AcDbPolyline
 62
250
  6
CONTINUOUS
 90
19
 70
0
 10
-24.7211398826
 20
95.5962075291
 10
-24.7188795584
 20
95.6037446779
 10
-24.7128651484
 20
95.6112216337
 10
-24.7031469709
 20
95.6185821117
 10
-24.6898044232
 20
95.6257702253
 10
-24.6729420344
 20
95.6327327522
 10
-24.652685638
 20
95.6394193232
 10
-24.6291889538
 20
95.6457799443
 10
-24.6026307023
 20
95.6517668805
 10
-24.5732058992
 20
95.6573364487
 10
-24.5411355225
 20
95.6624467839
 10
-24.5066604406
 20
95.6670594694
 10
-24.4700320334
 20
95.6711405914
 10
-24.4315250566
 20
95.6746590611
 10
-24.3914273414
 20
95.6775881262
 10
-24.3500289488
 20
95.6799058747
 10
-24.3076364116
 20
95.681594095
 10
-24.2645716448
 20
95.6826389411
 10
-24.221158921
 20
95.6830316179
  0
LINE
  5
22F
100
AcDbEntity
  8
IMPORT_IGES
100
AcDbLine
 62
250
  6
CONTINUOUS
 10
-24.7082622254
 20
66.4306640837
 11
-24.680099482
 21
66.486750233
  0
LINE
  5
230
100
AcDbEntity
  8
IMPORT_IGES
100
AcDbLine
 62
250
  6
CONTINUOUS
 10
-24.1844811236
 20
65.986845421
 11
-24.2054197453
 21
65.945146122
  0
LINE
  5
231
100
AcDbEntity
  8
IMPORT_IGES
100
AcDbLine
 62
250
  6
CONTINUOUS
 10
7.5488902073
 20
66.4076067755
 11
7.6056921241
 21
66.464906558
  0
LINE
  5
232
100
AcDbEntity
  8
IMPORT_IGES
100
AcDbLine
 62
250
  6
CONTINUOUS
 10
8.1099785749
 20
65.965001746
 11
8.067996483
 21
65.9226516834
  0
LINE
  5
233
100
AcDbEntity
  8
IMPORT_IGES
100
AcDbLine
 62
7
  6
CONTINUOUS
 10
-21.7857326599
 20
33.4107812679
 11
-21.8033698269
 21
33.393144101
  0
LINE
  5
234
100
AcDbEntity
  8
IMPORT_IGES
100
AcDbLine
 62
7
  6
CONTINUOUS
 10
-21.7857326599
 20
31.4107812679
 11
-21.824388984
 21
31.3721249438
  0
LWPOLYLINE
  5
235
100
AcDbEntity
  8
IMPORT_IGES
100
AcDbPolyline
 62
7
  6
CONTINUOUS
 90
40
 70
0
 10
-21.1203555271
 20
66.4076067755
 10
-21.1225596671
 20
66.3773348163
 10
-21.126140592
 20
66.3483255178
 10
-21.1310983017
 20
66.32057888
 10
-21.1375725751
 20
66.2941362335
 10
-21.1454236333
 20
66.2689562477
 10
-21.15423214
 20
66.2449149307
 10
-21.1639498749
 20
66.2220111624
 10
-21.1746250583
 20
66.2002460629
 10
-21.1859830138
 20
66.1794990005
 10
-21.1979962322
 20
66.15976207
 10
-21.2106922228
 20
66.1410431765
 10
-21.223878837
 20
66.1232454038
 10
-21.237540691
 20
66.1063616715
 10
-21.2516931686
 20
66.0903990599
 10
-21.2661902732
 20
66.0752818946
 10
-21.2810246772
 20
66.0610045655
 10
-21.2962037081
 20
66.0475726826
 10
-21.3116033516
 20
66.0349274012
 10
-21.3272203818
 20
66.0230660376
 10
-21.3430580246
 20
66.0119912755
 10
-21.3590019436
 20
66.0016523221
 10
-21.3750525711
 20
65.9920484597
 10
-21.3912094748
 20
65.9831804059
 10
-21.4073570212
 20
65.9749995203
 10
-21.4234964751
 20
65.9675079509
 10
-21.4396265717
 20
65.9607035497
 10
-21.4556278833
 20
65.9545312312
 10
-21.4714746949
 20
65.9489997854
 10
-21.4871927215
 20
65.9441004223
 10
-21.50273968
 20
65.9397516869
 10
-21.5181038293
 20
65.9359510169
 10
-21.5332969106
 20
65.9327009746
 10
-21.5483118651
 20
65.9299277916
 10
-21.5631159586
 20
65.9276268247
 10
-21.5777419253
 20
65.9258027171
 10
-21.5922809083
 20
65.924395631
 10
-21.6067632887
 20
65.9233856205
 10
-21.6211586854
 20
65.9227926314
 10
-21.6354670985
 20
65.9226166638
  0
LWPOLYLINE
  5
236
100
AcDbEntity
  8
IMPORT_IGES
100
AcDbPolyline
 62
7
  6
CONTINUOUS
 90
23
 70
0
 10
7.705914683
 20
69.1579071005
 10
7.71657405
 20
69.1765328244
 10
7.7272297891
 20
69.1956778105
 10
7.7378560703
 20
69.2152609412
 10
7.747942054
 20
69.2348314375
 10
7.7573879281
 20
69.2541791599
 10
7.7662935046
 20
69.2733610832
 10
7.77444738
 20
69.2923041835
 10
7.7817942891
 20
69.310895249
 10
7.788389497
 20
69.3291354283
 10
7.794187396
 20
69.3471368549
 10
7.7991708122
 20
69.3648483493
 10
7.8033569193
 20
69.3822495046
 10
7.8067516307
 20
69.3995133448
 10
7.8093531135
 20
69.4166377203
 10
7.8111632005
 20
69.4335770932
 10
7.812193303
 20
69.4504469821
 10
7.8124392769
 20
69.467217735
 10
7.8119052662
 20
69.4838802932
 10
7.8106151138
 20
69.5005828206
 10
7.8085767673
 20
69.5173615792
 10
7.805782279
 20
69.5341413725
 10
7.802231649
 20
69.5509022325
  0
LINE
  5
237
100
AcDbEntity
  8
IMPORT_IGES
100
AcDbLine
 62
7
  6
CONTINUOUS
 10
7.6415614953
 20
69.0505763893
 11
7.6569428241
 21
69.0762910317
  0
LWPOLYLINE
  5
238
100
AcDbEntity
  8
IMPORT_IGES
100
AcDbPolyline
 62
7
  6
CONTINUOUS
 90
4
 70
0
 10
7.6569428241
 20
69.0762910317
 10
7.6751182564
 20
69.1062178035
 10
7.6849409249
 20
69.1225789072
 10
7.705914683
 20
69.1579071005
  0
LINE
  5
239
100
AcDbEntity
  8
IMPORT_IGES
100
AcDbLine
 62
7
  6
CONTINUOUS
 10
-12.9398773179
 20
25.7992698354
 11
-12.9403254016
 21
25.7988116542
  0
LINE
  5
23A
100
AcDbEntity
  8
IMPORT_IGES
100
AcDbLine
 62
250
  6
CONTINUOUS
 10
-13.4398582794
 20
31.35663661
 11
-13.3857136214
 21
31.4107812679
  0
LINE
  5
23B
100
AcDbEntity
  8
IMPORT_IGES
100
AcDbLine
 62
250
  6
CONTINUOUS
 10
-12.8857326599
 20
30.9108003064
 11
-12.9398773179
 21
30.8566556484
  0
LINE
  5
23C
100
AcDbEntity
  8
IMPORT_IGES
100
AcDbLine
 62
250
  6
CONTINUOUS
 10
-10.7857326599
 20
32.2599036584
 11
-10.7770057921
 21
32.2686305262
  0
LINE
  5
23D
100
AcDbEntity
  8
IMPORT_IGES
100
AcDbLine
 62
250
  6
CONTINUOUS
 10
-10.485744083
 20
31.9599150815
 11
-10.4770172152
 21
31.9686419493
  0
LINE
  5
23E
100
AcDbEntity
  8
IMPORT_IGES
100
AcDbLine
 62
250
  6
CONTINUOUS
 10
-12.1564393282
 20
25.7992698354
 11
-12.1441836356
 21
25.8115255279
  0
LINE
  5
23F
100
AcDbEntity
  8
IMPORT_IGES
100
AcDbLine
 62
250
  6
CONTINUOUS
 10
-11.6442026741
 20
25.3115445664
 11
-11.6564583667
 21
25.2992888738
  0
LINE
  5
240
100
AcDbEntity
  8
IMPORT_IGES
100
AcDbLine
 62
7
  6
CONTINUOUS
 10
-12.9276216253
 20
25.8115255279
 11
-13.4131396565
 21
25.3258919844
  0
LINE
  5
241
100
AcDbEntity
  8
IMPORT_IGES
100
AcDbLine
 62
7
  6
CONTINUOUS
 10
-13.4131396565
 20
25.3258919844
 11
-13.4398582794
 21
25.2992888738
  0
LINE
  5
242
100
AcDbEntity
  8
IMPORT_IGES
100
AcDbLine
 62
250
  6
CONTINUOUS
 10
-10.8267489385
 20
27.4379405586
 11
-10.7857326599
 21
27.4570667634
  0
LINE
  5
243
100
AcDbEntity
  8
IMPORT_IGES
100
AcDbLine
 62
250
  6
CONTINUOUS
 10
-10.6785730233
 20
27.2272621811
 11
-10.7195893019
 21
27.2081359762
  0
LWPOLYLINE
  5
244
100
AcDbEntity
  8
IMPORT_IGES
100
AcDbPolyline
 62
250
  6
CONTINUOUS
 90
31
 70
0
 10
-24.680099482
 20
6.7663954074
 10
-24.6782419662
 20
6.7233752862
 10
-24.6729569221
 20
6.682223241
 10
-24.6646680467
 20
6.6431735553
 10
-24.6538157734
 20
6.606456871
 10
-24.6407989888
 20
6.5721253962
 10
-24.625926563
 20
6.540075315
 10
-24.6095397525
 20
6.5103453714
 10
-24.5919601409
 20
6.4829352491
 10
-24.5733707251
 20
6.4576638506
 10
-24.5540225937
 20
6.4344951136
 10
-24.5341541777
 20
6.4133788637
 10
-24.5138486405
 20
6.3941236696
 10
-24.4932749609
 20
6.3766577815
 10
-24.4726093522
 20
6.3609178962
 10
-24.451888164
 20
6.3467469203
 10
-24.4312281622
 20
6.3340663948
 10
-24.4107536222
 20
6.3228045714
 10
-24.3904749716
 20
6.3128354951
 10
-24.3704711727
 20
6.3040822814
 10
-24.3508291607
 20
6.2964734764
 10
-24.3315475338
 20
6.2899090735
 10
-24.3126763742
 20
6.2843169444
 10
-24.2942774381
 20
6.2796303305
 10
-24.2763518211
 20
6.2757703747
 10
-24.2589372384
 20
6.2726721603
 10
-24.2420690637
 20
6.2702720246
 10
-24.2257350547
 20
6.2685032157
 10
-24.2099455623
 20
6.2673071966
 10
-24.1947345138
 20
6.26662924
 10
-24.1801185204
 20
6.2664144459
  0
LWPOLYLINE
  5
245
100
AcDbEntity
  8
IMPORT_IGES
100
AcDbPolyline
 62
250
  6
CONTINUOUS
 90
77
 70
0
 10
-24.680099482
 20
66.486750233
 10
-24.6795491046
 20
66.4633752653
 10
-24.6779318584
 20
66.4403245337
 10
-24.6752891184
 20
66.4176446403
 10
-24.6716381863
 20
66.3952415126
 10
-24.667036393
 20
66.3732941471
 10
-24.6616418691
 20
66.3522418892
 10
-24.6555841165
 20
66.3322000954
 10
-24.6489336289
 20
66.3130785679
 10
-24.6418227362
 20
66.2949820998
 10
-24.6343808745
 20
66.2779726868
 10
-24.6266738485
 20
66.2619671334
 10
-24.6187319612
 20
66.2468454707
 10
-24.6106247093
 20
66.2325896454
 10
-24.6024210068
 20
66.2191850471
 10
-24.5941242454
 20
66.2065230127
 10
-24.5857813121
 20
66.1945800253
 10
-24.5774449243
 20
66.1833440156
 10
-24.5691084788
 20
66.1727304073
 10
-24.5608062035
 20
66.1627182618
 10
-24.5525765972
 20
66.1532938551
 10
-24.5444066702
 20
66.1443896014
 10
-24.5363213466
 20
66.135987035
 10
-24.5283491382
 20
66.1280728636
 10
-24.5204734629
 20
66.1205926282
 10
-24.512712354
 20
66.1135302036
 10
-24.5050872545
 20
66.1068736148
 10
-24.4975803333
 20
66.1005791695
 10
-24.4902047125
 20
66.0946330237
 10
-24.4829766307
 20
66.0890246225
 10
-24.475878403
 20
66.0837189578
 10
-24.4689199241
 20
66.0787044527
 10
-24.4621133001
 20
66.073971704
 10
-24.4554408938
 20
66.0694920612
 10
-24.4489098257
 20
66.0652556256
 10
-24.4425295196
 20
66.0612544409
 10
-24.4362834074
 20
66.0574653248
 10
-24.4301767867
 20
66.0538799636
 10
-24.4242168805
 20
66.0504915211
 10
-24.4183882652
 20
66.0472811146
 10
-24.412694992
 20
66.0442418136
 10
-24.4071425364
 20
66.0413677193
 10
-24.4017163207
 20
66.038643212
 10
-24.3964192113
 20
66.0360623974
 10
-24.3912556111
 20
66.0336203466
 10
-24.3862122846
 20
66.0313042994
 10
-24.38129157
 20
66.0291093964
 10
-24.3764967084
 20
66.0270313518
 10
-24.3718150946
 20
66.0250594343
 10
-24.3672479238
 20
66.0231893425
 10
-24.3627982828
 20
66.0214176928
 10
-24.3584558671
 20
66.0197360714
 10
-24.3542219908
 20
66.018141018
 10
-24.3500986695
 20
66.0166294493
 10
-24.3460762544
 20
66.0151942671
 10
-24.3421560342
 20
66.0138326441
 10
-24.3383393117
 20
66.012541848
 10
-24.3346161462
 20
66.0113155794
 10
-24.3309875892
 20
66.0101514815
 10
-24.3274545947
 20
66.0090472391
 10
-24.3240068191
 20
66.0079972136
 10
-24.3206433892
 20
66.0069989567
 10
-24.3173667129
 20
66.0060510639
 10
-24.3141711861
 20
66.0051499072
 10
-24.3110531485
 20
66.0042926194
 10
-24.3080174745
 20
66.0034787582
 10
-24.3050713045
 20
66.0027083991
 10
-24.3022187312
 20
66.0019807349
 10
-24.2994567586
 20
66.0012931873
 10
-24.2967818582
 20
66.0006431952
 10
-24.2941913224
 20
66.0000285383
 10
-24.2916887146
 20
65.9994485542
 10
-24.2892798733
 20
65.9989030732
 10
-24.2869719911
 20
65.9983921673
 10
-24.2847586284
 20
65.9979129193
 10
-24.2826251111
 20
65.9974608782
 10
-24.2786046571
 20
65.9966354055
  0
LINE
  5
246
100
AcDbEntity
  8
IMPORT_IGES
100
AcDbLine
 62
7
  6
CONTINUOUS
 10
-24.7082622254
 20
66.4306640837
 11
-24.7235024683
 21
67.4390784191
  0
LINE
  5
247
100
AcDbEntity
  8
IMPORT_IGES
100
AcDbLine
 62
7
  6
CONTINUOUS
 10
-23.6680954929
 20
33.393144101
 11
-23.6470763358
 21
31.3721249438
  0
LINE
  5
248
100
AcDbEntity
  8
IMPORT_IGES
100
AcDbLine
 62
7
  6
CONTINUOUS
 10
-24.680099482
 20
68.9255069504
 11
-24.7211398826
 21
95.5962075291
  0
LINE
  5
249
100
AcDbEntity
  8
IMPORT_IGES
100
AcDbLine
 62
7
  6
CONTINUOUS
 10
-24.8149770195
 20
84.6457419614
 11
-24.8149770195
 21
77.913068694
  0
LINE
  5
24A
100
AcDbEntity
  8
IMPORT_IGES
100
AcDbLine
 62
7
  6
CONTINUOUS
 10
-24.8149770195
 20
17.6160389911
 11
-24.8149770195
 21
24.3487122584
  0
LINE
  5
24B
100
AcDbEntity
  8
IMPORT_IGES
100
AcDbLine
 62
7
  6
CONTINUOUS
 10
-24.7857326599
 20
6.6607622295
 11
-24.7857326599
 21
95.6608003064
  0
LINE
  5
24C
100
AcDbEntity
  8
IMPORT_IGES
100
AcDbLine
 62
7
  6
CONTINUOUS
 10
-24.7385694962
 20
68.9064559117
 11
-24.7385694962
 21
30.9151256626
  0
LINE
  5
24D
100
AcDbEntity
  8
IMPORT_IGES
100
AcDbLine
 62
7
  6
CONTINUOUS
 10
-24.7235024683
 20
67.4390784191
 11
-24.7235024683
 21
68.9213845682
  0
LINE
  5
24E
100
AcDbEntity
  8
IMPORT_IGES
100
AcDbLine
 62
7
  6
CONTINUOUS
 10
-24.680099482
 20
68.9255069504
 11
-24.680099482
 21
66.486750233
  0
LINE
  5
24F
100
AcDbEntity
  8
IMPORT_IGES
100
AcDbLine
 62
7
  6
CONTINUOUS
 10
-24.680099482
 20
30.8566556484
 11
-24.680099482
 21
6.7663954074
  0
LINE
  5
250
100
AcDbEntity
  8
IMPORT_IGES
100
AcDbLine
 62
250
  6
CONTINUOUS
 10
-24.2385885346
 20
31.4107812679
 11
-24.2385885346
 21
65.945146122
  0
LINE
  5
251
100
AcDbEntity
  8
IMPORT_IGES
100
AcDbLine
 62
250
  6
CONTINUOUS
 10
-24.1800522301
 20
68.9692512821
 11
-24.221158921
 21
96.0961884906
  0
LINE
  5
252
100
AcDbEntity
  8
IMPORT_IGES
100
AcDbLine
 62
250
  6
CONTINUOUS
 10
-24.1801185204
 20
6.2664144459
 11
-24.1801185204
 21
31.35663661
  0
LINE
  5
253
100
AcDbEntity
  8
IMPORT_IGES
100
AcDbLine
 62
250
  6
CONTINUOUS
 10
-24.1801185204
 20
66.486750233
 11
-24.1801185204
 21
68.9692512821
  0
LINE
  5
254
100
AcDbEntity
  8
IMPORT_IGES
100
AcDbLine
 62
7
  6
CONTINUOUS
 10
-23.6857326599
 20
31.4107812679
 11
-23.6857326599
 21
33.4107812679
  0
LINE
  5
255
100
AcDbEntity
  8
IMPORT_IGES
100
AcDbLine
 62
7
  6
CONTINUOUS
 10
-21.7857326599
 20
33.4107812679
 11
-21.7857326599
 21
31.4107812679
  0
LINE
  5
256
100
AcDbEntity
  8
IMPORT_IGES
100
AcDbLine
 62
250
  6
CONTINUOUS
 10
-21.6770812914
 20
68.9692512821
 11
-21.6770812914
 21
66.464906558
  0
LINE
  5
257
100
AcDbEntity
  8
IMPORT_IGES
100
AcDbLine
 62
250
  6
CONTINUOUS
 10
-21.1771574439
 20
66.464906558
 11
-21.1771574439
 21
68.9749480887
  0
LINE
  5
258
100
AcDbEntity
  8
IMPORT_IGES
100
AcDbLine
 62
7
  6
CONTINUOUS
 10
-21.0897151766
 20
67.4207697291
 11
-21.0897151766
 21
68.9212461968
  0
LINE
  5
259
100
AcDbEntity
  8
0
100
AcDbLine
 62
7
  6
CONTINUOUS
 10
-20.9277326599
 20
3.7107812679
 11
-20.9277326599
 21
6.1607812679
  0
LINE
  5
25A
100
AcDbEntity
  8
IMPORT_IGES
100
AcDbLine
 62
250
  6
CONTINUOUS
 10
-24.1844811236
 20
65.986845421
 11
-24.1801185204
 21
66.486750233
  0
LINE
  5
25B
100
AcDbEntity
  8
IMPORT_IGES
100
AcDbLine
 62
250
  6
CONTINUOUS
 10
-21.6770812914
 20
66.464906558
 11
-21.6814438946
 21
65.965001746
  0
LINE
  5
25C
100
AcDbEntity
  8
IMPORT_IGES
100
AcDbLine
 62
7
  6
CONTINUOUS
 10
-21.824388984
 20
31.3721249438
 11
-21.8033698269
 21
33.393144101
  0
LINE
  5
25D
100
AcDbEntity
  8
IMPORT_IGES
100
AcDbLine
 62
7
  6
CONTINUOUS
 10
-21.0897151766
 20
67.4207697291
 11
-21.1203555271
 21
66.4076067755
  0
LWPOLYLINE
  5
25E
100
AcDbEntity
  8
IMPORT_IGES
100
AcDbPolyline
 62
7
  6
CONTINUOUS
 90
25
 70
0
 10
-4.2265780802
 20
83.1322098394
 10
-4.1864659579
 20
83.3011710342
 10
-4.1368791052
 20
83.4660650173
 10
-4.0778175221
 20
83.6268917888
 10
-4.009009533
 20
83.7841540834
 10
-3.9307268134
 20
83.9373491664
 10
-3.843784391
 20
84.084968833
 10
-3.7480838807
 20
84.2269542411
 10
-3.6437236674
 20
84.3633642329
 10
-3.5318139336
 20
84.4928671301
 10
-3.4122054009
 20
84.6154873805
 10
-3.2850473476
 20
84.7312005362
 10
-3.1518977905
 20
84.8386015751
 10
-3.0127915869
 20
84.937473765
 10
-2.8676938796
 20
85.028033838
 10
-2.7180581128
 20
85.1095269683
 10
-2.5637726167
 20
85.1819380193
 10
-2.4049490612
 20
85.2452821275
 10
-2.243375901
 20
85.2988498773
 10
-2.079022884
 20
85.3424776178
 10
-1.9119202622
 20
85.3763289999
 10
-1.743947246
 20
85.4001855603
 10
-1.5757302387
 20
85.413974478
 10
-1.406642837
 20
85.417768574
 10
-1.2366850408
 20
85.4115678483
  0
LWPOLYLINE
  5
25F
100
AcDbEntity
  8
IMPORT_IGES
100
AcDbPolyline
 62
7
  6
CONTINUOUS
 90
5
 70
0
 10
7.6191821348
 20
69.010615504
 10
7.6237400481
 20
69.0192727565
 10
7.6289709699
 20
69.0287734153
 10
7.6349038167
 20
69.0391931426
 10
7.6415614953
 20
69.0505763893
  0
LINE
  5
260
100
AcDbEntity
  8
IMPORT_IGES
100
AcDbLine
 62
250
  6
CONTINUOUS
 10
-7.7235493187
 20
22.8431348956
 11
-7.7499140744
 21
22.8117146033
  0
LINE
  5
261
100
AcDbEntity
  8
IMPORT_IGES
100
AcDbLine
 62
7
  6
CONTINUOUS
 10
-5.4752604185
 20
30.9793710442
 11
-5.4857326599
 21
30.9688988028
  0
LINE
  5
262
100
AcDbEntity
  8
IMPORT_IGES
100
AcDbLine
 62
250
  6
CONTINUOUS
 10
-3.0857212368
 20
31.9188988028
 11
-3.0447049582
 21
31.9599150815
  0
LINE
  5
263
100
AcDbEntity
  8
IMPORT_IGES
100
AcDbLine
 62
250
  6
CONTINUOUS
 10
-2.7447163813
 20
31.6599265045
 11
-2.7857326599
 21
31.6189102259
  0
LINE
  5
264
100
AcDbEntity
  8
IMPORT_IGES
100
AcDbLine
 62
7
  6
CONTINUOUS
 10
-8.0857326599
 20
25.7688988028
 11
-8.0962049012
 21
25.7584265615
  0
LINE
  5
265
100
AcDbEntity
  8
IMPORT_IGES
100
AcDbLine
 62
250
  6
CONTINUOUS
 10
-24.7857326599
 20
6.6607622295
 11
-24.680099482
 21
6.7663954074
  0
LINE
  5
266
100
AcDbEntity
  8
IMPORT_IGES
100
AcDbLine
 62
250
  6
CONTINUOUS
 10
-24.1801185204
 20
6.2664144459
 11
-24.2857516984
 21
6.1607812679
  0
LINE
  5
267
100
AcDbEntity
  8
IMPORT_IGES
100
AcDbLine
 62
7
  6
CONTINUOUS
 10
-6.0357326599
 20
23.9607812679
 11
-6.0640949802
 21
23.9324189476
  0
LINE
  5
268
100
AcDbEntity
  8
IMPORT_IGES
100
AcDbLine
 62
7
  6
CONTINUOUS
 10
-8.0857326599
 20
21.6688988028
 11
-8.0962049012
 21
21.6584265615
  0
LINE
  5
269
100
AcDbEntity
  8
IMPORT_IGES
100
AcDbLine
 62
7
  6
CONTINUOUS
 10
-10.5857326599
 20
17.3107812679
 11
-10.5962049012
 21
17.3003090266
  0
LINE
  5
26A
100
AcDbEntity
  8
IMPORT_IGES
100
AcDbLine
 62
7
  6
CONTINUOUS
 10
-7.9752604185
 20
19.5212535093
 11
-7.9857326599
 21
19.5107812679
  0
LINE
  5
26B
100
AcDbEntity
  8
IMPORT_IGES
100
AcDbLine
 62
250
  6
CONTINUOUS
 10
-13.4398582794
 20
31.35663661
 11
-13.4398582794
 21
25.2992888738
  0
LINE
  5
26C
100
AcDbEntity
  8
IMPORT_IGES
100
AcDbLine
 62
250
  6
CONTINUOUS
 10
-13.4398582794
 20
12.323762182
 11
-13.4398582794
 21
6.2664144459
  0
LINE
  5
26D
100
AcDbEntity
  8
IMPORT_IGES
100
AcDbLine
 62
7
  6
CONTINUOUS
 10
-12.9398773179
 20
6.7663954074
 11
-12.9398773179
 21
11.8237812205
  0
LINE
  5
26E
100
AcDbEntity
  8
IMPORT_IGES
100
AcDbLine
 62
7
  6
CONTINUOUS
 10
-12.9398773179
 20
25.7992698354
 11
-12.9398773179
 21
30.8566556484
  0
LINE
  5
26F
100
AcDbEntity
  8
IMPORT_IGES
100
AcDbLine
 62
7
  6
CONTINUOUS
 10
-12.8857326599
 20
30.9108003064
 11
-12.8857326599
 21
26.2314711128
  0
LINE
  5
270
100
AcDbEntity
  8
IMPORT_IGES
100
AcDbLine
 62
7
  6
CONTINUOUS
 10
-12.8857326599
 20
11.391579943
 11
-12.8857326599
 21
6.7079253932
  0
LINE
  5
271
100
AcDbEntity
  8
IMPORT_IGES
100
AcDbLine
 62
7
  6
CONTINUOUS
 10
-12.7857326599
 20
3.7107241525
 11
-12.7857326599
 21
11.8115255279
  0
LINE
  5
272
100
AcDbEntity
  8
IMPORT_IGES
100
AcDbLine
 62
7
  6
CONTINUOUS
 10
-12.7857326599
 20
25.8115255279
 11
-12.7857326599
 21
33.6145437381
  0
LINE
  5
273
100
AcDbEntity
  8
IMPORT_IGES
100
AcDbLine
 62
7
  6
CONTINUOUS
 10
-12.7447163813
 20
33.257998434
 11
-12.7447163813
 21
25.8115255279
  0
LINE
  5
274
100
AcDbEntity
  8
IMPORT_IGES
100
AcDbLine
 62
7
  6
CONTINUOUS
 10
-12.7447163813
 20
11.8115255279
 11
-12.7447163813
 21
3.7517404312
  0
LINE
  5
275
100
AcDbEntity
  8
IMPORT_IGES
100
AcDbLine
 62
7
  6
CONTINUOUS
 10
-12.774607791
 20
35.7085682007
 11
-12.7761331053
 21
33.7107812679
  0
LWPOLYLINE
  5
276
100
AcDbEntity
  8
IMPORT_IGES
100
AcDbPolyline
 62
7
  6
CONTINUOUS
 90
37
 70
0
 10
-12.8857513682
 20
6.7079253932
 10
-12.8861977135
 20
6.6903977414
 10
-12.887270952
 20
6.6728146394
 10
-12.8889710838
 20
6.6551983216
 10
-12.8912856926
 20
6.637596576
 10
-12.8942271947
 20
6.6200073437
 10
-12.8978328386
 20
6.6023801203
 10
-12.9020967119
 20
6.5847368308
 10
-12.907024727
 20
6.5671085568
 10
-12.9126718698
 20
6.549463176
 10
-12.9190331773
 20
6.5318317624
 10
-12.9261136123
 20
6.5142473953
 10
-12.9339830496
 20
6.4966876555
 10
-12.9426390685
 20
6.4791898441
 10
-12.9520840895
 20
6.4617965766
 10
-12.9623952486
 20
6.4445022339
 10
-12.9735734784
 20
6.4273536313
 10
-12.9856178464
 20
6.4104037293
 10
-12.9986026908
 20
6.3936666645
 10
-13.0125442216
 20
6.3771905474
 10
-13.0274262289
 20
6.3610510467
 10
-13.0432744211
 20
6.3453117318
 10
-13.0601025798
 20
6.3300399895
 10
-13.0778969234
 20
6.3153079138
 10
-13.0966418161
 20
6.3011897983
 10
-13.1163658519
 20
6.2877531142
 10
-13.1370404368
 20
6.2750830386
 10
-13.1585641532
 20
6.263277386
 10
-13.1809830162
 20
6.2523986268
 10
-13.2042510108
 20
6.2425337111
 10
-13.2281286741
 20
6.2337950558
 10
-13.2526225003
 20
6.2262412385
 10
-13.2777259952
 20
6.2199201797
 10
-13.3031802136
 20
6.2148960773
 10
-13.3288988406
 20
6.2112074791
 10
-13.3549681911
 20
6.2088806823
 10
-13.3813882652
 20
6.2079444317
  0
LWPOLYLINE
  5
277
100
AcDbEntity
  8
IMPORT_IGES
100
AcDbPolyline
 62
7
  6
CONTINUOUS
 90
13
 70
0
 10
-10.7857326599
 20
24.7157412794
 10
-10.7828082611
 20
24.7559581756
 10
-10.7751962029
 20
24.7942313
 10
-10.7628964851
 20
24.8305606523
 10
-10.7455424123
 20
24.8654945849
 10
-10.72350068
 20
24.8984847456
 10
-10.6978713748
 20
24.9278860775
 10
-10.6684725424
 20
24.9535165558
 10
-10.635486137
 20
24.9755582054
 10
-10.6005581077
 20
24.9929120443
 10
-10.5642371041
 20
25.005211745
 10
-10.5259744765
 20
25.0128236351
 10
-10.4857702249
 20
25.0157477143
  0
LINE
  5
278
100
AcDbEntity
  8
IMPORT_IGES
100
AcDbLine
 62
7
  6
CONTINUOUS
 10
-12.7761331053
 20
33.7107812679
 11
-12.7857326599
 21
33.6145437381
  0
LINE
  5
279
100
AcDbEntity
  8
IMPORT_IGES
100
AcDbLine
 62
7
  6
CONTINUOUS
 10
-12.8857326599
 20
26.2314711128
 11
-12.9276216253
 21
25.8115255279
  0
LINE
  5
27A
100
AcDbEntity
  8
IMPORT_IGES
100
AcDbLine
 62
7
  6
CONTINUOUS
 10
-6.8006613644
 20
23.9197649893
 11
-6.7960557003
 21
23.9324189476
  0
LINE
  5
27B
100
AcDbEntity
  8
IMPORT_IGES
100
AcDbLine
 62
250
  6
CONTINUOUS
 10
-3.0857212368
 20
22.4607812679
 11
-3.0447049582
 21
22.5017975466
  0
LINE
  5
27C
100
AcDbEntity
  8
IMPORT_IGES
100
AcDbLine
 62
250
  6
CONTINUOUS
 10
-2.7447163813
 20
22.2018089696
 11
-2.7857326599
 21
22.160792691
  0
LINE
  5
27D
100
AcDbEntity
  8
IMPORT_IGES
100
AcDbLine
 62
7
  6
CONTINUOUS
 10
10.1142673401
 20
33.4107812679
 11
10.0966301731
 21
33.393144101
  0
LINE
  5
27E
100
AcDbEntity
  8
IMPORT_IGES
100
AcDbLine
 62
7
  6
CONTINUOUS
 10
10.075611016
 20
31.3721249438
 11
10.1142673401
 21
31.4107812679
  0
LINE
  5
27F
100
AcDbEntity
  8
IMPORT_IGES
100
AcDbLine
 62
250
  6
CONTINUOUS
 10
10.6086532007
 20
31.35663661
 11
10.6627978586
 21
31.4107812679
  0
LINE
  5
280
100
AcDbEntity
  8
IMPORT_IGES
100
AcDbLine
 62
7
  6
CONTINUOUS
 10
-2.7447163813
 20
17.9734352262
 11
-2.7573703396
 21
17.9607812679
  0
LINE
  5
281
100
AcDbEntity
  8
IMPORT_IGES
100
AcDbLine
 62
250
  6
CONTINUOUS
 10
-3.0857212368
 20
17.4607812679
 11
-3.0573589165
 21
17.4891435883
  0
LINE
  5
282
100
AcDbEntity
  8
IMPORT_IGES
100
AcDbLine
 62
250
  6
CONTINUOUS
 10
-2.7573703396
 20
17.1891550113
 11
-2.7857326599
 21
17.160792691
  0
LINE
  5
283
100
AcDbEntity
  8
IMPORT_IGES
100
AcDbLine
 62
250
  6
CONTINUOUS
 10
11.1671041764
 20
30.9151256626
 11
11.1086341622
 21
30.8566556484
  0
LINE
  5
284
100
AcDbEntity
  8
IMPORT_IGES
100
AcDbLine
 62
7
  6
CONTINUOUS
 10
-10.5857326599
 20
8.2107812679
 11
-10.5962049012
 21
8.2003090266
  0
LINE
  5
285
100
AcDbEntity
  8
IMPORT_IGES
100
AcDbLine
 62
7
  6
CONTINUOUS
 10
-12.9276216253
 20
11.8115255279
 11
-12.8857326599
 21
11.391579943
  0
LWPOLYLINE
  5
286
100
AcDbEntity
  8
IMPORT_IGES
100
AcDbPolyline
 62
7
  6
CONTINUOUS
 90
13
 70
0
 10
-10.7857326599
 20
32.2599036584
 10
-10.7832988017
 20
32.2231021907
 10
-10.7768719619
 20
32.1878306994
 10
-10.7664521405
 20
32.1540891843
 10
-10.7517765963
 20
32.1214489356
 10
-10.7331080704
 20
32.0903386631
 10
-10.7112347862
 20
32.0620444967
 10
-10.6860644798
 20
32.0367543073
 10
-10.6576894151
 20
32.0142802238
 10
-10.6271746062
 20
31.9953447633
 10
-10.594875058
 20
31.9801887647
 10
-10.5604357657
 20
31.968571389
 10
-10.5238567293
 20
31.9604926363
  0
LWPOLYLINE
  5
287
100
AcDbEntity
  8
IMPORT_IGES
100
AcDbPolyline
 62
250
  6
CONTINUOUS
 90
31
 70
0
 10
-12.9398773179
 20
30.8566556484
 10
-12.9417348336
 20
30.8996757696
 10
-12.9470198777
 20
30.9408278149
 10
-12.9553087531
 20
30.9798775005
 10
-12.9661610264
 20
31.0165941848
 10
-12.9791778111
 20
31.0509256597
 10
-12.9940502368
 20
31.0829757408
 10
-13.0104370473
 20
31.1127056844
 10
-13.0280166589
 20
31.1401158068
 10
-13.0466060747
 20
31.1653872052
 10
-13.0659542061
 20
31.1885559423
 10
-13.0858226221
 20
31.2096721922
 10
-13.1061281593
 20
31.2289273862
 10
-13.1267018389
 20
31.2463932743
 10
-13.1473674476
 20
31.2621331597
 10
-13.1680886358
 20
31.2763041355
 10
-13.1887486376
 20
31.2889846611
 10
-13.2092231776
 20
31.3002464844
 10
-13.2295018282
 20
31.3102155607
 10
-13.2495056271
 20
31.3189687744
 10
-13.2691476391
 20
31.3265775794
 10
-13.2884292661
 20
31.3331419824
 10
-13.3073004256
 20
31.3387341115
 10
-13.3256993617
 20
31.3434207253
 10
-13.3436249787
 20
31.3472806812
 10
-13.3610395614
 20
31.3503788955
 10
-13.3779077361
 20
31.3527790313
 10
-13.3942417451
 20
31.3545478401
 10
-13.4100312375
 20
31.3557438593
 10
-13.425242286
 20
31.3564218159
 10
-13.4398582794
 20
31.35663661
  0
LWPOLYLINE
  5
288
100
AcDbEntity
  8
IMPORT_IGES
100
AcDbPolyline
 62
250
  6
CONTINUOUS
 90
31
 70
0
 10
-11.6564583667
 20
25.2992888738
 10
-11.6583158824
 20
25.342308995
 10
-11.6636009265
 20
25.3834610403
 10
-11.6718898019
 20
25.4225107259
 10
-11.6827420752
 20
25.4592274102
 10
-11.6957588599
 20
25.493558885
 10
-11.7106312856
 20
25.5256089662
 10
-11.7270180961
 20
25.5553389098
 10
-11.7445977077
 20
25.5827490322
 10
-11.7631871235
 20
25.6080204306
 10
-11.7825352549
 20
25.6311891676
 10
-11.8024036709
 20
25.6523054176
 10
-11.8227092081
 20
25.6715606116
 10
-11.8432828877
 20
25.6890264997
 10
-11.8639484964
 20
25.7047663851
 10
-11.8846696846
 20
25.7189373609
 10
-11.9053296864
 20
25.7316178865
 10
-11.9258042264
 20
25.7428797098
 10
-11.946082877
 20
25.7528487861
 10
-11.9660866759
 20
25.7616019998
 10
-11.9857286879
 20
25.7692108048
 10
-12.0050103149
 20
25.7757752078
 10
-12.0238814744
 20
25.7813673368
 10
-12.0422804105
 20
25.7860539507
 10
-12.0602060275
 20
25.7899139065
 10
-12.0776206102
 20
25.7930121209
 10
-12.0944887849
 20
25.7954122566
 10
-12.1108227939
 20
25.7971810655
 10
-12.1266122863
 20
25.7983770847
 10
-12.1418233348
 20
25.7990550413
 10
-12.1564393282
 20
25.7992698354
  0
LINE
  5
289
100
AcDbEntity
  8
IMPORT_IGES
100
AcDbLine
 62
7
  6
CONTINUOUS
 10
-12.7701799668
 20
35.7063551334
 11
-12.7447163813
 21
33.257998434
  0
LINE
  5
28A
100
AcDbEntity
  8
IMPORT_IGES
100
AcDbLine
 62
7
  6
CONTINUOUS
 10
-10.7770057921
 20
32.4188988028
 11
-10.7857326599
 21
33.257998434
  0
LINE
  5
28B
100
AcDbEntity
  8
IMPORT_IGES
100
AcDbLine
 62
7
  6
CONTINUOUS
 10
-10.5874933992
 20
15.5125420072
 11
-10.5962049012
 21
16.5107812679
  0
LINE
  5
28C
100
AcDbEntity
  8
IMPORT_IGES
100
AcDbLine
 62
7
  6
CONTINUOUS
 10
-8.0943719203
 20
25.0588599887
 11
-8.0962049012
 21
25.2688988028
  0
LINE
  5
28D
100
AcDbEntity
  8
IMPORT_IGES
100
AcDbLine
 62
250
  6
CONTINUOUS
 10
-12.1564393282
 20
25.7992698354
 11
-12.1564393282
 21
11.8237812205
  0
LINE
  5
28E
100
AcDbEntity
  8
IMPORT_IGES
100
AcDbLine
 62
7
  6
CONTINUOUS
 10
-11.6564583667
 20
12.323762182
 11
-11.6564583667
 21
25.2992888738
  0
LINE
  5
28F
100
AcDbEntity
  8
IMPORT_IGES
100
AcDbLine
 62
7
  6
CONTINUOUS
 10
-11.6442026741
 20
25.3115445664
 11
-11.6442026741
 21
12.3115064895
  0
LINE
  5
290
100
AcDbEntity
  8
IMPORT_IGES
100
AcDbLine
 62
7
  6
CONTINUOUS
 10
-10.8267489385
 20
4.1197535662
 11
-10.8267489385
 21
24.8037009727
  0
LINE
  5
291
100
AcDbEntity
  8
IMPORT_IGES
100
AcDbLine
 62
7
  6
CONTINUOUS
 10
-10.8267489385
 20
27.4379405586
 11
-10.8267489385
 21
31.6599265045
  0
LINE
  5
292
100
AcDbEntity
  8
IMPORT_IGES
100
AcDbLine
 62
7
  6
CONTINUOUS
 10
-10.7857326599
 20
33.257998434
 11
-10.7857326599
 21
32.2599036584
  0
LINE
  5
293
100
AcDbEntity
  8
IMPORT_IGES
100
AcDbLine
 62
7
  6
CONTINUOUS
 10
-10.7857326599
 20
31.6189102259
 11
-10.7857326599
 21
27.4570667634
  0
LINE
  5
294
100
AcDbEntity
  8
IMPORT_IGES
100
AcDbLine
 62
7
  6
CONTINUOUS
 10
-10.7857326599
 20
24.7157412794
 11
-10.7857326599
 21
4.1607698449
  0
LINE
  5
295
100
AcDbEntity
  8
IMPORT_IGES
100
AcDbLine
 62
7
  6
CONTINUOUS
 10
-10.7770057921
 20
32.2686305262
 11
-10.7770057921
 21
32.4188988028
  0
LINE
  5
296
100
AcDbEntity
  8
IMPORT_IGES
100
AcDbLine
 62
7
  6
CONTINUOUS
 10
-10.5962049012
 20
8.2003090266
 11
-10.5962049012
 21
16.5107812679
  0
LINE
  5
297
100
AcDbEntity
  8
IMPORT_IGES
100
AcDbLine
 62
7
  6
CONTINUOUS
 10
-10.5962049012
 20
17.3003090266
 11
-10.5962049012
 21
19.5212535093
  0
LINE
  5
298
100
AcDbEntity
  8
IMPORT_IGES
100
AcDbLine
 62
7
  6
CONTINUOUS
 10
-10.5857326599
 20
19.5107812679
 11
-10.5857326599
 21
17.3107812679
  0
LINE
  5
299
100
AcDbEntity
  8
IMPORT_IGES
100
AcDbLine
 62
7
  6
CONTINUOUS
 10
-10.5857326599
 20
15.5107812679
 11
-10.5857326599
 21
8.2107812679
  0
LINE
  5
29A
100
AcDbEntity
  8
IMPORT_IGES
100
AcDbLine
 62
250
  6
CONTINUOUS
 10
-9.2857326599
 20
17.4607812679
 11
-9.2857326599
 21
17.4891435883
  0
LINE
  5
29B
100
AcDbEntity
  8
IMPORT_IGES
100
AcDbLine
 62
250
  6
CONTINUOUS
 10
-9.2857326599
 20
19.4324189476
 11
-9.2857326599
 21
19.4607812679
  0
LINE
  5
29C
100
AcDbEntity
  8
IMPORT_IGES
100
AcDbLine
 62
7
  6
CONTINUOUS
 10
-8.2857326599
 20
18.9607812679
 11
-8.2857326599
 21
17.9607812679
  0
LINE
  5
29D
100
AcDbEntity
  8
IMPORT_IGES
100
AcDbLine
 62
7
  6
CONTINUOUS
 10
-8.0962049012
 20
21.6584265615
 11
-8.0962049012
 21
23.1022871083
  0
LINE
  5
29E
100
AcDbEntity
  8
IMPORT_IGES
100
AcDbLine
 62
7
  6
CONTINUOUS
 10
-8.0962049012
 20
25.0603980423
 11
-8.0962049012
 21
25.2688988028
  0
LINE
  5
29F
100
AcDbEntity
  8
IMPORT_IGES
100
AcDbLine
 62
7
  6
CONTINUOUS
 10
-8.0962049012
 20
25.7584265615
 11
-8.0962049012
 21
30.9793710442
  0
LINE
  5
2A0
100
AcDbEntity
  8
IMPORT_IGES
100
AcDbLine
 62
7
  6
CONTINUOUS
 10
-8.093827898
 20
86.5562435467
 11
-8.093827898
 21
85.4115678483
  0
LINE
  5
2A1
100
AcDbEntity
  8
IMPORT_IGES
100
AcDbLine
 62
7
  6
CONTINUOUS
 10
-8.093827898
 20
79.7099946875
 11
-8.093827898
 21
78.5653189892
  0
LINE
  5
2A2
100
AcDbEntity
  8
IMPORT_IGES
100
AcDbLine
 62
7
  6
CONTINUOUS
 10
-8.0911694467
 20
78.5627801614
 11
-8.0911694467
 21
79.7128326039
  0
LINE
  5
2A3
100
AcDbEntity
  8
IMPORT_IGES
100
AcDbLine
 62
7
  6
CONTINUOUS
 10
-8.0911694467
 20
85.4087217505
 11
-8.0911694467
 21
86.5587741929
  0
LINE
  5
2A4
100
AcDbEntity
  8
IMPORT_IGES
100
AcDbLine
 62
7
  6
CONTINUOUS
 10
-8.0857326599
 20
30.9688988028
 11
-8.0857326599
 21
25.7688988028
  0
LINE
  5
2A5
100
AcDbEntity
  8
IMPORT_IGES
100
AcDbLine
 62
7
  6
CONTINUOUS
 10
-8.0857326599
 20
23.0934998545
 11
-8.0857326599
 21
21.6688988028
  0
LINE
  5
2A6
100
AcDbEntity
  8
IMPORT_IGES
100
AcDbLine
 62
7
  6
CONTINUOUS
 10
-7.9857326599
 20
8.2107812679
 11
-7.9857326599
 21
15.5107812679
  0
LINE
  5
2A7
100
AcDbEntity
  8
IMPORT_IGES
100
AcDbLine
 62
7
  6
CONTINUOUS
 10
-7.9857326599
 20
17.3107812679
 11
-7.9857326599
 21
17.4607812679
  0
LINE
  5
2A8
100
AcDbEntity
  8
IMPORT_IGES
100
AcDbLine
 62
7
  6
CONTINUOUS
 10
-7.9857326599
 20
19.4607812679
 11
-7.9857326599
 21
19.5107812679
  0
LINE
  5
2A9
100
AcDbEntity
  8
IMPORT_IGES
100
AcDbLine
 62
7
  6
CONTINUOUS
 10
-7.9752604185
 20
19.5212535093
 11
-7.9752604185
 21
19.4607812679
  0
LINE
  5
2AA
100
AcDbEntity
  8
IMPORT_IGES
100
AcDbLine
 62
7
  6
CONTINUOUS
 10
-7.9752604185
 20
17.4607812679
 11
-7.9752604185
 21
17.3003090266
  0
LINE
  5
2AB
100
AcDbEntity
  8
IMPORT_IGES
100
AcDbLine
 62
7
  6
CONTINUOUS
 10
-7.9752604185
 20
16.5107812679
 11
-7.9752604185
 21
8.2003090266
  0
LINE
  5
2AC
100
AcDbEntity
  8
IMPORT_IGES
100
AcDbLine
 62
7
  6
CONTINUOUS
 10
-7.5357326599
 20
24.5901059913
 11
-7.5357326599
 21
30.1688988028
  0
LINE
  5
2AD
100
AcDbEntity
  8
IMPORT_IGES
100
AcDbLine
 62
7
  6
CONTINUOUS
 10
-7.5073703396
 20
30.1688988028
 11
-7.5073703396
 21
24.5292827991
  0
LINE
  5
2AE
100
AcDbEntity
  8
IMPORT_IGES
100
AcDbLine
 62
250
  6
CONTINUOUS
 10
-6.7857326599
 20
22.4607812679
 11
-6.7857326599
 21
22.5017975466
  0
LINE
  5
2AF
100
AcDbEntity
  8
IMPORT_IGES
100
AcDbLine
 62
7
  6
CONTINUOUS
 10
-6.0640949802
 20
23.9324189476
 11
-6.0640949802
 21
30.1688988028
  0
LINE
  5
2B0
100
AcDbEntity
  8
IMPORT_IGES
100
AcDbLine
 62
7
  6
CONTINUOUS
 10
-6.0357326599
 20
30.1688988028
 11
-6.0357326599
 21
23.9607812679
  0
LINE
  5
2B1
100
AcDbEntity
  8
IMPORT_IGES
100
AcDbLine
 62
7
  6
CONTINUOUS
 10
-7.9752604185
 20
16.5107812679
 11
-7.9839719206
 21
15.5125420072
  0
LINE
  5
2B2
100
AcDbEntity
  8
IMPORT_IGES
100
AcDbLine
 62
7
  6
CONTINUOUS
 10
-0.6315880019
 20
11.8237812205
 11
-0.6311399182
 21
11.8242394017
  0
LINE
  5
2B3
100
AcDbEntity
  8
IMPORT_IGES
100
AcDbLine
 62
250
  6
CONTINUOUS
 10
-12.7857326599
 20
3.7107241525
 11
-12.7447163813
 21
3.7517404312
  0
LINE
  5
2B4
100
AcDbEntity
  8
IMPORT_IGES
100
AcDbLine
 62
250
  6
CONTINUOUS
 10
-10.8267489385
 20
4.1197535662
 11
-10.7857326599
 21
4.1607698449
  0
LINE
  5
2B5
100
AcDbEntity
  8
IMPORT_IGES
100
AcDbLine
 62
250
  6
CONTINUOUS
 10
-10.485744083
 20
3.8607812679
 11
-10.5267603616
 21
3.8197649893
  0
LINE
  5
2B6
100
AcDbEntity
  8
IMPORT_IGES
100
AcDbLine
 62
250
  6
CONTINUOUS
 10
-1.9272626457
 20
12.3115064895
 11
-1.9150069531
 21
12.323762182
  0
LINE
  5
2B7
100
AcDbEntity
  8
IMPORT_IGES
100
AcDbLine
 62
250
  6
CONTINUOUS
 10
-11.2447734967
 20
2.2517975466
 11
-11.2857897753
 21
2.2107812679
  0
LINE
  5
2B8
100
AcDbEntity
  8
IMPORT_IGES
100
AcDbLine
 62
250
  6
CONTINUOUS
 10
-1.4150259916
 20
11.8237812205
 11
-1.4272816842
 21
11.8115255279
  0
LINE
  5
2B9
100
AcDbEntity
  8
IMPORT_IGES
100
AcDbLine
 62
7
  6
CONTINUOUS
 10
-0.6438436945
 20
11.8115255279
 11
-0.1316070404
 21
12.323762182
  0
LWPOLYLINE
  5
2BA
100
AcDbEntity
  8
IMPORT_IGES
100
AcDbPolyline
 62
7
  6
CONTINUOUS
 90
7
 70
0
 10
-21.1771574439
 20
68.9749480887
 10
-21.1777900604
 20
68.9790575694
 10
-21.1790670103
 20
68.9839055903
 10
-21.1809921341
 20
68.9894921515
 10
-21.1835652645
 20
68.995787892
 10
-21.1867902745
 20
69.0028221727
 10
-21.1906820571
 20
69.0106830772
  0
LWPOLYLINE
  5
2BB
100
AcDbEntity
  8
IMPORT_IGES
100
AcDbPolyline
 62
250
  6
CONTINUOUS
 90
31
 70
0
 10
-1.9150069531
 20
12.323762182
 10
-1.9131494374
 20
12.2807420608
 10
-1.9078643933
 20
12.2395900156
 10
-1.8995755178
 20
12.2005403299
 10
-1.8887232446
 20
12.1638236456
 10
-1.8757064599
 20
12.1294921708
 10
-1.8608340342
 20
12.0974420896
 10
-1.8444472236
 20
12.067712146
 10
-1.8268676121
 20
12.0403020237
 10
-1.8082781963
 20
12.0150306252
 10
-1.7889300649
 20
11.9918618882
 10
-1.7690616488
 20
11.9707456383
 10
-1.7487561117
 20
11.9514904442
 10
-1.7281824321
 20
11.9340245561
 10
-1.7075168233
 20
11.9182846708
 10
-1.6867956351
 20
11.9041136949
 10
-1.6661356334
 20
11.8914331694
 10
-1.6456610934
 20
11.880171346
 10
-1.6253824428
 20
11.8702022697
 10
-1.6053786439
 20
11.861449056
 10
-1.5857366319
 20
11.8538402511
 10
-1.5664550049
 20
11.8472758481
 10
-1.5475838454
 20
11.841683719
 10
-1.5291849093
 20
11.8369971052
 10
-1.5112592923
 20
11.8331371493
 10
-1.4938447095
 20
11.8300389349
 10
-1.4769765348
 20
11.8276387992
 10
-1.4606425258
 20
11.8258699903
 10
-1.4448530335
 20
11.8246739712
 10
-1.4296419849
 20
11.8239960146
 10
-1.4150259916
 20
11.8237812205
  0
LWPOLYLINE
  5
2BC
100
AcDbEntity
  8
IMPORT_IGES
100
AcDbPolyline
 62
250
  6
CONTINUOUS
 90
31
 70
0
 10
-0.6315880019
 20
6.7663954074
 10
-0.6297304862
 20
6.7233752862
 10
-0.6244454421
 20
6.682223241
 10
-0.6161565666
 20
6.6431735553
 10
-0.6053042934
 20
6.606456871
 10
-0.5922875087
 20
6.5721253962
 10
-0.577415083
 20
6.540075315
 10
-0.5610282724
 20
6.5103453714
 10
-0.5434486609
 20
6.4829352491
 10
-0.5248592451
 20
6.4576638506
 10
-0.5055111137
 20
6.4344951136
 10
-0.4856426976
 20
6.4133788637
 10
-0.4653371605
 20
6.3941236696
 10
-0.4447634809
 20
6.3766577815
 10
-0.4240978721
 20
6.3609178962
 10
-0.4033766839
 20
6.3467469203
 10
-0.3827166822
 20
6.3340663948
 10
-0.3622421422
 20
6.3228045714
 10
-0.3419634916
 20
6.3128354951
 10
-0.3219596927
 20
6.3040822814
 10
-0.3023176807
 20
6.2964734764
 10
-0.2830360537
 20
6.2899090735
 10
-0.2641648942
 20
6.2843169444
 10
-0.2457659581
 20
6.2796303305
 10
-0.2278403411
 20
6.2757703747
 10
-0.2104257583
 20
6.2726721603
 10
-0.1935575836
 20
6.2702720246
 10
-0.1772235746
 20
6.2685032157
 10
-0.1614340823
 20
6.2673071966
 10
-0.1462230337
 20
6.26662924
 10
-0.1316070404
 20
6.2664144459
  0
LWPOLYLINE
  5
2BD
100
AcDbEntity
  8
IMPORT_IGES
100
AcDbPolyline
 62
7
  6
CONTINUOUS
 90
37
 70
0
 10
-0.6857306874
 20
6.7122527219
 10
-0.6853557442
 20
6.6927998771
 10
-0.6842610575
 20
6.6737734268
 10
-0.682494236
 20
6.6551983216
 10
-0.6801303075
 20
6.6372796447
 10
-0.6772015621
 20
6.6198498817
 10
-0.6736324812
 20
6.6023801203
 10
-0.6693698077
 20
6.5847368204
 10
-0.6644333336
 20
6.5671086196
 10
-0.65879345
 20
6.549463176
 10
-0.6524349638
 20
6.531831738
 10
-0.6453441701
 20
6.5142474605
 10
-0.6374822702
 20
6.4966876555
 10
-0.6288308352
 20
6.4791898044
 10
-0.6193747228
 20
6.4617966329
 10
-0.6090700712
 20
6.4445022339
 10
-0.5978977977
 20
6.4273535798
 10
-0.5858434575
 20
6.410403764
 10
-0.572862629
 20
6.3936666645
 10
-0.5589297808
 20
6.3771904723
 10
-0.5440425694
 20
6.3610510166
 10
-0.5281908987
 20
6.3453117318
 10
-0.5113691273
 20
6.3300399342
 10
-0.4935780498
 20
6.3153078303
 10
-0.4748235036
 20
6.3011897983
 10
-0.4551035691
 20
6.2877530787
 10
-0.4344435139
 20
6.2750828775
 10
-0.4129011666
 20
6.263277386
 10
-0.3904816003
 20
6.2523986328
 10
-0.3672419157
 20
6.2425334723
 10
-0.3433366457
 20
6.2337950558
 10
-0.3188308547
 20
6.226241342
 10
-0.2937676463
 20
6.2199199347
 10
-0.2682851062
 20
6.2148960773
 10
-0.2424756042
 20
6.2112082652
 10
-0.2163823753
 20
6.208881675
 10
-0.1900770546
 20
6.2079444317
  0
LINE
  5
2BE
100
AcDbEntity
  8
IMPORT_IGES
100
AcDbLine
 62
7
  6
CONTINUOUS
 10
-0.7953322145
 20
33.7107812679
 11
-0.7968575288
 21
35.7085682007
  0
LINE
  5
2BF
100
AcDbEntity
  8
IMPORT_IGES
100
AcDbLine
 62
7
  6
CONTINUOUS
 10
-5.4857326599
 20
21.6688988028
 11
-5.4857326599
 21
22.4607812679
  0
LINE
  5
2C0
100
AcDbEntity
  8
IMPORT_IGES
100
AcDbLine
 62
7
  6
CONTINUOUS
 10
-5.4857326599
 20
23.9607812679
 11
-5.4857326599
 21
24.2688988028
  0
LINE
  5
2C1
100
AcDbEntity
  8
IMPORT_IGES
100
AcDbLine
 62
7
  6
CONTINUOUS
 10
-5.4857326599
 20
25.7688988028
 11
-5.4857326599
 21
30.9688988028
  0
LINE
  5
2C2
100
AcDbEntity
  8
IMPORT_IGES
100
AcDbLine
 62
7
  6
CONTINUOUS
 10
-5.4752604185
 20
30.9793710442
 11
-5.4752604185
 21
25.7584265615
  0
LINE
  5
2C3
100
AcDbEntity
  8
IMPORT_IGES
100
AcDbLine
 62
7
  6
CONTINUOUS
 10
-5.4752604185
 20
25.2688988028
 11
-5.4752604185
 21
23.9607812679
  0
LINE
  5
2C4
100
AcDbEntity
  8
IMPORT_IGES
100
AcDbLine
 62
7
  6
CONTINUOUS
 10
-5.4752604185
 20
22.4607812679
 11
-5.4752604185
 21
21.6584265615
  0
LINE
  5
2C5
100
AcDbEntity
  8
IMPORT_IGES
100
AcDbLine
 62
7
  6
CONTINUOUS
 10
-2.7944595277
 20
32.4188988028
 11
-2.7944595277
 21
32.2686305262
  0
LINE
  5
2C6
100
AcDbEntity
  8
IMPORT_IGES
100
AcDbLine
 62
7
  6
CONTINUOUS
 10
-2.7857326599
 20
4.1607698449
 11
-2.7857326599
 21
17.160792691
  0
LINE
  5
2C7
100
AcDbEntity
  8
IMPORT_IGES
100
AcDbLine
 62
7
  6
CONTINUOUS
 10
-2.7857326599
 20
17.9734352262
 11
-2.7857326599
 21
18.9481273096
  0
LINE
  5
2C8
100
AcDbEntity
  8
IMPORT_IGES
100
AcDbLine
 62
7
  6
CONTINUOUS
 10
-2.7857326599
 20
19.7607698449
 11
-2.7857326599
 21
22.160792691
  0
LINE
  5
2C9
100
AcDbEntity
  8
IMPORT_IGES
100
AcDbLine
 62
7
  6
CONTINUOUS
 10
-2.7857326599
 20
24.2607698449
 11
-2.7857326599
 21
31.6189102259
  0
LINE
  5
2CA
100
AcDbEntity
  8
IMPORT_IGES
100
AcDbLine
 62
7
  6
CONTINUOUS
 10
-2.7857326599
 20
32.2599036584
 11
-2.7857326599
 21
33.257998434
  0
LINE
  5
2CB
100
AcDbEntity
  8
IMPORT_IGES
100
AcDbLine
 62
7
  6
CONTINUOUS
 10
-2.7573703396
 20
17.9607812679
 11
-2.7573703396
 21
17.1891550113
  0
LINE
  5
2CC
100
AcDbEntity
  8
IMPORT_IGES
100
AcDbLine
 62
7
  6
CONTINUOUS
 10
-2.7573703396
 20
18.9607812679
 11
-2.7573703396
 21
19.7324075245
  0
LINE
  5
2CD
100
AcDbEntity
  8
IMPORT_IGES
100
AcDbLine
 62
7
  6
CONTINUOUS
 10
-2.7447163813
 20
31.6599265045
 11
-2.7447163813
 21
24.2197535662
  0
LINE
  5
2CE
100
AcDbEntity
  8
IMPORT_IGES
100
AcDbLine
 62
7
  6
CONTINUOUS
 10
-2.7447163813
 20
22.2018089696
 11
-2.7447163813
 21
18.9481273096
  0
LINE
  5
2CF
100
AcDbEntity
  8
IMPORT_IGES
100
AcDbLine
 62
7
  6
CONTINUOUS
 10
-2.7447163813
 20
17.9734352262
 11
-2.7447163813
 21
4.1197535662
  0
LINE
  5
2D0
100
AcDbEntity
  8
IMPORT_IGES
100
AcDbLine
 62
7
  6
CONTINUOUS
 10
-1.9985898027
 20
83.1322098394
 11
-1.9985898027
 21
81.9893526965
  0
LINE
  5
2D1
100
AcDbEntity
  8
IMPORT_IGES
100
AcDbLine
 62
7
  6
CONTINUOUS
 10
-1.9959313515
 20
81.9866901513
 11
-1.9959313515
 21
83.134864203
  0
LINE
  5
2D2
100
AcDbEntity
  8
IMPORT_IGES
100
AcDbLine
 62
7
  6
CONTINUOUS
 10
-1.9272626457
 20
12.3115064895
 11
-1.9272626457
 21
25.3115445664
  0
LINE
  5
2D3
100
AcDbEntity
  8
IMPORT_IGES
100
AcDbLine
 62
7
  6
CONTINUOUS
 10
-1.9150069531
 20
25.2992888738
 11
-1.9150069531
 21
12.323762182
  0
LINE
  5
2D4
100
AcDbEntity
  8
IMPORT_IGES
100
AcDbLine
 62
250
  6
CONTINUOUS
 10
-1.4150259916
 20
11.8237812205
 11
-1.4150259916
 21
25.7992698354
  0
LINE
  5
2D5
100
AcDbEntity
  8
IMPORT_IGES
100
AcDbLine
 62
7
  6
CONTINUOUS
 10
-1.2366850408
 20
86.5562435467
 11
-1.2366850408
 21
85.4115678483
  0
LINE
  5
2D6
100
AcDbEntity
  8
IMPORT_IGES
100
AcDbLine
 62
7
  6
CONTINUOUS
 10
-1.2366850408
 20
79.7099946875
 11
-1.2366850408
 21
78.5653189892
  0
LINE
  5
2D7
100
AcDbEntity
  8
IMPORT_IGES
100
AcDbLine
 62
7
  6
CONTINUOUS
 10
-1.2340265896
 20
78.5627801614
 11
-1.2340265896
 21
79.7128326039
  0
LINE
  5
2D8
100
AcDbEntity
  8
IMPORT_IGES
100
AcDbLine
 62
7
  6
CONTINUOUS
 10
-1.2340265896
 20
85.4087217505
 11
-1.2340265896
 21
86.5587741929
  0
LINE
  5
2D9
100
AcDbEntity
  8
IMPORT_IGES
100
AcDbLine
 62
7
  6
CONTINUOUS
 10
-0.8267489385
 20
3.7517404312
 11
-0.8267489385
 21
11.8115255279
  0
LINE
  5
2DA
100
AcDbEntity
  8
IMPORT_IGES
100
AcDbLine
 62
7
  6
CONTINUOUS
 10
-0.8267489385
 20
25.8115255279
 11
-0.8267489385
 21
33.257998434
  0
LINE
  5
2DB
100
AcDbEntity
  8
IMPORT_IGES
100
AcDbLine
 62
7
  6
CONTINUOUS
 10
-0.7857326599
 20
33.6145437381
 11
-0.7857326599
 21
25.8115255279
  0
LINE
  5
2DC
100
AcDbEntity
  8
IMPORT_IGES
100
AcDbLine
 62
7
  6
CONTINUOUS
 10
-0.7857326599
 20
11.8115255279
 11
-0.7857326599
 21
3.7107241525
  0
LINE
  5
2DD
100
AcDbEntity
  8
IMPORT_IGES
100
AcDbLine
 62
7
  6
CONTINUOUS
 10
-0.6857326599
 20
6.7079253932
 11
-0.6857326599
 21
11.391579943
  0
LINE
  5
2DE
100
AcDbEntity
  8
IMPORT_IGES
100
AcDbLine
 62
7
  6
CONTINUOUS
 10
-0.6857326599
 20
26.2314711128
 11
-0.6857326599
 21
30.9108003064
  0
LINE
  5
2DF
100
AcDbEntity
  8
IMPORT_IGES
100
AcDbLine
 62
7
  6
CONTINUOUS
 10
-0.6315880019
 20
30.8566556484
 11
-0.6315880019
 21
25.7992698354
  0
LINE
  5
2E0
100
AcDbEntity
  8
IMPORT_IGES
100
AcDbLine
 62
7
  6
CONTINUOUS
 10
-0.6315880019
 20
11.8237812205
 11
-0.6315880019
 21
6.7663954074
  0
LINE
  5
2E1
100
AcDbEntity
  8
IMPORT_IGES
100
AcDbLine
 62
250
  6
CONTINUOUS
 10
-0.1316070404
 20
6.2664144459
 11
-0.1316070404
 21
12.323762182
  0
LINE
  5
2E2
100
AcDbEntity
  8
IMPORT_IGES
100
AcDbLine
 62
250
  6
CONTINUOUS
 10
-0.1316070404
 20
25.2992888738
 11
-0.1316070404
 21
31.35663661
  0
LINE
  5
2E3
100
AcDbEntity
  8
IMPORT_IGES
100
AcDbLine
 62
7
  6
CONTINUOUS
 10
-5.4752604185
 20
25.2688988028
 11
-5.4839719206
 21
24.2706595421
  0
LINE
  5
2E4
100
AcDbEntity
  8
IMPORT_IGES
100
AcDbLine
 62
7
  6
CONTINUOUS
 10
-2.7857326599
 20
33.257998434
 11
-2.7944595277
 21
32.4188988028
  0
LINE
  5
2E5
100
AcDbEntity
  8
IMPORT_IGES
100
AcDbLine
 62
7
  6
CONTINUOUS
 10
-0.8267489385
 20
33.257998434
 11
-0.801285353
 21
35.7063551334
  0
LINE
  5
2E6
100
AcDbEntity
  8
IMPORT_IGES
100
AcDbLine
 62
7
  6
CONTINUOUS
 10
-0.6857326599
 20
11.391579943
 11
-0.6438436945
 21
11.8115255279
  0
LWPOLYLINE
  5
2E7
100
AcDbEntity
  8
IMPORT_IGES
100
AcDbPolyline
 62
7
  6
CONTINUOUS
 90
7
 70
0
 10
7.6056921241
 20
68.9749480887
 10
7.6063184588
 20
68.9790748996
 10
7.6075935936
 20
68.9839096742
 10
7.6095175286
 20
68.9894676684
 10
7.6120821944
 20
68.9957507766
 10
7.6152956604
 20
69.0027815561
 10
7.6191821348
 20
69.010615504
  0
LINE
  5
2E8
100
AcDbEntity
  8
IMPORT_IGES
100
AcDbLine
 62
250
  6
CONTINUOUS
 10
-0.6857326599
 20
6.7122507494
 11
-0.6315880019
 21
6.7663954074
  0
LINE
  5
2E9
100
AcDbEntity
  8
IMPORT_IGES
100
AcDbLine
 62
250
  6
CONTINUOUS
 10
-0.1316070404
 20
6.2664144459
 11
-0.1900770546
 21
6.2079444317
  0
LINE
  5
2EA
100
AcDbEntity
  8
IMPORT_IGES
100
AcDbLine
 62
7
  6
CONTINUOUS
 10
-12.9398773179
 20
11.8237812205
 11
-12.9403354991
 21
11.8242293042
  0
LINE
  5
2EB
100
AcDbEntity
  8
IMPORT_IGES
100
AcDbLine
 62
250
  6
CONTINUOUS
 10
-13.3813882652
 20
6.2079444317
 11
-13.4398582794
 21
6.2664144459
  0
LINE
  5
2EC
100
AcDbEntity
  8
IMPORT_IGES
100
AcDbLine
 62
250
  6
CONTINUOUS
 10
-12.9398773179
 20
6.7663954074
 11
-12.8857326599
 21
6.7122507494
  0
LINE
  5
2ED
100
AcDbEntity
  8
IMPORT_IGES
100
AcDbLine
 62
250
  6
CONTINUOUS
 10
-12.1441836356
 20
11.8115255279
 11
-12.1564393282
 21
11.8237812205
  0
LINE
  5
2EE
100
AcDbEntity
  8
IMPORT_IGES
100
AcDbLine
 62
250
  6
CONTINUOUS
 10
-2.2856755445
 20
2.2107812679
 11
-2.3266918231
 21
2.2517975466
  0
LINE
  5
2EF
100
AcDbEntity
  8
IMPORT_IGES
100
AcDbLine
 62
7
  6
CONTINUOUS
 10
-7.9752604185
 20
8.2003090266
 11
-7.9857326599
 21
8.2107812679
  0
LINE
  5
2F0
100
AcDbEntity
  8
IMPORT_IGES
100
AcDbLine
 62
250
  6
CONTINUOUS
 10
-11.6564583667
 20
12.323762182
 11
-11.6442026741
 21
12.3115064895
  0
LINE
  5
2F1
100
AcDbEntity
  8
IMPORT_IGES
100
AcDbLine
 62
250
  6
CONTINUOUS
 10
-3.0447049582
 20
3.8197649893
 11
-3.0857212368
 21
3.8607812679
  0
LINE
  5
2F2
100
AcDbEntity
  8
IMPORT_IGES
100
AcDbLine
 62
7
  6
CONTINUOUS
 10
-12.9276216253
 20
11.8115255279
 11
-13.4398582794
 21
12.323762182
  0
LINE
  5
2F3
100
AcDbEntity
  8
IMPORT_IGES
100
AcDbLine
 62
250
  6
CONTINUOUS
 10
-10.7857326599
 20
24.7157412794
 11
-10.8267489385
 21
24.8037009727
  0
LINE
  5
2F4
100
AcDbEntity
  8
IMPORT_IGES
100
AcDbLine
 62
7
  6
CONTINUOUS
 10
-0.6438436945
 20
25.8115255279
 11
-0.6857326599
 21
26.2314711128
  0
LINE
  5
2F5
100
AcDbEntity
  8
IMPORT_IGES
100
AcDbLine
 62
7
  6
CONTINUOUS
 10
-0.7857326599
 20
33.6145437381
 11
-0.7953322145
 21
33.7107812679
  0
LINE
  5
2F6
100
AcDbEntity
  8
IMPORT_IGES
100
AcDbLine
 62
7
  6
CONTINUOUS
 10
7.5182498569
 20
68.9212461968
 11
7.5182498569
 21
67.4207697291
  0
LWPOLYLINE
  5
2F7
100
AcDbEntity
  8
IMPORT_IGES
100
AcDbPolyline
 62
250
  6
CONTINUOUS
 90
31
 70
0
 10
10.6086532007
 20
6.2664144459
 10
10.6225257421
 20
6.2666079941
 10
10.6370469712
 20
6.2672234961
 10
10.6522021448
 20
6.2683179558
 10
10.6679583473
 20
6.2699486556
 10
10.6843078957
 20
6.2721772022
 10
10.7012673115
 20
6.2750740686
 10
10.7188037228
 20
6.2787073486
 10
10.7368797488
 20
6.2831465309
 10
10.7554950446
 20
6.2884751774
 10
10.7745936239
 20
6.2947675688
 10
10.7941203882
 20
6.3021004914
 10
10.8140615521
 20
6.3105729521
 10
10.8343284566
 20
6.3202605551
 10
10.8548436615
 20
6.3312461198
 10
10.8755874403
 20
6.3436544856
 10
10.8964276703
 20
6.357556934
 10
10.9172545035
 20
6.3730409749
 10
10.9380432701
 20
6.3902780386
 10
10.9586173327
 20
6.4093421386
 10
10.9787991518
 20
6.430309124
 10
10.998502095
 20
6.4533774914
 10
11.0174723559
 20
6.4785934961
 10
11.0354594082
 20
6.506010122
 10
11.0522914834
 20
6.5358515752
 10
11.0676187373
 20
6.5681084002
 10
11.0810882531
 20
6.6027668361
 10
11.0923938819
 20
6.6400363731
 10
11.1010899855
 20
6.6799055928
 10
11.1066654683
 20
6.722107892
 10
11.1086341622
 20
6.7663954074
  0
LWPOLYLINE
  5
2F8
100
AcDbEntity
  8
IMPORT_IGES
100
AcDbPolyline
 62
250
  6
CONTINUOUS
 90
31
 70
0
 10
-13.4398582794
 20
6.2664144459
 10
-13.4259857379
 20
6.2666079941
 10
-13.4114645089
 20
6.2672234961
 10
-13.3963093353
 20
6.2683179558
 10
-13.3805531327
 20
6.2699486556
 10
-13.3642035843
 20
6.2721772022
 10
-13.3472441685
 20
6.2750740686
 10
-13.3297077573
 20
6.2787073486
 10
-13.3116317312
 20
6.2831465309
 10
-13.2930164355
 20
6.2884751774
 10
-13.2739178561
 20
6.2947675688
 10
-13.2543910918
 20
6.3021004914
 10
-13.2344499279
 20
6.3105729521
 10
-13.2141830234
 20
6.3202605551
 10
-13.1936678185
 20
6.3312461198
 10
-13.1729240398
 20
6.3436544856
 10
-13.1520838098
 20
6.357556934
 10
-13.1312569765
 20
6.3730409749
 10
-13.1104682099
 20
6.3902780386
 10
-13.0898941473
 20
6.4093421386
 10
-13.0697123282
 20
6.430309124
 10
-13.050009385
 20
6.4533774914
 10
-13.0310391241
 20
6.4785934961
 10
-13.0130520718
 20
6.506010122
 10
-12.9962199967
 20
6.5358515752
 10
-12.9808927427
 20
6.5681084002
 10
-12.9674232269
 20
6.6027668361
 10
-12.9561175981
 20
6.6400363731
 10
-12.9474214945
 20
6.6799055928
 10
-12.9418460118
 20
6.722107892
 10
-12.9398773179
 20
6.7663954074
  0
LINE
  5
2F9
100
AcDbEntity
  8
IMPORT_IGES
100
AcDbLine
 62
7
  6
CONTINUOUS
 10
-2.2856755445
 20
2.2107812679
 11
-11.2857897753
 21
2.2107812679
  0
LINE
  5
2FA
100
AcDbEntity
  8
IMPORT_IGES
100
AcDbLine
 62
7
  6
CONTINUOUS
 10
-11.2447734967
 20
2.2517975466
 11
-2.3266918231
 21
2.2517975466
  0
LINE
  5
2FB
100
AcDbEntity
  8
0
100
AcDbLine
 62
7
  6
CONTINUOUS
 10
-12.7857326599
 20
3.7107812679
 11
-20.9277326599
 21
3.7107812679
  0
LINE
  5
2FC
100
AcDbEntity
  8
IMPORT_IGES
100
AcDbLine
 62
7
  6
CONTINUOUS
 10
-3.0447049582
 20
3.8197649893
 11
-10.5267603616
 21
3.8197649893
  0
LINE
  5
2FD
100
AcDbEntity
  8
IMPORT_IGES
100
AcDbLine
 62
7
  6
CONTINUOUS
 10
-10.485744083
 20
3.8607812679
 11
-3.0857212368
 21
3.8607812679
  0
LINE
  5
2FE
100
AcDbEntity
  8
IMPORT_IGES
100
AcDbLine
 62
7
  6
CONTINUOUS
 10
10.7142863786
 20
6.1607812679
 11
-0.7857326599
 21
6.1607812679
  0
LINE
  5
2FF
100
AcDbEntity
  8
IMPORT_IGES
100
AcDbLine
 62
7
  6
CONTINUOUS
 10
-2.7857326599
 20
6.1607812679
 11
-10.7857326599
 21
6.1607812679
  0
LINE
  5
300
100
AcDbEntity
  8
IMPORT_IGES
100
AcDbLine
 62
7
  6
CONTINUOUS
 10
-12.7857326599
 20
6.1607812679
 11
-24.2857516984
 21
6.1607812679
  0
LINE
  5
301
100
AcDbEntity
  8
IMPORT_IGES
100
AcDbLine
 62
7
  6
CONTINUOUS
 10
-13.3813882652
 20
6.2079444317
 11
-12.7857326599
 21
6.2079444317
  0
LINE
  5
302
100
AcDbEntity
  8
IMPORT_IGES
100
AcDbLine
 62
7
  6
CONTINUOUS
 10
-10.7857326599
 20
6.2079444317
 11
-2.7857326599
 21
6.2079444317
  0
LINE
  5
303
100
AcDbEntity
  8
IMPORT_IGES
100
AcDbLine
 62
7
  6
CONTINUOUS
 10
-0.7857326599
 20
6.2079444317
 11
-0.1900770546
 21
6.2079444317
  0
LINE
  5
304
100
AcDbEntity
  8
IMPORT_IGES
100
AcDbLine
 62
7
  6
CONTINUOUS
 10
-24.1801185204
 20
6.2664144459
 11
-13.4398582794
 21
6.2664144459
  0
LINE
  5
305
100
AcDbEntity
  8
IMPORT_IGES
100
AcDbLine
 62
7
  6
CONTINUOUS
 10
-0.1316070404
 20
6.2664144459
 11
10.6086532007
 21
6.2664144459
  0
LINE
  5
306
100
AcDbEntity
  8
IMPORT_IGES
100
AcDbLine
 62
250
  6
CONTINUOUS
 10
-0.6857326599
 20
6.7079253932
 11
-0.7857326599
 21
6.7079253932
  0
LINE
  5
307
100
AcDbEntity
  8
IMPORT_IGES
100
AcDbLine
 62
250
  6
CONTINUOUS
 10
-2.7857326599
 20
6.7079253932
 11
-10.7857326599
 21
6.7079253932
  0
LINE
  5
308
100
AcDbEntity
  8
IMPORT_IGES
100
AcDbLine
 62
250
  6
CONTINUOUS
 10
-12.7857326599
 20
6.7079253932
 11
-12.8857326599
 21
6.7079253932
  0
LINE
  5
309
100
AcDbEntity
  8
IMPORT_IGES
100
AcDbLine
 62
250
  6
CONTINUOUS
 10
11.1086341622
 20
6.7663954074
 11
-0.6315880019
 21
6.7663954074
  0
LINE
  5
30A
100
AcDbEntity
  8
IMPORT_IGES
100
AcDbLine
 62
250
  6
CONTINUOUS
 10
-12.9398773179
 20
6.7663954074
 11
-24.680099482
 21
6.7663954074
  0
LINE
  5
30B
100
AcDbEntity
  8
IMPORT_IGES
100
AcDbLine
 62
250
  6
CONTINUOUS
 10
-2.7857326599
 20
4.1607698449
 11
-2.7447163813
 21
4.1197535662
  0
LINE
  5
30C
100
AcDbEntity
  8
IMPORT_IGES
100
AcDbLine
 62
250
  6
CONTINUOUS
 10
-0.8267489385
 20
3.7517404312
 11
-0.7857326599
 21
3.7107241525
  0
LINE
  5
30D
100
AcDbEntity
  8
IMPORT_IGES
100
AcDbLine
 62
7
  6
CONTINUOUS
 10
-10.5857326599
 20
15.5107812679
 11
-10.5874933992
 21
15.5125420072
  0
LINE
  5
30E
100
AcDbEntity
  8
IMPORT_IGES
100
AcDbLine
 62
250
  6
CONTINUOUS
 10
-24.680099482
 20
30.8566556484
 11
-24.7385694962
 21
30.9151256626
  0
LINE
  5
30F
100
AcDbEntity
  8
IMPORT_IGES
100
AcDbLine
 62
250
  6
CONTINUOUS
 10
-24.2342631784
 20
31.4107812679
 11
-24.1801185204
 21
31.35663661
  0
LINE
  5
310
100
AcDbEntity
  8
IMPORT_IGES
100
AcDbLine
 62
7
  6
CONTINUOUS
 10
-23.6470763358
 20
31.3721249438
 11
-23.6857326599
 21
31.4107812679
  0
LINE
  5
311
100
AcDbEntity
  8
IMPORT_IGES
100
AcDbLine
 62
7
  6
CONTINUOUS
 10
-10.5962049012
 20
19.5212535093
 11
-10.5857326599
 21
19.5107812679
  0
LINE
  5
312
100
AcDbEntity
  8
IMPORT_IGES
100
AcDbLine
 62
7
  6
CONTINUOUS
 10
-7.9752604185
 20
17.3003090266
 11
-7.9857326599
 21
17.3107812679
  0
LINE
  5
313
100
AcDbEntity
  8
IMPORT_IGES
100
AcDbLine
 62
7
  6
CONTINUOUS
 10
-23.6857326599
 20
33.4107812679
 11
-23.6680954929
 21
33.393144101
  0
LINE
  5
314
100
AcDbEntity
  8
IMPORT_IGES
100
AcDbLine
 62
250
  6
CONTINUOUS
 10
-10.3339314213
 20
25.0335055551
 11
-10.2929151427
 21
24.9455458617
  0
LINE
  5
315
100
AcDbEntity
  8
IMPORT_IGES
100
AcDbLine
 62
7
  6
CONTINUOUS
 10
-7.5357326599
 20
24.5901059913
 11
-7.5073703396
 21
24.5292827991
  0
LWPOLYLINE
  5
316
100
AcDbEntity
  8
IMPORT_IGES
100
AcDbPolyline
 62
7
  6
CONTINUOUS
 90
40
 70
0
 10
7.5488902073
 20
66.4076067755
 10
7.5510937314
 20
66.3773373186
 10
7.5546743799
 20
66.3483292869
 10
7.5596321528
 20
66.3205826802
 10
7.5661068873
 20
66.2941383424
 10
7.5739587462
 20
66.2689554296
 10
7.5827682183
 20
66.2449114107
 10
7.5924871296
 20
66.222005562
 10
7.6031636541
 20
66.2002386072
 10
7.614522802
 20
66.1794901865
 10
7.6265368466
 20
66.1597526919
 10
7.6392335146
 20
66.1410337314
 10
7.6524209961
 20
66.1232357692
 10
7.6660841007
 20
66.1063514211
 10
7.6802380188
 20
66.0903880712
 10
7.6947365118
 20
66.0752703363
 10
7.7095722231
 20
66.0609926918
 10
7.7247525093
 20
66.0475606623
 10
7.7401532013
 20
66.0349154389
 10
7.7557708627
 20
66.0230544596
 10
7.77160893
 20
66.0119802864
 10
7.7875535433
 20
66.0016417963
 10
7.803605503
 20
65.9920380523
 10
7.8197640086
 20
65.9831699915
 10
7.8359127995
 20
65.9749893023
 10
7.8520528104
 20
65.9674983149
 10
7.8681831066
 20
65.960694699
 10
7.8841846235
 20
65.9545231525
 10
7.9000322346
 20
65.9489923109
 10
7.9157510665
 20
65.9440935386
 10
7.9312974339
 20
65.9397456264
 10
7.9466585486
 20
65.935946261
 10
7.9618471988
 20
65.9326977557
 10
7.9768580636
 20
65.9299258418
 10
7.9916588997
 20
65.9276256733
 10
8.0062819505
 20
65.9258020962
 10
8.020818625
 20
65.9243953798
 10
8.0352993931
 20
65.9233856139
 10
8.0496937849
 20
65.9227927086
 10
8.0640018006
 20
65.922616664
  0
LWPOLYLINE
  5
317
100
AcDbEntity
  8
IMPORT_IGES
100
AcDbPolyline
 62
250
  6
CONTINUOUS
 90
31
 70
0
 10
11.1086341622
 20
30.8566556484
 10
11.1067766465
 20
30.8996757696
 10
11.1014916023
 20
30.9408278149
 10
11.0932027269
 20
30.9798775005
 10
11.0823504536
 20
31.0165941848
 10
11.069333669
 20
31.0509256597
 10
11.0544612432
 20
31.0829757408
 10
11.0380744327
 20
31.1127056844
 10
11.0204948211
 20
31.1401158068
 10
11.0019054053
 20
31.1653872052
 10
10.9825572739
 20
31.1885559423
 10
10.9626888579
 20
31.2096721922
 10
10.9423833207
 20
31.2289273862
 10
10.9218096411
 20
31.2463932743
 10
10.9011440324
 20
31.2621331597
 10
10.8804228442
 20
31.2763041355
 10
10.8597628425
 20
31.2889846611
 10
10.8392883024
 20
31.3002464844
 10
10.8190096519
 20
31.3102155607
 10
10.7990058529
 20
31.3189687744
 10
10.7793638409
 20
31.3265775794
 10
10.760082214
 20
31.3331419824
 10
10.7412110545
 20
31.3387341115
 10
10.7228121183
 20
31.3434207253
 10
10.7048865014
 20
31.3472806812
 10
10.6874719186
 20
31.3503788955
 10
10.6706037439
 20
31.3527790313
 10
10.6542697349
 20
31.3545478401
 10
10.6384802425
 20
31.3557438593
 10
10.623269194
 20
31.3564218159
 10
10.6086532007
 20
31.35663661
  0
LINE
  5
318
100
AcDbEntity
  8
IMPORT_IGES
100
AcDbLine
 62
7
  6
CONTINUOUS
 10
7.5488902073
 20
66.4076067755
 11
7.5182498569
 21
67.4207697291
  0
LWPOLYLINE
  5
319
100
AcDbEntity
  8
IMPORT_IGES
100
AcDbPolyline
 62
250
  6
CONTINUOUS
 90
75
 70
0
 10
7.6056921241
 20
66.464906558
 10
7.6062784835
 20
66.4408536453
 10
7.6079794882
 20
66.4172913231
 10
7.6107296116
 20
66.3942677935
 10
7.6144889797
 20
66.3716866542
 10
7.6191770735
 20
66.3497260454
 10
7.6246112601
 20
66.328825706
 10
7.6306240221
 20
66.3091474271
 10
7.6371402056
 20
66.290539275
 10
7.6440736401
 20
66.2729485206
 10
7.6513158602
 20
66.2563956032
 10
7.6587881836
 20
66.2408374018
 10
7.6664765793
 20
66.2261269412
 10
7.6743231938
 20
66.2122346682
 10
7.6822569541
 20
66.1991595348
 10
7.6902708387
 20
66.1868042786
 10
7.6983177521
 20
66.1751496939
 10
7.706349812
 20
66.1641805734
 10
7.7143760608
 20
66.1538119219
 10
7.7223649414
 20
66.1440228144
 10
7.7302791922
 20
66.1348013739
 10
7.7381316243
 20
66.1260821527
 10
7.7458985595
 20
66.1178476679
 10
7.7535529701
 20
66.1100853966
 10
7.7611111429
 20
66.1027423661
 10
7.7685559574
 20
66.0958032959
 10
7.7758670172
 20
66.089256982
 10
7.7830617483
 20
66.0830608334
 10
7.7901275744
 20
66.0772018333
 10
7.7970491196
 20
66.0716700425
 10
7.803843943
 20
66.0664310252
 10
7.8105027527
 20
66.0614737808
 10
7.8170138863
 20
66.056789642
 10
7.8233944836
 20
66.0523505941
 10
7.8296377512
 20
66.0481473173
 10
7.8357346898
 20
66.0441724128
 10
7.8417014176
 20
66.0404031426
 10
7.8475328338
 20
66.0368317118
 10
7.8532220615
 20
66.0334517505
 10
7.8587842324
 20
66.0302446174
 10
7.8642155168
 20
66.0272037868
 10
7.8695106162
 20
66.0243238195
 10
7.8746837063
 20
66.0215893163
 10
7.8797320239
 20
66.0189947586
 10
7.8846513489
 20
66.0165355861
 10
7.8894546038
 20
66.0141991608
 10
7.8941396546
 20
66.01198089
 10
7.8987032631
 20
66.0098768702
 10
7.9031573956
 20
66.0078765835
 10
7.9075006625
 20
66.0059760883
 10
7.9117303082
 20
66.0041721766
 10
7.9158567739
 20
66.0024563149
 10
7.9198787601
 20
66.0008252964
 10
7.9237943415
 20
65.9992762757
 10
7.9276134171
 20
65.9978019876
 10
7.9313349719
 20
65.9963997455
 10
7.9349575114
 20
65.9950671316
 10
7.9384905254
 20
65.9937979026
 10
7.9419342551
 20
65.9925894559
 10
7.9452865112
 20
65.9914401206
 10
7.9485533609
 20
65.99034552
 10
7.9517363317
 20
65.9893030223
 10
7.9548323468
 20
65.9883115799
 10
7.9578406826
 20
65.9873694083
 10
7.9607596402
 20
65.986475078
 10
7.963589602
 20
65.9856265754
 10
7.9663330409
 20
65.984821366
 10
7.9689899152
 20
65.9840577639
 10
7.9715592013
 20
65.9833344239
 10
7.9740419711
 20
65.9826494728
 10
7.9764305965
 20
65.982003456
 10
7.9787318141
 20
65.9813930528
 10
7.9809683793
 20
65.9808110159
 10
7.9831420067
 20
65.9802559148
 10
7.9873105531
 20
65.9792203354
  0
LINE
  5
31A
100
AcDbEntity
  8
IMPORT_IGES
100
AcDbLine
 62
7
  6
CONTINUOUS
 10
8.2319045071
 20
33.393144101
 11
8.2529236642
 21
31.3721249438
  0
LINE
  5
31B
100
AcDbEntity
  8
IMPORT_IGES
100
AcDbLine
 62
250
  6
CONTINUOUS
 10
8.1099785749
 20
65.965001746
 11
8.1056159717
 21
66.464906558
  0
LINE
  5
31C
100
AcDbEntity
  8
IMPORT_IGES
100
AcDbLine
 62
250
  6
CONTINUOUS
 10
10.6086532007
 20
66.486750233
 11
10.6130158039
 21
65.986845421
  0
LINE
  5
31D
100
AcDbEntity
  8
IMPORT_IGES
100
AcDbLine
 62
250
  6
CONTINUOUS
 10
7.6056921241
 20
68.9749480887
 11
7.6056921241
 21
66.464906558
  0
LINE
  5
31E
100
AcDbEntity
  8
IMPORT_IGES
100
AcDbLine
 62
250
  6
CONTINUOUS
 10
8.1056159717
 20
66.464906558
 11
8.1056159717
 21
68.9692512821
  0
LINE
  5
31F
100
AcDbEntity
  8
IMPORT_IGES
100
AcDbLine
 62
7
  6
CONTINUOUS
 10
8.2142673401
 20
31.4107812679
 11
8.2142673401
 21
33.4107812679
  0
LINE
  5
320
100
AcDbEntity
  8
IMPORT_IGES
100
AcDbLine
 62
7
  6
CONTINUOUS
 10
10.1142673401
 20
33.4107812679
 11
10.1142673401
 21
31.4107812679
  0
LINE
  5
321
100
AcDbEntity
  8
IMPORT_IGES
100
AcDbLine
 62
250
  6
CONTINUOUS
 10
10.6086532007
 20
68.9692512821
 11
10.6086532007
 21
66.486750233
  0
LINE
  5
322
100
AcDbEntity
  8
IMPORT_IGES
100
AcDbLine
 62
250
  6
CONTINUOUS
 10
10.6086532007
 20
31.35663661
 11
10.6086532007
 21
6.2664144459
  0
LINE
  5
323
100
AcDbEntity
  8
IMPORT_IGES
100
AcDbLine
 62
250
  6
CONTINUOUS
 10
10.6671232148
 20
65.945146122
 11
10.6671232148
 21
31.4107812679
  0
LINE
  5
324
100
AcDbEntity
  8
IMPORT_IGES
100
AcDbLine
 62
7
  6
CONTINUOUS
 10
11.1086341622
 20
6.7663954074
 11
11.1086341622
 21
30.8566556484
  0
LINE
  5
325
100
AcDbEntity
  8
IMPORT_IGES
100
AcDbLine
 62
7
  6
CONTINUOUS
 10
11.1086341622
 20
66.486750233
 11
11.1086341622
 21
68.9255069504
  0
LINE
  5
326
100
AcDbEntity
  8
IMPORT_IGES
100
AcDbLine
 62
7
  6
CONTINUOUS
 10
11.1520371485
 20
68.9213845682
 11
11.1520371485
 21
67.4390784191
  0
LINE
  5
327
100
AcDbEntity
  8
IMPORT_IGES
100
AcDbLine
 62
7
  6
CONTINUOUS
 10
11.1671041764
 20
30.9151256626
 11
11.1671041764
 21
68.9064559117
  0
LINE
  5
328
100
AcDbEntity
  8
IMPORT_IGES
100
AcDbLine
 62
7
  6
CONTINUOUS
 10
11.2142673401
 20
6.6607622295
 11
11.2142673401
 21
95.6608003064
  0
LINE
  5
329
100
AcDbEntity
  8
IMPORT_IGES
100
AcDbLine
 62
7
  6
CONTINUOUS
 10
11.2642309013
 20
84.6457419614
 11
11.2642309013
 21
77.913068694
  0
LINE
  5
32A
100
AcDbEntity
  8
IMPORT_IGES
100
AcDbLine
 62
7
  6
CONTINUOUS
 10
11.2642309013
 20
17.6160389911
 11
11.2642309013
 21
24.3487122584
  0
LINE
  5
32B
100
AcDbEntity
  8
IMPORT_IGES
100
AcDbLine
 62
250
  6
CONTINUOUS
 10
10.6085869103
 20
68.9692512821
 11
10.6496936013
 21
96.0961884906
  0
LINE
  5
32C
100
AcDbEntity
  8
IMPORT_IGES
100
AcDbLine
 62
7
  6
CONTINUOUS
 10
11.1496745628
 20
95.5962075291
 11
11.1086341622
 21
68.9255069504
  0
LINE
  5
32D
100
AcDbEntity
  8
IMPORT_IGES
100
AcDbLine
 62
7
  6
CONTINUOUS
 10
10.075611016
 20
31.3721249438
 11
10.0966301731
 21
33.393144101
  0
LINE
  5
32E
100
AcDbEntity
  8
IMPORT_IGES
100
AcDbLine
 62
7
  6
CONTINUOUS
 10
11.1520371485
 20
67.4390784191
 11
11.1367969056
 21
66.4306640837
  0
LWPOLYLINE
  5
32F
100
AcDbEntity
  8
IMPORT_IGES
100
AcDbPolyline
 62
250
  6
CONTINUOUS
 90
31
 70
0
 10
-12.1564393282
 20
11.8237812205
 10
-12.1425667867
 20
11.8239747687
 10
-12.1280455577
 20
11.8245902707
 10
-12.1128903841
 20
11.8256847305
 10
-12.0971341815
 20
11.8273154303
 10
-12.0807846331
 20
11.8295439768
 10
-12.0638252173
 20
11.8324408432
 10
-12.0462888061
 20
11.8360741232
 10
-12.02821278
 20
11.8405133055
 10
-12.0095974843
 20
11.8458419521
 10
-11.9904989049
 20
11.8521343434
 10
-11.9709721406
 20
11.859467266
 10
-11.9510309767
 20
11.8679397267
 10
-11.9307640723
 20
11.8776273297
 10
-11.9102488673
 20
11.8886128944
 10
-11.8895050886
 20
11.9010212603
 10
-11.8686648586
 20
11.9149237086
 10
-11.8478380253
 20
11.9304077496
 10
-11.8270492587
 20
11.9476448133
 10
-11.8064751961
 20
11.9667089132
 10
-11.786293377
 20
11.9876758987
 10
-11.7665904338
 20
12.010744266
 10
-11.7476201729
 20
12.0359602708
 10
-11.7296331206
 20
12.0633768967
 10
-11.7128010455
 20
12.0932183498
 10
-11.6974737915
 20
12.1254751748
 10
-11.6840042757
 20
12.1601336107
 10
-11.6726986469
 20
12.1974031477
 10
-11.6640025433
 20
12.2372723674
 10
-11.6584270606
 20
12.2794746667
 10
-11.6564583667
 20
12.323762182
  0
LINE
  5
330
100
AcDbEntity
  8
IMPORT_IGES
100
AcDbLine
 62
7
  6
CONTINUOUS
 10
-7.9752604185
 20
8.2003090266
 11
-10.5962049012
 21
8.2003090266
  0
LINE
  5
331
100
AcDbEntity
  8
IMPORT_IGES
100
AcDbLine
 62
7
  6
CONTINUOUS
 10
-10.5857326599
 20
8.2107812679
 11
-7.9857326599
 21
8.2107812679
  0
LINE
  5
332
100
AcDbEntity
  8
IMPORT_IGES
100
AcDbLine
 62
7
  6
CONTINUOUS
 10
-12.8857326599
 20
11.391579943
 11
-12.7857326599
 21
11.391579943
  0
LINE
  5
333
100
AcDbEntity
  8
IMPORT_IGES
100
AcDbLine
 62
7
  6
CONTINUOUS
 10
-0.7857326599
 20
11.391579943
 11
-0.6857326599
 21
11.391579943
  0
LINE
  5
334
100
AcDbEntity
  8
IMPORT_IGES
100
AcDbLine
 62
7
  6
CONTINUOUS
 10
-0.6438436945
 20
11.8115255279
 11
-1.4272816842
 21
11.8115255279
  0
LINE
  5
335
100
AcDbEntity
  8
IMPORT_IGES
100
AcDbLine
 62
7
  6
CONTINUOUS
 10
-12.1441836356
 20
11.8115255279
 11
-12.9276216253
 21
11.8115255279
  0
LINE
  5
336
100
AcDbEntity
  8
IMPORT_IGES
100
AcDbLine
 62
7
  6
CONTINUOUS
 10
-12.9398773179
 20
11.8237812205
 11
-12.1564393282
 21
11.8237812205
  0
LINE
  5
337
100
AcDbEntity
  8
IMPORT_IGES
100
AcDbLine
 62
7
  6
CONTINUOUS
 10
-1.4150259916
 20
11.8237812205
 11
-0.6315880019
 21
11.8237812205
  0
LINE
  5
338
100
AcDbEntity
  8
IMPORT_IGES
100
AcDbLine
 62
250
  6
CONTINUOUS
 10
-0.1316070404
 20
12.323762182
 11
-1.9150069531
 21
12.323762182
  0
LINE
  5
339
100
AcDbEntity
  8
IMPORT_IGES
100
AcDbLine
 62
250
  6
CONTINUOUS
 10
-11.6564583667
 20
12.323762182
 11
-13.4398582794
 21
12.323762182
  0
LWPOLYLINE
  5
33A
100
AcDbEntity
  8
IMPORT_IGES
100
AcDbPolyline
 62
7
  6
CONTINUOUS
 90
10
 70
0
 10
-10.3339314213
 20
25.0335055551
 10
-10.3525281358
 20
25.0478735023
 10
-10.3719307863
 20
25.060635051
 10
-10.3921393728
 20
25.0717902009
 10
-10.4132846005
 20
25.0813863345
 10
-10.4352357643
 20
25.0893760695
 10
-10.457600748
 20
25.095617259
 10
-10.4802488465
 20
25.1000625207
 10
-10.503310765
 20
25.1027592369
 10
-10.5267865035
 20
25.1037074077
  0
LINE
  5
33B
100
AcDbEntity
  8
IMPORT_IGES
100
AcDbLine
 62
7
  6
CONTINUOUS
 10
-7.7499140744
 20
22.8117146033
 11
-10.2929151427
 21
24.9455458617
  0
LINE
  5
33C
100
AcDbEntity
  8
IMPORT_IGES
100
AcDbLine
 62
7
  6
CONTINUOUS
 10
-10.3339314213
 20
25.0335055551
 11
-7.7235493187
 21
22.8431348956
  0
LINE
  5
33D
100
AcDbEntity
  8
IMPORT_IGES
100
AcDbLine
 62
7
  6
CONTINUOUS
 10
-6.8006613644
 20
23.9197649893
 11
-10.7195893019
 21
27.2081359762
  0
LINE
  5
33E
100
AcDbEntity
  8
IMPORT_IGES
100
AcDbLine
 62
7
  6
CONTINUOUS
 10
-7.5073703396
 20
24.5292827991
 11
-6.7960557003
 21
23.9324189476
  0
LINE
  5
33F
100
AcDbEntity
  8
IMPORT_IGES
100
AcDbLine
 62
7
  6
CONTINUOUS
 10
-10.6785730233
 20
27.2272621811
 11
-7.5357326599
 21
24.5901059913
  0
LINE
  5
340
100
AcDbEntity
  8
IMPORT_IGES
100
AcDbLine
 62
7
  6
CONTINUOUS
 10
-5.4752604185
 20
21.6584265615
 11
-5.4857326599
 21
21.6688988028
  0
LINE
  5
341
100
AcDbEntity
  8
IMPORT_IGES
100
AcDbLine
 62
7
  6
CONTINUOUS
 10
-2.7573703396
 20
18.9607812679
 11
-2.7447163813
 21
18.9481273096
  0
LINE
  5
342
100
AcDbEntity
  8
IMPORT_IGES
100
AcDbLine
 62
250
  6
CONTINUOUS
 10
-3.0573589165
 20
19.4324189476
 11
-3.0857212368
 21
19.4607812679
  0
LINE
  5
343
100
AcDbEntity
  8
IMPORT_IGES
100
AcDbLine
 62
250
  6
CONTINUOUS
 10
10.7142863786
 20
6.1607812679
 11
10.6086532007
 21
6.2664144459
  0
LINE
  5
344
100
AcDbEntity
  8
IMPORT_IGES
100
AcDbLine
 62
250
  6
CONTINUOUS
 10
-2.7857326599
 20
19.7607698449
 11
-2.7573703396
 21
19.7324075245
  0
LINE
  5
345
100
AcDbEntity
  8
IMPORT_IGES
100
AcDbLine
 62
250
  6
CONTINUOUS
 10
11.1086341622
 20
6.7663954074
 11
11.2142673401
 21
6.6607622295
  0
LWPOLYLINE
  5
346
100
AcDbEntity
  8
IMPORT_IGES
100
AcDbPolyline
 62
7
  6
CONTINUOUS
 90
6
 70
0
 10
-21.1906820571
 20
69.0106830772
 10
-21.1952492354
 20
69.0193591284
 10
-21.2004958886
 20
69.0288618033
 10
-21.2064387109
 20
69.0393136161
 10
-21.2131015801
 20
69.0507299587
 10
-21.2285261988
 20
69.0764863969
  0
LWPOLYLINE
  5
347
100
AcDbEntity
  8
IMPORT_IGES
100
AcDbPolyline
 62
250
  6
CONTINUOUS
 90
31
 70
0
 10
11.1496745628
 20
95.5962075291
 10
11.147817064
 20
95.6392274546
 10
11.1425320624
 20
95.6803793478
 10
11.1342432432
 20
95.7194289265
 10
11.1233910256
 20
95.7561455581
 10
11.110374288
 20
95.7904770225
 10
11.0955019056
 20
95.822527106
 10
11.0791151361
 20
95.8522570573
 10
11.0615355586
 20
95.8796671979
 10
11.0429461736
 20
95.9049386176
 10
11.0235980718
 20
95.9281073754
 10
11.0037296819
 20
95.9492236482
 10
10.983424165
 20
95.9684788691
 10
10.962850498
 20
95.9859447884
 10
10.9421848949
 20
96.0016847071
 10
10.9214637073
 20
96.0158557167
 10
10.9008037012
 20
96.0285362756
 10
10.8803291517
 20
96.0397981318
 10
10.8600504874
 20
96.0497672396
 10
10.8400466713
 20
96.058520483
 10
10.8204046382
 20
96.0661293159
 10
10.801122986
 20
96.072693745
 10
10.7822517968
 20
96.0782858981
 10
10.7638528272
 20
96.0829725336
 10
10.7459271736
 20
96.0868325085
 10
10.7285125514
 20
96.0899307391
 10
10.7116443344
 20
96.0923308882
 10
10.6953102809
 20
96.0940997074
 10
10.679520742
 20
96.095295734
 10
10.664309645
 20
96.095973695
 10
10.6496936013
 20
96.0961884906
  0
LINE
  5
348
100
AcDbEntity
  8
IMPORT_IGES
100
AcDbLine
 62
7
  6
CONTINUOUS
 10
-10.5874933992
 20
15.5125420072
 11
-7.9839719206
 21
15.5125420072
  0
LINE
  5
349
100
AcDbEntity
  8
IMPORT_IGES
100
AcDbLine
 62
7
  6
CONTINUOUS
 10
-10.5962049012
 20
16.5107812679
 11
-7.9752604185
 21
16.5107812679
  0
LINE
  5
34A
100
AcDbEntity
  8
IMPORT_IGES
100
AcDbLine
 62
7
  6
CONTINUOUS
 10
-7.9752604185
 20
17.3003090266
 11
-10.5962049012
 21
17.3003090266
  0
LINE
  5
34B
100
AcDbEntity
  8
IMPORT_IGES
100
AcDbLine
 62
7
  6
CONTINUOUS
 10
-10.5857326599
 20
17.3107812679
 11
-7.9857326599
 21
17.3107812679
  0
LINE
  5
34C
100
AcDbEntity
  8
IMPORT_IGES
100
AcDbLine
 62
7
  6
CONTINUOUS
 10
-3.0857212368
 20
17.4607812679
 11
-9.2857326599
 21
17.4607812679
  0
LINE
  5
34D
100
AcDbEntity
  8
IMPORT_IGES
100
AcDbLine
 62
7
  6
CONTINUOUS
 10
-9.2857326599
 20
17.4891435883
 11
-3.0573589165
 21
17.4891435883
  0
LINE
  5
34E
100
AcDbEntity
  8
IMPORT_IGES
100
AcDbLine
 62
7
  6
CONTINUOUS
 10
11.2642309013
 20
17.6160389911
 11
11.2142673401
 21
17.6160389911
  0
LINE
  5
34F
100
AcDbEntity
  8
IMPORT_IGES
100
AcDbLine
 62
7
  6
CONTINUOUS
 10
-24.7857326599
 20
17.6160389911
 11
-24.8149770195
 21
17.6160389911
  0
LINE
  5
350
100
AcDbEntity
  8
IMPORT_IGES
100
AcDbLine
 62
7
  6
CONTINUOUS
 10
-8.2857326599
 20
17.9607812679
 11
-2.7573703396
 21
17.9607812679
  0
LINE
  5
351
100
AcDbEntity
  8
IMPORT_IGES
100
AcDbLine
 62
7
  6
CONTINUOUS
 10
-8.2857326599
 20
17.9607812679
 11
-2.7447163813
 21
17.9734352262
  0
LINE
  5
352
100
AcDbEntity
  8
IMPORT_IGES
100
AcDbLine
 62
7
  6
CONTINUOUS
 10
-2.7573703396
 20
18.9607812679
 11
-8.2857326599
 21
18.9607812679
  0
LINE
  5
353
100
AcDbEntity
  8
IMPORT_IGES
100
AcDbLine
 62
7
  6
CONTINUOUS
 10
-3.0573589165
 20
19.4324189476
 11
-9.2857326599
 21
19.4324189476
  0
LINE
  5
354
100
AcDbEntity
  8
IMPORT_IGES
100
AcDbLine
 62
7
  6
CONTINUOUS
 10
-9.2857326599
 20
19.4607812679
 11
-3.0857212368
 21
19.4607812679
  0
LINE
  5
355
100
AcDbEntity
  8
IMPORT_IGES
100
AcDbLine
 62
7
  6
CONTINUOUS
 10
-7.9857326599
 20
19.5107812679
 11
-10.5857326599
 21
19.5107812679
  0
LINE
  5
356
100
AcDbEntity
  8
IMPORT_IGES
100
AcDbLine
 62
7
  6
CONTINUOUS
 10
-10.5962049012
 20
19.5212535093
 11
-7.9752604185
 21
19.5212535093
  0
LINE
  5
357
100
AcDbEntity
  8
IMPORT_IGES
100
AcDbLine
 62
7
  6
CONTINUOUS
 10
-2.7447163813
 20
18.9481273096
 11
-8.2857326599
 21
18.9607812679
  0
LINE
  5
358
100
AcDbEntity
  8
IMPORT_IGES
100
AcDbLine
 62
7
  6
CONTINUOUS
 10
-0.6315880019
 20
25.7992698354
 11
-0.6311298207
 21
25.7988217516
  0
LINE
  5
359
100
AcDbEntity
  8
IMPORT_IGES
100
AcDbLine
 62
7
  6
CONTINUOUS
 10
-5.4752604185
 20
25.7584265615
 11
-5.4857326599
 21
25.7688988028
  0
LINE
  5
35A
100
AcDbEntity
  8
IMPORT_IGES
100
AcDbLine
 62
250
  6
CONTINUOUS
 10
-10.7857326599
 20
31.6189102259
 11
-10.8267489385
 21
31.6599265045
  0
LINE
  5
35B
100
AcDbEntity
  8
IMPORT_IGES
100
AcDbLine
 62
250
  6
CONTINUOUS
 10
-3.0447049582
 20
23.9197649893
 11
-3.0857212368
 21
23.9607812679
  0
LINE
  5
35C
100
AcDbEntity
  8
IMPORT_IGES
100
AcDbLine
 62
250
  6
CONTINUOUS
 10
-10.5267604756
 20
31.9599151954
 11
-10.485744083
 21
31.9188988028
  0
LINE
  5
35D
100
AcDbEntity
  8
IMPORT_IGES
100
AcDbLine
 62
250
  6
CONTINUOUS
 10
-2.7857326599
 20
24.2607698449
 11
-2.7447163813
 21
24.2197535662
  0
LINE
  5
35E
100
AcDbEntity
  8
IMPORT_IGES
100
AcDbLine
 62
7
  6
CONTINUOUS
 10
-8.0962049012
 20
30.9793710442
 11
-8.0857326599
 21
30.9688988028
  0
LINE
  5
35F
100
AcDbEntity
  8
IMPORT_IGES
100
AcDbLine
 62
250
  6
CONTINUOUS
 10
-1.9150069531
 20
25.2992888738
 11
-1.9272626457
 21
25.3115445664
  0
LINE
  5
360
100
AcDbEntity
  8
IMPORT_IGES
100
AcDbLine
 62
250
  6
CONTINUOUS
 10
-1.4272816842
 20
25.8115255279
 11
-1.4150259916
 21
25.7992698354
  0
LINE
  5
361
100
AcDbEntity
  8
IMPORT_IGES
100
AcDbLine
 62
250
  6
CONTINUOUS
 10
-3.0944481046
 20
31.9686419493
 11
-3.0857212368
 21
31.9599150815
  0
LINE
  5
362
100
AcDbEntity
  8
IMPORT_IGES
100
AcDbLine
 62
250
  6
CONTINUOUS
 10
-2.7944595277
 20
32.2686305262
 11
-2.7857326599
 21
32.2599036584
  0
LINE
  5
363
100
AcDbEntity
  8
IMPORT_IGES
100
AcDbLine
 62
7
  6
CONTINUOUS
 10
-0.6438436945
 20
25.8115255279
 11
-0.158210151
 21
25.3260074967
  0
LINE
  5
364
100
AcDbEntity
  8
IMPORT_IGES
100
AcDbLine
 62
7
  6
CONTINUOUS
 10
-0.158210151
 20
25.3260074967
 11
-0.1316070404
 21
25.2992888738
  0
LWPOLYLINE
  5
365
100
AcDbEntity
  8
IMPORT_IGES
100
AcDbPolyline
 62
7
  6
CONTINUOUS
 90
26
 70
0
 10
-21.2285261988
 20
69.0764863969
 10
-21.2565921822
 20
69.1228884702
 10
-21.2668957653
 20
69.1401853984
 10
-21.2775665212
 20
69.1583348014
 10
-21.2882833188
 20
69.1769628159
 10
-21.2989648432
 20
69.1961350657
 10
-21.3095451531
 20
69.2157859271
 10
-21.3196658444
 20
69.2353446656
 10
-21.3291472448
 20
69.2546906738
 10
-21.3380050872
 20
69.2739445591
 10
-21.3461578526
 20
69.2928974093
 10
-21.3535162315
 20
69.3114745677
 10
-21.3600620175
 20
69.329750691
 10
-21.3658347959
 20
69.3477408381
 10
-21.3708044276
 20
69.3654116907
 10
-21.3749422054
 20
69.3827965669
 10
-21.3783034578
 20
69.4000104803
 10
-21.3808852086
 20
69.417064147
 10
-21.3826633329
 20
69.4339468507
 10
-21.3836695841
 20
69.4507414559
 10
-21.3839081002
 20
69.4674356771
 10
-21.3833695439
 20
69.4840417998
 10
-21.3820707312
 20
69.5006795447
 10
-21.3800218635
 20
69.5173888185
 10
-21.3772266427
 20
69.5341297144
 10
-21.3736969688
 20
69.5509022325
  0
LWPOLYLINE
  5
366
100
AcDbEntity
  8
IMPORT_IGES
100
AcDbPolyline
 62
7
  6
CONTINUOUS
 90
25
 70
0
 10
-4.2233202397
 20
81.9866901513
 10
-4.1831627202
 20
81.8177208129
 10
-4.133545901
 20
81.6529828699
 10
-4.0744697823
 20
81.4924763224
 10
-4.0055948443
 20
81.3357221512
 10
-3.9272606066
 20
81.1831993754
 10
-3.8404856287
 20
81.0363450519
 10
-3.7453046419
 20
80.8952729254
 10
-3.6416829148
 20
80.7598692513
 10
-3.5305348126
 20
80.6312298528
 10
-3.41163406
 20
80.509228903
 10
-3.2852069323
 20
80.3939922288
 10
-3.1528466208
 20
80.2869931345
 10
-3.0146936973
 20
80.1885051409
 10
-2.8706075899
 20
80.0982547271
 10
-2.7217597753
 20
80.0168946356
 10
-2.5678405547
 20
79.9443468788
 10
-2.4091596268
 20
79.8806894444
 10
-2.2478175638
 20
79.8268090367
 10
-2.0842944044
 20
79.7829286221
 10
-1.9181101099
 20
79.7488252344
 10
-1.7499251356
 20
79.7247166796
 10
-1.5799596334
 20
79.7106755596
 10
-1.4079934514
 20
79.7066292725
 10
-1.2340265896
 20
79.7125778184
  0
LWPOLYLINE
  5
367
100
AcDbEntity
  8
IMPORT_IGES
100
AcDbPolyline
 62
7
  6
CONTINUOUS
 90
13
 70
0
 10
-10.5267865035
 20
25.1037074077
 10
-10.5669918868
 20
25.1007829532
 10
-10.6052552892
 20
25.0931707422
 10
-10.6415767109
 20
25.0808707747
 10
-10.6765046953
 20
25.0635166888
 10
-10.7094906989
 20
25.0414748465
 10
-10.738889091
 20
25.0158443331
 10
-10.7645179727
 20
24.9864432276
 10
-10.7865592429
 20
24.9534534512
 10
-10.8039129679
 20
24.9185198526
 10
-10.8162125033
 20
24.8821907148
 10
-10.8238244935
 20
24.8439177548
 10
-10.8267489385
 20
24.8037009727
  0
LWPOLYLINE
  5
368
100
AcDbEntity
  8
IMPORT_IGES
100
AcDbPolyline
 62
250
  6
CONTINUOUS
 90
31
 70
0
 10
-1.4150259916
 20
25.7992698354
 10
-1.4288985331
 20
25.7990762871
 10
-1.4434197621
 20
25.7984607851
 10
-1.4585749357
 20
25.7973663254
 10
-1.4743311383
 20
25.7957356256
 10
-1.4906806867
 20
25.793507079
 10
-1.5076401024
 20
25.7906102127
 10
-1.5251765137
 20
25.7869769326
 10
-1.5432525398
 20
25.7825377503
 10
-1.5618678355
 20
25.7772091038
 10
-1.5809664149
 20
25.7709167124
 10
-1.6004931791
 20
25.7635837898
 10
-1.6204343431
 20
25.7551113291
 10
-1.6407012475
 20
25.7454237261
 10
-1.6612164525
 20
25.7344381614
 10
-1.6819602312
 20
25.7220297956
 10
-1.7028004612
 20
25.7081273473
 10
-1.7236272944
 20
25.6926433063
 10
-1.7444160611
 20
25.6754062426
 10
-1.7649901237
 20
25.6563421426
 10
-1.7851719427
 20
25.6353751572
 10
-1.804874886
 20
25.6123067898
 10
-1.8238451469
 20
25.5870907851
 10
-1.8418321991
 20
25.5596741592
 10
-1.8586642743
 20
25.529832706
 10
-1.8739915283
 20
25.497575881
 10
-1.887461044
 20
25.4629174452
 10
-1.8987666729
 20
25.4256479081
 10
-1.9074627765
 20
25.3857786884
 10
-1.9130382592
 20
25.3435763892
 10
-1.9150069531
 20
25.2992888738
  0
LINE
  5
369
100
AcDbEntity
  8
IMPORT_IGES
100
AcDbLine
 62
7
  6
CONTINUOUS
 10
-5.4752604185
 20
21.6584265615
 11
-8.0962049012
 21
21.6584265615
  0
LINE
  5
36A
100
AcDbEntity
  8
IMPORT_IGES
100
AcDbLine
 62
7
  6
CONTINUOUS
 10
-8.0857326599
 20
21.6688988028
 11
-5.4857326599
 21
21.6688988028
  0
LINE
  5
36B
100
AcDbEntity
  8
IMPORT_IGES
100
AcDbLine
 62
7
  6
CONTINUOUS
 10
-3.0857212368
 20
22.4607812679
 11
-6.7857326599
 21
22.4607812679
  0
LINE
  5
36C
100
AcDbEntity
  8
IMPORT_IGES
100
AcDbLine
 62
7
  6
CONTINUOUS
 10
-6.7857326599
 20
22.5017975466
 11
-3.0447049582
 21
22.5017975466
  0
LINE
  5
36D
100
AcDbEntity
  8
IMPORT_IGES
100
AcDbLine
 62
7
  6
CONTINUOUS
 10
-3.0447049582
 20
23.9197649893
 11
-6.8006613644
 21
23.9197649893
  0
LINE
  5
36E
100
AcDbEntity
  8
IMPORT_IGES
100
AcDbLine
 62
7
  6
CONTINUOUS
 10
-6.7960557003
 20
23.9324189476
 11
-6.0640949802
 21
23.9324189476
  0
LINE
  5
36F
100
AcDbEntity
  8
IMPORT_IGES
100
AcDbLine
 62
7
  6
CONTINUOUS
 10
-6.0357326599
 20
23.9607812679
 11
-3.0857212368
 21
23.9607812679
  0
LINE
  5
370
100
AcDbEntity
  8
IMPORT_IGES
100
AcDbLine
 62
7
  6
CONTINUOUS
 10
-6.0357326599
 20
24.2706595421
 11
-5.4839719206
 21
24.2706595421
  0
LINE
  5
371
100
AcDbEntity
  8
IMPORT_IGES
100
AcDbLine
 62
7
  6
CONTINUOUS
 10
-24.8149770195
 20
24.3487122584
 11
-24.7857326599
 21
24.3487122584
  0
LINE
  5
372
100
AcDbEntity
  8
IMPORT_IGES
100
AcDbLine
 62
7
  6
CONTINUOUS
 10
11.2142673401
 20
24.3487122584
 11
11.2642309013
 21
24.3487122584
  0
LINE
  5
373
100
AcDbEntity
  8
IMPORT_IGES
100
AcDbLine
 62
7
  6
CONTINUOUS
 10
-8.0962049012
 20
25.2688988028
 11
-7.5357326599
 21
25.2688988028
  0
LINE
  5
374
100
AcDbEntity
  8
IMPORT_IGES
100
AcDbLine
 62
7
  6
CONTINUOUS
 10
-6.0357326599
 20
25.2688988028
 11
-5.4752604185
 21
25.2688988028
  0
LINE
  5
375
100
AcDbEntity
  8
IMPORT_IGES
100
AcDbLine
 62
250
  6
CONTINUOUS
 10
-13.4398582794
 20
25.2992888738
 11
-11.6564583667
 21
25.2992888738
  0
LINE
  5
376
100
AcDbEntity
  8
IMPORT_IGES
100
AcDbLine
 62
250
  6
CONTINUOUS
 10
-1.9150069531
 20
25.2992888738
 11
-0.1316070404
 21
25.2992888738
  0
LINE
  5
377
100
AcDbEntity
  8
IMPORT_IGES
100
AcDbLine
 62
7
  6
CONTINUOUS
 10
-5.4752604185
 20
25.7584265615
 11
-6.0357326599
 21
25.7584265615
  0
LINE
  5
378
100
AcDbEntity
  8
IMPORT_IGES
100
AcDbLine
 62
7
  6
CONTINUOUS
 10
-7.5357326599
 20
25.7584265615
 11
-8.0962049012
 21
25.7584265615
  0
LINE
  5
379
100
AcDbEntity
  8
IMPORT_IGES
100
AcDbLine
 62
7
  6
CONTINUOUS
 10
-8.0857326599
 20
25.7688988028
 11
-7.5357326599
 21
25.7688988028
  0
LINE
  5
37A
100
AcDbEntity
  8
IMPORT_IGES
100
AcDbLine
 62
7
  6
CONTINUOUS
 10
-6.0357326599
 20
25.7688988028
 11
-5.4857326599
 21
25.7688988028
  0
LINE
  5
37B
100
AcDbEntity
  8
IMPORT_IGES
100
AcDbLine
 62
7
  6
CONTINUOUS
 10
-0.6315880019
 20
25.7992698354
 11
-1.4150259916
 21
25.7992698354
  0
LINE
  5
37C
100
AcDbEntity
  8
IMPORT_IGES
100
AcDbLine
 62
7
  6
CONTINUOUS
 10
-12.1564393282
 20
25.7992698354
 11
-12.9398773179
 21
25.7992698354
  0
LINE
  5
37D
100
AcDbEntity
  8
IMPORT_IGES
100
AcDbLine
 62
7
  6
CONTINUOUS
 10
-12.9276216253
 20
25.8115255279
 11
-12.1441836356
 21
25.8115255279
  0
LINE
  5
37E
100
AcDbEntity
  8
IMPORT_IGES
100
AcDbLine
 62
7
  6
CONTINUOUS
 10
-1.4272816842
 20
25.8115255279
 11
-0.6438436945
 21
25.8115255279
  0
LINE
  5
37F
100
AcDbEntity
  8
IMPORT_IGES
100
AcDbLine
 62
7
  6
CONTINUOUS
 10
-12.8857326599
 20
26.2314711128
 11
-12.7857326599
 21
26.2314711128
  0
LINE
  5
380
100
AcDbEntity
  8
IMPORT_IGES
100
AcDbLine
 62
7
  6
CONTINUOUS
 10
-0.6857326599
 20
26.2314711128
 11
-0.7857326599
 21
26.2314711128
  0
LWPOLYLINE
  5
381
100
AcDbEntity
  8
IMPORT_IGES
100
AcDbPolyline
 62
7
  6
CONTINUOUS
 90
10
 70
0
 10
-10.4857702249
 20
25.0157477143
 10
-10.4622944864
 20
25.0147995436
 10
-10.4392325679
 20
25.0121028273
 10
-10.4165844694
 20
25.0076575656
 10
-10.3942194856
 20
25.0014163761
 10
-10.3722683219
 20
24.9934266412
 10
-10.3511230942
 20
24.9838305076
 10
-10.3309145077
 20
24.9726753576
 10
-10.3115118572
 20
24.959913809
 10
-10.2929151427
 20
24.9455458617
  0
LINE
  5
382
100
AcDbEntity
  8
IMPORT_IGES
100
AcDbLine
 62
250
  6
CONTINUOUS
 10
-0.6315880019
 20
30.8566556484
 11
-0.6857326599
 21
30.9108003064
  0
LINE
  5
383
100
AcDbEntity
  8
IMPORT_IGES
100
AcDbLine
 62
250
  6
CONTINUOUS
 10
-0.1857516984
 20
31.4107812679
 11
-0.1316070404
 21
31.35663661
  0
LWPOLYLINE
  5
384
100
AcDbEntity
  8
IMPORT_IGES
100
AcDbPolyline
 62
7
  6
CONTINUOUS
 90
13
 70
0
 10
-10.5238567293
 20
31.9604926363
 10
-10.5653574677
 20
31.9573122789
 10
-10.6045931972
 20
31.9495079902
 10
-10.6415639179
 20
31.9370797703
 10
-10.67671071
 20
31.9196823773
 10
-10.7095924933
 20
31.897661053
 10
-10.738886027
 20
31.8720515232
 10
-10.7645168445
 20
31.8426503995
 10
-10.7865594124
 20
31.8096610703
 10
-10.8039138899
 20
31.7747294271
 10
-10.8162136632
 20
31.7384041003
 10
-10.8238253461
 20
31.7001364595
 10
-10.8267489385
 20
31.6599265045
  0
LWPOLYLINE
  5
385
100
AcDbEntity
  8
IMPORT_IGES
100
AcDbPolyline
 62
7
  6
CONTINUOUS
 90
37
 70
0
 10
-24.2342612059
 20
31.4107792954
 10
-24.2537140507
 20
31.4104043523
 10
-24.272740501
 20
31.4093096655
 10
-24.2913156062
 20
31.4075428441
 10
-24.3092342831
 20
31.4051789156
 10
-24.3266640462
 20
31.4022501701
 10
-24.3441338075
 20
31.3986810892
 10
-24.3617771074
 20
31.3944184157
 10
-24.3794053082
 20
31.3894819416
 10
-24.3970507518
 20
31.3838420581
 10
-24.4146821898
 20
31.3774835718
 10
-24.4322664674
 20
31.3703927782
 10
-24.4498262723
 20
31.3625308782
 10
-24.4673241234
 20
31.3538794433
 10
-24.484717295
 20
31.3444233309
 10
-24.5020116939
 20
31.3341186792
 10
-24.519160348
 20
31.3229464057
 10
-24.5361101638
 20
31.3108920656
 10
-24.5528472633
 20
31.2979112371
 10
-24.5693234555
 20
31.2839783889
 10
-24.5854629113
 20
31.2690911775
 10
-24.601202196
 20
31.2532395067
 10
-24.6164739936
 20
31.2364177353
 10
-24.6312060975
 20
31.2186266579
 10
-24.6453241295
 20
31.1998721117
 10
-24.6587608491
 20
31.1801521771
 10
-24.6714310504
 20
31.159492122
 10
-24.6832365418
 20
31.1379497746
 10
-24.694115295
 20
31.1155302084
 10
-24.7039804555
 20
31.0922905238
 10
-24.712718872
 20
31.0683852537
 10
-24.7202725858
 20
31.0438794628
 10
-24.7265939932
 20
31.0188162543
 10
-24.7316178505
 20
30.9933337142
 10
-24.7353056626
 20
30.9675242123
 10
-24.7376322528
 20
30.9414309833
 10
-24.7385694962
 20
30.9151256626
  0
LWPOLYLINE
  5
386
100
AcDbEntity
  8
IMPORT_IGES
100
AcDbPolyline
 62
250
  6
CONTINUOUS
 90
31
 70
0
 10
-0.1316070404
 20
31.35663661
 10
-0.1454795819
 20
31.3564430618
 10
-0.1600008109
 20
31.3558275597
 10
-0.1751559845
 20
31.3547331
 10
-0.1909121871
 20
31.3531024002
 10
-0.2072617355
 20
31.3508738536
 10
-0.2242211512
 20
31.3479769873
 10
-0.2417575625
 20
31.3443437072
 10
-0.2598335886
 20
31.3399045249
 10
-0.2784488843
 20
31.3345758784
 10
-0.2975474637
 20
31.328283487
 10
-0.3170742279
 20
31.3209505645
 10
-0.3370153919
 20
31.3124781038
 10
-0.3572822963
 20
31.3027905008
 10
-0.3777975013
 20
31.2918049361
 10
-0.39854128
 20
31.2793965702
 10
-0.41938151
 20
31.2654941219
 10
-0.4402083432
 20
31.2500100809
 10
-0.4609971099
 20
31.2327730172
 10
-0.4815711725
 20
31.2137089172
 10
-0.5017529915
 20
31.1927419318
 10
-0.5214559348
 20
31.1696735644
 10
-0.5404261957
 20
31.1444575597
 10
-0.558413248
 20
31.1170409338
 10
-0.5752453231
 20
31.0871994807
 10
-0.5905725771
 20
31.0549426556
 10
-0.6040420928
 20
31.0202842198
 10
-0.6153477217
 20
30.9830146827
 10
-0.6240438253
 20
30.943145463
 10
-0.629619308
 20
30.9009431638
 10
-0.6315880019
 20
30.8566556484
  0
LWPOLYLINE
  5
387
100
AcDbEntity
  8
IMPORT_IGES
100
AcDbPolyline
 62
250
  6
CONTINUOUS
 90
31
 70
0
 10
-24.1801185204
 20
31.35663661
 10
-24.1939910619
 20
31.3564430618
 10
-24.2085122909
 20
31.3558275597
 10
-24.2236674645
 20
31.3547331
 10
-24.2394236671
 20
31.3531024002
 10
-24.2557732155
 20
31.3508738536
 10
-24.2727326313
 20
31.3479769873
 10
-24.2902690425
 20
31.3443437072
 10
-24.3083450686
 20
31.3399045249
 10
-24.3269603643
 20
31.3345758784
 10
-24.3460589437
 20
31.328283487
 10
-24.365585708
 20
31.3209505645
 10
-24.3855268719
 20
31.3124781038
 10
-24.4057937764
 20
31.3027905008
 10
-24.4263089813
 20
31.2918049361
 10
-24.44705276
 20
31.2793965702
 10
-24.46789299
 20
31.2654941219
 10
-24.4887198233
 20
31.2500100809
 10
-24.5095085899
 20
31.2327730172
 10
-24.5300826525
 20
31.2137089172
 10
-24.5502644716
 20
31.1927419318
 10
-24.5699674148
 20
31.1696735644
 10
-24.5889376757
 20
31.1444575597
 10
-24.606924728
 20
31.1170409338
 10
-24.6237568031
 20
31.0871994807
 10
-24.6390840571
 20
31.0549426556
 10
-24.6525535729
 20
31.0202842198
 10
-24.6638592017
 20
30.9830146827
 10
-24.6725553053
 20
30.943145463
 10
-24.678130788
 20
30.9009431638
 10
-24.680099482
 20
30.8566556484
  0
LINE
  5
388
100
AcDbEntity
  8
IMPORT_IGES
100
AcDbLine
 62
250
  6
CONTINUOUS
 10
-7.5357326599
 20
30.1688988028
 11
-7.5073703396
 21
30.1688988028
  0
LINE
  5
389
100
AcDbEntity
  8
IMPORT_IGES
100
AcDbLine
 62
250
  6
CONTINUOUS
 10
-6.0640949802
 20
30.1688988028
 11
-6.0357326599
 21
30.1688988028
  0
LINE
  5
38A
100
AcDbEntity
  8
IMPORT_IGES
100
AcDbLine
 62
250
  6
CONTINUOUS
 10
-24.680099482
 20
30.8566556484
 11
-12.9398773179
 21
30.8566556484
  0
LINE
  5
38B
100
AcDbEntity
  8
IMPORT_IGES
100
AcDbLine
 62
250
  6
CONTINUOUS
 10
-0.6315880019
 20
30.8566556484
 11
11.1086341622
 21
30.8566556484
  0
LINE
  5
38C
100
AcDbEntity
  8
IMPORT_IGES
100
AcDbLine
 62
7
  6
CONTINUOUS
 10
-5.4857326599
 20
30.9688988028
 11
-8.0857326599
 21
30.9688988028
  0
LINE
  5
38D
100
AcDbEntity
  8
IMPORT_IGES
100
AcDbLine
 62
7
  6
CONTINUOUS
 10
-8.0962049012
 20
30.9793710442
 11
-5.4752604185
 21
30.9793710442
  0
LINE
  5
38E
100
AcDbEntity
  8
IMPORT_IGES
100
AcDbLine
 62
7
  6
CONTINUOUS
 10
10.6086532007
 20
31.35663661
 11
-0.1316070404
 21
31.35663661
  0
LINE
  5
38F
100
AcDbEntity
  8
IMPORT_IGES
100
AcDbLine
 62
7
  6
CONTINUOUS
 10
-13.4398582794
 20
31.35663661
 11
-24.1801185204
 21
31.35663661
  0
LINE
  5
390
100
AcDbEntity
  8
IMPORT_IGES
100
AcDbLine
 62
7
  6
CONTINUOUS
 10
-23.6470763358
 20
31.3721249438
 11
-21.824388984
 21
31.3721249438
  0
LINE
  5
391
100
AcDbEntity
  8
IMPORT_IGES
100
AcDbLine
 62
7
  6
CONTINUOUS
 10
8.2529236642
 20
31.3721249438
 11
10.075611016
 21
31.3721249438
  0
LINE
  5
392
100
AcDbEntity
  8
IMPORT_IGES
100
AcDbLine
 62
7
  6
CONTINUOUS
 10
-24.2385885346
 20
31.4107812679
 11
-23.6857326599
 21
31.4107812679
  0
LINE
  5
393
100
AcDbEntity
  8
IMPORT_IGES
100
AcDbLine
 62
7
  6
CONTINUOUS
 10
-21.7857326599
 20
31.4107812679
 11
-13.3857136214
 21
31.4107812679
  0
LINE
  5
394
100
AcDbEntity
  8
IMPORT_IGES
100
AcDbLine
 62
7
  6
CONTINUOUS
 10
-0.1857516984
 20
31.4107812679
 11
8.2142673401
 21
31.4107812679
  0
LINE
  5
395
100
AcDbEntity
  8
IMPORT_IGES
100
AcDbLine
 62
7
  6
CONTINUOUS
 10
10.1142673401
 20
31.4107812679
 11
10.6671232148
 21
31.4107812679
  0
LINE
  5
396
100
AcDbEntity
  8
IMPORT_IGES
100
AcDbLine
 62
7
  6
CONTINUOUS
 10
-3.0857212368
 20
31.9188988028
 11
-10.485744083
 21
31.9188988028
  0
LINE
  5
397
100
AcDbEntity
  8
IMPORT_IGES
100
AcDbLine
 62
7
  6
CONTINUOUS
 10
-10.5267604756
 20
31.9599151954
 11
-10.485744083
 21
31.9599150815
  0
LINE
  5
398
100
AcDbEntity
  8
IMPORT_IGES
100
AcDbLine
 62
7
  6
CONTINUOUS
 10
-3.0857212368
 20
31.9599150815
 11
-3.0447049582
 21
31.9599150815
  0
LINE
  5
399
100
AcDbEntity
  8
IMPORT_IGES
100
AcDbLine
 62
7
  6
CONTINUOUS
 10
-10.4770172152
 20
31.9686419493
 11
-3.0944481046
 21
31.9686419493
  0
LINE
  5
39A
100
AcDbEntity
  8
IMPORT_IGES
100
AcDbLine
 62
7
  6
CONTINUOUS
 10
-10.7770057921
 20
32.4188988028
 11
-2.7944595277
 21
32.4188988028
  0
LINE
  5
39B
100
AcDbEntity
  8
IMPORT_IGES
100
AcDbLine
 62
7
  6
CONTINUOUS
 10
-12.7447163813
 20
33.257998434
 11
-10.7857326599
 21
33.257998434
  0
LINE
  5
39C
100
AcDbEntity
  8
IMPORT_IGES
100
AcDbLine
 62
7
  6
CONTINUOUS
 10
-2.7857326599
 20
33.257998434
 11
-0.8267489385
 21
33.257998434
  0
LINE
  5
39D
100
AcDbEntity
  8
IMPORT_IGES
100
AcDbLine
 62
7
  6
CONTINUOUS
 10
10.0966301731
 20
33.393144101
 11
8.2319045071
 21
33.393144101
  0
LINE
  5
39E
100
AcDbEntity
  8
IMPORT_IGES
100
AcDbLine
 62
7
  6
CONTINUOUS
 10
-21.8033698269
 20
33.393144101
 11
-23.6680954929
 21
33.393144101
  0
LINE
  5
39F
100
AcDbEntity
  8
IMPORT_IGES
100
AcDbLine
 62
7
  6
CONTINUOUS
 10
-23.6857326599
 20
33.4107812679
 11
-21.7857326599
 21
33.4107812679
  0
LINE
  5
3A0
100
AcDbEntity
  8
IMPORT_IGES
100
AcDbLine
 62
7
  6
CONTINUOUS
 10
8.2142673401
 20
33.4107812679
 11
10.1142673401
 21
33.4107812679
  0
LWPOLYLINE
  5
3A1
100
AcDbEntity
  8
IMPORT_IGES
100
AcDbPolyline
 62
7
  6
CONTINUOUS
 90
37
 70
0
 10
10.6671232148
 20
31.4107625596
 10
10.6846508667
 20
31.4103162143
 10
10.7022339687
 20
31.4092429758
 10
10.7198502864
 20
31.4075428441
 10
10.737452032
 20
31.4052282352
 10
10.7550412643
 20
31.4022867332
 10
10.7726684878
 20
31.3986810892
 10
10.7903117772
 20
31.3944172159
 10
10.8079400512
 20
31.3894892008
 10
10.825585432
 20
31.3838420581
 10
10.8432168456
 20
31.3774807506
 10
10.8608012128
 20
31.3704003155
 10
10.8783609525
 20
31.3625308782
 10
10.895858764
 20
31.3538748594
 10
10.9132520315
 20
31.3444298384
 10
10.9305463742
 20
31.3341186792
 10
10.9476949767
 20
31.3229404494
 10
10.9646448788
 20
31.3108960815
 10
10.9813819436
 20
31.2979112371
 10
10.9978580606
 20
31.2839697062
 10
11.0139975614
 20
31.269087699
 10
11.0297368762
 20
31.2532395067
 10
11.0450086186
 20
31.2364113481
 10
11.0597406943
 20
31.2186170044
 10
11.0738588097
 20
31.1998721117
 10
11.0872954939
 20
31.1801480759
 10
11.0999655694
 20
31.159473491
 10
11.111771222
 20
31.1379497746
 10
11.1226499813
 20
31.1155309116
 10
11.1325148969
 20
31.092262917
 10
11.1412535522
 20
31.0683852537
 10
11.1488073695
 20
31.0438914276
 10
11.1551284284
 20
31.0187879327
 10
11.1601525308
 20
30.9933337142
 10
11.163841129
 20
30.9676150873
 10
11.1661679257
 20
30.9415457367
 10
11.1671041764
 20
30.9151256626
  0
LINE
  5
3A2
100
AcDbEntity
  8
IMPORT_IGES
100
AcDbLine
 62
7
  6
CONTINUOUS
 10
8.2142673401
 20
31.4107812679
 11
8.2529236642
 21
31.3721249438
  0
LINE
  5
3A3
100
AcDbEntity
  8
IMPORT_IGES
100
AcDbLine
 62
7
  6
CONTINUOUS
 10
8.2142673401
 20
33.4107812679
 11
8.2319045071
 21
33.393144101
  0
LINE
  5
3A4
100
AcDbEntity
  8
IMPORT_IGES
100
AcDbLine
 62
250
  6
CONTINUOUS
 10
-21.6394618028
 20
65.9226516834
 11
-21.6814438946
 21
65.965001746
  0
LINE
  5
3A5
100
AcDbEntity
  8
IMPORT_IGES
100
AcDbLine
 62
250
  6
CONTINUOUS
 10
-21.1771574439
 20
66.464906558
 11
-21.1203555271
 21
66.4076067755
  0
LINE
  5
3A6
100
AcDbEntity
  8
IMPORT_IGES
100
AcDbLine
 62
7
  6
CONTINUOUS
 10
-0.801285353
 20
35.7063551334
 11
-12.7701799668
 21
35.7063551334
  0
LINE
  5
3A7
100
AcDbEntity
  8
IMPORT_IGES
100
AcDbLine
 62
7
  6
CONTINUOUS
 10
-0.7968575288
 20
35.7085682007
 11
-0.8012623365
 21
35.7085682007
  0
LINE
  5
3A8
100
AcDbEntity
  8
IMPORT_IGES
100
AcDbLine
 62
7
  6
CONTINUOUS
 10
-12.7702029833
 20
35.7085682007
 11
-12.774607791
 21
35.7085682007
  0
LINE
  5
3A9
100
AcDbEntity
  8
IMPORT_IGES
100
AcDbLine
 62
7
  6
CONTINUOUS
 10
-12.7753696033
 20
35.7107812679
 11
-0.7960957165
 21
35.7107812679
  0
LINE
  5
3AA
100
AcDbEntity
  8
IMPORT_IGES
100
AcDbLine
 62
250
  6
CONTINUOUS
 10
10.6339544255
 20
65.945146122
 11
10.6130158039
 21
65.986845421
  0
LINE
  5
3AB
100
AcDbEntity
  8
IMPORT_IGES
100
AcDbLine
 62
250
  6
CONTINUOUS
 10
11.1086341622
 20
66.486750233
 11
11.1367969056
 21
66.4306640837
  0
LWPOLYLINE
  5
3AC
100
AcDbEntity
  8
IMPORT_IGES
100
AcDbPolyline
 62
7
  6
CONTINUOUS
 90
19
 70
0
 10
11.1086341622
 20
68.9255069504
 10
11.1064599223
 20
68.9292682951
 10
11.100630185
 20
68.9329750644
 10
11.0910974098
 20
68.9366272585
 10
11.0777244893
 20
68.9402759297
 10
11.0605865243
 20
68.9438700256
 10
11.0402509476
 20
68.9472563887
 10
11.0173763318
 20
68.9503844522
 10
10.9920102224
 20
68.9533047829
 10
10.9639071744
 20
68.9560159235
 10
10.9332405141
 20
68.9585281146
 10
10.9002063595
 20
68.9608311156
 10
10.8643464974
 20
68.9628927474
 10
10.8252527934
 20
68.9647348229
 10
10.7836120179
 20
68.9663355292
 10
10.7406665378
 20
68.9675972491
 10
10.6971161439
 20
68.9684874432
 10
10.652993526
 20
68.9690386507
 10
10.6086532007
 20
68.9692508718
  0
LINE
  5
3AD
100
AcDbEntity
  8
IMPORT_IGES
100
AcDbLine
 62
7
  6
CONTINUOUS
 10
-21.0897151766
 20
68.9212461968
 11
-21.1754236747
 21
68.9640971821
  0
LINE
  5
3AE
100
AcDbEntity
  8
IMPORT_IGES
100
AcDbLine
 62
7
  6
CONTINUOUS
 10
-8.0911694467
 20
78.5627801614
 11
-8.093827898
 21
78.5653189892
  0
LINE
  5
3AF
100
AcDbEntity
  8
IMPORT_IGES
100
AcDbLine
 62
250
  6
CONTINUOUS
 10
-24.7211398826
 20
95.5962075291
 11
-24.7857326599
 21
95.6608003064
  0
LINE
  5
3B0
100
AcDbEntity
  8
IMPORT_IGES
100
AcDbLine
 62
250
  6
CONTINUOUS
 10
-24.2857516984
 20
96.1607812679
 11
-24.221158921
 21
96.0961884906
  0
LINE
  5
3B1
100
AcDbEntity
  8
IMPORT_IGES
100
AcDbLine
 62
7
  6
CONTINUOUS
 10
-8.0911694467
 20
85.4087217505
 11
-8.093827898
 21
85.4115678483
  0
LINE
  5
3B2
100
AcDbEntity
  8
IMPORT_IGES
100
AcDbLine
 62
250
  6
CONTINUOUS
 10
-24.2678055039
 20
65.9945875031
 11
-24.2643074286
 21
65.9939766965
  0
LINE
  5
3B3
100
AcDbEntity
  8
IMPORT_IGES
100
AcDbLine
 62
250
  6
CONTINUOUS
 10
-24.2712676577
 20
65.995217289
 11
-24.2678055039
 21
65.9945875031
  0
LINE
  5
3B4
100
AcDbEntity
  8
IMPORT_IGES
100
AcDbLine
 62
250
  6
CONTINUOUS
 10
-24.2748371479
 20
65.9958930042
 11
-24.2712676577
 21
65.995217289
  0
LINE
  5
3B5
100
AcDbEntity
  8
IMPORT_IGES
100
AcDbLine
 62
250
  6
CONTINUOUS
 10
-24.2786046571
 20
65.9966354055
 11
-24.2748371479
 21
65.9958930042
  0
LINE
  5
3B6
100
AcDbEntity
  8
IMPORT_IGES
100
AcDbLine
 62
7
  6
CONTINUOUS
 10
-4.2233202397
 20
81.9866901513
 11
-4.2265780802
 21
81.9893526965
  0
LINE
  5
3B7
100
AcDbEntity
  8
IMPORT_IGES
100
AcDbLine
 62
7
  6
CONTINUOUS
 10
-1.2340265896
 20
78.5627801614
 11
-1.2366850408
 21
78.5653189892
  0
LINE
  5
3B8
100
AcDbEntity
  8
IMPORT_IGES
100
AcDbLine
 62
7
  6
CONTINUOUS
 10
11.1520371485
 20
68.9215229395
 11
11.1671041764
 21
68.9064559117
  0
LINE
  5
3B9
100
AcDbEntity
  8
IMPORT_IGES
100
AcDbLine
 62
7
  6
CONTINUOUS
 10
-1.9985898027
 20
81.9893526965
 11
-1.9959313515
 21
81.9866901513
  0
LINE
  5
3BA
100
AcDbEntity
  8
IMPORT_IGES
100
AcDbLine
 62
7
  6
CONTINUOUS
 10
-1.2340265896
 20
85.4087217505
 11
-1.2366850408
 21
85.4115678483
  0
LWPOLYLINE
  5
3BB
100
AcDbEntity
  8
IMPORT_IGES
100
AcDbPolyline
 62
250
  6
CONTINUOUS
 90
75
 70
0
 10
10.7129826786
 20
65.9978464994
 10
10.7151855953
 20
65.9983219954
 10
10.7174830416
 20
65.9988289809
 10
10.7198815506
 20
65.9993703819
 10
10.7223738423
 20
65.9999461051
 10
10.7249542489
 20
66.0005563581
 10
10.7276190669
 20
66.0012017673
 10
10.73037115
 20
66.0018845813
 10
10.7332146234
 20
66.0026075074
 10
10.736152684
 20
66.0033731814
 10
10.7391810383
 20
66.004182372
 10
10.7422925375
 20
66.005035017
 10
10.7454825195
 20
66.0059316339
 10
10.7487544301
 20
66.00687504
 10
10.7521132281
 20
66.0078686762
 10
10.7555563065
 20
66.0089138858
 10
10.7590847447
 20
66.0100131738
 10
10.7627088537
 20
66.0111721551
 10
10.7664276693
 20
66.0123931382
 10
10.7702401586
 20
66.0136784827
 10
10.7741562741
 20
66.0150344774
 10
10.7781746831
 20
66.0164638404
 10
10.7822941368
 20
66.0179694096
 10
10.7865243995
 20
66.0195583111
 10
10.7908635039
 20
66.0212336476
 10
10.7953100966
 20
66.0229988646
 10
10.7998744667
 20
66.0248623553
 10
10.8045535131
 20
66.026827498
 10
10.8093460664
 20
66.028898603
 10
10.814264778
 20
66.0310864035
 10
10.8193064195
 20
66.0333951929
 10
10.8244686522
 20
66.0358298313
 10
10.8297647387
 20
66.0384030724
 10
10.8351902587
 20
66.0411198396
 10
10.8407423771
 20
66.0439860443
 10
10.8464357721
 20
66.0470173373
 10
10.8522649956
 20
66.0502196417
 10
10.8582259803
 20
66.0535998872
 10
10.8643341841
 20
66.0571769551
 10
10.8705823599
 20
66.0609576795
 10
10.876965246
 20
66.0649504055
 10
10.8834995337
 20
66.0691783716
 10
10.8901758153
 20
66.0736495688
 10
10.8969869584
 20
66.0783739093
 10
10.903950678
 20
66.0833800789
 10
10.9110548517
 20
66.0886775029
 10
10.918289598
 20
66.0942777997
 10
10.9256727201
 20
66.100216055
 10
10.9331879537
 20
66.1065028568
 10
10.9408221823
 20
66.1131521036
 10
10.9485933901
 20
66.1202076179
 10
10.9564801087
 20
66.1276814378
 10
10.9644642787
 20
66.1355897469
 10
10.9725626155
 20
66.1439871536
 10
10.9807465387
 20
66.1528870089
 10
10.9889910958
 20
66.1623078763
 10
10.9973094397
 20
66.1723175835
 10
11.0056629709
 20
66.1829299428
 10
11.0140173848
 20
66.1941660059
 10
11.0223794307
 20
66.2061106748
 10
11.0306961976
 20
66.2187760801
 10
11.0389206907
 20
66.2321859204
 10
11.0470496975
 20
66.2464494275
 10
11.0550140116
 20
66.2615812939
 10
11.0627438987
 20
66.2775997791
 10
11.0702091406
 20
66.294625685
 10
11.0773433968
 20
66.3127419415
 10
11.0840168785
 20
66.3318871009
 10
11.0900972409
 20
66.3519585026
 10
11.0955136058
 20
66.3730480035
 10
11.1001350394
 20
66.3950387697
 10
11.1038019863
 20
66.4174887266
 10
11.1064565509
 20
66.4402177574
 10
11.1080812126
 20
66.4633205607
 10
11.1086341622
 20
66.486750233
  0
LINE
  5
3BC
100
AcDbEntity
  8
IMPORT_IGES
100
AcDbLine
 62
250
  6
CONTINUOUS
 10
10.7088182453
 20
65.9969759348
 11
10.7129826786
 21
65.9978464994
  0
LINE
  5
3BD
100
AcDbEntity
  8
IMPORT_IGES
100
AcDbLine
 62
250
  6
CONTINUOUS
 10
10.7049522081
 20
65.996200765
 11
10.7088182453
 21
65.9969759348
  0
LINE
  5
3BE
100
AcDbEntity
  8
IMPORT_IGES
100
AcDbLine
 62
250
  6
CONTINUOUS
 10
10.7013161934
 20
65.9955005865
 11
10.7049522081
 21
65.996200765
  0
LINE
  5
3BF
100
AcDbEntity
  8
IMPORT_IGES
100
AcDbLine
 62
250
  6
CONTINUOUS
 10
10.6978122342
 20
65.9948522021
 11
10.7013161934
 21
65.9955005865
  0
LINE
  5
3C0
100
AcDbEntity
  8
IMPORT_IGES
100
AcDbLine
 62
250
  6
CONTINUOUS
 10
10.6943637433
 20
65.9942392471
 11
10.6978122342
 21
65.9948522021
  0
LINE
  5
3C1
100
AcDbEntity
  8
IMPORT_IGES
100
AcDbLine
 62
250
  6
CONTINUOUS
 10
10.69082577
 20
65.9936362336
 11
10.6943637433
 21
65.9942392471
  0
LINE
  5
3C2
100
AcDbEntity
  8
IMPORT_IGES
100
AcDbLine
 62
250
  6
CONTINUOUS
 10
10.6871004709
 20
65.9930294811
 11
10.69082577
 21
65.9936362336
  0
LINE
  5
3C3
100
AcDbEntity
  8
IMPORT_IGES
100
AcDbLine
 62
250
  6
CONTINUOUS
 10
10.6831243891
 20
65.9924136662
 11
10.6871004709
 21
65.9930294811
  0
LWPOLYLINE
  5
3C4
100
AcDbEntity
  8
IMPORT_IGES
100
AcDbPolyline
 62
250
  6
CONTINUOUS
 90
23
 70
0
 10
10.6213505276
 20
65.9869888895
 10
10.6236650615
 20
65.9870533943
 10
10.6260615733
 20
65.9871314884
 10
10.6285330173
 20
65.9872240763
 10
10.6310862418
 20
65.9873325868
 10
10.6337326974
 20
65.9874588611
 10
10.6364831793
 20
65.9876049984
 10
10.6393265752
 20
65.9877720514
 10
10.6422414592
 20
65.9879601833
 10
10.6452469634
 20
65.988172078
 10
10.6483235574
 20
65.9884078471
 10
10.651391928
 20
65.9886620192
 10
10.6544459103
 20
65.9889339026
 10
10.6574914657
 20
65.9892238472
 10
10.6604676896
 20
65.9895253716
 10
10.6633635486
 20
65.9898360351
 10
10.6661901337
 20
65.9901557356
 10
10.6689199028
 20
65.9904799583
 10
10.6715472067
 20
65.9908063966
 10
10.6740779188
 20
65.9911342018
 10
10.6765018685
 20
65.9914605019
 10
10.6788083515
 20
65.9917822072
 10
10.6831243891
 20
65.9924136662
  0
LINE
  5
3C5
100
AcDbEntity
  8
IMPORT_IGES
100
AcDbLine
 62
250
  6
CONTINUOUS
 10
10.6169986647
 20
65.98689664
 11
10.6213505276
 21
65.9869888895
  0
LINE
  5
3C6
100
AcDbEntity
  8
IMPORT_IGES
100
AcDbLine
 62
250
  6
CONTINUOUS
 10
10.6130158039
 20
65.986845421
 11
10.6169986647
 21
65.98689664
  0
LINE
  5
3C7
100
AcDbEntity
  8
IMPORT_IGES
100
AcDbLine
 62
7
  6
CONTINUOUS
 10
8.067996483
 20
65.9226516834
 11
10.6339544255
 21
65.945146122
  0
LINE
  5
3C8
100
AcDbEntity
  8
IMPORT_IGES
100
AcDbLine
 62
250
  6
CONTINUOUS
 10
8.1099785749
 20
65.965001746
 11
10.6130158039
 21
65.986845421
  0
LINE
  5
3C9
100
AcDbEntity
  8
IMPORT_IGES
100
AcDbLine
 62
250
  6
CONTINUOUS
 10
8.1056159717
 20
66.464906558
 11
10.6086532007
 21
66.486750233
  0
LINE
  5
3CA
100
AcDbEntity
  8
IMPORT_IGES
100
AcDbLine
 62
250
  6
CONTINUOUS
 10
8.1056159717
 20
66.464906558
 11
7.6056921241
 21
66.464906558
  0
LINE
  5
3CB
100
AcDbEntity
  8
IMPORT_IGES
100
AcDbLine
 62
250
  6
CONTINUOUS
 10
-21.1771574439
 20
66.464906558
 11
-21.6770812914
 21
66.464906558
  0
LINE
  5
3CC
100
AcDbEntity
  8
IMPORT_IGES
100
AcDbLine
 62
250
  6
CONTINUOUS
 10
11.1086341622
 20
66.486750233
 11
10.6086532007
 21
66.486750233
  0
LINE
  5
3CD
100
AcDbEntity
  8
IMPORT_IGES
100
AcDbLine
 62
250
  6
CONTINUOUS
 10
-24.1801185204
 20
66.486750233
 11
-24.680099482
 21
66.486750233
  0
LWPOLYLINE
  5
3CE
100
AcDbEntity
  8
IMPORT_IGES
100
AcDbPolyline
 62
250
  6
CONTINUOUS
 90
22
 70
0
 10
-21.6814438946
 20
65.965001746
 10
-21.6766112069
 20
65.9649844164
 10
-21.6721747978
 20
65.9650096363
 10
-21.6681349639
 20
65.9650668549
 10
-21.6646087996
 20
65.9651434937
 10
-21.6614793133
 20
65.9652323621
 10
-21.6583956734
 20
65.9653391187
 10
-21.6552301827
 20
65.9654685354
 10
-21.6521107791
 20
65.9656157324
 10
-21.6490702263
 20
65.9657780114
 10
-21.6461188629
 20
65.9659533008
 10
-21.6432464024
 20
65.9661407319
 10
-21.6404546181
 20
65.9663388238
 10
-21.6377430483
 20
65.9665462699
 10
-21.6351121296
 20
65.9667617351
 10
-21.6325649589
 20
65.9669836736
 10
-21.6301067887
 20
65.9672103109
 10
-21.6277322662
 20
65.9674408667
 10
-21.6254285798
 20
65.9676754828
 10
-21.6231981626
 20
65.9679129154
 10
-21.6210384757
 20
65.9681524688
 10
-21.6168698712
 20
65.9686417543
  0
LINE
  5
3CF
100
AcDbEntity
  8
IMPORT_IGES
100
AcDbLine
 62
7
  6
CONTINUOUS
 10
-24.2054197453
 20
65.945146122
 11
-21.6394618028
 21
65.9226516834
  0
LINE
  5
3D0
100
AcDbEntity
  8
IMPORT_IGES
100
AcDbLine
 62
250
  6
CONTINUOUS
 10
-24.1801185204
 20
66.486750233
 11
-21.6770812914
 21
66.464906558
  0
LINE
  5
3D1
100
AcDbEntity
  8
IMPORT_IGES
100
AcDbLine
 62
250
  6
CONTINUOUS
 10
-24.1863983615
 20
65.9868661154
 11
-21.6814438946
 21
65.965001746
  0
LWPOLYLINE
  5
3D2
100
AcDbEntity
  8
IMPORT_IGES
100
AcDbPolyline
 62
250
  6
CONTINUOUS
 90
24
 70
0
 10
-24.2505719969
 20
65.9918246173
 10
-24.2482894096
 20
65.991504787
 10
-24.245895957
 20
65.9911809328
 10
-24.243399775
 20
65.9908557065
 10
-24.2408032684
 20
65.9905309551
 10
-24.2381013237
 20
65.9902076533
 10
-24.2352988132
 20
65.9898880597
 10
-24.2324131735
 20
65.9895757033
 10
-24.2294294993
 20
65.989270537
 10
-24.2263625796
 20
65.9889756858
 10
-24.2232745552
 20
65.9886980573
 10
-24.2201553175
 20
65.9884372016
 10
-24.2170151425
 20
65.9881944398
 10
-24.2139469988
 20
65.9879764503
 10
-24.2109728531
 20
65.9877832331
 10
-24.2080711601
 20
65.9876118696
 10
-24.2052697558
 20
65.9874624797
 10
-24.202581593
 20
65.9873339409
 10
-24.1999940611
 20
65.9872239056
 10
-24.1974966402
 20
65.9871304309
 10
-24.1950824617
 20
65.9870519501
 10
-24.1927586041
 20
65.9869874301
 10
-24.1905354433
 20
65.9869358236
 10
-24.1863983615
 20
65.9868661154
  0
LINE
  5
3D3
100
AcDbEntity
  8
IMPORT_IGES
100
AcDbLine
 62
250
  6
CONTINUOUS
 10
-24.2548523047
 20
65.9924533272
 11
-24.2505719969
 21
65.9918246173
  0
LWPOLYLINE
  5
3D4
100
AcDbEntity
  8
IMPORT_IGES
100
AcDbPolyline
 62
250
  6
CONTINUOUS
 90
27
 70
0
 10
8.0274782597
 20
65.9711522309
 10
8.029667114
 20
65.9708101555
 10
8.0319413576
 20
65.9704652488
 10
8.034295906
 20
65.9701194284
 10
8.0367360856
 20
65.9697730991
 10
8.0392979555
 20
65.9694226885
 10
8.0419940569
 20
65.9690684782
 10
8.0448122281
 20
65.9687141581
 10
8.0477515343
 20
65.9683619158
 10
8.0508333489
 20
65.9680115331
 10
8.0540366106
 20
65.9676678463
 10
8.0572965721
 20
65.96733949
 10
8.0606178939
 20
65.9670271251
 10
8.0639958435
 20
65.9667323455
 10
8.0673512928
 20
65.9664623636
 10
8.0706651342
 20
65.96621803
 10
8.073956082
 20
65.9659972842
 10
8.0772015829
 20
65.9658009328
 10
8.080370387
 20
65.9656296495
 10
8.0834933534
 20
65.9654805715
 10
8.0866411439
 20
65.9653501087
 10
8.0896968165
 20
65.9652424638
 10
8.0927770526
 20
65.9651528854
 10
8.0963032321
 20
65.9650736599
 10
8.1004158963
 20
65.9650126942
 10
8.1049744483
 20
65.9649846596
 10
8.1099785749
 20
65.965001746
  0
LINE
  5
3D5
100
AcDbEntity
  8
IMPORT_IGES
100
AcDbLine
 62
250
  6
CONTINUOUS
 10
-24.2588097398
 20
65.9930683312
 11
-24.2548523047
 21
65.9924533272
  0
LINE
  5
3D6
100
AcDbEntity
  8
IMPORT_IGES
100
AcDbLine
 62
250
  6
CONTINUOUS
 10
8.0232892612
 20
65.9718346389
 11
8.0274782597
 21
65.9711522309
  0
LWPOLYLINE
  5
3D7
100
AcDbEntity
  8
IMPORT_IGES
100
AcDbPolyline
 62
250
  6
CONTINUOUS
 90
3
 70
0
 10
-24.2643074286
 20
65.9939766965
 10
-24.2625279285
 20
65.9936757848
 10
-24.2588097398
 20
65.9930683312
  0
LINE
  5
3D8
100
AcDbEntity
  8
IMPORT_IGES
100
AcDbLine
 62
250
  6
CONTINUOUS
 10
8.0193523138
 20
65.9725093277
 11
8.0232892612
 21
65.9718346389
  0
LINE
  5
3D9
100
AcDbEntity
  8
IMPORT_IGES
100
AcDbLine
 62
250
  6
CONTINUOUS
 10
8.0156764618
 20
65.9731685553
 11
8.0193523138
 21
65.9725093277
  0
LINE
  5
3DA
100
AcDbEntity
  8
IMPORT_IGES
100
AcDbLine
 62
250
  6
CONTINUOUS
 10
8.0122339277
 20
65.9738116866
 11
8.0156764618
 21
65.9731685553
  0
LINE
  5
3DB
100
AcDbEntity
  8
IMPORT_IGES
100
AcDbLine
 62
250
  6
CONTINUOUS
 10
8.0089627238
 20
65.9744459762
 11
8.0122339277
 21
65.9738116866
  0
LINE
  5
3DC
100
AcDbEntity
  8
IMPORT_IGES
100
AcDbLine
 62
250
  6
CONTINUOUS
 10
8.005687845
 20
65.9751036804
 11
8.0089627238
 21
65.9744459762
  0
LINE
  5
3DD
100
AcDbEntity
  8
IMPORT_IGES
100
AcDbLine
 62
250
  6
CONTINUOUS
 10
8.0023125057
 20
65.9758054277
 11
8.005687845
 21
65.9751036804
  0
LINE
  5
3DE
100
AcDbEntity
  8
IMPORT_IGES
100
AcDbLine
 62
250
  6
CONTINUOUS
 10
7.9987956476
 20
65.9765624818
 11
8.0023125057
 21
65.9758054277
  0
LINE
  5
3DF
100
AcDbEntity
  8
IMPORT_IGES
100
AcDbLine
 62
250
  6
CONTINUOUS
 10
7.9951137045
 20
65.9773835099
 11
7.9987956476
 21
65.9765624818
  0
LINE
  5
3E0
100
AcDbEntity
  8
IMPORT_IGES
100
AcDbLine
 62
250
  6
CONTINUOUS
 10
7.9912882915
 20
65.978267497
 11
7.9951137045
 21
65.9773835099
  0
LINE
  5
3E1
100
AcDbEntity
  8
IMPORT_IGES
100
AcDbLine
 62
250
  6
CONTINUOUS
 10
7.9873105531
 20
65.9792203354
 11
7.9912882915
 21
65.978267497
  0
LWPOLYLINE
  5
3E2
100
AcDbEntity
  8
IMPORT_IGES
100
AcDbPolyline
 62
250
  6
CONTINUOUS
 90
73
 70
0
 10
-21.5586188451
 20
65.9792586569
 10
-21.5564197614
 20
65.979800985
 10
-21.5541545154
 20
65.9803706974
 10
-21.5518120947
 20
65.9809716732
 10
-21.5493957158
 20
65.9816043001
 10
-21.5469028802
 20
65.9822704877
 10
-21.5443141578
 20
65.9829769191
 10
-21.5416240884
 20
65.9837268573
 10
-21.5388392087
 20
65.984520325
 10
-21.5359582276
 20
65.9853595699
 10
-21.5329828289
 20
65.9862460601
 10
-21.5299126303
 20
65.98718194
 10
-21.5267433417
 20
65.9881706852
 10
-21.523475398
 20
65.9892144648
 10
-21.5201100034
 20
65.9903152804
 10
-21.5166441552
 20
65.9914766255
 10
-21.5130793551
 20
65.9927006358
 10
-21.5094161228
 20
65.9939898608
 10
-21.505650145
 20
65.9953487163
 10
-21.5017846311
 20
65.9967790845
 10
-21.4978188739
 20
65.9982843674
 10
-21.4937429498
 20
65.9998717705
 10
-21.4895587651
 20
66.0015442715
 10
-21.4852676495
 20
66.0033051849
 10
-21.4808592072
 20
66.0051629585
 10
-21.4763361666
 20
66.0071209622
 10
-21.4716999669
 20
66.0091832488
 10
-21.4669387966
 20
66.0113601841
 10
-21.4620559854
 20
66.0136557931
 10
-21.4570536078
 20
66.0160748467
 10
-21.4519186636
 20
66.0186299317
 10
-21.4466554464
 20
66.021325768
 10
-21.4412666997
 20
66.0241680617
 10
-21.435738032
 20
66.0271722353
 10
-21.4300749227
 20
66.0303438665
 10
-21.4242811085
 20
66.033689751
 10
-21.4183408478
 20
66.0372288115
 10
-21.4122610761
 20
66.0409677024
 10
-21.4060469974
 20
66.0449144539
 10
-21.3996819832
 20
66.0490920945
 10
-21.3931751751
 20
66.0535083461
 10
-21.3865334832
 20
66.0581728405
 10
-21.3797392624
 20
66.0631139626
 10
-21.3728044738
 20
66.0683407027
 10
-21.3657385072
 20
66.0738645036
 10
-21.358523072
 20
66.0797204792
 10
-21.3511739076
 20
66.0859190135
 10
-21.3437038486
 20
66.092473622
 10
-21.3360947052
 20
66.0994278275
 10
-21.3283673504
 20
66.1067934289
 10
-21.3205393868
 20
66.114586261
 10
-21.3125939542
 20
66.1228603699
 10
-21.3045589958
 20
66.1316287412
 10
-21.2964586925
 20
66.1409097283
 10
-21.2882793448
 20
66.1507707339
 10
-21.2800591471
 20
66.1612246769
 10
-21.2718309411
 20
66.1722930283
 10
-21.2635857495
 20
66.1840622859
 10
-21.2553736489
 20
66.1965474933
 10
-21.2472426594
 20
66.2097696094
 10
-21.2391987761
 20
66.2238306886
 10
-21.2313149364
 20
66.2387341005
 10
-21.223652364
 20
66.2545088417
 10
-21.216227341
 20
66.271302684
 10
-21.2091152669
 20
66.2891767858
 10
-21.2024363428
 20
66.3080940715
 10
-21.1962958904
 20
66.3280536513
 10
-21.1907696128
 20
66.3491907349
 10
-21.1860173648
 20
66.3713555241
 10
-21.1822196525
 20
66.3940951808
 10
-21.1794511016
 20
66.4172258008
 10
-21.1777441762
 20
66.4408459544
 10
-21.1771574439
 20
66.464906558
  0
LINE
  5
3E3
100
AcDbEntity
  8
IMPORT_IGES
100
AcDbLine
 62
250
  6
CONTINUOUS
 10
-21.5628223596
 20
65.978251331
 11
-21.5586188451
 21
65.9792586569
  0
LINE
  5
3E4
100
AcDbEntity
  8
IMPORT_IGES
100
AcDbLine
 62
250
  6
CONTINUOUS
 10
-21.5667670093
 20
65.9773408846
 11
-21.5628223596
 21
65.978251331
  0
LINE
  5
3E5
100
AcDbEntity
  8
IMPORT_IGES
100
AcDbLine
 62
250
  6
CONTINUOUS
 10
-21.5704683806
 20
65.976517098
 11
-21.5667670093
 21
65.9773408846
  0
LINE
  5
3E6
100
AcDbEntity
  8
IMPORT_IGES
100
AcDbLine
 62
250
  6
CONTINUOUS
 10
-21.5739577541
 20
65.9757674068
 11
-21.5704683806
 21
65.976517098
  0
LINE
  5
3E7
100
AcDbEntity
  8
IMPORT_IGES
100
AcDbLine
 62
250
  6
CONTINUOUS
 10
-21.5773297736
 20
65.9750676305
 11
-21.5739577541
 21
65.9757674068
  0
LINE
  5
3E8
100
AcDbEntity
  8
IMPORT_IGES
100
AcDbLine
 62
250
  6
CONTINUOUS
 10
-21.5806474864
 20
65.9744027178
 11
-21.5773297736
 21
65.9750676305
  0
LINE
  5
3E9
100
AcDbEntity
  8
IMPORT_IGES
100
AcDbLine
 62
250
  6
CONTINUOUS
 10
-21.5840394359
 20
65.9737470212
 11
-21.5806474864
 21
65.9744027178
  0
LINE
  5
3EA
100
AcDbEntity
  8
IMPORT_IGES
100
AcDbLine
 62
250
  6
CONTINUOUS
 10
-21.5874848755
 20
65.9731058251
 11
-21.5840394359
 21
65.9737470212
  0
LINE
  5
3EB
100
AcDbEntity
  8
IMPORT_IGES
100
AcDbLine
 62
250
  6
CONTINUOUS
 10
-21.5909776304
 20
65.9724812769
 11
-21.5874848755
 21
65.9731058251
  0
LINE
  5
3EC
100
AcDbEntity
  8
IMPORT_IGES
100
AcDbLine
 62
250
  6
CONTINUOUS
 10
-21.594492
 20
65.9718786313
 11
-21.5909776304
 21
65.9724812769
  0
LINE
  5
3ED
100
AcDbEntity
  8
IMPORT_IGES
100
AcDbLine
 62
250
  6
CONTINUOUS
 10
-21.5980321982
 20
65.9712975936
 11
-21.594492
 21
65.9718786313
  0
LINE
  5
3EE
100
AcDbEntity
  8
IMPORT_IGES
100
AcDbLine
 62
250
  6
CONTINUOUS
 10
-21.6016103702
 20
65.9707367842
 11
-21.5980321982
 21
65.9712975936
  0
LINE
  5
3EF
100
AcDbEntity
  8
IMPORT_IGES
100
AcDbLine
 62
250
  6
CONTINUOUS
 10
-21.6052664239
 20
65.9701911516
 11
-21.6016103702
 21
65.9707367842
  0
LINE
  5
3F0
100
AcDbEntity
  8
IMPORT_IGES
100
AcDbLine
 62
250
  6
CONTINUOUS
 10
-21.6090198588
 20
65.9696596843
 11
-21.6052664239
 21
65.9701911516
  0
LINE
  5
3F1
100
AcDbEntity
  8
IMPORT_IGES
100
AcDbLine
 62
250
  6
CONTINUOUS
 10
-21.6128842137
 20
65.969142791
 11
-21.6090198588
 21
65.9696596843
  0
LINE
  5
3F2
100
AcDbEntity
  8
IMPORT_IGES
100
AcDbLine
 62
250
  6
CONTINUOUS
 10
-21.6168698712
 20
65.9686417543
 11
-21.6128842137
 21
65.969142791
  0
LWPOLYLINE
  5
3F3
100
AcDbEntity
  8
IMPORT_IGES
100
AcDbPolyline
 62
7
  6
CONTINUOUS
 90
19
 70
0
 10
-24.1801185204
 20
68.9692508874
 10
-24.2223637117
 20
68.9690664682
 10
-24.2646862683
 20
68.9685583818
 10
-24.3067654749
 20
68.9677266282
 10
-24.3486035099
 20
68.9665448829
 10
-24.3894987508
 20
68.9650394705
 10
-24.4281668319
 20
68.9632893637
 10
-24.4638714992
 20
68.9613160065
 10
-24.4970293801
 20
68.959097955
 10
-24.5281216588
 20
68.9566498505
 10
-24.5569277588
 20
68.9539781611
 10
-24.583190079
 20
68.9510764187
 10
-24.6070788987
 20
68.9479398606
 10
-24.628479491
 20
68.9445177475
 10
-24.6466711152
 20
68.9408608186
 10
-24.6610111563
 20
68.9371165289
 10
-24.6713406202
 20
68.9333340302
 10
-24.6777137603
 20
68.9294641707
 10
-24.680099482
 20
68.9255069504
  0
LINE
  5
3F4
100
AcDbEntity
  8
IMPORT_IGES
100
AcDbLine
 62
7
  6
CONTINUOUS
 10
7.5182498569
 20
68.9107812679
 11
-21.0897151766
 21
68.9107812679
  0
LINE
  5
3F5
100
AcDbEntity
  8
IMPORT_IGES
100
AcDbLine
 62
7
  6
CONTINUOUS
 10
-21.1754236747
 20
68.9640971821
 11
7.6039583549
 21
68.9640971821
  0
LINE
  5
3F6
100
AcDbEntity
  8
IMPORT_IGES
100
AcDbLine
 62
7
  6
CONTINUOUS
 10
10.6086532007
 20
68.9692512821
 11
8.1056159717
 21
68.9692512821
  0
LINE
  5
3F7
100
AcDbEntity
  8
IMPORT_IGES
100
AcDbLine
 62
7
  6
CONTINUOUS
 10
-21.6770812914
 20
68.9692512821
 11
-24.1801185204
 21
68.9692512821
  0
LINE
  5
3F8
100
AcDbEntity
  8
IMPORT_IGES
100
AcDbLine
 62
250
  6
CONTINUOUS
 10
7.802231649
 20
69.5509022325
 11
-21.3736969688
 21
69.5509022325
  0
LWPOLYLINE
  5
3F9
100
AcDbEntity
  8
IMPORT_IGES
100
AcDbPolyline
 62
7
  6
CONTINUOUS
 90
25
 70
0
 10
-1.2366850408
 20
79.7099946875
 10
-1.4074090227
 20
79.7038348751
 10
-1.5771001367
 20
79.7076965266
 10
-1.7457583829
 20
79.721579642
 10
-1.9139920768
 20
79.7455773858
 10
-2.081192903
 20
79.7795965936
 10
-2.2455359145
 20
79.823357772
 10
-2.4069865171
 20
79.8770113118
 10
-2.5655793051
 20
79.9404068222
 10
-2.7195931151
 20
80.0128136371
 10
-2.8689195369
 20
80.0942350296
 10
-3.0136669806
 20
80.1846677266
 10
-3.1524395128
 20
80.283371243
 10
-3.2852782747
 20
80.3905518214
 10
-3.412142125
 20
80.5060032192
 10
-3.531511706
 20
80.6283662239
 10
-3.6432489117
 20
80.7576108054
 10
-3.747491848
 20
80.8937669938
 10
-3.8431354753
 20
81.0355656667
 10
-3.9300938021
 20
81.1830637443
 10
-4.0084528199
 20
81.3362043065
 10
-4.0773654631
 20
81.493547471
 10
-4.1365493767
 20
81.6546132772
 10
-4.1862869157
 20
81.8198816857
 10
-4.2265780802
 20
81.9893526965
  0
LWPOLYLINE
  5
3FA
100
AcDbEntity
  8
IMPORT_IGES
100
AcDbPolyline
 62
7
  6
CONTINUOUS
 90
53
 70
0
 10
-8.093827898
 20
79.7099946875
 10
-8.2662974488
 20
79.7038656037
 10
-8.4376923394
 20
79.7079455642
 10
-8.6080125697
 20
79.722234569
 10
-8.7779107829
 20
79.746838321
 10
-8.9467343358
 20
79.7816511174
 10
-9.1125252986
 20
79.8263558495
 10
-9.2752387622
 20
79.8811338128
 10
-9.4349196357
 20
79.9458037119
 10
-9.5897447172
 20
80.0195045507
 10
-9.7394228678
 20
80.1020936175
 10
-9.8842452263
 20
80.1937136241
 10
-10.0232620069
 20
80.2939317102
 10
-10.1567627013
 20
80.4030458832
 10
-10.2844578177
 20
80.5207581356
 10
-10.4045290954
 20
80.6457415852
 10
-10.516795687
 20
80.7780640706
 10
-10.6214384399
 20
80.9176577531
 10
-10.7171816361
 20
81.0629922338
 10
-10.8039566615
 20
81.2141783426
 10
-10.8818321302
 20
81.3711052495
 10
-10.9497381675
 20
81.5319100659
 10
-11.0074754878
 20
81.6966111804
 10
-11.0552433767
 20
81.8651902043
 10
-11.0925698166
 20
82.0357290823
 10
-11.1193862671
 20
82.2082439298
 10
-11.1357612685
 20
82.3827186315
 10
-11.1414284237
 20
82.5571867859
 10
-11.1362043337
 20
82.7316483242
 10
-11.1202723974
 20
82.9061033151
 10
-11.0939164147
 20
83.0785855637
 10
-11.0570719095
 20
83.2490681638
 10
-11.0098033578
 20
83.4175780217
 10
-10.9525879887
 20
83.5822296604
 10
-10.8852380557
 20
83.7430027924
 10
-10.8079413053
 20
83.8999177051
 10
-10.7217382048
 20
84.051149785
 10
-10.6265701671
 20
84.1965906897
 10
-10.5224957793
 20
84.3363487615
 10
-10.4107312715
 20
84.4689244131
 10
-10.2910940157
 20
84.5942701916
 10
-10.1637666398
 20
84.7124335499
 10
-10.0305132575
 20
84.82205726
 10
-9.8916098649
 20
84.9228504044
 10
-9.7467804659
 20
85.0151039006
 10
-9.5969611861
 20
85.0983332738
 10
-9.4418593026
 20
85.1726845027
 10
-9.2817675383
 20
85.2380116085
 10
-9.1185001873
 20
85.2933921803
 10
-8.9519956976
 20
85.3386441451
 10
-8.7823156213
 20
85.3739495758
 10
-8.6114589082
 20
85.3989322806
 10
-8.4400918749
 20
85.4134668624
  0
LWPOLYLINE
  5
3FB
100
AcDbEntity
  8
IMPORT_IGES
100
AcDbPolyline
 62
7
  6
CONTINUOUS
 90
53
 70
0
 10
-8.0911694467
 20
79.7125511164
 10
-8.2862401665
 20
79.7077144531
 10
-8.4757143299
 20
79.7139553592
 10
-8.6595919369
 20
79.7312738345
 10
-8.8377023862
 20
79.7601676961
 10
-9.010216279
 20
79.8001391269
 10
-9.1776454194
 20
79.8496946761
 10
-9.3402924709
 20
79.9086726539
 10
-9.4978547701
 20
79.97723475
 10
-9.6499361302
 20
80.0543725826
 10
-9.7965040557
 20
80.1397863115
 10
-9.9375910423
 20
80.2337757769
 10
-10.0728983899
 20
80.3362321172
 10
-10.2029290874
 20
80.4475514978
 10
-10.3271801461
 20
80.5673377534
 10
-10.4438438993
 20
80.694293527
 10
-10.5528252713
 20
80.8286487008
 10
-10.654219338
 20
80.9701733927
 10
-10.7465036605
 20
81.116880599
 10
-10.8294062365
 20
81.2685519961
 10
-10.9031990684
 20
81.4254059076
 10
-10.9671757248
 20
81.5861103013
 10
-11.0212902395
 20
81.7509237905
 10
-11.0655885787
 20
81.9195877619
 10
-11.0995022101
 20
82.0899943435
 10
-11.1229093218
 20
82.2621164151
 10
-11.1359317256
 20
82.4359810967
 10
-11.1383663249
 20
82.609561877
 10
-11.1300720134
 20
82.782706493
 10
-11.1111898974
 20
82.9555672076
 10
-11.081940199
 20
83.1265742983
 10
-11.0421654747
 20
83.2960245303
 10
-10.992023168
 20
83.4636211384
 10
-10.9322058318
 20
83.6269041037
 10
-10.8626108941
 20
83.7855312605
 10
-10.7833409269
 20
83.9398447745
 10
-10.695396198
 20
84.088411124
 10
-10.5987171673
 20
84.231231221
 10
-10.4933633749
 20
84.3683041535
 10
-10.3805137104
 20
84.4981936641
 10
-10.2599766862
 20
84.6208542855
 10
-10.1319437898
 20
84.736331485
 10
-9.9981683722
 20
84.8433254078
 10
-9.8587294293
 20
84.9416252591
 10
-9.7135479652
 20
85.0314418338
 10
-9.5641403435
 20
85.1121076608
 10
-9.4104791893
 20
85.1835722031
 10
-9.2525918774
 20
85.2458859977
 10
-9.0920768961
 20
85.2985331856
 10
-8.9289423886
 20
85.3413941916
 10
-8.7631802117
 20
85.3745885909
 10
-8.5963644232
 20
85.3979592495
 10
-8.4290197092
 20
85.4114537897
  0
LINE
  5
3FC
100
AcDbEntity
  8
IMPORT_IGES
100
AcDbLine
 62
7
  6
CONTINUOUS
 10
-1.4520946469
 20
78.5610424718
 11
-1.2366850408
 21
78.5653189892
  0
LINE
  5
3FD
100
AcDbEntity
  8
IMPORT_IGES
100
AcDbLine
 62
7
  6
CONTINUOUS
 10
-8.3092375041
 20
78.5610424718
 11
-8.093827898
 21
78.5653189892
  0
LINE
  5
3FE
100
AcDbEntity
  8
IMPORT_IGES
100
AcDbLine
 62
7
  6
CONTINUOUS
 10
11.2642309013
 20
77.913068694
 11
11.2142673401
 21
77.913068694
  0
LINE
  5
3FF
100
AcDbEntity
  8
IMPORT_IGES
100
AcDbLine
 62
7
  6
CONTINUOUS
 10
-24.7857326599
 20
77.913068694
 11
-24.8149770195
 21
77.913068694
  0
LWPOLYLINE
  5
400
100
AcDbEntity
  8
IMPORT_IGES
100
AcDbPolyline
 62
7
  6
CONTINUOUS
 90
3
 70
0
 10
-8.4400918749
 20
85.4134668624
 10
-8.2675482048
 20
85.4176787183
 10
-8.093827898
 20
85.4115678483
  0
LWPOLYLINE
  5
401
100
AcDbEntity
  8
IMPORT_IGES
100
AcDbPolyline
 62
7
  6
CONTINUOUS
 90
3
 70
0
 10
-8.4290197092
 20
85.4114537897
 10
-8.2606213837
 20
85.4151245893
 10
-8.0911694467
 20
85.4089716484
  0
LINE
  5
402
100
AcDbEntity
  8
IMPORT_IGES
100
AcDbLine
 62
7
  6
CONTINUOUS
 10
-4.2233202397
 20
81.9866901513
 11
-1.9959313515
 21
81.9866901513
  0
LINE
  5
403
100
AcDbEntity
  8
IMPORT_IGES
100
AcDbLine
 62
7
  6
CONTINUOUS
 10
-4.2265780802
 20
81.9893526965
 11
-1.9985898027
 21
81.9893526965
  0
LINE
  5
404
100
AcDbEntity
  8
IMPORT_IGES
100
AcDbLine
 62
7
  6
CONTINUOUS
 10
-1.9985898027
 20
83.1322098394
 11
-4.2265780802
 21
83.1322098394
  0
LINE
  5
405
100
AcDbEntity
  8
IMPORT_IGES
100
AcDbLine
 62
7
  6
CONTINUOUS
 10
-1.9959313515
 20
83.134864203
 11
-4.2233202397
 21
83.134864203
  0
LINE
  5
406
100
AcDbEntity
  8
IMPORT_IGES
100
AcDbLine
 62
7
  6
CONTINUOUS
 10
-24.8149770195
 20
84.6457419614
 11
-24.7857326599
 21
84.6457419614
  0
LINE
  5
407
100
AcDbEntity
  8
IMPORT_IGES
100
AcDbLine
 62
7
  6
CONTINUOUS
 10
11.2142673401
 20
84.6457419614
 11
11.2642309013
 21
84.6457419614
  0
LWPOLYLINE
  5
408
100
AcDbEntity
  8
IMPORT_IGES
100
AcDbPolyline
 62
7
  6
CONTINUOUS
 90
60
 70
0
 10
-8.093827898
 20
86.5562435467
 10
-8.3075748584
 20
86.5605799927
 10
-8.5203202378
 20
86.5536288061
 10
-8.7320640363
 20
86.5353899869
 10
-8.9434571261
 20
86.5057890292
 10
-9.1538486349
 20
86.4649004389
 10
-9.361285946
 20
86.4129477333
 10
-9.5657972293
 20
86.3497507274
 10
-9.7673543148
 20
86.2754896062
 10
-9.9639200759
 20
86.1909284419
 10
-10.1550722806
 20
86.0962050578
 10
-10.3412331609
 20
85.9911816306
 10
-10.5216322867
 20
85.8762087628
 10
-10.696697276
 20
85.7510196278
 10
-10.8660005107
 20
85.6158810522
 10
-11.0274887071
 20
85.4719441185
 10
-11.1809508758
 20
85.3190807511
 10
-11.3265980061
 20
85.1574190256
 10
-11.4630097821
 20
84.9884942507
 10
-11.5901082735
 20
84.8122699653
 10
-11.7079714107
 20
84.6287826306
 10
-11.8154126689
 20
84.439676938
 10
-11.9123261995
 20
84.2447764149
 10
-11.9988178511
 20
84.044257534
 10
-12.0740186452
 20
83.8402944052
 10
-12.1377164265
 20
83.6330793669
 10
-12.1901233503
 20
83.4224200808
 10
-12.2310069042
 20
83.209913641
 10
-12.2603680391
 20
82.9954702282
 10
-12.2782058042
 20
82.7791796616
 10
-12.2842848345
 20
82.5629084943
 10
-12.2784405397
 20
82.3466570995
 10
-12.2608375101
 20
82.1304251038
 10
-12.2317341515
 20
81.9160779397
 10
-12.1911330483
 20
81.7037130586
 10
-12.1390316162
 20
81.4932330091
 10
-12.0756805088
 20
81.2862108694
 10
-12.0008762946
 20
81.0824588403
 10
-11.9148224052
 20
80.882164721
 10
-11.8183797889
 20
80.6874649879
 10
-11.7114493115
 20
80.4985358642
 10
-11.5941301071
 20
80.3152011267
 10
-11.4675805269
 20
80.1390685821
 10
-11.3317315159
 20
79.9701691676
 10
-11.186652129
 20
79.808471946
 10
-11.0337078819
 20
79.6554919131
 10
-10.8726834418
 20
79.5113432101
 10
-10.7037941417
 20
79.3759116957
 10
-10.5290514961
 20
79.2503699422
 10
-10.3488838718
 20
79.1349824381
 10
-10.1628629021
 20
79.0294846948
 10
-9.9717150019
 20
78.9342558188
 10
-9.775021867
 20
78.8491487428
 10
-9.5732018016
 20
78.774310534
 10
-9.368236133
 20
78.7105615006
 10
-9.1601378672
 20
78.6580736566
 10
-8.9488939983
 20
78.6166749879
 10
-8.7364468359
 20
78.5866697603
 10
-8.5234438167
 20
78.5681593955
 10
-8.3092375041
 20
78.5610424718
  0
LWPOLYLINE
  5
409
100
AcDbEntity
  8
IMPORT_IGES
100
AcDbPolyline
 62
7
  6
CONTINUOUS
 90
61
 70
0
 10
-8.0911694467
 20
86.5589738732
 10
-8.3031877986
 20
86.5632565454
 10
-8.5138281626
 20
86.5566187411
 10
-8.7230905388
 20
86.5390604604
 10
-8.9312881502
 20
86.5105860887
 10
-9.1381077737
 20
86.4711912406
 10
-9.34260974
 20
86.4208627595
 10
-9.5451111408
 20
86.3594742524
 10
-9.7452948844
 20
86.2871521123
 10
-9.9412700265
 20
86.2042623625
 10
-10.1331120418
 20
86.1105555989
 10
-10.3207454557
 20
86.0062812254
 10
-10.5020529003
 20
85.8925534771
 10
-10.6766678396
 20
85.769592618
 10
-10.8449568097
 20
85.6371783839
 10
-11.005902051
 20
85.4957642169
 10
-11.1597970934
 20
85.3448365258
 10
-11.3063484069
 20
85.1849089018
 10
-11.4436576421
 20
85.0179755606
 10
-11.5713507246
 20
84.8443900147
 10
-11.6898017287
 20
84.6637987515
 10
-11.7982345283
 20
84.477135449
 10
-11.8967841695
 20
84.2838913473
 10
-11.9853156061
 20
84.0845752063
 10
-12.0626475733
 20
83.8816469835
 10
-12.1284741571
 20
83.6754913413
 10
-12.1831012714
 20
83.4657236172
 10
-12.2262653928
 20
83.2536497817
 10
-12.2579815617
 20
83.0388303551
 10
-12.2782347377
 20
82.8217048171
 10
-12.2867162759
 20
82.6048975777
 10
-12.2832402818
 20
82.3888640913
 10
-12.26799265
 20
82.1731489036
 10
-12.2412224197
 20
81.9590100604
 10
-12.2028349295
 20
81.7460976367
 10
-12.1529248409
 20
81.5347615577
 10
-12.0920251783
 20
81.3273096447
 10
-12.0200931507
 20
81.1240326751
 10
-11.9371715491
 20
80.9246398717
 10
-11.84392177
 20
80.730566724
 10
-11.7401204768
 20
80.5416847702
 10
-11.6259910061
 20
80.3581224722
 10
-11.5028647653
 20
80.1817007054
 10
-11.3707054251
 20
80.0125442126
 10
-11.2295493148
 20
79.850528251
 10
-11.0808368288
 20
79.6970994674
 10
-10.9244626225
 20
79.5524316404
 10
-10.7605320405
 20
79.4163509915
 10
-10.5908015113
 20
79.2897828313
 10
-10.4158949563
 20
79.1730112008
 10
-10.2351884541
 20
79.065752059
 10
-10.0485666687
 20
78.9680785935
 10
-9.8561129884
 20
78.8797041344
 10
-9.6577440249
 20
78.8009153516
 10
-9.4530942777
 20
78.7326454421
 10
-9.2420937236
 20
78.6745844739
 10
-9.0248123857
 20
78.627042379
 10
-8.8010948322
 20
78.5918821509
 10
-8.5708892526
 20
78.5697247873
 10
-8.3342474574
 20
78.5599492905
 10
-8.0911694467
 20
78.5625556603
  0
LWPOLYLINE
  5
40A
100
AcDbEntity
  8
IMPORT_IGES
100
AcDbPolyline
 62
7
  6
CONTINUOUS
 90
60
 70
0
 10
-1.2366850408
 20
86.5562435467
 10
-1.4504320012
 20
86.5605799927
 10
-1.6631773806
 20
86.5536288061
 10
-1.8749211791
 20
86.5353899869
 10
-2.0863142689
 20
86.5057890292
 10
-2.2967057778
 20
86.4649004389
 10
-2.5041430889
 20
86.4129477333
 10
-2.7086543722
 20
86.3497507274
 10
-2.9102114576
 20
86.2754896062
 10
-3.1067772188
 20
86.1909284419
 10
-3.2979294234
 20
86.0962050578
 10
-3.4840903038
 20
85.9911816306
 10
-3.6644894296
 20
85.8762087628
 10
-3.8395544188
 20
85.7510196278
 10
-4.0088576536
 20
85.6158810522
 10
-4.17034585
 20
85.4719441185
 10
-4.3238080186
 20
85.3190807511
 10
-4.4694551489
 20
85.1574190256
 10
-4.605866925
 20
84.9884942507
 10
-4.7329654164
 20
84.8122699653
 10
-4.8508285535
 20
84.6287826306
 10
-4.9582698117
 20
84.439676938
 10
-5.0551833423
 20
84.2447764149
 10
-5.141674994
 20
84.044257534
 10
-5.2168757881
 20
83.8402944052
 10
-5.2805735694
 20
83.6330793669
 10
-5.3329804931
 20
83.4224200808
 10
-5.373864047
 20
83.209913641
 10
-5.403225182
 20
82.9954702282
 10
-5.4210629471
 20
82.7791796616
 10
-5.4271419774
 20
82.5629084943
 10
-5.4212976826
 20
82.3466570995
 10
-5.4036946529
 20
82.1304251038
 10
-5.3745912944
 20
81.9160779397
 10
-5.3339901911
 20
81.7037130586
 10
-5.281888759
 20
81.4932330091
 10
-5.2185376517
 20
81.2862108694
 10
-5.1437334375
 20
81.0824588403
 10
-5.0576795481
 20
80.882164721
 10
-4.9612369318
 20
80.6874649879
 10
-4.8543064543
 20
80.4985358642
 10
-4.73698725
 20
80.3152011267
 10
-4.6104376698
 20
80.1390685821
 10
-4.4745886587
 20
79.9701691676
 10
-4.3295092718
 20
79.808471946
 10
-4.1765650248
 20
79.6554919131
 10
-4.0155405847
 20
79.5113432101
 10
-3.8466512845
 20
79.3759116957
 10
-3.6719086389
 20
79.2503699422
 10
-3.4917410146
 20
79.1349824381
 10
-3.305720045
 20
79.0294846948
 10
-3.1145721448
 20
78.9342558188
 10
-2.9178790099
 20
78.8491487428
 10
-2.7160589444
 20
78.774310534
 10
-2.5110932758
 20
78.7105615006
 10
-2.3029950101
 20
78.6580736566
 10
-2.0917511411
 20
78.6166749879
 10
-1.8793039788
 20
78.5866697603
 10
-1.6663009596
 20
78.5681593955
 10
-1.4520946469
 20
78.5610424718
  0
LWPOLYLINE
  5
40B
100
AcDbEntity
  8
IMPORT_IGES
100
AcDbPolyline
 62
7
  6
CONTINUOUS
 90
61
 70
0
 10
-1.2340265896
 20
86.5589738732
 10
-1.4460449414
 20
86.5632565454
 10
-1.6566853055
 20
86.5566187411
 10
-1.8659476816
 20
86.5390604604
 10
-2.074145293
 20
86.5105860887
 10
-2.2809649165
 20
86.4711912406
 10
-2.4854668829
 20
86.4208627595
 10
-2.6879682837
 20
86.3594742524
 10
-2.8881520272
 20
86.2871521123
 10
-3.0841271694
 20
86.2042623625
 10
-3.2759691847
 20
86.1105555989
 10
-3.4636025985
 20
86.0062812254
 10
-3.6449100431
 20
85.8925534771
 10
-3.8195249825
 20
85.769592618
 10
-3.9878139526
 20
85.6371783839
 10
-4.1487591939
 20
85.4957642169
 10
-4.3026542362
 20
85.3448365258
 10
-4.4492055498
 20
85.1849089018
 10
-4.586514785
 20
85.0179755606
 10
-4.7142078674
 20
84.8443900147
 10
-4.8326588716
 20
84.6637987515
 10
-4.9410916711
 20
84.477135449
 10
-5.0396413123
 20
84.2838913473
 10
-5.128172749
 20
84.0845752063
 10
-5.2055047161
 20
83.8816469835
 10
-5.2713312999
 20
83.6754913413
 10
-5.3259584143
 20
83.4657236172
 10
-5.3691225357
 20
83.2536497817
 10
-5.4008387046
 20
83.0388303551
 10
-5.4210918805
 20
82.8217048171
 10
-5.4295734188
 20
82.6048975777
 10
-5.4260974247
 20
82.3888640913
 10
-5.4108497928
 20
82.1731489036
 10
-5.3840795626
 20
81.9590100604
 10
-5.3456920724
 20
81.7460976367
 10
-5.2957819838
 20
81.5347615577
 10
-5.2348823211
 20
81.3273096447
 10
-5.1629502936
 20
81.1240326751
 10
-5.0800286919
 20
80.9246398717
 10
-4.9867789129
 20
80.730566724
 10
-4.8829776196
 20
80.5416847702
 10
-4.768848149
 20
80.3581224722
 10
-4.6457219081
 20
80.1817007054
 10
-4.513562568
 20
80.0125442126
 10
-4.3724064576
 20
79.850528251
 10
-4.2236939716
 20
79.6970994673
 10
-4.0673197653
 20
79.5524316404
 10
-3.9033891834
 20
79.4163509915
 10
-3.7336586542
 20
79.2897828313
 10
-3.5587520992
 20
79.1730112008
 10
-3.378045597
 20
79.065752059
 10
-3.1914238116
 20
78.9680785935
 10
-2.9989701313
 20
78.8797041344
 10
-2.8006011678
 20
78.8009153516
 10
-2.5959514205
 20
78.7326454421
 10
-2.3849508664
 20
78.6745844739
 10
-2.1676695285
 20
78.627042379
 10
-1.943951975
 20
78.5918821509
 10
-1.7137463954
 20
78.5697247873
 10
-1.4771046003
 20
78.5599492905
 10
-1.2340265896
 20
78.5625556603
  0
LWPOLYLINE
  5
40C
100
AcDbEntity
  8
IMPORT_IGES
100
AcDbPolyline
 62
7
  6
CONTINUOUS
 90
25
 70
0
 10
-1.2340265896
 20
85.4089737009
 10
-1.4053673083
 20
85.4151162914
 10
-1.5754212773
 20
85.411286518
 10
-1.7441884964
 20
85.3974843808
 10
-1.9122384298
 20
85.3735925637
 10
-2.0790016134
 20
85.3397283828
 10
-2.2427696545
 20
85.2962437862
 10
-2.4033919949
 20
85.2430942427
 10
-2.5610191928
 20
85.1803242835
 10
-2.7143945303
 20
85.1084194492
 10
-2.8637562744
 20
85.0271661028
 10
-3.0088661581
 20
84.9367778814
 10
-3.1477526617
 20
84.8383812374
 10
-3.2800739201
 20
84.732086902
 10
-3.4061717983
 20
84.6177841441
 10
-3.5251003722
 20
84.4962672223
 10
-3.6370592431
 20
84.3672018983
 10
-3.7418488097
 20
84.2309224106
 10
-3.8379243429
 20
84.0892257329
 10
-3.9249551236
 20
83.9424891683
 10
-4.0032718709
 20
83.7903354137
 10
-4.0723220133
 20
83.6334295334
 10
-4.1319213604
 20
83.4719932156
 10
-4.1822541025
 20
83.3058047721
 10
-4.2233202397
 20
83.134864203
  0
LWPOLYLINE
  5
40D
100
AcDbEntity
  8
IMPORT_IGES
100
AcDbPolyline
 62
250
  6
CONTINUOUS
 90
31
 70
0
 10
-24.221158921
 20
96.0961884906
 10
-24.2350314652
 20
96.0959949423
 10
-24.249552697
 20
96.0953794401
 10
-24.2647078736
 20
96.0942849799
 10
-24.2804640795
 20
96.0926542794
 10
-24.2968136312
 20
96.090425732
 10
-24.3137730502
 20
96.0875288645
 10
-24.3313094646
 20
96.083895583
 10
-24.3493854936
 20
96.0794563991
 10
-24.3680007918
 20
96.0741277508
 10
-24.3870993731
 20
96.0678353575
 10
-24.406626139
 20
96.060502433
 10
-24.4265673043
 20
96.0520299701
 10
-24.44683421
 20
96.0423423647
 10
-24.467349416
 20
96.0313567974
 10
-24.4880931952
 20
96.018948429
 10
-24.5089334251
 20
96.0050459783
 10
-24.5297602578
 20
95.9895619349
 10
-24.5505490232
 20
95.9723248692
 10
-24.571123084
 20
95.9532607676
 10
-24.5913049007
 20
95.9322937811
 10
-24.6110078412
 20
95.909225413
 10
-24.6299780991
 20
95.884009408
 10
-24.6479651481
 20
95.8565927824
 10
-24.6647972196
 20
95.8267513307
 10
-24.6801244697
 20
95.7944945085
 10
-24.6935939817
 20
95.7598360768
 10
-24.7048996072
 20
95.7225665446
 10
-24.7135957082
 20
95.6826973305
 10
-24.7191711893
 20
95.6404950376
 10
-24.7211398826
 20
95.5962075291
  0
LINE
  5
40E
100
AcDbEntity
  8
IMPORT_IGES
100
AcDbLine
 62
250
  6
CONTINUOUS
 10
-24.221158921
 20
95.6830316179
 11
10.6496936013
 21
95.6830316179
  0
LINE
  5
40F
100
AcDbEntity
  8
IMPORT_IGES
100
AcDbLine
 62
7
  6
CONTINUOUS
 10
10.6496936013
 20
96.0961884906
 11
-24.221158921
 21
96.0961884906
  0
LINE
  5
410
100
AcDbEntity
  8
IMPORT_IGES
100
AcDbLine
 62
7
  6
CONTINUOUS
 10
-24.2857516984
 20
96.1607812679
 11
10.7142863786
 21
96.1607812679
  0
LWPOLYLINE
  5
411
100
AcDbEntity
  8
IMPORT_IGES
100
AcDbPolyline
 62
250
  6
CONTINUOUS
 90
19
 70
0
 10
10.6496936013
 20
95.6830316179
 10
10.6931079456
 20
95.6826389141
 10
10.7361741154
 20
95.6815939983
 10
10.7785678123
 20
95.6799056746
 10
10.8199671072
 20
95.6775877987
 10
10.8600654565
 20
95.674658592
 10
10.898572791
 20
95.6711399767
 10
10.9352012892
 20
95.6670587152
 10
10.9696762169
 20
95.6624459052
 10
11.0017462193
 20
95.6573354692
 10
11.0311704639
 20
95.6517658316
 10
11.0577280155
 20
95.6457788635
 10
11.0812239047
 20
95.6394182537
 10
11.1014794641
 20
95.6327317412
 10
11.1183410319
 20
95.6257693218
 10
11.1316828346
 20
95.6185813651
 10
11.1414004029
 20
95.6112210922
 10
11.1474143991
 20
95.6037443867
 10
11.1496745628
 20
95.5962075291
  0
ARC
  5
412
100
AcDbEntity
  8
IMPORT_IGES
100
AcDbCircle
 62
7
  6
CONTINUOUS
 10
-6.7857326599
 20
23.9607812679
 40
1.5
100
AcDbArc
 50
229.9999999999
 51
270.0000000001
  0
ARC
  5
413
100
AcDbEntity
  8
IMPORT_IGES
100
AcDbCircle
 62
7
  6
CONTINUOUS
 10
-6.7857326599
 20
23.9607812679
 40
1.4589837214
100
AcDbArc
 50
229.9999999997
 51
270.0000000003
  0
ARC
  5
414
100
AcDbEntity
  8
IMPORT_IGES
100
AcDbCircle
 62
7
  6
CONTINUOUS
 10
-9.2857326599
 20
18.4607812679
 40
1.0
100
AcDbArc
 50
90.0
 51
270.0
  0
ARC
  5
415
100
AcDbEntity
  8
IMPORT_IGES
100
AcDbCircle
 62
7
  6
CONTINUOUS
 10
-9.2857326599
 20
18.4607812679
 40
0.9716376797
100
AcDbArc
 50
90.0000000001
 51
269.9999999999
  0
ARC
  5
416
100
AcDbEntity
  8
IMPORT_IGES
100
AcDbCircle
 62
7
  6
CONTINUOUS
 10
-6.7857326599
 20
30.1688988028
 40
0.75
100
AcDbArc
 50
0.0
 51
180.0
  0
ARC
  5
417
100
AcDbEntity
  8
IMPORT_IGES
100
AcDbCircle
 62
7
  6
CONTINUOUS
 10
-6.7857326599
 20
30.1688988028
 40
0.7216376797
100
AcDbArc
 50
0.0000000002
 51
179.9999999998
  0
ELLIPSE
  5
418
100
AcDbEntity
  8
IMPORT_IGES
100
AcDbEllipse
 62
7
  6
CONTINUOUS
 10
-2.2857897775
 20
3.7108383855
 30
0.0
 11
1.0607409467
 21
-1.0607409467
 31
0.0
 40
0.9999238505
 41
-0.7853600872
 42
0.7853600872
  0
ELLIPSE
  5
419
100
AcDbEntity
  8
IMPORT_IGES
100
AcDbEllipse
 62
7
  6
CONTINUOUS
 10
-11.2856755423
 20
3.7108383855
 30
0.0
 11
1.0607409467
 21
1.0607409467
 31
0.0
 40
0.9999238505
 41
-3.9269527408
 42
-2.3562325664
  0
ELLIPSE
  5
41A
100
AcDbEntity
  8
IMPORT_IGES
100
AcDbEllipse
 62
7
  6
CONTINUOUS
 10
-10.4857212364
 20
31.6188873793
 30
0.0
 11
0.2121481893
 21
-0.2121481893
 31
0.0
 40
0.9999238505
 41
2.3562325664
 42
3.9269527408
  0
ELLIPSE
  5
41B
100
AcDbEntity
  8
IMPORT_IGES
100
AcDbEllipse
 62
7
  6
CONTINUOUS
 10
-10.4857212364
 20
27.457077417
 30
0.0
 11
0.2719049405
 21
0.1267913561
 31
0.0
 40
0.9999536441
 41
2.7052780961
 42
3.5779072111
  0
ELLIPSE
  5
41C
100
AcDbEntity
  8
IMPORT_IGES
100
AcDbEllipse
 62
7
  6
CONTINUOUS
 10
-3.0857440834
 20
24.2607926915
 30
0.0
 11
0.2121481893
 21
-0.2121481893
 31
0.0
 40
0.9999238505
 41
-0.7853600872
 42
0.7853600872
  0
ELLIPSE
  5
41D
100
AcDbEntity
  8
IMPORT_IGES
100
AcDbEllipse
 62
7
  6
CONTINUOUS
 10
-3.0857440834
 20
31.6188873793
 30
0.0
 11
0.2121481893
 21
0.2121481893
 31
0.0
 40
0.9999238505
 41
-0.7853600872
 42
0.7853600872
  0
ELLIPSE
  5
41E
100
AcDbEntity
  8
IMPORT_IGES
100
AcDbEllipse
 62
7
  6
CONTINUOUS
 10
-3.0857440834
 20
17.1607698444
 30
0.0
 11
0.2121481893
 21
0.2121481893
 31
0.0
 40
0.9999238505
 41
-0.7853600872
 42
0.7853600872
  0
ELLIPSE
  5
41F
100
AcDbEntity
  8
IMPORT_IGES
100
AcDbEllipse
 62
7
  6
CONTINUOUS
 10
-3.0857440834
 20
4.1607926915
 30
0.0
 11
0.2121481893
 21
-0.2121481893
 31
0.0
 40
0.9999238505
 41
-0.7853600872
 42
0.7853600872
  0
ELLIPSE
  5
420
100
AcDbEntity
  8
IMPORT_IGES
100
AcDbEllipse
 62
7
  6
CONTINUOUS
 10
-10.4857212364
 20
4.1607926915
 30
0.0
 11
0.2121481893
 21
0.2121481893
 31
0.0
 40
0.9999238505
 41
-3.9269527408
 42
-2.3562325664
  0
ELLIPSE
  5
421
100
AcDbEntity
  8
IMPORT_IGES
100
AcDbEllipse
 62
7
  6
CONTINUOUS
 10
-3.0857440834
 20
22.1607698444
 30
0.0
 11
0.2121481893
 21
0.2121481893
 31
0.0
 40
0.9999238505
 41
-0.7853600872
 42
0.7853600872
  0
ELLIPSE
  5
422
100
AcDbEntity
  8
IMPORT_IGES
100
AcDbEllipse
 62
7
  6
CONTINUOUS
 10
-3.0857440834
 20
19.7607926915
 30
0.0
 11
0.2121481893
 21
-0.2121481893
 31
0.0
 40
0.9999238505
 41
-0.7853600872
 42
0.7853600872
  0
ELLIPSE
  5
423
100
AcDbEntity
  8
IMPORT_IGES
100
AcDbEllipse
 62
7
  6
CONTINUOUS
 10
-2.3268060561
 20
3.7518546641
 30
0.0
 11
1.0607409467
 21
-1.0607409467
 31
0.0
 40
0.9999238505
 41
-0.7853600872
 42
0.7853600872
  0
ELLIPSE
  5
424
100
AcDbEntity
  8
IMPORT_IGES
100
AcDbEllipse
 62
7
  6
CONTINUOUS
 10
-11.2446592637
 20
3.7518546641
 30
0.0
 11
-1.0607409467
 21
-1.0607409467
 31
0.0
 40
0.9999238505
 41
-0.7853600872
 42
0.7853600872
  0
ELLIPSE
  5
425
100
AcDbEntity
  8
IMPORT_IGES
100
AcDbEllipse
 62
7
  6
CONTINUOUS
 10
-3.0857440834
 20
32.259926505
 30
0.0
 11
0.2121481893
 21
-0.2121481893
 31
0.0
 40
0.9999238505
 41
-0.7853600872
 42
0.7853600872
  0
ELLIPSE
  5
426
100
AcDbEntity
  8
IMPORT_IGES
100
AcDbEllipse
 62
7
  6
CONTINUOUS
 10
-3.0944709512
 20
32.2686533728
 30
0.0
 11
0.2121481893
 21
-0.2121481893
 31
0.0
 40
0.9999238505
 41
-0.7853600872
 42
0.7853600872
  0
ELLIPSE
  5
427
100
AcDbEntity
  8
IMPORT_IGES
100
AcDbEllipse
 62
7
  6
CONTINUOUS
 10
-10.526737515
 20
27.4379512121
 30
0.0
 11
0.2719049405
 21
0.1267913561
 31
0.0
 40
0.9999536441
 41
2.7052780961
 42
3.5779072111
  0
ELLIPSE
  5
428
100
AcDbEntity
  8
IMPORT_IGES
100
AcDbEllipse
 62
7
  6
CONTINUOUS
 10
-3.0447278048
 20
24.2197764128
 30
0.0
 11
-0.2121481893
 21
0.2121481893
 31
0.0
 40
0.9999238505
 41
2.3562325664
 42
3.9269527408
  0
ELLIPSE
  5
429
100
AcDbEntity
  8
IMPORT_IGES
100
AcDbEllipse
 62
7
  6
CONTINUOUS
 10
-3.0447278048
 20
31.6599036579
 30
0.0
 11
-0.2121481893
 21
-0.2121481893
 31
0.0
 40
0.9999238505
 41
2.3562325664
 42
3.9269527408
  0
ELLIPSE
  5
42A
100
AcDbEntity
  8
IMPORT_IGES
100
AcDbEllipse
 62
7
  6
CONTINUOUS
 10
-10.4769943686
 20
32.2686533728
 30
0.0
 11
0.2121481893
 21
0.2121481893
 31
0.0
 40
0.9999238505
 41
2.3562325664
 42
3.9269527408
  0
ELLIPSE
  5
42B
100
AcDbEntity
  8
IMPORT_IGES
100
AcDbEllipse
 62
7
  6
CONTINUOUS
 10
-3.0573817631
 20
17.1891321647
 30
0.0
 11
-0.2121481893
 21
-0.2121481893
 31
0.0
 40
0.9999238505
 41
2.3562325664
 42
3.9269527408
  0
ELLIPSE
  5
42C
100
AcDbEntity
  8
IMPORT_IGES
100
AcDbEllipse
 62
7
  6
CONTINUOUS
 10
-3.0447278048
 20
4.1197764128
 30
0.0
 11
-0.2121481893
 21
0.2121481893
 31
0.0
 40
0.9999238505
 41
2.3562325664
 42
3.9269527408
  0
ELLIPSE
  5
42D
100
AcDbEntity
  8
IMPORT_IGES
100
AcDbEllipse
 62
7
  6
CONTINUOUS
 10
-10.526737515
 20
4.1197764128
 30
0.0
 11
0.2121481893
 21
0.2121481893
 31
0.0
 40
0.9999238505
 41
2.3562325664
 42
3.9269527408
  0
ELLIPSE
  5
42E
100
AcDbEntity
  8
IMPORT_IGES
100
AcDbEllipse
 62
7
  6
CONTINUOUS
 10
-3.0447278048
 20
22.201786123
 30
0.0
 11
-0.2121481893
 21
-0.2121481893
 31
0.0
 40
0.9999238505
 41
2.3562325664
 42
3.9269527408
  0
ELLIPSE
  5
42F
100
AcDbEntity
  8
IMPORT_IGES
100
AcDbEllipse
 62
7
  6
CONTINUOUS
 10
-3.0573817631
 20
19.7324303711
 30
0.0
 11
-0.2121481893
 21
0.2121481893
 31
0.0
 40
0.9999238505
 41
2.3562325664
 42
3.9269527408
  0
ELLIPSE
  5
430
100
AcDbEntity
  8
IMPORT_IGES
100
AcDbEllipse
 62
7
  6
CONTINUOUS
 10
10.6368529035
 20
66.4305904789
 30
0.0
 11
0.4873364861
 21
0.1155608309
 31
0.0
 40
0.9675233235
 41
-1.8021167691
 42
-0.2401977321
  0
ELLIPSE
  5
431
100
AcDbEntity
  8
IMPORT_IGES
100
AcDbEllipse
 62
7
  6
CONTINUOUS
 10
10.7142483009
 20
95.6607622287
 30
0.0
 11
0.3535803156
 21
0.3535803156
 31
0.0
 40
0.9999238505
 41
-0.7853600872
 42
0.7853600872
  0
ELLIPSE
  5
432
100
AcDbEntity
  8
IMPORT_IGES
100
AcDbEllipse
 62
7
  6
CONTINUOUS
 10
-24.2857136207
 20
95.6607622287
 30
0.0
 11
-0.3535803156
 21
0.3535803156
 31
0.0
 40
0.9999238505
 41
-0.7853600872
 42
0.7853600872
  0
ELLIPSE
  5
433
100
AcDbEntity
  8
IMPORT_IGES
100
AcDbEllipse
 62
7
  6
CONTINUOUS
 10
-24.2083182233
 20
66.4305904789
 30
0.0
 11
0.4873364861
 21
-0.1155608309
 31
0.0
 40
0.9675233235
 41
-2.9013949215
 42
-1.3394758845
  0
ELLIPSE
  5
434
100
AcDbEntity
  8
IMPORT_IGES
100
AcDbEllipse
 62
7
  6
CONTINUOUS
 10
-12.1442217133
 20
25.3115064887
 30
0.0
 11
0.3535803156
 21
0.3535803156
 31
0.0
 40
0.9999238505
 41
-0.7853600872
 42
0.7853600872
  0
ELLIPSE
  5
435
100
AcDbEntity
  8
IMPORT_IGES
100
AcDbEllipse
 62
7
  6
CONTINUOUS
 10
-12.1442217133
 20
12.3115445671
 30
0.0
 11
0.3535803156
 21
-0.3535803156
 31
0.0
 40
0.9999238505
 41
-0.7853600872
 42
0.7853600872
  0
ELLIPSE
  5
436
100
AcDbEntity
  8
IMPORT_IGES
100
AcDbEllipse
 62
7
  6
CONTINUOUS
 10
-1.4272436065
 20
25.3115064887
 30
0.0
 11
0.3535803156
 21
-0.3535803156
 31
0.0
 40
0.9999238505
 41
2.3562325664
 42
3.9269527408
  0
ELLIPSE
  5
437
100
AcDbEntity
  8
IMPORT_IGES
100
AcDbEllipse
 62
7
  6
CONTINUOUS
 10
-1.4272436065
 20
12.3115445671
 30
0.0
 11
0.3535803156
 21
0.3535803156
 31
0.0
 40
0.9999238505
 41
2.3562325664
 42
3.9269527408
  0
ELLIPSE
  5
438
100
AcDbEntity
  8
IMPORT_IGES
100
AcDbEllipse
 62
7
  6
CONTINUOUS
 10
10.7142483009
 20
6.6608003071
 30
0.0
 11
-0.3535803156
 21
0.3535803156
 31
0.0
 40
0.9999238505
 41
-3.9269527408
 42
-2.3562325664
  0
ELLIPSE
  5
439
100
AcDbEntity
  8
IMPORT_IGES
100
AcDbEllipse
 62
7
  6
CONTINUOUS
 10
-24.2857136207
 20
6.6608003071
 30
0.0
 11
0.3535803156
 21
0.3535803156
 31
0.0
 40
0.9999238505
 41
-3.9269527408
 42
-2.3562325664
  0
ELLIPSE
  5
43A
100
AcDbEntity
  8
IMPORT_IGES
100
AcDbEllipse
 62
7
  6
CONTINUOUS
 10
8.1056159717
 20
71.8048921919
 30
0.0
 11
0.0
 21
2.8356409098
 31
0.0
 40
0.1763269807
 41
-3.7935816877
 42
-3.1415926536
  0
ELLIPSE
  5
43B
100
AcDbEntity
  8
IMPORT_IGES
100
AcDbEllipse
 62
7
  6
CONTINUOUS
 10
7.6038821938
 20
69.4640781436
 30
0.0
 11
0.0
 21
0.5
 31
0.0
 40
0.0174550649
 41
-3.1328660073
 42
-2.9326949727
  0
ELLIPSE
  5
43C
100
AcDbEntity
  8
IMPORT_IGES
100
AcDbEllipse
 62
7
  6
CONTINUOUS
 10
-21.1753475136
 20
69.4640781436
 30
0.0
 11
-0.0
 21
0.5
 31
0.0
 40
0.0174550649
 41
-3.3504903345
 42
-3.1503192999
  0
ELLIPSE
  5
43D
100
AcDbEntity
  8
IMPORT_IGES
100
AcDbEllipse
 62
7
  6
CONTINUOUS
 10
-21.6770812914
 20
71.8048921919
 30
0.0
 11
-0.0
 21
2.8356409098
 31
0.0
 40
0.1763269807
 41
-3.1415926536
 42
-2.4896036195
  0
ELLIPSE
  5
43E
100
AcDbEntity
  8
IMPORT_IGES
100
AcDbEllipse
 62
7
  6
CONTINUOUS
 10
10.6671232148
 20
68.906417834
 30
0.0
 11
0.5
 21
0.0
 31
0.0
 40
0.0087268678
 41
0.0969161025
 42
0.2429856623
  0
ELLIPSE
  5
43F
100
AcDbEntity
  8
IMPORT_IGES
100
AcDbEllipse
 62
7
  6
CONTINUOUS
 10
-24.2385885346
 20
68.906417834
 30
0.0
 11
0.5
 21
0.0
 31
0.0
 40
0.0087268678
 41
2.898508523
 42
3.045006073
  0
ELLIPSE
  5
440
100
AcDbEntity
  8
IMPORT_IGES
100
AcDbEllipse
 62
7
  6
CONTINUOUS
 10
-0.1857136207
 20
30.9107622287
 30
0.0
 11
0.3535803156
 21
-0.3535803156
 31
0.0
 40
0.9999238505
 41
2.3562325664
 42
3.9269527408
  0
ELLIPSE
  5
441
100
AcDbEntity
  8
IMPORT_IGES
100
AcDbEllipse
 62
7
  6
CONTINUOUS
 10
-13.3857516991
 20
30.9107622287
 30
0.0
 11
0.3535803156
 21
0.3535803156
 31
0.0
 40
0.9999238505
 41
-0.7853600872
 42
0.7853600872
  0
ENDSEC
  0
SECTION
  2
OBJECTS
  0
DICTIONARY
  5
C
100
AcDbDictionary
280
0
281
1
  3
ACAD_GROUP
350
D
  3
ACAD_MLINESTYLE
350
17
  3
ACAD_LAYOUT
350
1A
  3
ACAD_PLOTSETTINGS
350
19
  3
ACAD_PLOTSTYLENAME
350
E
  0
DICTIONARY
  5
D
102
{ACAD_REACTORS
330
C
102
}
100
AcDbDictionary
280
0
281
1
  0
ACDBDICTIONARYWDFLT
  5
E
102
{ACAD_REACTORS
330
C
102
}
100
AcDbDictionary
281
1
  3
Normal
350
F
100
AcDbDictionaryWithDefault
340
F
  0
DICTIONARY
  5
17
102
{ACAD_REACTORS
330
C
102
}
100
AcDbDictionary
280
0
281
1
  3
Standard
350
18
  0
DICTIONARY
  5
19
102
{ACAD_REACTORS
330
C
102
}
100
AcDbDictionary
281
1
  0
DICTIONARY
  5
1A
102
{ACAD_REACTORS
330
C
102
}
100
AcDbDictionary
281
1
  3
Model
350
442
  3
Layout1
350
443
  0
ACDBPLACEHOLDER
  5
F
102
{ACAD_REACTORS
330
E
102
}
  0
MLINESTYLE
  5
18
102
{ACAD_REACTORS
330
17
102
}
100
AcDbMlineStyle
  2
STANDARD
 70
0
  3

 62
256
 51
90.0
 52
90.0
 71
2
 49
0.5
 62
256
  6
BYLAYER
 49
-0.5
 62
256
  6
BYLAYER
  0
LAYOUT
  5
442
102
{ACAD_REACTORS
330
1A
102
}
100
AcDbPlotSettings
  1

  2
none_device
  4
ISO_A4_(297.00_x_210.00_MM)
  6

 40
0.0
 41
0.0
 42
0.0
 43
0.0
 44
297.0
 45
210.0
 46
0.0
 47
0.0
 48
0.0
 49
0.0
140
0.0
141
0.0
142
1.0
143
1.0
 70
1024
 72
1
 73
0
 74
0
  7

 75
0
147
1.0
148
0.0
149
0.0
100
AcDbLayout
  1
Model
 70
0
 71
0
 10
0.0
 20
0.0
 11
297.0
 21
210.0
 12
0.0
 22
0.0
 32
0.0
 14
0.0
 24
0.0
 34
0.0
 15
0.0
 25
0.0
 35
0.0
146
0.0
 13
0.0
 23
0.0
 33
0.0
 16
1.0
 26
0.0
 36
0.0
 17
0.0
 27
1.0
 37
0.0
 76
0
330
21D
345
0
346
0
  0
LAYOUT
  5
443
102
{ACAD_REACTORS
330
1A
102
}
100
AcDbPlotSettings
  1

  2
none_device
  4
ISO_A4_(297.00_x_210.00_MM)
  6

 40
0.0
 41
0.0
 42
0.0
 43
0.0
 44
297.0
 45
210.0
 46
0.0
 47
0.0
 48
0.0
 49
0.0
140
0.0
141
0.0
142
1.0
143
1.0
 70
0
 72
1
 73
0
 74
0
  7

 75
0
147
1.0
148
0.0
149
0.0
100
AcDbLayout
  1
Layout1
 70
0
 71
1
 10
0.0
 20
0.0
 11
297.0
 21
210.0
 12
0.0
 22
0.0
 32
0.0
 14
0.0
 24
0.0
 34
0.0
 15
0.0
 25
0.0
 35
0.0
146
0.0
 13
0.0
 23
0.0
 33
0.0
 16
1.0
 26
0.0
 36
0.0
 17
0.0
 27
1.0
 37
0.0
 76
0
330
21E
345
0
346
0
  0
ENDSEC
  0
EOF
