  0
SECTION
  2
HEADER
  9
$ACADVER
  1
AC1024
  9
$DWGCODEPAGE
  3
ANSI_1252
  9
$EXTMAX
 10
297.0
 20
210.0
 30
0.0
  9
$EXTMIN
 10
0.0
 20
0.0
 30
0.0
  9
$LIMMIN
 10
0.0
 20
0.0
  9
$LIMMAX
 10
297.0
 20
210.0
  9
$VIEWCTR
 10
148.5
 20
105.0
  9
$VIEWSIZE
 40
210.0
  9
$CLAYER
  8
0
  9
$LTSCALE
 40
16.335
  9
$CELTYPE
  6
BYLAYER
  9
$DIMSCALE
 40
1.0
  9
$DIMASZ
 40
3.0
  9
$DIMEXO
 40
0.5
  9
$DIMDLI
 40
11.286
  9
$DIMEXE
 40
1.5
  9
$DIMCEN
 40
2.673
  9
$DIMLFAC
 40
1.0
  9
$DIMBLK
  1
_FILLED
  9
$DIMALT
 70
0
  9
$DIMALTF
 40
0.0393700787
  9
$DIMTXT
 40
3.0
  9
$DIMTOL
 70
1
  9
$DIMLIM
 70
0
  9
$DIMTFAC
 40
1.0
  9
$DIMTP
 40
0.01
  9
$DIMTM
 40
0.01
  9
$DIMGAP
 40
0.625
  9
$DIMDSEP
 70
44
  9
$AUNITS
 70
0
  9
$PDMODE
 70
3
  9
$PDSIZE
 40
3.0
  9
$HANDSEED
  5
445
  9
$TILEMODE
 70
1
  9
$MEASUREMENT
 70
1
  9
$INSUNITS
 70
4
  0
ENDSEC
  0
SECTION
  2
CLASSES
  0
CLASS
  1
ACDBDICTIONARYWDFLT
  2
AcDbDictionaryWithDefault
  3
AutoCAD 2000
 90
0
 91
1
280
0
281
0
  0
CLASS
  1
ACDBPLACEHOLDER
  2
AcDbPlaceHolder
  3
AutoCAD 2000
 90
0
 91
1
280
0
281
0
  0
CLASS
  1
LAYOUT
  2
AcDbLayout
  3
AutoCAD 2000
 90
0
 91
0
280
0
281
0
  0
ENDSEC
  0
SECTION
  2
TABLES
  0
TABLE
  2
VPORT
  5
8
100
AcDbSymbolTable
 70
2
  0
VPORT
  5
1F4
100
AcDbSymbolTableRecord
100
AcDbViewportTableRecord
  2
*ACTIVE
 70
0
 10
0.0
 20
0.0
 11
1.0
 21
1.0
 12
148.5
 22
105.0
 13
0.0
 23
0.0
 14
1.0
 24
1.0
 15
0.0
 25
0.0
 16
0.0
 26
0.0
 36
1.0
 17
0.0
 27
0.0
 37
0.0
 40
210.0
 41
1.4142857143
 42
50.0
 43
0.0
 44
0.0
 50
0.0
 51
0.0
 71
0
 72
100
 73
1
 74
1
 75
0
 76
0
 77
0
 78
0
  0
ENDTAB
  0
TABLE
  2
LTYPE
  5
5
100
AcDbSymbolTable
 70
6
  0
LTYPE
  5
14
100
AcDbSymbolTableRecord
100
AcDbLinetypeTableRecord
  2
BYBLOCK
 70
0
  3

 72
65
 73
0
 40
0.0
  0
LTYPE
  5
15
100
AcDbSymbolTableRecord
100
AcDbLinetypeTableRecord
  2
BYLAYER
 70
0
  3

 72
65
 73
0
 40
0.0
  0
LTYPE
  5
16
100
AcDbSymbolTableRecord
100
AcDbLinetypeTableRecord
  2
CONTINUOUS
 70
64
  3
Solid line
 72
65
 73
0
 40
0.0
  0
LTYPE
  5
1F5
100
AcDbSymbolTableRecord
100
AcDbLinetypeTableRecord
  2
CENTER
 70
64
  3
____ _ ____ _ ____ _ ____ _ ____ _ ____ _ ____
 72
65
 73
4
 40
0.6
 49
0.375
 74
0
 49
-0.075
 74
0
 49
0.075
 74
0
 49
-0.075
 74
0
  0
LTYPE
  5
1F6
100
AcDbSymbolTableRecord
100
AcDbLinetypeTableRecord
  2
HIDDEN
 70
64
  3
- - - - - - - - - - - - - - - - - - - -
 72
65
 73
2
 40
0.2
 49
0.1
 74
0
 49
-0.1
 74
0
  0
LTYPE
  5
1F7
100
AcDbSymbolTableRecord
100
AcDbLinetypeTableRecord
  2
PHANTOM
 70
64
  3
_____ _ _ _____ _ _ _____ _ _ _____
 72
65
 73
6
 40
0.8
 49
0.45
 74
0
 49
-0.05
 74
0
 49
0.1
 74
0
 49
-0.05
 74
0
 49
0.1
 74
0
 49
-0.05
 74
0
  0
LTYPE
  5
1F8
100
AcDbSymbolTableRecord
100
AcDbLinetypeTableRecord
  2
DOT
 70
64
  3
. . . . . . . . . . . . . . . . . . . .
 72
65
 73
2
 40
0.2
 49
0.1
 74
0
 49
-0.1
 74
0
  0
LTYPE
  5
1F9
100
AcDbSymbolTableRecord
100
AcDbLinetypeTableRecord
  2
DASHED
 70
64
  3
- - - - - - - - - - - - - - - - - - - -
 72
65
 73
2
 40
0.2
 49
0.1
 74
0
 49
-0.1
 74
0
  0
ENDTAB
  0
TABLE
  2
LAYER
  5
2
100
AcDbSymbolTable
 70
36
  0
LAYER
  5
10
100
AcDbSymbolTableRecord
100
AcDbLayerTableRecord
  2
0
 70
0
 62
7
  6
CONTINUOUS
370
-3
390
F
  0
LAYER
  5
1FA
100
AcDbSymbolTableRecord
100
AcDbLayerTableRecord
  2
DEFAULT_1
 70
0
 62
7
  6
CENTER
370
-3
390
F
  0
LAYER
  5
1FB
100
AcDbSymbolTableRecord
100
AcDbLayerTableRecord
  2
DEFAULT_2
 70
0
 62
7
  6
HIDDEN
370
-3
390
F
  0
LAYER
  5
1FC
100
AcDbSymbolTableRecord
100
AcDbLayerTableRecord
  2
DEFAULT_3
 70
0
 62
7
  6
PHANTOM
370
-3
390
F
  0
LAYER
  5
1FD
100
AcDbSymbolTableRecord
100
AcDbLayerTableRecord
  2
ASSI
 70
0
 62
7
  6
CONTINUOUS
370
-3
390
F
  0
LAYER
  5
1FE
100
AcDbSymbolTableRecord
100
AcDbLayerTableRecord
  2
COORDINATE
 70
0
 62
7
  6
CONTINUOUS
370
-3
390
F
  0
LAYER
  5
1FF
100
AcDbSymbolTableRecord
100
AcDbLayerTableRecord
  2
COORD_ORIGINE
 70
0
 62
7
  6
CONTINUOUS
370
-3
390
F
  0
LAYER
  5
200
100
AcDbSymbolTableRecord
100
AcDbLayerTableRecord
  2
COPY_PUBLISH
 70
0
 62
7
  6
CONTINUOUS
370
-3
390
F
  0
LAYER
  5
201
100
AcDbSymbolTableRecord
100
AcDbLayerTableRecord
  2
COSMETIC
 70
0
 62
7
  6
CONTINUOUS
370
-3
390
F
  0
LAYER
  5
202
100
AcDbSymbolTableRecord
100
AcDbLayerTableRecord
  2
COSMETICI
 70
0
 62
7
  6
CONTINUOUS
370
-3
390
F
  0
LAYER
  5
203
100
AcDbSymbolTableRecord
100
AcDbLayerTableRecord
  2
CURVE
 70
0
 62
7
  6
CONTINUOUS
370
-3
390
F
  0
LAYER
  5
204
100
AcDbSymbolTableRecord
100
AcDbLayerTableRecord
  2
DRAFT
 70
0
 62
7
  6
CONTINUOUS
370
-3
390
F
  0
LAYER
  5
205
100
AcDbSymbolTableRecord
100
AcDbLayerTableRecord
  2
IMPORT_IGES
 70
0
 62
7
  6
CONTINUOUS
370
-3
390
F
  0
LAYER
  5
206
100
AcDbSymbolTableRecord
100
AcDbLayerTableRecord
  2
INTFCLR_10
 70
0
 62
7
  6
CONTINUOUS
370
-3
390
F
  0
LAYER
  5
207
100
AcDbSymbolTableRecord
100
AcDbLayerTableRecord
  2
INTFCLR_3
 70
0
 62
7
  6
CONTINUOUS
370
-3
390
F
  0
LAYER
  5
208
100
AcDbSymbolTableRecord
100
AcDbLayerTableRecord
  2
INTFCLR_4
 70
0
 62
7
  6
CONTINUOUS
370
-3
390
F
  0
LAYER
  5
209
100
AcDbSymbolTableRecord
100
AcDbLayerTableRecord
  2
INTFCLR_5
 70
0
 62
7
  6
CONTINUOUS
370
-3
390
F
  0
LAYER
  5
20A
100
AcDbSymbolTableRecord
100
AcDbLayerTableRecord
  2
INTFCLR_6
 70
0
 62
7
  6
CONTINUOUS
370
-3
390
F
  0
LAYER
  5
20B
100
AcDbSymbolTableRecord
100
AcDbLayerTableRecord
  2
INTFCLR_7
 70
0
 62
7
  6
CONTINUOUS
370
-3
390
F
  0
LAYER
  5
20C
100
AcDbSymbolTableRecord
100
AcDbLayerTableRecord
  2
INTFCLR_8
 70
0
 62
7
  6
CONTINUOUS
370
-3
390
F
  0
LAYER
  5
20D
100
AcDbSymbolTableRecord
100
AcDbLayerTableRecord
  2
INTFCLR_9
 70
0
 62
7
  6
CONTINUOUS
370
-3
390
F
  0
LAYER
  5
20E
100
AcDbSymbolTableRecord
100
AcDbLayerTableRecord
  2
LIVELLO_1
 70
0
 62
7
  6
CONTINUOUS
370
-3
390
F
  0
LAYER
  5
20F
100
AcDbSymbolTableRecord
100
AcDbLayerTableRecord
  2
LIVELLO_2
 70
0
 62
7
  6
CONTINUOUS
370
-3
390
F
  0
LAYER
  5
210
100
AcDbSymbolTableRecord
100
AcDbLayerTableRecord
  2
NONE
 70
0
 62
7
  6
CONTINUOUS
370
-3
390
F
  0
LAYER
  5
211
100
AcDbSymbolTableRecord
100
AcDbLayerTableRecord
  2
NOTE
 70
0
 62
7
  6
CONTINUOUS
370
-3
390
F
  0
LAYER
  5
212
100
AcDbSymbolTableRecord
100
AcDbLayerTableRecord
  2
PIANI
 70
0
 62
7
  6
CONTINUOUS
370
-3
390
F
  0
LAYER
  5
213
100
AcDbSymbolTableRecord
100
AcDbLayerTableRecord
  2
PIANI_ORIGINE
 70
0
 62
7
  6
CONTINUOUS
370
-3
390
F
  0
LAYER
  5
214
100
AcDbSymbolTableRecord
100
AcDbLayerTableRecord
  2
PUNTI
 70
0
 62
7
  6
CONTINUOUS
370
-3
390
F
  0
LAYER
  5
215
100
AcDbSymbolTableRecord
100
AcDbLayerTableRecord
  2
RACCORDO
 70
0
 62
7
  6
CONTINUOUS
370
-3
390
F
  0
LAYER
  5
216
100
AcDbSymbolTableRecord
100
AcDbLayerTableRecord
  2
SIMBOLI
 70
0
 62
7
  6
CONTINUOUS
370
-3
390
F
  0
LAYER
  5
217
100
AcDbSymbolTableRecord
100
AcDbLayerTableRecord
  2
SMUSSO
 70
0
 62
7
  6
CONTINUOUS
370
-3
390
F
  0
LAYER
  5
218
100
AcDbSymbolTableRecord
100
AcDbLayerTableRecord
  2
SNAPLINE
 70
0
 62
7
  6
CONTINUOUS
370
-3
390
F
  0
LAYER
  5
219
100
AcDbSymbolTableRecord
100
AcDbLayerTableRecord
  2
SUPERFICI
 70
0
 62
7
  6
CONTINUOUS
370
-3
390
F
  0
LAYER
  5
21A
100
AcDbSymbolTableRecord
100
AcDbLayerTableRecord
  2
TRASH
 70
0
 62
7
  6
CONTINUOUS
370
-3
390
F
  0
LAYER
  5
21B
100
AcDbSymbolTableRecord
100
AcDbLayerTableRecord
  2
WHITE
 70
0
 62
7
  6
CONTINUOUS
370
-3
390
F
  0
ENDTAB
  0
TABLE
  2
STYLE
  5
3
100
AcDbSymbolTable
 70
1
  0
STYLE
  5
11
100
AcDbSymbolTableRecord
100
AcDbTextStyleTableRecord
  2
STANDARD
 70
0
 40
0.0
 41
0.8
 50
0.0
 71
0
 42
0.2
  3
txt
  4

  0
STYLE
  5
21C
100
AcDbSymbolTableRecord
100
AcDbTextStyleTableRecord
  2
TEXTSTYLE_1
 70
0
 40
0.0
 41
0.8
 50
0.0
 71
0
 42
0.2
  3
gdt
  4

  0
ENDTAB
  0
TABLE
  2
VIEW
  5
6
100
AcDbSymbolTable
 70
0
  0
ENDTAB
  0
TABLE
  2
UCS
  5
7
100
AcDbSymbolTable
 70
0
  0
ENDTAB
  0
TABLE
  2
APPID
  5
9
100
AcDbSymbolTable
 70
1
  0
APPID
  5
21D
100
AcDbSymbolTableRecord
100
AcDbRegAppTableRecord
  2
ACAD
 70
0
  0
ENDTAB
  0
TABLE
  2
BLOCK_RECORD
  5
1
100
AcDbSymbolTable
 70
0
  0
BLOCK_RECORD
  5
21E
100
AcDbSymbolTableRecord
100
AcDbBlockTableRecord
  2
*Model_Space
  0
BLOCK_RECORD
  5
21F
100
AcDbSymbolTableRecord
100
AcDbBlockTableRecord
  2
*Paper_Space
  0
BLOCK_RECORD
  5
220
100
AcDbSymbolTableRecord
100
AcDbBlockTableRecord
  2
_FILLED
  0
ENDTAB
  0
TABLE
  2
DIMSTYLE
  5
A
100
AcDbSymbolTable
 70
1
100
AcDbDimStyleTable
 71
0
  0
DIMSTYLE
105
221
100
AcDbSymbolTableRecord
100
AcDbDimStyleTableRecord
  2
STANDARD
 70
0
  3

  4

 40
1.0
 41
3.0
 42
0.5
 43
0.38
 44
1.5
 45
0.0
 46
0.0
 47
0.01
 48
0.01
140
3.0
141
0.09
142
0.0
143
25.4
144
1.0
145
0.0
146
1.0
147
0.625
 71
1
 72
0
 73
0
 74
0
 75
0
 76
0
 77
1
 78
8
 79
2
170
0
171
1
172
0
173
0
174
0
175
0
176
0
177
0
178
0
270
2
179
2
271
2
272
2
273
2
274
2
275
0
280
0
281
0
282
0
283
1
284
8
285
0
286
0
287
3
288
0
340
11
278
44
341
220
342
220
343
220
344
220
  0
ENDTAB
  0
ENDSEC
  0
SECTION
  2
BLOCKS
  0
BLOCK
  5
20
100
AcDbEntity
  8
0
100
AcDbBlockBegin
  2
*Model_Space
 70
0
 10
0.0
 20
0.0
 30
0.0
  3
*Model_Space
  1

  0
ENDBLK
  5
21
100
AcDbEntity
  8
0
100
AcDbBlockEnd
  0
BLOCK
  5
1C
100
AcDbEntity
  8
0
100
AcDbBlockBegin
  2
*Paper_Space
 70
0
 10
0.0
 20
0.0
 30
0.0
  3
*Paper_Space
  1

  0
ENDBLK
  5
1D
100
AcDbEntity
  8
0
100
AcDbBlockEnd
  0
BLOCK
  5
222
100
AcDbEntity
  8
0
100
AcDbBlockBegin
  2
_FILLED
 70
64
 10
0.0
 20
0.0
  3
_FILLED
  1

  0
SOLID
  5
223
100
AcDbEntity
  8
0
  6
BYBLOCK
 62
0
100
AcDbTrace
 10
0.0
 20
0.0
 11
-1.0
 21
0.3166666667
 12
-1.0
 22
-0.3166666667
 13
-1.0
 23
-0.3166666667
  0
ENDBLK
  5
224
100
AcDbEntity
  8
0
  6
BYBLOCK
 62
0
100
AcDbBlockEnd
  0
ENDSEC
  0
SECTION
  2
ENTITIES
  0
LINE
  5
225
100
AcDbEntity
  8
IMPORT_IGES
100
AcDbLine
 62
7
  6
CONTINUOUS
 10
3.883531722
 20
-46.9737455265
 11
-5.1165825088
 21
-46.9737455265
  0
LINE
  5
226
100
AcDbEntity
  8
IMPORT_IGES
100
AcDbLine
 62
7
  6
CONTINUOUS
 10
-5.0755662301
 20
-46.9327292479
 11
3.8425154434
 21
-46.9327292479
  0
LINE
  5
227
100
AcDbEntity
  8
0
100
AcDbLine
 62
7
  6
CONTINUOUS
 10
14.2834746066
 20
-45.5437455265
 11
5.3802256398
 21
-45.5437455265
  0
LINE
  5
228
100
AcDbEntity
  8
IMPORT_IGES
100
AcDbLine
 62
7
  6
CONTINUOUS
 10
3.1245023083
 20
-45.3647618051
 11
-4.3575530951
 21
-45.3647618051
  0
LINE
  5
229
100
AcDbEntity
  8
IMPORT_IGES
100
AcDbLine
 62
7
  6
CONTINUOUS
 10
-4.3165368164
 20
-45.3237455265
 11
3.0834860297
 21
-45.3237455265
  0
LWPOLYLINE
  5
22A
100
AcDbEntity
  8
IMPORT_IGES
100
AcDbPolyline
 62
250
  6
CONTINUOUS
 90
31
 70
0
 10
16.7778604672
 20
-42.9181123486
 10
16.7917330087
 20
-42.9179188003
 10
16.8062542377
 20
-42.9173032983
 10
16.8214094113
 20
-42.9162088386
 10
16.8371656139
 20
-42.9145781388
 10
16.8535151623
 20
-42.9123495922
 10
16.870474578
 20
-42.9094527259
 10
16.8880109893
 20
-42.9058194458
 10
16.9060870154
 20
-42.9013802635
 10
16.9247023111
 20
-42.896051617
 10
16.9438008905
 20
-42.8897592256
 10
16.9633276547
 20
-42.8824263031
 10
16.9832688187
 20
-42.8739538424
 10
17.0035357231
 20
-42.8642662394
 10
17.0240509281
 20
-42.8532806746
 10
17.0447947068
 20
-42.8408723088
 10
17.0656349368
 20
-42.8269698605
 10
17.08646177
 20
-42.8114858195
 10
17.1072505366
 20
-42.7942487558
 10
17.1278245993
 20
-42.7751846558
 10
17.1480064183
 20
-42.7542176704
 10
17.1677093616
 20
-42.731149303
 10
17.1866796225
 20
-42.7059332983
 10
17.2046666747
 20
-42.6785166724
 10
17.2214987499
 20
-42.6486752192
 10
17.2368260039
 20
-42.6164183942
 10
17.2502955196
 20
-42.5817599584
 10
17.2616011485
 20
-42.5444904213
 10
17.270297252
 20
-42.5046212016
 10
17.2758727348
 20
-42.4624189024
 10
17.2778414287
 20
-42.418131387
  0
LWPOLYLINE
  5
22B
100
AcDbEntity
  8
IMPORT_IGES
100
AcDbPolyline
 62
250
  6
CONTINUOUS
 90
31
 70
0
 10
-7.2706510129
 20
-42.9181123486
 10
-7.2567784714
 20
-42.9179188003
 10
-7.2422572423
 20
-42.9173032983
 10
-7.2271020688
 20
-42.9162088386
 10
-7.2113458662
 20
-42.9145781388
 10
-7.1949963178
 20
-42.9123495922
 10
-7.178036902
 20
-42.9094527259
 10
-7.1605004908
 20
-42.9058194458
 10
-7.1424244647
 20
-42.9013802635
 10
-7.1238091689
 20
-42.896051617
 10
-7.1047105896
 20
-42.8897592256
 10
-7.0851838253
 20
-42.8824263031
 10
-7.0652426614
 20
-42.8739538424
 10
-7.0449757569
 20
-42.8642662394
 10
-7.024460552
 20
-42.8532806746
 10
-7.0037167732
 20
-42.8408723088
 10
-6.9828765432
 20
-42.8269698605
 10
-6.96204971
 20
-42.8114858195
 10
-6.9412609434
 20
-42.7942487558
 10
-6.9206868808
 20
-42.7751846558
 10
-6.9005050617
 20
-42.7542176704
 10
-6.8808021185
 20
-42.731149303
 10
-6.8618318576
 20
-42.7059332983
 10
-6.8438448053
 20
-42.6785166724
 10
-6.8270127302
 20
-42.6486752192
 10
-6.8116854762
 20
-42.6164183942
 10
-6.7982159604
 20
-42.5817599584
 10
-6.7869103316
 20
-42.5444904213
 10
-6.778214228
 20
-42.5046212016
 10
-6.7726387453
 20
-42.4624189024
 10
-6.7706700513
 20
-42.418131387
  0
LINE
  5
22C
100
AcDbEntity
  8
IMPORT_IGES
100
AcDbLine
 62
7
  6
CONTINUOUS
 10
16.8834936451
 20
-43.0237455265
 11
5.3834746066
 21
-43.0237455265
  0
LINE
  5
22D
100
AcDbEntity
  8
IMPORT_IGES
100
AcDbLine
 62
7
  6
CONTINUOUS
 10
3.3834746066
 20
-43.0237455265
 11
-4.6165253934
 21
-43.0237455265
  0
LINE
  5
22E
100
AcDbEntity
  8
IMPORT_IGES
100
AcDbLine
 62
7
  6
CONTINUOUS
 10
-6.6165253934
 20
-43.0237455265
 11
-18.1165444318
 21
-43.0237455265
  0
LINE
  5
22F
100
AcDbEntity
  8
IMPORT_IGES
100
AcDbLine
 62
7
  6
CONTINUOUS
 10
-7.2121809987
 20
-42.9765823628
 11
-6.6165253934
 21
-42.9765823628
  0
LINE
  5
230
100
AcDbEntity
  8
IMPORT_IGES
100
AcDbLine
 62
7
  6
CONTINUOUS
 10
-4.6165253934
 20
-42.9765823628
 11
3.3834746066
 21
-42.9765823628
  0
LINE
  5
231
100
AcDbEntity
  8
IMPORT_IGES
100
AcDbLine
 62
7
  6
CONTINUOUS
 10
5.3834746066
 20
-42.9765823628
 11
5.9791302119
 21
-42.9765823628
  0
LINE
  5
232
100
AcDbEntity
  8
IMPORT_IGES
100
AcDbLine
 62
7
  6
CONTINUOUS
 10
-18.0109112539
 20
-42.9181123486
 11
-7.2706510129
 21
-42.9181123486
  0
LINE
  5
233
100
AcDbEntity
  8
IMPORT_IGES
100
AcDbLine
 62
7
  6
CONTINUOUS
 10
6.0376002261
 20
-42.9181123486
 11
16.7778604672
 21
-42.9181123486
  0
LINE
  5
234
100
AcDbEntity
  8
IMPORT_IGES
100
AcDbLine
 62
250
  6
CONTINUOUS
 10
5.4834746066
 20
-42.4766014012
 11
5.3834746066
 21
-42.4766014012
  0
LINE
  5
235
100
AcDbEntity
  8
IMPORT_IGES
100
AcDbLine
 62
250
  6
CONTINUOUS
 10
3.3834746066
 20
-42.4766014012
 11
-4.6165253934
 21
-42.4766014012
  0
LINE
  5
236
100
AcDbEntity
  8
IMPORT_IGES
100
AcDbLine
 62
250
  6
CONTINUOUS
 10
-6.6165253934
 20
-42.4766014012
 11
-6.7165253934
 21
-42.4766014012
  0
LINE
  5
237
100
AcDbEntity
  8
IMPORT_IGES
100
AcDbLine
 62
250
  6
CONTINUOUS
 10
17.2778414287
 20
-42.418131387
 11
5.5376192646
 21
-42.418131387
  0
LINE
  5
238
100
AcDbEntity
  8
IMPORT_IGES
100
AcDbLine
 62
250
  6
CONTINUOUS
 10
-6.7706700513
 20
-42.418131387
 11
-18.5108922154
 21
-42.418131387
  0
LINE
  5
239
100
AcDbEntity
  8
IMPORT_IGES
100
AcDbLine
 62
7
  6
CONTINUOUS
 10
-1.806053152
 20
-40.9842177678
 11
-4.4269976347
 21
-40.9842177678
  0
LINE
  5
23A
100
AcDbEntity
  8
IMPORT_IGES
100
AcDbLine
 62
7
  6
CONTINUOUS
 10
-4.4165253934
 20
-40.9737455265
 11
-1.8165253934
 21
-40.9737455265
  0
LINE
  5
23B
100
AcDbEntity
  8
IMPORT_IGES
100
AcDbLine
 62
7
  6
CONTINUOUS
 10
-6.7165253934
 20
-37.7929468514
 11
-6.6165253934
 21
-37.7929468514
  0
LINE
  5
23C
100
AcDbEntity
  8
IMPORT_IGES
100
AcDbLine
 62
7
  6
CONTINUOUS
 10
5.3834746066
 20
-37.7929468514
 11
5.4834746066
 21
-37.7929468514
  0
LINE
  5
23D
100
AcDbEntity
  8
IMPORT_IGES
100
AcDbLine
 62
7
  6
CONTINUOUS
 10
5.525363572
 20
-37.3730012665
 11
4.7419255824
 21
-37.3730012665
  0
LINE
  5
23E
100
AcDbEntity
  8
IMPORT_IGES
100
AcDbLine
 62
7
  6
CONTINUOUS
 10
-5.9749763691
 20
-37.3730012665
 11
-6.7584143588
 21
-37.3730012665
  0
LINE
  5
23F
100
AcDbEntity
  8
IMPORT_IGES
100
AcDbLine
 62
7
  6
CONTINUOUS
 10
-6.7706700513
 20
-37.3607455739
 11
-5.9872320617
 21
-37.3607455739
  0
LINE
  5
240
100
AcDbEntity
  8
IMPORT_IGES
100
AcDbLine
 62
7
  6
CONTINUOUS
 10
4.7541812749
 20
-37.3607455739
 11
5.5376192646
 21
-37.3607455739
  0
LWPOLYLINE
  5
241
100
AcDbEntity
  8
IMPORT_IGES
100
AcDbPolyline
 62
250
  6
CONTINUOUS
 90
31
 70
0
 10
-5.9872320617
 20
-37.3607455739
 10
-5.9733595202
 20
-37.3605520257
 10
-5.9588382912
 20
-37.3599365237
 10
-5.9436831176
 20
-37.358842064
 10
-5.927926915
 20
-37.3572113642
 10
-5.9115773666
 20
-37.3549828176
 10
-5.8946179508
 20
-37.3520859512
 10
-5.8770815396
 20
-37.3484526712
 10
-5.8590055135
 20
-37.3440134889
 10
-5.8403902177
 20
-37.3386848424
 10
-5.8212916384
 20
-37.332392451
 10
-5.8017648741
 20
-37.3250595284
 10
-5.7818237102
 20
-37.3165870677
 10
-5.7615568057
 20
-37.3068994647
 10
-5.7410416008
 20
-37.2959139
 10
-5.720297822
 20
-37.2835055342
 10
-5.699457592
 20
-37.2696030859
 10
-5.6786307588
 20
-37.2541190449
 10
-5.6578419922
 20
-37.2368819812
 10
-5.6372679296
 20
-37.2178178812
 10
-5.6170861105
 20
-37.1968508958
 10
-5.5973831673
 20
-37.1737825284
 10
-5.5784129064
 20
-37.1485665237
 10
-5.5604258541
 20
-37.1211498978
 10
-5.543593779
 20
-37.0913084446
 10
-5.528266525
 20
-37.0590516196
 10
-5.5147970092
 20
-37.0243931838
 10
-5.5034913804
 20
-36.9871236467
 10
-5.4947952768
 20
-36.947254427
 10
-5.4892197941
 20
-36.9050521278
 10
-5.4872511001
 20
-36.8607646124
  0
LINE
  5
242
100
AcDbEntity
  8
IMPORT_IGES
100
AcDbLine
 62
250
  6
CONTINUOUS
 10
6.0376002261
 20
-36.8607646124
 11
4.2542003134
 21
-36.8607646124
  0
LINE
  5
243
100
AcDbEntity
  8
IMPORT_IGES
100
AcDbLine
 62
250
  6
CONTINUOUS
 10
-5.4872511001
 20
-36.8607646124
 11
-7.2706510129
 21
-36.8607646124
  0
LINE
  5
244
100
AcDbEntity
  8
IMPORT_IGES
100
AcDbLine
 62
250
  6
CONTINUOUS
 10
-7.2121809987
 20
-42.9765823628
 11
-7.2706510129
 21
-42.9181123486
  0
LINE
  5
245
100
AcDbEntity
  8
IMPORT_IGES
100
AcDbLine
 62
250
  6
CONTINUOUS
 10
-6.7706700513
 20
-42.418131387
 11
-6.7165253934
 21
-42.472276045
  0
LWPOLYLINE
  5
246
100
AcDbEntity
  8
IMPORT_IGES
100
AcDbPolyline
 62
250
  6
CONTINUOUS
 90
19
 70
0
 10
-18.551932616
 20
46.4116807347
 10
-18.5496722918
 20
46.4192178834
 10
-18.5436578819
 20
46.4266948393
 10
-18.5339397044
 20
46.4340553172
 10
-18.5205971566
 20
46.4412434308
 10
-18.5037347679
 20
46.4482059578
 10
-18.4834783715
 20
46.4548925288
 10
-18.4599816873
 20
46.4612531499
 10
-18.4334234357
 20
46.4672400861
 10
-18.4039986327
 20
46.4728096543
 10
-18.371928256
 20
46.4779199895
 10
-18.3374531741
 20
46.482532675
 10
-18.3008247669
 20
46.486613797
 10
-18.2623177901
 20
46.4901322667
 10
-18.2222200748
 20
46.4930613317
 10
-18.1808216823
 20
46.4953790802
 10
-18.1384291451
 20
46.4970673006
 10
-18.0953643783
 20
46.4981121467
 10
-18.0519516545
 20
46.4985048235
  0
LINE
  5
247
100
AcDbEntity
  8
IMPORT_IGES
100
AcDbLine
 62
7
  6
CONTINUOUS
 10
-4.4182861327
 20
-33.6719847872
 11
-1.8147646541
 21
-33.6719847872
  0
LINE
  5
248
100
AcDbEntity
  8
IMPORT_IGES
100
AcDbLine
 62
7
  6
CONTINUOUS
 10
-4.4269976347
 20
-32.6737455265
 11
-1.806053152
 21
-32.6737455265
  0
LINE
  5
249
100
AcDbEntity
  8
IMPORT_IGES
100
AcDbLine
 62
7
  6
CONTINUOUS
 10
-1.806053152
 20
-31.8842177678
 11
-4.4269976347
 21
-31.8842177678
  0
LINE
  5
24A
100
AcDbEntity
  8
IMPORT_IGES
100
AcDbLine
 62
7
  6
CONTINUOUS
 10
-4.4165253934
 20
-31.8737455265
 11
-1.8165253934
 21
-31.8737455265
  0
LINE
  5
24B
100
AcDbEntity
  8
IMPORT_IGES
100
AcDbLine
 62
7
  6
CONTINUOUS
 10
3.0834860297
 20
-31.7237455265
 11
-3.1165253934
 21
-31.7237455265
  0
LINE
  5
24C
100
AcDbEntity
  8
IMPORT_IGES
100
AcDbLine
 62
7
  6
CONTINUOUS
 10
-3.1165253934
 20
-31.6953832062
 11
3.11184835
 21
-31.6953832062
  0
LINE
  5
24D
100
AcDbEntity
  8
IMPORT_IGES
100
AcDbLine
 62
7
  6
CONTINUOUS
 10
17.4234404688
 20
-31.5344284121
 11
17.3834746066
 21
-31.5344284121
  0
LINE
  5
24E
100
AcDbEntity
  8
IMPORT_IGES
100
AcDbLine
 62
7
  6
CONTINUOUS
 10
-18.6165253934
 20
-31.5344284121
 11
-18.655767452
 21
-31.5344284121
  0
LINE
  5
24F
100
AcDbEntity
  8
IMPORT_IGES
100
AcDbLine
 62
7
  6
CONTINUOUS
 10
-2.1165253934
 20
-31.2237455265
 11
3.411836927
 21
-31.2237455265
  0
LINE
  5
250
100
AcDbEntity
  8
IMPORT_IGES
100
AcDbLine
 62
7
  6
CONTINUOUS
 10
-2.1165253934
 20
-31.2237455265
 11
3.4244908853
 21
-31.2110915682
  0
LINE
  5
251
100
AcDbEntity
  8
IMPORT_IGES
100
AcDbLine
 62
7
  6
CONTINUOUS
 10
-6.7706700513
 20
-37.3607455739
 11
-6.7711282325
 21
-37.3602974902
  0
LINE
  5
252
100
AcDbEntity
  8
IMPORT_IGES
100
AcDbLine
 62
250
  6
CONTINUOUS
 10
-5.9749763691
 20
-37.3730012665
 11
-5.9872320617
 21
-37.3607455739
  0
LINE
  5
253
100
AcDbEntity
  8
IMPORT_IGES
100
AcDbLine
 62
7
  6
CONTINUOUS
 10
-6.7739019411
 20
-37.3575136841
 11
-7.2706510129
 21
-36.8607646124
  0
LINE
  5
254
100
AcDbEntity
  8
IMPORT_IGES
100
AcDbLine
 62
7
  6
CONTINUOUS
 10
-6.7584143588
 20
-37.3730012665
 11
-6.7739019411
 21
-37.3575136841
  0
LINE
  5
255
100
AcDbEntity
  8
IMPORT_IGES
100
AcDbLine
 62
7
  6
CONTINUOUS
 10
-18.5693622296
 20
19.7219291173
 11
-18.5542952018
 21
19.7369961451
  0
LINE
  5
256
100
AcDbEntity
  8
IMPORT_IGES
100
AcDbLine
 62
7
  6
CONTINUOUS
 10
-1.9246206315
 20
37.3717167523
 11
-1.9219621802
 21
37.3742473985
  0
LINE
  5
257
100
AcDbEntity
  8
IMPORT_IGES
100
AcDbLine
 62
7
  6
CONTINUOUS
 10
3.411836927
 20
-30.2237455265
 11
-2.1165253934
 21
-30.2237455265
  0
LINE
  5
258
100
AcDbEntity
  8
IMPORT_IGES
100
AcDbLine
 62
7
  6
CONTINUOUS
 10
3.11184835
 20
-29.7521078468
 11
-3.1165253934
 21
-29.7521078468
  0
LINE
  5
259
100
AcDbEntity
  8
IMPORT_IGES
100
AcDbLine
 62
7
  6
CONTINUOUS
 10
-3.1165253934
 20
-29.7237455265
 11
3.0834860297
 21
-29.7237455265
  0
LINE
  5
25A
100
AcDbEntity
  8
IMPORT_IGES
100
AcDbLine
 62
7
  6
CONTINUOUS
 10
-1.8165253934
 20
-29.6737455265
 11
-4.4165253934
 21
-29.6737455265
  0
LINE
  5
25B
100
AcDbEntity
  8
IMPORT_IGES
100
AcDbLine
 62
7
  6
CONTINUOUS
 10
-4.4269976347
 20
-29.6632732851
 11
-1.806053152
 21
-29.6632732851
  0
LINE
  5
25C
100
AcDbEntity
  8
IMPORT_IGES
100
AcDbLine
 62
7
  6
CONTINUOUS
 10
0.693946848
 20
-27.5261002329
 11
-1.9269976347
 21
-27.5261002329
  0
LINE
  5
25D
100
AcDbEntity
  8
IMPORT_IGES
100
AcDbLine
 62
7
  6
CONTINUOUS
 10
-1.9165253934
 20
-27.5156279916
 11
0.6834746066
 21
-27.5156279916
  0
LINE
  5
25E
100
AcDbEntity
  8
IMPORT_IGES
100
AcDbLine
 62
7
  6
CONTINUOUS
 10
3.4244908853
 20
-30.2363994848
 11
-2.1165253934
 21
-30.2237455265
  0
LINE
  5
25F
100
AcDbEntity
  8
IMPORT_IGES
100
AcDbLine
 62
250
  6
CONTINUOUS
 10
3.883531722
 20
-46.9737455265
 11
3.8425154434
 21
-46.9327292479
  0
LINE
  5
260
100
AcDbEntity
  8
IMPORT_IGES
100
AcDbLine
 62
7
  6
CONTINUOUS
 10
-1.806053152
 20
-40.9842177678
 11
-1.8165253934
 21
-40.9737455265
  0
LINE
  5
261
100
AcDbEntity
  8
IMPORT_IGES
100
AcDbLine
 62
250
  6
CONTINUOUS
 10
-5.4872511001
 20
-36.8607646124
 11
-5.4749954076
 21
-36.873020305
  0
LINE
  5
262
100
AcDbEntity
  8
IMPORT_IGES
100
AcDbLine
 62
250
  6
CONTINUOUS
 10
3.1245023083
 20
-45.3647618051
 11
3.0834860297
 21
-45.3237455265
  0
LINE
  5
263
100
AcDbEntity
  8
IMPORT_IGES
100
AcDbLine
 62
250
  6
CONTINUOUS
 10
3.3834746066
 20
-45.0237569496
 11
3.4244908853
 21
-45.0647732282
  0
LINE
  5
264
100
AcDbEntity
  8
IMPORT_IGES
100
AcDbLine
 62
250
  6
CONTINUOUS
 10
5.342458328
 20
-45.4327863633
 11
5.3834746066
 21
-45.4738026419
  0
LINE
  5
265
100
AcDbEntity
  8
IMPORT_IGES
100
AcDbLine
 62
250
  6
CONTINUOUS
 10
-18.5390549589
 20
17.2461372893
 11
-18.5108922154
 21
17.3022234385
  0
LINE
  5
266
100
AcDbEntity
  8
IMPORT_IGES
100
AcDbLine
 62
250
  6
CONTINUOUS
 10
-18.0152738571
 20
16.8023186265
 11
-18.0362124788
 21
16.7606193275
  0
LINE
  5
267
100
AcDbEntity
  8
IMPORT_IGES
100
AcDbLine
 62
7
  6
CONTINUOUS
 10
4.9325222257
 20
37.3717167523
 11
4.935180677
 21
37.3742473985
  0
LINE
  5
268
100
AcDbEntity
  8
IMPORT_IGES
100
AcDbLine
 62
7
  6
CONTINUOUS
 10
1.9426291863
 20
33.9476830449
 11
1.9458870268
 21
33.9503374086
  0
LWPOLYLINE
  5
269
100
AcDbEntity
  8
IMPORT_IGES
100
AcDbPolyline
 62
7
  6
CONTINUOUS
 90
13
 70
0
 10
-4.357579237
 20
-24.0808193867
 10
-4.3977846203
 20
-24.0837438412
 10
-4.4360480227
 20
-24.0913560522
 10
-4.4723694444
 20
-24.1036560197
 10
-4.5072974288
 20
-24.1210101056
 10
-4.5402834324
 20
-24.143051948
 10
-4.5696818245
 20
-24.1686824613
 10
-4.5953107062
 20
-24.1980835668
 10
-4.6173519764
 20
-24.2310733433
 10
-4.6347057014
 20
-24.2660069419
 10
-4.6470052367
 20
-24.3023360797
 10
-4.6546172269
 20
-24.3406090396
 10
-4.657541672
 20
-24.3808258217
  0
LINE
  5
26A
100
AcDbEntity
  8
IMPORT_IGES
100
AcDbLine
 62
7
  6
CONTINUOUS
 10
3.0834860297
 20
-26.7237455265
 11
-0.6165253934
 21
-26.7237455265
  0
LINE
  5
26B
100
AcDbEntity
  8
IMPORT_IGES
100
AcDbLine
 62
7
  6
CONTINUOUS
 10
-0.6165253934
 20
-26.6827292479
 11
3.1245023083
 21
-26.6827292479
  0
LINE
  5
26C
100
AcDbEntity
  8
IMPORT_IGES
100
AcDbLine
 62
7
  6
CONTINUOUS
 10
3.1245023083
 20
-25.2647618051
 11
-0.6314540979
 21
-25.2647618051
  0
LINE
  5
26D
100
AcDbEntity
  8
IMPORT_IGES
100
AcDbLine
 62
7
  6
CONTINUOUS
 10
-0.6268484337
 20
-25.2521078468
 11
0.1051122863
 21
-25.2521078468
  0
LINE
  5
26E
100
AcDbEntity
  8
IMPORT_IGES
100
AcDbLine
 62
7
  6
CONTINUOUS
 10
0.1334746066
 20
-25.2237455265
 11
3.0834860297
 21
-25.2237455265
  0
LINE
  5
26F
100
AcDbEntity
  8
IMPORT_IGES
100
AcDbLine
 62
7
  6
CONTINUOUS
 10
0.1334746066
 20
-24.9138672523
 11
0.6852353459
 21
-24.9138672523
  0
LINE
  5
270
100
AcDbEntity
  8
IMPORT_IGES
100
AcDbLine
 62
7
  6
CONTINUOUS
 10
-18.655767452
 20
-24.8017551448
 11
-18.6165253934
 21
-24.8017551448
  0
LINE
  5
271
100
AcDbEntity
  8
IMPORT_IGES
100
AcDbLine
 62
7
  6
CONTINUOUS
 10
17.3834746066
 20
-24.8017551448
 11
17.4234404688
 21
-24.8017551448
  0
LINE
  5
272
100
AcDbEntity
  8
IMPORT_IGES
100
AcDbLine
 62
7
  6
CONTINUOUS
 10
-1.9269976347
 20
-23.9156279916
 11
-1.3665253934
 21
-23.9156279916
  0
LINE
  5
273
100
AcDbEntity
  8
IMPORT_IGES
100
AcDbLine
 62
7
  6
CONTINUOUS
 10
0.1334746066
 20
-23.9156279916
 11
0.693946848
 21
-23.9156279916
  0
LINE
  5
274
100
AcDbEntity
  8
IMPORT_IGES
100
AcDbLine
 62
250
  6
CONTINUOUS
 10
-7.2706510129
 20
-23.8852379206
 11
-5.4872511001
 21
-23.8852379206
  0
LINE
  5
275
100
AcDbEntity
  8
IMPORT_IGES
100
AcDbLine
 62
250
  6
CONTINUOUS
 10
4.2542003134
 20
-23.8852379206
 11
6.0376002261
 21
-23.8852379206
  0
LWPOLYLINE
  5
276
100
AcDbEntity
  8
IMPORT_IGES
100
AcDbPolyline
 62
7
  6
CONTINUOUS
 90
10
 70
0
 10
-4.3165629584
 20
-24.1687790801
 10
-4.2930872199
 20
-24.1697272509
 10
-4.2700253014
 20
-24.1724239671
 10
-4.2473772029
 20
-24.1768692288
 10
-4.2250122191
 20
-24.1831104183
 10
-4.2030610554
 20
-24.1911001532
 10
-4.1819158276
 20
-24.2006962868
 10
-4.1617072412
 20
-24.2118514368
 10
-4.1423045907
 20
-24.2246129854
 10
-4.1237078761
 20
-24.2389809327
  0
LINE
  5
277
100
AcDbEntity
  8
IMPORT_IGES
100
AcDbLine
 62
7
  6
CONTINUOUS
 10
-4.4165253934
 20
-33.6737455265
 11
-4.4182861327
 21
-33.6719847872
  0
LINE
  5
278
100
AcDbEntity
  8
IMPORT_IGES
100
AcDbLine
 62
250
  6
CONTINUOUS
 10
-18.5108922154
 20
-18.327871146
 11
-18.5693622296
 21
-18.2694011318
  0
LINE
  5
279
100
AcDbEntity
  8
IMPORT_IGES
100
AcDbLine
 62
250
  6
CONTINUOUS
 10
-18.0650559119
 20
-17.7737455265
 11
-18.0109112539
 21
-17.8278901845
  0
LINE
  5
27A
100
AcDbEntity
  8
IMPORT_IGES
100
AcDbLine
 62
7
  6
CONTINUOUS
 10
-17.4778690693
 20
-17.8124018506
 11
-17.5165253934
 21
-17.7737455265
  0
LINE
  5
27B
100
AcDbEntity
  8
IMPORT_IGES
100
AcDbLine
 62
7
  6
CONTINUOUS
 10
-4.4269976347
 20
-29.6632732851
 11
-4.4165253934
 21
-29.6737455265
  0
LINE
  5
27C
100
AcDbEntity
  8
IMPORT_IGES
100
AcDbLine
 62
7
  6
CONTINUOUS
 10
-1.806053152
 20
-31.8842177678
 11
-1.8165253934
 21
-31.8737455265
  0
LWPOLYLINE
  5
27D
100
AcDbEntity
  8
IMPORT_IGES
100
AcDbPolyline
 62
250
  6
CONTINUOUS
 90
31
 70
0
 10
-18.5108922154
 20
-42.418131387
 10
-18.5090346997
 20
-42.4611515082
 10
-18.5037496556
 20
-42.5023035535
 10
-18.4954607801
 20
-42.5413532391
 10
-18.4846085069
 20
-42.5780699234
 10
-18.4715917222
 20
-42.6124013983
 10
-18.4567192965
 20
-42.6444514794
 10
-18.4403324859
 20
-42.674181423
 10
-18.4227528744
 20
-42.7015915454
 10
-18.4041634586
 20
-42.7268629438
 10
-18.3848153272
 20
-42.7500316808
 10
-18.3649469112
 20
-42.7711479308
 10
-18.344641374
 20
-42.7904031248
 10
-18.3240676944
 20
-42.8078690129
 10
-18.3034020856
 20
-42.8236088983
 10
-18.2826808974
 20
-42.8377798741
 10
-18.2620208957
 20
-42.8504603997
 10
-18.2415463557
 20
-42.861722223
 10
-18.2212677051
 20
-42.8716912993
 10
-18.2012639062
 20
-42.880444513
 10
-18.1816218942
 20
-42.888053318
 10
-18.1623402672
 20
-42.894617721
 10
-18.1434691077
 20
-42.9002098501
 10
-18.1250701716
 20
-42.9048964639
 10
-18.1071445546
 20
-42.9087564198
 10
-18.0897299718
 20
-42.9118546341
 10
-18.0728617972
 20
-42.9142547698
 10
-18.0565277881
 20
-42.9160235787
 10
-18.0407382958
 20
-42.9172195979
 10
-18.0255272472
 20
-42.9178975545
 10
-18.0109112539
 20
-42.9181123486
  0
LINE
  5
27E
100
AcDbEntity
  8
IMPORT_IGES
100
AcDbLine
 62
7
  6
CONTINUOUS
 10
-1.9246206315
 20
30.5254678931
 11
-1.9219621802
 21
30.5283058094
  0
LINE
  5
27F
100
AcDbEntity
  8
IMPORT_IGES
100
AcDbLine
 62
250
  6
CONTINUOUS
 10
16.8189008678
 20
46.9116616962
 11
16.8834936451
 21
46.9762544735
  0
LINE
  5
280
100
AcDbEntity
  8
IMPORT_IGES
100
AcDbLine
 62
250
  6
CONTINUOUS
 10
17.3834746066
 20
46.476273512
 11
17.3188818293
 21
46.4116807347
  0
LINE
  5
281
100
AcDbEntity
  8
IMPORT_IGES
100
AcDbLine
 62
7
  6
CONTINUOUS
 10
4.1706174638
 20
33.9476830449
 11
4.1732759151
 21
33.9503374086
  0
LWPOLYLINE
  5
282
100
AcDbEntity
  8
IMPORT_IGES
100
AcDbPolyline
 62
250
  6
CONTINUOUS
 90
31
 70
0
 10
4.7541812749
 20
-23.3852569591
 10
4.7403087334
 20
-23.3854505073
 10
4.7257875044
 20
-23.3860660093
 10
4.7106323308
 20
-23.387160469
 10
4.6948761282
 20
-23.3887911688
 10
4.6785265799
 20
-23.3910197154
 10
4.6615671641
 20
-23.3939165818
 10
4.6440307528
 20
-23.3975498618
 10
4.6259547267
 20
-23.4019890441
 10
4.607339431
 20
-23.4073176906
 10
4.5882408517
 20
-23.413610082
 10
4.5687140874
 20
-23.4209430046
 10
4.5487729235
 20
-23.4294154653
 10
4.528506019
 20
-23.4391030683
 10
4.5079908141
 20
-23.450088633
 10
4.4872470353
 20
-23.4624969989
 10
4.4664068053
 20
-23.4763994472
 10
4.4455799721
 20
-23.4918834882
 10
4.4247912055
 20
-23.5091205518
 10
4.4042171428
 20
-23.5281846518
 10
4.3840353238
 20
-23.5491516372
 10
4.3643323806
 20
-23.5722200046
 10
4.3453621196
 20
-23.5974360093
 10
4.3273750674
 20
-23.6248526353
 10
4.3105429922
 20
-23.6546940884
 10
4.2952157382
 20
-23.6869509134
 10
4.2817462225
 20
-23.7216093493
 10
4.2704405937
 20
-23.7588788863
 10
4.2617444901
 20
-23.798748106
 10
4.2561690073
 20
-23.8409504052
 10
4.2542003134
 20
-23.8852379206
  0
LINE
  5
283
100
AcDbEntity
  8
IMPORT_IGES
100
AcDbLine
 62
7
  6
CONTINUOUS
 10
0.693946848
 20
-23.4261002329
 11
0.1334746066
 21
-23.4261002329
  0
LINE
  5
284
100
AcDbEntity
  8
IMPORT_IGES
100
AcDbLine
 62
7
  6
CONTINUOUS
 10
-1.3665253934
 20
-23.4261002329
 11
-1.9269976347
 21
-23.4261002329
  0
LINE
  5
285
100
AcDbEntity
  8
IMPORT_IGES
100
AcDbLine
 62
7
  6
CONTINUOUS
 10
-1.9165253934
 20
-23.4156279916
 11
-1.3665253934
 21
-23.4156279916
  0
LINE
  5
286
100
AcDbEntity
  8
IMPORT_IGES
100
AcDbLine
 62
7
  6
CONTINUOUS
 10
0.1334746066
 20
-23.4156279916
 11
0.6834746066
 21
-23.4156279916
  0
LINE
  5
287
100
AcDbEntity
  8
IMPORT_IGES
100
AcDbLine
 62
7
  6
CONTINUOUS
 10
5.5376192646
 20
-23.3852569591
 11
4.7541812749
 21
-23.3852569591
  0
LINE
  5
288
100
AcDbEntity
  8
IMPORT_IGES
100
AcDbLine
 62
7
  6
CONTINUOUS
 10
-5.9872320617
 20
-23.3852569591
 11
-6.7706700513
 21
-23.3852569591
  0
LINE
  5
289
100
AcDbEntity
  8
IMPORT_IGES
100
AcDbLine
 62
7
  6
CONTINUOUS
 10
-6.7584143588
 20
-23.3730012665
 11
-5.9749763691
 21
-23.3730012665
  0
LINE
  5
28A
100
AcDbEntity
  8
IMPORT_IGES
100
AcDbLine
 62
7
  6
CONTINUOUS
 10
4.7419255824
 20
-23.3730012665
 11
5.525363572
 21
-23.3730012665
  0
LINE
  5
28B
100
AcDbEntity
  8
IMPORT_IGES
100
AcDbLine
 62
7
  6
CONTINUOUS
 10
-6.7165253934
 20
-22.9530556816
 11
-6.6165253934
 21
-22.9530556816
  0
LINE
  5
28C
100
AcDbEntity
  8
IMPORT_IGES
100
AcDbLine
 62
7
  6
CONTINUOUS
 10
5.4834746066
 20
-22.9530556816
 11
5.3834746066
 21
-22.9530556816
  0
LWPOLYLINE
  5
28D
100
AcDbEntity
  8
IMPORT_IGES
100
AcDbPolyline
 62
7
  6
CONTINUOUS
 90
10
 70
0
 10
-4.1647241548
 20
-24.1510212394
 10
-4.1833208693
 20
-24.1366532921
 10
-4.2027235198
 20
-24.1238917435
 10
-4.2229321063
 20
-24.1127365935
 10
-4.244077334
 20
-24.1031404599
 10
-4.2660284978
 20
-24.0951507249
 10
-4.2883934815
 20
-24.0889095355
 10
-4.31104158
 20
-24.0844642738
 10
-4.3341034985
 20
-24.0817675575
 10
-4.357579237
 20
-24.0808193867
  0
LINE
  5
28E
100
AcDbEntity
  8
IMPORT_IGES
100
AcDbLine
 62
7
  6
CONTINUOUS
 10
-1.5807068079
 20
-26.3728121912
 11
-4.1237078761
 21
-24.2389809327
  0
LINE
  5
28F
100
AcDbEntity
  8
IMPORT_IGES
100
AcDbLine
 62
7
  6
CONTINUOUS
 10
-4.1647241548
 20
-24.1510212394
 11
-1.5543420522
 21
-26.3413918989
  0
LINE
  5
290
100
AcDbEntity
  8
IMPORT_IGES
100
AcDbLine
 62
7
  6
CONTINUOUS
 10
-17.5165253934
 20
-15.7737455265
 11
-17.4988882264
 21
-15.7913826935
  0
LWPOLYLINE
  5
291
100
AcDbEntity
  8
IMPORT_IGES
100
AcDbPolyline
 62
250
  6
CONTINUOUS
 90
76
 70
0
 10
-18.5108922154
 20
17.3022234385
 10
-18.5103418381
 20
17.2788484708
 10
-18.5087245919
 20
17.2557977393
 10
-18.5060818519
 20
17.2331178459
 10
-18.5024309198
 20
17.2107147182
 10
-18.4978291265
 20
17.1887673527
 10
-18.4924346026
 20
17.1677150948
 10
-18.48637685
 20
17.1476733009
 10
-18.4797263624
 20
17.1285517734
 10
-18.4726154697
 20
17.1104553053
 10
-18.465173608
 20
17.0934458924
 10
-18.4574665819
 20
17.077440339
 10
-18.4495246947
 20
17.0623186763
 10
-18.4414174427
 20
17.048062851
 10
-18.4332137402
 20
17.0346582527
 10
-18.4249169788
 20
17.0219962182
 10
-18.4165740455
 20
17.0100532309
 10
-18.4082376577
 20
16.9988172212
 10
-18.3999012123
 20
16.9882036128
 10
-18.391598937
 20
16.9781914674
 10
-18.3833693307
 20
16.9687670606
 10
-18.3751994037
 20
16.959862807
 10
-18.3671140801
 20
16.9514602406
 10
-18.3591418717
 20
16.9435460692
 10
-18.3512661964
 20
16.9360658338
 10
-18.3435050875
 20
16.9290034092
 10
-18.335879988
 20
16.9223468204
 10
-18.3283730668
 20
16.9160523751
 10
-18.3209974459
 20
16.9101062293
 10
-18.3137693642
 20
16.9044978281
 10
-18.3066711365
 20
16.8991921634
 10
-18.2997126576
 20
16.8941776582
 10
-18.2929060336
 20
16.8894449095
 10
-18.2862336273
 20
16.8849652667
 10
-18.2797025591
 20
16.8807288312
 10
-18.2733222531
 20
16.8767276465
 10
-18.2670761408
 20
16.8729385304
 10
-18.2609695202
 20
16.8693531691
 10
-18.2550096139
 20
16.8659647266
 10
-18.2491809987
 20
16.8627543201
 10
-18.2434877254
 20
16.8597150192
 10
-18.2379352698
 20
16.8568409249
 10
-18.2325090542
 20
16.8541164176
 10
-18.2272119448
 20
16.851535603
 10
-18.2220483446
 20
16.8490935522
 10
-18.217005018
 20
16.846777505
 10
-18.2120843035
 20
16.844582602
 10
-18.2072894419
 20
16.8425045574
 10
-18.2026078281
 20
16.8405326398
 10
-18.1980406573
 20
16.8386625481
 10
-18.1935910163
 20
16.8368908984
 10
-18.1892486005
 20
16.835209277
 10
-18.1850147243
 20
16.8336142236
 10
-18.180891403
 20
16.8321026548
 10
-18.1768689879
 20
16.8306674727
 10
-18.1729487677
 20
16.8293058497
 10
-18.1691320452
 20
16.8280150536
 10
-18.1654088797
 20
16.826788785
 10
-18.1617803227
 20
16.8256246871
 10
-18.1582473282
 20
16.8245204446
 10
-18.1547995525
 20
16.8234704191
 10
-18.1514361227
 20
16.8224721623
 10
-18.1481594464
 20
16.8215242694
 10
-18.1449639196
 20
16.8206231128
 10
-18.1418458819
 20
16.819765825
 10
-18.138810208
 20
16.8189519637
 10
-18.135864038
 20
16.8181816047
 10
-18.1330114647
 20
16.8174539404
 10
-18.1302494921
 20
16.8167663928
 10
-18.1275745917
 20
16.8161164008
 10
-18.1249840559
 20
16.8155017439
 10
-18.1224814481
 20
16.8149217597
 10
-18.1200726068
 20
16.8143762788
 10
-18.1177647246
 20
16.8138653728
 10
-18.1155513619
 20
16.8133861249
 10
-18.1113674335
 20
16.8125088001
  0
LINE
  5
292
100
AcDbEntity
  8
IMPORT_IGES
100
AcDbLine
 62
7
  6
CONTINUOUS
 10
-18.5390549589
 20
17.2461372893
 11
-18.5542952018
 21
18.2545516246
  0
LINE
  5
293
100
AcDbEntity
  8
IMPORT_IGES
100
AcDbLine
 62
7
  6
CONTINUOUS
 10
-17.4988882264
 20
-15.7913826935
 11
-17.4778690693
 21
-17.8124018506
  0
LINE
  5
294
100
AcDbEntity
  8
IMPORT_IGES
100
AcDbLine
 62
7
  6
CONTINUOUS
 10
-18.5108922154
 20
19.7409801559
 11
-18.551932616
 21
46.4116807347
  0
LINE
  5
295
100
AcDbEntity
  8
IMPORT_IGES
100
AcDbLine
 62
7
  6
CONTINUOUS
 10
-18.655767452
 20
35.4952745582
 11
-18.655767452
 21
28.7626012909
  0
LINE
  5
296
100
AcDbEntity
  8
IMPORT_IGES
100
AcDbLine
 62
7
  6
CONTINUOUS
 10
-18.655767452
 20
-31.5344284121
 11
-18.655767452
 21
-24.8017551448
  0
LINE
  5
297
100
AcDbEntity
  8
IMPORT_IGES
100
AcDbLine
 62
7
  6
CONTINUOUS
 10
-18.6165253934
 20
-42.523764565
 11
-18.6165253934
 21
46.476273512
  0
LINE
  5
298
100
AcDbEntity
  8
IMPORT_IGES
100
AcDbLine
 62
7
  6
CONTINUOUS
 10
-18.5693622296
 20
19.7219291173
 11
-18.5693622296
 21
-18.2694011318
  0
LINE
  5
299
100
AcDbEntity
  8
IMPORT_IGES
100
AcDbLine
 62
7
  6
CONTINUOUS
 10
-18.5542952018
 20
18.2545516246
 11
-18.5542952018
 21
19.7368577737
  0
LINE
  5
29A
100
AcDbEntity
  8
IMPORT_IGES
100
AcDbLine
 62
7
  6
CONTINUOUS
 10
-18.5108922154
 20
19.7409801559
 11
-18.5108922154
 21
17.3022234385
  0
LINE
  5
29B
100
AcDbEntity
  8
IMPORT_IGES
100
AcDbLine
 62
7
  6
CONTINUOUS
 10
-18.5108922154
 20
-18.327871146
 11
-18.5108922154
 21
-42.418131387
  0
LINE
  5
29C
100
AcDbEntity
  8
IMPORT_IGES
100
AcDbLine
 62
250
  6
CONTINUOUS
 10
-18.0693812681
 20
-17.7737455265
 11
-18.0693812681
 21
16.7606193275
  0
LINE
  5
29D
100
AcDbEntity
  8
IMPORT_IGES
100
AcDbLine
 62
250
  6
CONTINUOUS
 10
-18.0108449635
 20
19.7847244877
 11
-18.0519516545
 21
46.9116616962
  0
LINE
  5
29E
100
AcDbEntity
  8
IMPORT_IGES
100
AcDbLine
 62
250
  6
CONTINUOUS
 10
-18.0109112539
 20
-42.9181123486
 11
-18.0109112539
 21
-17.8278901845
  0
LINE
  5
29F
100
AcDbEntity
  8
IMPORT_IGES
100
AcDbLine
 62
250
  6
CONTINUOUS
 10
-18.0109112539
 20
17.3022234385
 11
-18.0109112539
 21
19.7847244877
  0
LINE
  5
2A0
100
AcDbEntity
  8
IMPORT_IGES
100
AcDbLine
 62
7
  6
CONTINUOUS
 10
-17.5165253934
 20
-17.7737455265
 11
-17.5165253934
 21
-15.7737455265
  0
LINE
  5
2A1
100
AcDbEntity
  8
IMPORT_IGES
100
AcDbLine
 62
250
  6
CONTINUOUS
 10
-18.0152738571
 20
16.8023186265
 11
-18.0109112539
 21
17.3022234385
  0
LINE
  5
2A2
100
AcDbEntity
  8
IMPORT_IGES
100
AcDbLine
 62
7
  6
CONTINUOUS
 10
4.9325222257
 20
30.5254678931
 11
4.935180677
 21
30.5283058094
  0
LWPOLYLINE
  5
2A3
100
AcDbEntity
  8
IMPORT_IGES
100
AcDbPolyline
 62
7
  6
CONTINUOUS
 90
13
 70
0
 10
-4.3546494628
 20
-17.2240341582
 10
-4.3961502011
 20
-17.2272145156
 10
-4.4353859307
 20
-17.2350188042
 10
-4.4723566514
 20
-17.2474470241
 10
-4.5075034435
 20
-17.2648444172
 10
-4.5403852268
 20
-17.2868657415
 10
-4.5696787605
 20
-17.3124752712
 10
-4.595309578
 20
-17.3418763949
 10
-4.6173521459
 20
-17.3748657241
 10
-4.6347066233
 20
-17.4097973673
 10
-4.6470063967
 20
-17.4461226941
 10
-4.6546180796
 20
-17.484390335
 10
-4.657541672
 20
-17.5246002899
  0
LWPOLYLINE
  5
2A4
100
AcDbEntity
  8
IMPORT_IGES
100
AcDbPolyline
 62
7
  6
CONTINUOUS
 90
37
 70
0
 10
-18.0650539394
 20
-17.773747499
 10
-18.0845067842
 20
-17.7741224421
 10
-18.1035332345
 20
-17.7752171289
 10
-18.1221083397
 20
-17.7769839504
 10
-18.1400270166
 20
-17.7793478789
 10
-18.1574567796
 20
-17.7822766243
 10
-18.174926541
 20
-17.7858457052
 10
-18.1925698409
 20
-17.7901083787
 10
-18.2101980417
 20
-17.7950448528
 10
-18.2278434853
 20
-17.8006847364
 10
-18.2454749233
 20
-17.8070432226
 10
-18.2630592008
 20
-17.8141340163
 10
-18.2806190058
 20
-17.8219959162
 10
-18.2981168569
 20
-17.8306473512
 10
-18.3155100284
 20
-17.8401034635
 10
-18.3328044274
 20
-17.8504081152
 10
-18.3499530815
 20
-17.8615803887
 10
-18.3669028973
 20
-17.8736347289
 10
-18.3836399968
 20
-17.8866155574
 10
-18.400116189
 20
-17.9005484056
 10
-18.4162556447
 20
-17.9154356169
 10
-18.4319949295
 20
-17.9312872877
 10
-18.4472667271
 20
-17.9481090591
 10
-18.461998831
 20
-17.9659001365
 10
-18.4761168629
 20
-17.9846546827
 10
-18.4895535826
 20
-18.0043746173
 10
-18.5022237838
 20
-18.0250346725
 10
-18.5140292753
 20
-18.0465770198
 10
-18.5249080285
 20
-18.0689965861
 10
-18.534773189
 20
-18.0922362707
 10
-18.5435116055
 20
-18.1161415407
 10
-18.5510653193
 20
-18.1406473316
 10
-18.5573867266
 20
-18.1657105401
 10
-18.562410584
 20
-18.1911930802
 10
-18.5660983961
 20
-18.2170025822
 10
-18.5684249863
 20
-18.2430958111
 10
-18.5693622296
 20
-18.2694011318
  0
LWPOLYLINE
  5
2A5
100
AcDbEntity
  8
IMPORT_IGES
100
AcDbPolyline
 62
250
  6
CONTINUOUS
 90
31
 70
0
 10
6.0376002261
 20
-17.8278901845
 10
6.0237276846
 20
-17.8280837327
 10
6.0092064556
 20
-17.8286992347
 10
5.994051282
 20
-17.8297936944
 10
5.9782950794
 20
-17.8314243942
 10
5.9619455311
 20
-17.8336529408
 10
5.9449861153
 20
-17.8365498072
 10
5.927449704
 20
-17.8401830872
 10
5.9093736779
 20
-17.8446222695
 10
5.8907583822
 20
-17.849950916
 10
5.8716598029
 20
-17.8562433074
 10
5.8521330386
 20
-17.86357623
 10
5.8321918747
 20
-17.8720486907
 10
5.8119249702
 20
-17.8817362937
 10
5.7914097653
 20
-17.8927218584
 10
5.7706659865
 20
-17.9051302242
 10
5.7498257565
 20
-17.9190326725
 10
5.7289989233
 20
-17.9345167135
 10
5.7082101567
 20
-17.9517537772
 10
5.687636094
 20
-17.9708178772
 10
5.667454275
 20
-17.9917848626
 10
5.6477513318
 20
-18.01485323
 10
5.6287810708
 20
-18.0400692347
 10
5.6107940186
 20
-18.0674858606
 10
5.5939619434
 20
-18.0973273138
 10
5.5786346894
 20
-18.1295841388
 10
5.5651651737
 20
-18.1642425746
 10
5.5538595449
 20
-18.2015121117
 10
5.5451634413
 20
-18.2413813314
 10
5.5395879585
 20
-18.2835836306
 10
5.5376192646
 20
-18.327871146
  0
LWPOLYLINE
  5
2A6
100
AcDbEntity
  8
IMPORT_IGES
100
AcDbPolyline
 62
250
  6
CONTINUOUS
 90
31
 70
0
 10
-18.0109112539
 20
-17.8278901845
 10
-18.0247837954
 20
-17.8280837327
 10
-18.0393050244
 20
-17.8286992347
 10
-18.054460198
 20
-17.8297936944
 10
-18.0702164006
 20
-17.8314243942
 10
-18.086565949
 20
-17.8336529408
 10
-18.1035253647
 20
-17.8365498072
 10
-18.121061776
 20
-17.8401830872
 10
-18.1391378021
 20
-17.8446222695
 10
-18.1577530978
 20
-17.849950916
 10
-18.1768516772
 20
-17.8562433074
 10
-18.1963784415
 20
-17.86357623
 10
-18.2163196054
 20
-17.8720486907
 10
-18.2365865098
 20
-17.8817362937
 10
-18.2571017148
 20
-17.8927218584
 10
-18.2778454935
 20
-17.9051302242
 10
-18.2986857235
 20
-17.9190326725
 10
-18.3195125568
 20
-17.9345167135
 10
-18.3403013234
 20
-17.9517537772
 10
-18.360875386
 20
-17.9708178772
 10
-18.3810572051
 20
-17.9917848626
 10
-18.4007601483
 20
-18.01485323
 10
-18.4197304092
 20
-18.0400692347
 10
-18.4377174615
 20
-18.0674858606
 10
-18.4545495366
 20
-18.0973273138
 10
-18.4698767906
 20
-18.1295841388
 10
-18.4833463063
 20
-18.1642425746
 10
-18.4946519352
 20
-18.2015121117
 10
-18.5033480388
 20
-18.2413813314
 10
-18.5089235215
 20
-18.2835836306
 10
-18.5108922154
 20
-18.327871146
  0
LINE
  5
2A7
100
AcDbEntity
  8
IMPORT_IGES
100
AcDbLine
 62
250
  6
CONTINUOUS
 10
-1.3665253934
 20
-19.0156279916
 11
-1.338163073
 21
-19.0156279916
  0
LINE
  5
2A8
100
AcDbEntity
  8
IMPORT_IGES
100
AcDbLine
 62
250
  6
CONTINUOUS
 10
0.1051122863
 20
-19.0156279916
 11
0.1334746066
 21
-19.0156279916
  0
LINE
  5
2A9
100
AcDbEntity
  8
IMPORT_IGES
100
AcDbLine
 62
250
  6
CONTINUOUS
 10
-18.5108922154
 20
-18.327871146
 11
-6.7706700513
 21
-18.327871146
  0
LINE
  5
2AA
100
AcDbEntity
  8
IMPORT_IGES
100
AcDbLine
 62
250
  6
CONTINUOUS
 10
5.5376192646
 20
-18.327871146
 11
17.2778414287
 21
-18.327871146
  0
LINE
  5
2AB
100
AcDbEntity
  8
IMPORT_IGES
100
AcDbLine
 62
7
  6
CONTINUOUS
 10
0.6834746066
 20
-18.2156279916
 11
-1.9165253934
 21
-18.2156279916
  0
LINE
  5
2AC
100
AcDbEntity
  8
IMPORT_IGES
100
AcDbLine
 62
7
  6
CONTINUOUS
 10
-1.9269976347
 20
-18.2051557502
 11
0.693946848
 21
-18.2051557502
  0
LINE
  5
2AD
100
AcDbEntity
  8
IMPORT_IGES
100
AcDbLine
 62
7
  6
CONTINUOUS
 10
16.7778604672
 20
-17.8278901845
 11
6.0376002261
 21
-17.8278901845
  0
LINE
  5
2AE
100
AcDbEntity
  8
IMPORT_IGES
100
AcDbLine
 62
7
  6
CONTINUOUS
 10
-7.2706510129
 20
-17.8278901845
 11
-18.0109112539
 21
-17.8278901845
  0
LINE
  5
2AF
100
AcDbEntity
  8
IMPORT_IGES
100
AcDbLine
 62
7
  6
CONTINUOUS
 10
-17.4778690693
 20
-17.8124018506
 11
-15.6551817175
 21
-17.8124018506
  0
LINE
  5
2B0
100
AcDbEntity
  8
IMPORT_IGES
100
AcDbLine
 62
7
  6
CONTINUOUS
 10
14.4221309307
 20
-17.8124018506
 11
16.2448182825
 21
-17.8124018506
  0
LINE
  5
2B1
100
AcDbEntity
  8
IMPORT_IGES
100
AcDbLine
 62
7
  6
CONTINUOUS
 10
-18.0693812681
 20
-17.7737455265
 11
-17.5165253934
 21
-17.7737455265
  0
LINE
  5
2B2
100
AcDbEntity
  8
IMPORT_IGES
100
AcDbLine
 62
7
  6
CONTINUOUS
 10
-15.6165253934
 20
-17.7737455265
 11
-7.2165063549
 21
-17.7737455265
  0
LINE
  5
2B3
100
AcDbEntity
  8
IMPORT_IGES
100
AcDbLine
 62
7
  6
CONTINUOUS
 10
5.9834555682
 20
-17.7737455265
 11
14.3834746066
 21
-17.7737455265
  0
LINE
  5
2B4
100
AcDbEntity
  8
IMPORT_IGES
100
AcDbLine
 62
7
  6
CONTINUOUS
 10
16.2834746066
 20
-17.7737455265
 11
16.8363304814
 21
-17.7737455265
  0
LINE
  5
2B5
100
AcDbEntity
  8
IMPORT_IGES
100
AcDbLine
 62
7
  6
CONTINUOUS
 10
3.0834860297
 20
-17.2656279916
 11
-4.3165368164
 21
-17.2656279916
  0
LINE
  5
2B6
100
AcDbEntity
  8
IMPORT_IGES
100
AcDbLine
 62
7
  6
CONTINUOUS
 10
-4.357553209
 20
-17.224611599
 11
-4.3165368164
 21
-17.224611713
  0
LINE
  5
2B7
100
AcDbEntity
  8
IMPORT_IGES
100
AcDbLine
 62
7
  6
CONTINUOUS
 10
3.0834860297
 20
-17.224611713
 11
3.1245023083
 21
-17.224611713
  0
LINE
  5
2B8
100
AcDbEntity
  8
IMPORT_IGES
100
AcDbLine
 62
7
  6
CONTINUOUS
 10
-4.3078099486
 20
-17.2158848452
 11
3.0747591619
 21
-17.2158848452
  0
LINE
  5
2B9
100
AcDbEntity
  8
IMPORT_IGES
100
AcDbLine
 62
7
  6
CONTINUOUS
 10
-4.6077985256
 20
-16.7656279916
 11
3.3747477389
 21
-16.7656279916
  0
LWPOLYLINE
  5
2BA
100
AcDbEntity
  8
IMPORT_IGES
100
AcDbPolyline
 62
7
  6
CONTINUOUS
 90
37
 70
0
 10
16.8363304814
 20
-17.7737642348
 10
16.8538581332
 20
-17.7742105801
 10
16.8714412352
 20
-17.7752838186
 10
16.8890575529
 20
-17.7769839504
 10
16.9066592986
 20
-17.7792985592
 10
16.9242485309
 20
-17.7822400613
 10
16.9418757543
 20
-17.7858457052
 10
16.9595190438
 20
-17.7901095785
 10
16.9771473178
 20
-17.7950375936
 10
16.9947926986
 20
-17.8006847364
 10
17.0124241122
 20
-17.8070460439
 10
17.0300084793
 20
-17.814126479
 10
17.0475682191
 20
-17.8219959162
 10
17.0650660305
 20
-17.8306519351
 10
17.082459298
 20
-17.8400969561
 10
17.0997536407
 20
-17.8504081152
 10
17.1169022433
 20
-17.861586345
 10
17.1338521453
 20
-17.873630713
 10
17.1505892101
 20
-17.8866155574
 10
17.1670653272
 20
-17.9005570882
 10
17.1832048279
 20
-17.9154390955
 10
17.1989441428
 20
-17.9312872877
 10
17.2142158851
 20
-17.9481154464
 10
17.2289479608
 20
-17.96590979
 10
17.2430660762
 20
-17.9846546827
 10
17.2565027604
 20
-18.0043787185
 10
17.269172836
 20
-18.0250533034
 10
17.2809784886
 20
-18.0465770198
 10
17.2918572478
 20
-18.0689958828
 10
17.3017221635
 20
-18.0922638774
 10
17.3104608188
 20
-18.1161415407
 10
17.318014636
 20
-18.1406353669
 10
17.3243356949
 20
-18.1657388618
 10
17.3293597973
 20
-18.1911930802
 10
17.3330483955
 20
-18.2169117072
 10
17.3353751922
 20
-18.2429810577
 10
17.3363114429
 20
-18.2694011318
  0
LINE
  5
2BB
100
AcDbEntity
  8
IMPORT_IGES
100
AcDbLine
 62
7
  6
CONTINUOUS
 10
-0.6314540979
 20
-25.2647618051
 11
-4.5503820353
 21
-21.9763908182
  0
LINE
  5
2BC
100
AcDbEntity
  8
IMPORT_IGES
100
AcDbLine
 62
7
  6
CONTINUOUS
 10
-1.338163073
 20
-24.6552439953
 11
-0.6268484337
 21
-25.2521078468
  0
LINE
  5
2BD
100
AcDbEntity
  8
IMPORT_IGES
100
AcDbLine
 62
7
  6
CONTINUOUS
 10
-4.5093657567
 20
-21.9572646134
 11
-1.3665253934
 21
-24.5944208031
  0
LINE
  5
2BE
100
AcDbEntity
  8
IMPORT_IGES
100
AcDbLine
 62
7
  6
CONTINUOUS
 10
0.693946848
 20
-27.5261002329
 11
0.6834746066
 21
-27.5156279916
  0
LINE
  5
2BF
100
AcDbEntity
  8
IMPORT_IGES
100
AcDbLine
 62
7
  6
CONTINUOUS
 10
3.411836927
 20
-30.2237455265
 11
3.4244908853
 21
-30.2363994848
  0
LINE
  5
2C0
100
AcDbEntity
  8
IMPORT_IGES
100
AcDbLine
 62
250
  6
CONTINUOUS
 10
3.11184835
 20
-29.7521078468
 11
3.0834860297
 21
-29.7237455265
  0
LINE
  5
2C1
100
AcDbEntity
  8
IMPORT_IGES
100
AcDbLine
 62
250
  6
CONTINUOUS
 10
16.8834936451
 20
-43.0237455265
 11
16.7778604672
 21
-42.9181123486
  0
LINE
  5
2C2
100
AcDbEntity
  8
IMPORT_IGES
100
AcDbLine
 62
250
  6
CONTINUOUS
 10
3.3834746066
 20
-29.4237569496
 11
3.411836927
 21
-29.4521192699
  0
LINE
  5
2C3
100
AcDbEntity
  8
IMPORT_IGES
100
AcDbLine
 62
250
  6
CONTINUOUS
 10
17.2778414287
 20
-42.418131387
 11
17.3834746066
 21
-42.523764565
  0
LINE
  5
2C4
100
AcDbEntity
  8
IMPORT_IGES
100
AcDbLine
 62
7
  6
CONTINUOUS
 10
-15.6165253934
 20
-15.7737455265
 11
-15.6165253934
 21
-17.7737455265
  0
LINE
  5
2C5
100
AcDbEntity
  8
IMPORT_IGES
100
AcDbLine
 62
250
  6
CONTINUOUS
 10
-15.5078740249
 20
19.7847244877
 11
-15.5078740249
 21
17.2803797636
  0
LINE
  5
2C6
100
AcDbEntity
  8
IMPORT_IGES
100
AcDbLine
 62
250
  6
CONTINUOUS
 10
-15.0079501773
 20
17.2803797636
 11
-15.0079501773
 21
19.7904212943
  0
LINE
  5
2C7
100
AcDbEntity
  8
IMPORT_IGES
100
AcDbLine
 62
7
  6
CONTINUOUS
 10
-14.9205079101
 20
18.2362429347
 11
-14.9205079101
 21
19.7367194023
  0
LINE
  5
2C8
100
AcDbEntity
  8
IMPORT_IGES
100
AcDbLine
 62
250
  6
CONTINUOUS
 10
-15.5078740249
 20
17.2803797636
 11
-15.5122366281
 21
16.7804749516
  0
LINE
  5
2C9
100
AcDbEntity
  8
IMPORT_IGES
100
AcDbLine
 62
7
  6
CONTINUOUS
 10
-15.6551817175
 20
-17.8124018506
 11
-15.6341625603
 21
-15.7913826935
  0
LINE
  5
2CA
100
AcDbEntity
  8
IMPORT_IGES
100
AcDbLine
 62
7
  6
CONTINUOUS
 10
-14.9205079101
 20
18.2362429347
 11
-14.9511482605
 21
17.223079981
  0
LWPOLYLINE
  5
2CB
100
AcDbEntity
  8
IMPORT_IGES
100
AcDbPolyline
 62
7
  6
CONTINUOUS
 90
40
 70
0
 10
-14.9511482605
 20
17.223079981
 10
-14.9533524006
 20
17.1928080219
 10
-14.9569333255
 20
17.1637987234
 10
-14.9618910352
 20
17.1360520856
 10
-14.9683653086
 20
17.1096094391
 10
-14.9762163668
 20
17.0844294532
 10
-14.9850248734
 20
17.0603881362
 10
-14.9947426084
 20
17.0374843679
 10
-15.0054177918
 20
17.0157192685
 10
-15.0167757473
 20
16.9949722061
 10
-15.0287889657
 20
16.9752352755
 10
-15.0414849562
 20
16.9565163821
 10
-15.0546715704
 20
16.9387186094
 10
-15.0683334244
 20
16.921834877
 10
-15.0824859021
 20
16.9058722655
 10
-15.0969830066
 20
16.8907551001
 10
-15.1118174106
 20
16.876477771
 10
-15.1269964415
 20
16.8630458881
 10
-15.1423960851
 20
16.8504006068
 10
-15.1580131153
 20
16.8385392432
 10
-15.1738507581
 20
16.8274644811
 10
-15.189794677
 20
16.8171255276
 10
-15.2058453046
 20
16.8075216653
 10
-15.2220022083
 20
16.7986536115
 10
-15.2381497547
 20
16.7904727258
 10
-15.2542892086
 20
16.7829811565
 10
-15.2704193052
 20
16.7761767553
 10
-15.2864206168
 20
16.7700044368
 10
-15.3022674284
 20
16.764472991
 10
-15.3179854549
 20
16.7595736279
 10
-15.3335324135
 20
16.7552248925
 10
-15.3488965628
 20
16.7514242225
 10
-15.3640896441
 20
16.7481741801
 10
-15.3791045985
 20
16.7454009972
 10
-15.3939086921
 20
16.7431000302
 10
-15.4085346587
 20
16.7412759227
 10
-15.4230736417
 20
16.7398688366
 10
-15.4375560222
 20
16.738858826
 10
-15.4519514189
 20
16.738265837
 10
-15.466259832
 20
16.7380898694
  0
LINE
  5
2CC
100
AcDbEntity
  8
IMPORT_IGES
100
AcDbLine
 62
7
  6
CONTINUOUS
 10
-6.5755091147
 20
-15.9265283604
 11
-4.6165253934
 21
-15.9265283604
  0
LINE
  5
2CD
100
AcDbEntity
  8
IMPORT_IGES
100
AcDbLine
 62
7
  6
CONTINUOUS
 10
3.3834746066
 20
-15.9265283604
 11
5.342458328
 21
-15.9265283604
  0
LINE
  5
2CE
100
AcDbEntity
  8
IMPORT_IGES
100
AcDbLine
 62
7
  6
CONTINUOUS
 10
16.2658374397
 20
-15.7913826935
 11
14.4011117736
 21
-15.7913826935
  0
LINE
  5
2CF
100
AcDbEntity
  8
IMPORT_IGES
100
AcDbLine
 62
7
  6
CONTINUOUS
 10
-15.6341625603
 20
-15.7913826935
 11
-17.4988882264
 21
-15.7913826935
  0
LINE
  5
2D0
100
AcDbEntity
  8
IMPORT_IGES
100
AcDbLine
 62
7
  6
CONTINUOUS
 10
-17.5165253934
 20
-15.7737455265
 11
-15.6165253934
 21
-15.7737455265
  0
LINE
  5
2D1
100
AcDbEntity
  8
IMPORT_IGES
100
AcDbLine
 62
7
  6
CONTINUOUS
 10
14.3834746066
 20
-15.7737455265
 11
16.2834746066
 21
-15.7737455265
  0
LINE
  5
2D2
100
AcDbEntity
  8
IMPORT_IGES
100
AcDbLine
 62
7
  6
CONTINUOUS
 10
5.3679219135
 20
-13.478171661
 11
-6.6009727003
 21
-13.478171661
  0
LINE
  5
2D3
100
AcDbEntity
  8
IMPORT_IGES
100
AcDbLine
 62
7
  6
CONTINUOUS
 10
5.3723497378
 20
-13.4759585938
 11
5.3679449301
 21
-13.4759585938
  0
LINE
  5
2D4
100
AcDbEntity
  8
IMPORT_IGES
100
AcDbLine
 62
7
  6
CONTINUOUS
 10
-6.6009957168
 20
-13.4759585938
 11
-6.6054005245
 21
-13.4759585938
  0
LINE
  5
2D5
100
AcDbEntity
  8
IMPORT_IGES
100
AcDbLine
 62
7
  6
CONTINUOUS
 10
-6.6061623368
 20
-13.4737455265
 11
5.3731115501
 21
-13.4737455265
  0
LINE
  5
2D6
100
AcDbEntity
  8
IMPORT_IGES
100
AcDbLine
 62
7
  6
CONTINUOUS
 10
0.693946848
 20
-23.4261002329
 11
0.6834746066
 21
-23.4156279916
  0
LINE
  5
2D7
100
AcDbEntity
  8
IMPORT_IGES
100
AcDbLine
 62
250
  6
CONTINUOUS
 10
-4.6165253934
 20
-17.5656165685
 11
-4.657541672
 21
-17.5246002899
  0
LINE
  5
2D8
100
AcDbEntity
  8
IMPORT_IGES
100
AcDbLine
 62
250
  6
CONTINUOUS
 10
3.1245023083
 20
-25.2647618051
 11
3.0834860297
 21
-25.2237455265
  0
LINE
  5
2D9
100
AcDbEntity
  8
IMPORT_IGES
100
AcDbLine
 62
250
  6
CONTINUOUS
 10
-4.357553209
 20
-17.224611599
 11
-4.3165368164
 21
-17.2656279916
  0
LINE
  5
2DA
100
AcDbEntity
  8
IMPORT_IGES
100
AcDbLine
 62
250
  6
CONTINUOUS
 10
3.3834746066
 20
-24.9237569496
 11
3.4244908853
 21
-24.9647732282
  0
LINE
  5
2DB
100
AcDbEntity
  8
IMPORT_IGES
100
AcDbLine
 62
7
  6
CONTINUOUS
 10
-1.9269976347
 20
-18.2051557502
 11
-1.9165253934
 21
-18.2156279916
  0
LINE
  5
2DC
100
AcDbEntity
  8
IMPORT_IGES
100
AcDbLine
 62
250
  6
CONTINUOUS
 10
4.2542003134
 20
-23.8852379206
 11
4.2419446208
 21
-23.872982228
  0
LINE
  5
2DD
100
AcDbEntity
  8
IMPORT_IGES
100
AcDbLine
 62
250
  6
CONTINUOUS
 10
-4.6165253934
 20
-24.4687855151
 11
-4.657541672
 21
-24.3808258217
  0
LINE
  5
2DE
100
AcDbEntity
  8
IMPORT_IGES
100
AcDbLine
 62
250
  6
CONTINUOUS
 10
-4.1647241548
 20
-24.1510212394
 11
-4.1237078761
 21
-24.2389809327
  0
LINE
  5
2DF
100
AcDbEntity
  8
IMPORT_IGES
100
AcDbLine
 62
7
  6
CONTINUOUS
 10
-6.7584143588
 20
-37.3730012665
 11
-6.7165253934
 21
-37.7929468514
  0
LINE
  5
2E0
100
AcDbEntity
  8
IMPORT_IGES
100
AcDbLine
 62
7
  6
CONTINUOUS
 10
13.7731656215
 20
19.7795703877
 11
13.6874571234
 21
19.7367194023
  0
LINE
  5
2E1
100
AcDbEntity
  8
IMPORT_IGES
100
AcDbLine
 62
7
  6
CONTINUOUS
 10
5.5376192646
 20
-23.3852569591
 11
5.5380774458
 21
-23.3857050428
  0
LINE
  5
2E2
100
AcDbEntity
  8
IMPORT_IGES
100
AcDbLine
 62
250
  6
CONTINUOUS
 10
4.7419255824
 20
-23.3730012665
 11
4.7541812749
 21
-23.3852569591
  0
LINE
  5
2E3
100
AcDbEntity
  8
IMPORT_IGES
100
AcDbLine
 62
250
  6
CONTINUOUS
 10
3.0747591619
 20
-17.2158848452
 11
3.0834860297
 21
-17.224611713
  0
LINE
  5
2E4
100
AcDbEntity
  8
IMPORT_IGES
100
AcDbLine
 62
7
  6
CONTINUOUS
 10
5.525363572
 20
-23.3730012665
 11
6.0376002261
 21
-23.8852379206
  0
LINE
  5
2E5
100
AcDbEntity
  8
IMPORT_IGES
100
AcDbLine
 62
7
  6
CONTINUOUS
 10
-1.3665253934
 20
-24.5944208031
 11
-1.338163073
 21
-24.6552439953
  0
LWPOLYLINE
  5
2E6
100
AcDbEntity
  8
IMPORT_IGES
100
AcDbPolyline
 62
7
  6
CONTINUOUS
 90
7
 70
0
 10
-15.0079501773
 20
19.7904212943
 10
-15.0085827938
 20
19.7945307749
 10
-15.0098597437
 20
19.7993787959
 10
-15.0117848675
 20
19.8049653571
 10
-15.014357998
 20
19.8112610976
 10
-15.017583008
 20
19.8182953783
 10
-15.0214747906
 20
19.8261562828
  0
LWPOLYLINE
  5
2E7
100
AcDbEntity
  8
IMPORT_IGES
100
AcDbPolyline
 62
250
  6
CONTINUOUS
 90
31
 70
0
 10
-6.7706700513
 20
-18.327871146
 10
-6.772527567
 20
-18.2848510248
 10
-6.7778126112
 20
-18.2436989795
 10
-6.7861014866
 20
-18.2046492939
 10
-6.7969537599
 20
-18.1679326096
 10
-6.8099705445
 20
-18.1336011348
 10
-6.8248429703
 20
-18.1015510536
 10
-6.8412297808
 20
-18.07182111
 10
-6.8588093924
 20
-18.0444109877
 10
-6.8773988082
 20
-18.0191395892
 10
-6.8967469396
 20
-17.9959708522
 10
-6.9166153556
 20
-17.9748546022
 10
-6.9369208928
 20
-17.9555994082
 10
-6.9574945724
 20
-17.9381335201
 10
-6.9781601811
 20
-17.9223936347
 10
-6.9988813693
 20
-17.9082226589
 10
-7.0195413711
 20
-17.8955421333
 10
-7.0400159111
 20
-17.88428031
 10
-7.0602945617
 20
-17.8743112337
 10
-7.0802983606
 20
-17.86555802
 10
-7.0999403726
 20
-17.857949215
 10
-7.1192219995
 20
-17.851384812
 10
-7.138093159
 20
-17.845792683
 10
-7.1564920952
 20
-17.8411060691
 10
-7.1744177121
 20
-17.8372461133
 10
-7.1918322949
 20
-17.8341478989
 10
-7.2087004696
 20
-17.8317477632
 10
-7.2250344786
 20
-17.8299789543
 10
-7.240823971
 20
-17.8287829351
 10
-7.2560350195
 20
-17.8281049786
 10
-7.2706510129
 20
-17.8278901845
  0
LWPOLYLINE
  5
2E8
100
AcDbEntity
  8
IMPORT_IGES
100
AcDbPolyline
 62
250
  6
CONTINUOUS
 90
31
 70
0
 10
-5.4872511001
 20
-23.8852379206
 10
-5.4891086158
 20
-23.8422177994
 10
-5.49439366
 20
-23.8010657542
 10
-5.5026825354
 20
-23.7620160685
 10
-5.5135348087
 20
-23.7252993842
 10
-5.5265515933
 20
-23.6909679094
 10
-5.5414240191
 20
-23.6589178282
 10
-5.5578108296
 20
-23.6291878846
 10
-5.5753904412
 20
-23.6017777623
 10
-5.593979857
 20
-23.5765063638
 10
-5.6133279884
 20
-23.5533376268
 10
-5.6331964044
 20
-23.5322213769
 10
-5.6535019416
 20
-23.5129661828
 10
-5.6740756212
 20
-23.4955002947
 10
-5.6947412299
 20
-23.4797604094
 10
-5.7154624181
 20
-23.4655894335
 10
-5.7361224199
 20
-23.452908908
 10
-5.7565969599
 20
-23.4416470846
 10
-5.7768756105
 20
-23.4316780083
 10
-5.7968794094
 20
-23.4229247946
 10
-5.8165214214
 20
-23.4153159897
 10
-5.8358030483
 20
-23.4087515867
 10
-5.8546742078
 20
-23.4031594576
 10
-5.873073144
 20
-23.3984728438
 10
-5.8909987609
 20
-23.3946128879
 10
-5.9084133437
 20
-23.3915146735
 10
-5.9252815184
 20
-23.3891145378
 10
-5.9416155274
 20
-23.3873457289
 10
-5.9574050198
 20
-23.3861497098
 10
-5.9726160683
 20
-23.3854717532
 10
-5.9872320617
 20
-23.3852569591
  0
LINE
  5
2E9
100
AcDbEntity
  8
IMPORT_IGES
100
AcDbLine
 62
7
  6
CONTINUOUS
 10
-6.6009727003
 20
-13.478171661
 11
-6.5755091147
 21
-15.9265283604
  0
LINE
  5
2EA
100
AcDbEntity
  8
IMPORT_IGES
100
AcDbLine
 62
250
  6
CONTINUOUS
 10
-7.2706510129
 20
-17.8278901845
 11
-7.2706510129
 21
-23.8852379206
  0
LINE
  5
2EB
100
AcDbEntity
  8
IMPORT_IGES
100
AcDbLine
 62
250
  6
CONTINUOUS
 10
-7.2706510129
 20
-36.8607646124
 11
-7.2706510129
 21
-42.9181123486
  0
LINE
  5
2EC
100
AcDbEntity
  8
IMPORT_IGES
100
AcDbLine
 62
7
  6
CONTINUOUS
 10
-6.7706700513
 20
-42.418131387
 11
-6.7706700513
 21
-37.3607455739
  0
LINE
  5
2ED
100
AcDbEntity
  8
IMPORT_IGES
100
AcDbLine
 62
7
  6
CONTINUOUS
 10
-6.7706700513
 20
-23.3852569591
 11
-6.7706700513
 21
-18.327871146
  0
LINE
  5
2EE
100
AcDbEntity
  8
IMPORT_IGES
100
AcDbLine
 62
7
  6
CONTINUOUS
 10
-6.7165253934
 20
-18.273726488
 11
-6.7165253934
 21
-22.9530556816
  0
LINE
  5
2EF
100
AcDbEntity
  8
IMPORT_IGES
100
AcDbLine
 62
7
  6
CONTINUOUS
 10
-6.7165253934
 20
-37.7929468514
 11
-6.7165253934
 21
-42.4766014012
  0
LINE
  5
2F0
100
AcDbEntity
  8
IMPORT_IGES
100
AcDbLine
 62
7
  6
CONTINUOUS
 10
-6.6165253934
 20
-45.4738026419
 11
-6.6165253934
 21
-37.3730012665
  0
LINE
  5
2F1
100
AcDbEntity
  8
IMPORT_IGES
100
AcDbLine
 62
7
  6
CONTINUOUS
 10
-6.6165253934
 20
-23.3730012665
 11
-6.6165253934
 21
-15.5699830564
  0
LINE
  5
2F2
100
AcDbEntity
  8
IMPORT_IGES
100
AcDbLine
 62
7
  6
CONTINUOUS
 10
-6.5755091147
 20
-15.9265283604
 11
-6.5755091147
 21
-23.3730012665
  0
LINE
  5
2F3
100
AcDbEntity
  8
IMPORT_IGES
100
AcDbLine
 62
7
  6
CONTINUOUS
 10
-6.5755091147
 20
-37.3730012665
 11
-6.5755091147
 21
-45.4327863633
  0
LINE
  5
2F4
100
AcDbEntity
  8
IMPORT_IGES
100
AcDbLine
 62
7
  6
CONTINUOUS
 10
-6.6054005245
 20
-13.4759585938
 11
-6.6069258388
 21
-15.4737455265
  0
LINE
  5
2F5
100
AcDbEntity
  8
IMPORT_IGES
100
AcDbLine
 62
250
  6
CONTINUOUS
 10
3.3747477389
 20
-16.9158962683
 11
3.3834746066
 21
-16.9246231361
  0
LINE
  5
2F6
100
AcDbEntity
  8
IMPORT_IGES
100
AcDbLine
 62
250
  6
CONTINUOUS
 10
5.5376192646
 20
-18.327871146
 11
5.4834746066
 21
-18.273726488
  0
LINE
  5
2F7
100
AcDbEntity
  8
IMPORT_IGES
100
AcDbLine
 62
250
  6
CONTINUOUS
 10
5.9834555682
 20
-17.7737455265
 11
6.0376002261
 21
-17.8278901845
  0
LWPOLYLINE
  5
2F8
100
AcDbEntity
  8
IMPORT_IGES
100
AcDbPolyline
 62
7
  6
CONTINUOUS
 90
13
 70
0
 10
-4.6165253934
 20
-16.9246231361
 10
-4.6140915352
 20
-16.9614246037
 10
-4.6076646954
 20
-16.9966960951
 10
-4.5972448739
 20
-17.0304376102
 10
-4.5825693297
 20
-17.0630778589
 10
-4.5639008039
 20
-17.0941881313
 10
-4.5420275196
 20
-17.1224822977
 10
-4.5168572133
 20
-17.1477724872
 10
-4.4884821485
 20
-17.1702465706
 10
-4.4579673397
 20
-17.1891820312
 10
-4.4256677915
 20
-17.2043380298
 10
-4.3912284992
 20
-17.2159554054
 10
-4.3546494628
 20
-17.2240341582
  0
LINE
  5
2F9
100
AcDbEntity
  8
IMPORT_IGES
100
AcDbLine
 62
7
  6
CONTINUOUS
 10
-4.6077985256
 20
-16.7656279916
 11
-4.6165253934
 21
-15.9265283604
  0
LINE
  5
2FA
100
AcDbEntity
  8
IMPORT_IGES
100
AcDbLine
 62
7
  6
CONTINUOUS
 10
-4.4182861327
 20
-33.6719847872
 11
-4.4269976347
 21
-32.6737455265
  0
LINE
  5
2FB
100
AcDbEntity
  8
IMPORT_IGES
100
AcDbLine
 62
250
  6
CONTINUOUS
 10
-5.9872320617
 20
-23.3852569591
 11
-5.9872320617
 21
-37.3607455739
  0
LINE
  5
2FC
100
AcDbEntity
  8
IMPORT_IGES
100
AcDbLine
 62
7
  6
CONTINUOUS
 10
-5.4872511001
 20
-36.8607646124
 11
-5.4872511001
 21
-23.8852379206
  0
LINE
  5
2FD
100
AcDbEntity
  8
IMPORT_IGES
100
AcDbLine
 62
7
  6
CONTINUOUS
 10
-5.4749954076
 20
-23.872982228
 11
-5.4749954076
 21
-36.873020305
  0
LINE
  5
2FE
100
AcDbEntity
  8
IMPORT_IGES
100
AcDbLine
 62
7
  6
CONTINUOUS
 10
-4.657541672
 20
-45.0647732282
 11
-4.657541672
 21
-24.3808258217
  0
LINE
  5
2FF
100
AcDbEntity
  8
IMPORT_IGES
100
AcDbLine
 62
7
  6
CONTINUOUS
 10
-4.657541672
 20
-21.7465862358
 11
-4.657541672
 21
-17.5246002899
  0
LINE
  5
300
100
AcDbEntity
  8
IMPORT_IGES
100
AcDbLine
 62
7
  6
CONTINUOUS
 10
-4.6165253934
 20
-15.9265283604
 11
-4.6165253934
 21
-16.9246231361
  0
LINE
  5
301
100
AcDbEntity
  8
IMPORT_IGES
100
AcDbLine
 62
7
  6
CONTINUOUS
 10
-4.6165253934
 20
-17.5656165685
 11
-4.6165253934
 21
-21.727460031
  0
LINE
  5
302
100
AcDbEntity
  8
IMPORT_IGES
100
AcDbLine
 62
7
  6
CONTINUOUS
 10
-4.6165253934
 20
-24.4687855151
 11
-4.6165253934
 21
-45.0237569496
  0
LINE
  5
303
100
AcDbEntity
  8
IMPORT_IGES
100
AcDbLine
 62
7
  6
CONTINUOUS
 10
-4.6077985256
 20
-16.9158962683
 11
-4.6077985256
 21
-16.7656279916
  0
LINE
  5
304
100
AcDbEntity
  8
IMPORT_IGES
100
AcDbLine
 62
7
  6
CONTINUOUS
 10
-4.4269976347
 20
-40.9842177678
 11
-4.4269976347
 21
-32.6737455265
  0
LINE
  5
305
100
AcDbEntity
  8
IMPORT_IGES
100
AcDbLine
 62
7
  6
CONTINUOUS
 10
-4.4269976347
 20
-31.8842177678
 11
-4.4269976347
 21
-29.6632732851
  0
LINE
  5
306
100
AcDbEntity
  8
IMPORT_IGES
100
AcDbLine
 62
7
  6
CONTINUOUS
 10
-4.4165253934
 20
-29.6737455265
 11
-4.4165253934
 21
-31.8737455265
  0
LINE
  5
307
100
AcDbEntity
  8
IMPORT_IGES
100
AcDbLine
 62
7
  6
CONTINUOUS
 10
-4.4165253934
 20
-33.6737455265
 11
-4.4165253934
 21
-40.9737455265
  0
LINE
  5
308
100
AcDbEntity
  8
IMPORT_IGES
100
AcDbLine
 62
250
  6
CONTINUOUS
 10
-3.1165253934
 20
-31.7237455265
 11
-3.1165253934
 21
-31.6953832062
  0
LINE
  5
309
100
AcDbEntity
  8
IMPORT_IGES
100
AcDbLine
 62
250
  6
CONTINUOUS
 10
-3.1165253934
 20
-29.7521078468
 11
-3.1165253934
 21
-29.7237455265
  0
LWPOLYLINE
  5
30A
100
AcDbEntity
  8
IMPORT_IGES
100
AcDbPolyline
 62
7
  6
CONTINUOUS
 90
37
 70
0
 10
-6.7165441017
 20
-42.4766014012
 10
-6.716990447
 20
-42.494129053
 10
-6.7180636855
 20
-42.5117121551
 10
-6.7197638172
 20
-42.5293284728
 10
-6.7220784261
 20
-42.5469302184
 10
-6.7250199281
 20
-42.5645194507
 10
-6.7286255721
 20
-42.5821466741
 10
-6.7328894454
 20
-42.5997899636
 10
-6.7378174605
 20
-42.6174182376
 10
-6.7434646032
 20
-42.6350636184
 10
-6.7498259107
 20
-42.652695032
 10
-6.7569063458
 20
-42.6702793992
 10
-6.7647757831
 20
-42.6878391389
 10
-6.7734318019
 20
-42.7053369504
 10
-6.7828768229
 20
-42.7227302179
 10
-6.7931879821
 20
-42.7400245606
 10
-6.8043662119
 20
-42.7571731631
 10
-6.8164105798
 20
-42.7741230651
 10
-6.8293954242
 20
-42.7908601299
 10
-6.8433369551
 20
-42.807336247
 10
-6.8582189623
 20
-42.8234757478
 10
-6.8740671546
 20
-42.8392150626
 10
-6.8908953132
 20
-42.8544868049
 10
-6.9086896569
 20
-42.8692188806
 10
-6.9274345496
 20
-42.8833369961
 10
-6.9471585854
 20
-42.8967736803
 10
-6.9678331703
 20
-42.9094437558
 10
-6.9893568867
 20
-42.9212494084
 10
-7.0117757497
 20
-42.9321281677
 10
-7.0350437443
 20
-42.9419930833
 10
-7.0589214076
 20
-42.9507317386
 10
-7.0834152337
 20
-42.9582855559
 10
-7.1085187286
 20
-42.9646066148
 10
-7.1339729471
 20
-42.9696307171
 10
-7.159691574
 20
-42.9733193154
 10
-7.1857609246
 20
-42.9756461121
 10
-7.2121809987
 20
-42.9765823628
  0
LINE
  5
30B
100
AcDbEntity
  8
IMPORT_IGES
100
AcDbLine
 62
7
  6
CONTINUOUS
 10
-6.6069258388
 20
-15.4737455265
 11
-6.6165253934
 21
-15.5699830564
  0
LINE
  5
30C
100
AcDbEntity
  8
IMPORT_IGES
100
AcDbLine
 62
7
  6
CONTINUOUS
 10
-6.7165253934
 20
-22.9530556816
 11
-6.7584143588
 21
-23.3730012665
  0
LWPOLYLINE
  5
30D
100
AcDbEntity
  8
IMPORT_IGES
100
AcDbPolyline
 62
7
  6
CONTINUOUS
 90
25
 70
0
 10
1.9426291863
 20
33.9476830449
 10
1.9827413087
 20
34.1166442398
 10
2.0323281613
 20
34.2815382229
 10
2.0913897444
 20
34.4423649943
 10
2.1601977336
 20
34.599627289
 10
2.2384804531
 20
34.752822372
 10
2.3254228755
 20
34.9004420386
 10
2.4211233859
 20
35.0424274467
 10
2.5254835991
 20
35.1788374385
 10
2.6373933329
 20
35.3083403356
 10
2.7570018656
 20
35.430960586
 10
2.8841599189
 20
35.5466737418
 10
3.0173094761
 20
35.6540747806
 10
3.1564156796
 20
35.7529469705
 10
3.301513387
 20
35.8435070436
 10
3.4511491537
 20
35.9250001739
 10
3.6054346498
 20
35.9974112249
 10
3.7642582053
 20
36.0607553331
 10
3.9258313656
 20
36.1143230829
 10
4.0901843826
 20
36.1579508234
 10
4.2572870043
 20
36.1918022055
 10
4.4252600206
 20
36.2156587659
 10
4.5934770278
 20
36.2294476835
 10
4.7625644295
 20
36.2332417796
 10
4.9325222257
 20
36.2270410539
  0
LWPOLYLINE
  5
30E
100
AcDbEntity
  8
IMPORT_IGES
100
AcDbPolyline
 62
7
  6
CONTINUOUS
 90
6
 70
0
 10
-15.0214747906
 20
19.8261562828
 10
-15.0260419689
 20
19.8348323339
 10
-15.031288622
 20
19.8443350088
 10
-15.0372314444
 20
19.8547868217
 10
-15.0438943136
 20
19.8662031643
 10
-15.0593189323
 20
19.8919596024
  0
LINE
  5
30F
100
AcDbEntity
  8
IMPORT_IGES
100
AcDbLine
 62
7
  6
CONTINUOUS
 10
-1.9251646537
 20
-24.1256668058
 11
-1.9269976347
 21
-23.9156279916
  0
LINE
  5
310
100
AcDbEntity
  8
IMPORT_IGES
100
AcDbLine
 62
7
  6
CONTINUOUS
 10
-2.1165253934
 20
-30.2237455265
 11
-2.1165253934
 21
-31.2237455265
  0
LINE
  5
311
100
AcDbEntity
  8
IMPORT_IGES
100
AcDbLine
 62
7
  6
CONTINUOUS
 10
-1.9269976347
 20
-27.5261002329
 11
-1.9269976347
 21
-26.0822396861
  0
LINE
  5
312
100
AcDbEntity
  8
IMPORT_IGES
100
AcDbLine
 62
7
  6
CONTINUOUS
 10
-1.9269976347
 20
-24.1241287521
 11
-1.9269976347
 21
-23.9156279916
  0
LINE
  5
313
100
AcDbEntity
  8
IMPORT_IGES
100
AcDbLine
 62
7
  6
CONTINUOUS
 10
-1.9269976347
 20
-23.4261002329
 11
-1.9269976347
 21
-18.2051557502
  0
LINE
  5
314
100
AcDbEntity
  8
IMPORT_IGES
100
AcDbLine
 62
7
  6
CONTINUOUS
 10
-1.9246206315
 20
37.3717167523
 11
-1.9246206315
 21
36.2270410539
  0
LINE
  5
315
100
AcDbEntity
  8
IMPORT_IGES
100
AcDbLine
 62
7
  6
CONTINUOUS
 10
-1.9246206315
 20
30.5254678931
 11
-1.9246206315
 21
29.3807921948
  0
LINE
  5
316
100
AcDbEntity
  8
IMPORT_IGES
100
AcDbLine
 62
7
  6
CONTINUOUS
 10
-1.9219621802
 20
29.378253367
 11
-1.9219621802
 21
30.5283058094
  0
LINE
  5
317
100
AcDbEntity
  8
IMPORT_IGES
100
AcDbLine
 62
7
  6
CONTINUOUS
 10
-1.9219621802
 20
36.224194956
 11
-1.9219621802
 21
37.3742473985
  0
LINE
  5
318
100
AcDbEntity
  8
IMPORT_IGES
100
AcDbLine
 62
7
  6
CONTINUOUS
 10
-1.9165253934
 20
-18.2156279916
 11
-1.9165253934
 21
-23.4156279916
  0
LINE
  5
319
100
AcDbEntity
  8
IMPORT_IGES
100
AcDbLine
 62
7
  6
CONTINUOUS
 10
-1.9165253934
 20
-26.09102694
 11
-1.9165253934
 21
-27.5156279916
  0
LINE
  5
31A
100
AcDbEntity
  8
IMPORT_IGES
100
AcDbLine
 62
7
  6
CONTINUOUS
 10
-1.8165253934
 20
-40.9737455265
 11
-1.8165253934
 21
-33.6737455265
  0
LINE
  5
31B
100
AcDbEntity
  8
IMPORT_IGES
100
AcDbLine
 62
7
  6
CONTINUOUS
 10
-1.8165253934
 20
-31.8737455265
 11
-1.8165253934
 21
-31.7237455265
  0
LINE
  5
31C
100
AcDbEntity
  8
IMPORT_IGES
100
AcDbLine
 62
7
  6
CONTINUOUS
 10
-1.8165253934
 20
-29.7237455265
 11
-1.8165253934
 21
-29.6737455265
  0
LINE
  5
31D
100
AcDbEntity
  8
IMPORT_IGES
100
AcDbLine
 62
7
  6
CONTINUOUS
 10
-1.806053152
 20
-29.6632732851
 11
-1.806053152
 21
-29.7237455265
  0
LINE
  5
31E
100
AcDbEntity
  8
IMPORT_IGES
100
AcDbLine
 62
7
  6
CONTINUOUS
 10
-1.806053152
 20
-31.7237455265
 11
-1.806053152
 21
-31.8842177678
  0
LINE
  5
31F
100
AcDbEntity
  8
IMPORT_IGES
100
AcDbLine
 62
7
  6
CONTINUOUS
 10
-1.806053152
 20
-32.6737455265
 11
-1.806053152
 21
-40.9842177678
  0
LINE
  5
320
100
AcDbEntity
  8
IMPORT_IGES
100
AcDbLine
 62
7
  6
CONTINUOUS
 10
-1.3665253934
 20
-24.5944208031
 11
-1.3665253934
 21
-19.0156279916
  0
LINE
  5
321
100
AcDbEntity
  8
IMPORT_IGES
100
AcDbLine
 62
7
  6
CONTINUOUS
 10
-1.338163073
 20
-19.0156279916
 11
-1.338163073
 21
-24.6552439953
  0
LINE
  5
322
100
AcDbEntity
  8
IMPORT_IGES
100
AcDbLine
 62
250
  6
CONTINUOUS
 10
-0.6165253934
 20
-26.7237455265
 11
-0.6165253934
 21
-26.6827292479
  0
LINE
  5
323
100
AcDbEntity
  8
IMPORT_IGES
100
AcDbLine
 62
7
  6
CONTINUOUS
 10
0.1051122863
 20
-25.2521078468
 11
0.1051122863
 21
-19.0156279916
  0
LINE
  5
324
100
AcDbEntity
  8
IMPORT_IGES
100
AcDbLine
 62
7
  6
CONTINUOUS
 10
0.1334746066
 20
-19.0156279916
 11
0.1334746066
 21
-25.2237455265
  0
LINE
  5
325
100
AcDbEntity
  8
IMPORT_IGES
100
AcDbLine
 62
7
  6
CONTINUOUS
 10
-1.806053152
 20
-32.6737455265
 11
-1.8147646541
 21
-33.6719847872
  0
LWPOLYLINE
  5
326
100
AcDbEntity
  8
IMPORT_IGES
100
AcDbPolyline
 62
7
  6
CONTINUOUS
 90
13
 70
0
 10
-4.6165253934
 20
-24.4687855151
 10
-4.6136009946
 20
-24.4285686188
 10
-4.6059889363
 20
-24.3902954945
 10
-4.5936892186
 20
-24.3539661421
 10
-4.5763351458
 20
-24.3190322095
 10
-4.5542934135
 20
-24.2860420489
 10
-4.5286641082
 20
-24.2566407169
 10
-4.4992652759
 20
-24.2310102386
 10
-4.4662788705
 20
-24.208968589
 10
-4.4313508412
 20
-24.1916147502
 10
-4.3950298375
 20
-24.1793150494
 10
-4.35676721
 20
-24.1717031594
 10
-4.3165629584
 20
-24.1687790801
  0
LINE
  5
327
100
AcDbEntity
  8
IMPORT_IGES
100
AcDbLine
 62
250
  6
CONTINUOUS
 10
13.7180974738
 20
17.223079981
 11
13.7748993906
 21
17.2803797636
  0
LINE
  5
328
100
AcDbEntity
  8
IMPORT_IGES
100
AcDbLine
 62
250
  6
CONTINUOUS
 10
14.2791858414
 20
16.7804749516
 11
14.2372037495
 21
16.7381248889
  0
LINE
  5
329
100
AcDbEntity
  8
IMPORT_IGES
100
AcDbLine
 62
7
  6
CONTINUOUS
 10
-15.6165253934
 20
-15.7737455265
 11
-15.6341625603
 21
-15.7913826935
  0
LINE
  5
32A
100
AcDbEntity
  8
IMPORT_IGES
100
AcDbLine
 62
7
  6
CONTINUOUS
 10
14.3834746066
 20
-17.7737455265
 11
14.4221309307
 21
-17.8124018506
  0
LINE
  5
32B
100
AcDbEntity
  8
IMPORT_IGES
100
AcDbLine
 62
7
  6
CONTINUOUS
 10
14.3834746066
 20
-15.7737455265
 11
14.4011117736
 21
-15.7913826935
  0
LWPOLYLINE
  5
32C
100
AcDbEntity
  8
IMPORT_IGES
100
AcDbPolyline
 62
7
  6
CONTINUOUS
 90
26
 70
0
 10
-15.0593189323
 20
19.8919596024
 10
-15.0873849156
 20
19.9383616758
 10
-15.0976884988
 20
19.955658604
 10
-15.1083592547
 20
19.9738080069
 10
-15.1190760523
 20
19.9924360215
 10
-15.1297575767
 20
20.0116082713
 10
-15.1403378866
 20
20.0312591327
 10
-15.1504585779
 20
20.0508178712
 10
-15.1599399783
 20
20.0701638794
 10
-15.1687978207
 20
20.0894177646
 10
-15.1769505861
 20
20.1083706149
 10
-15.184308965
 20
20.1269477732
 10
-15.1908547509
 20
20.1452238966
 10
-15.1966275293
 20
20.1632140437
 10
-15.201597161
 20
20.1808848962
 10
-15.2057349388
 20
20.1982697725
 10
-15.2090961913
 20
20.2154836858
 10
-15.2116779421
 20
20.2325373525
 10
-15.2134560664
 20
20.2494200563
 10
-15.2144623175
 20
20.2662146615
 10
-15.2147008337
 20
20.2829088827
 10
-15.2141622774
 20
20.2995150054
 10
-15.2128634647
 20
20.3161527502
 10
-15.210814597
 20
20.3328620241
 10
-15.2080193762
 20
20.34960292
 10
-15.2044897022
 20
20.366375438
  0
LINE
  5
32D
100
AcDbEntity
  8
IMPORT_IGES
100
AcDbLine
 62
7
  6
CONTINUOUS
 10
5.525363572
 20
-23.3730012665
 11
5.4834746066
 21
-22.9530556816
  0
LINE
  5
32E
100
AcDbEntity
  8
IMPORT_IGES
100
AcDbLine
 62
7
  6
CONTINUOUS
 10
5.3834746066
 20
-15.5699830564
 11
5.3738750521
 21
-15.4737455265
  0
LWPOLYLINE
  5
32F
100
AcDbEntity
  8
IMPORT_IGES
100
AcDbPolyline
 62
250
  6
CONTINUOUS
 90
31
 70
0
 10
4.2542003134
 20
-36.8607646124
 10
4.2560578291
 20
-36.9037847336
 10
4.2613428732
 20
-36.9449367789
 10
4.2696317487
 20
-36.9839864645
 10
4.280484022
 20
-37.0207031488
 10
4.2935008066
 20
-37.0550346236
 10
4.3083732324
 20
-37.0870847048
 10
4.3247600429
 20
-37.1168146484
 10
4.3423396545
 20
-37.1442247707
 10
4.3609290702
 20
-37.1694961692
 10
4.3802772017
 20
-37.1926649062
 10
4.4001456177
 20
-37.2137811562
 10
4.4204511549
 20
-37.2330363502
 10
4.4410248344
 20
-37.2505022383
 10
4.4616904432
 20
-37.2662421237
 10
4.4824116314
 20
-37.2804130995
 10
4.5030716331
 20
-37.2930936251
 10
4.5235461731
 20
-37.3043554484
 10
4.5438248237
 20
-37.3143245247
 10
4.5638286227
 20
-37.3230777384
 10
4.5834706347
 20
-37.3306865434
 10
4.6027522616
 20
-37.3372509464
 10
4.6216234211
 20
-37.3428430754
 10
4.6400223573
 20
-37.3475296893
 10
4.6579479742
 20
-37.3513896451
 10
4.675362557
 20
-37.3544878595
 10
4.6922307317
 20
-37.3568879952
 10
4.7085647407
 20
-37.3586568041
 10
4.724354233
 20
-37.3598528233
 10
4.7395652816
 20
-37.3605307798
 10
4.7541812749
 20
-37.3607455739
  0
LWPOLYLINE
  5
330
100
AcDbEntity
  8
IMPORT_IGES
100
AcDbPolyline
 62
250
  6
CONTINUOUS
 90
31
 70
0
 10
5.5376192646
 20
-42.418131387
 10
5.5394767803
 20
-42.4611515082
 10
5.5447618244
 20
-42.5023035535
 10
5.5530506999
 20
-42.5413532391
 10
5.5639029732
 20
-42.5780699234
 10
5.5769197578
 20
-42.6124013983
 10
5.5917921836
 20
-42.6444514794
 10
5.6081789941
 20
-42.674181423
 10
5.6257586057
 20
-42.7015915454
 10
5.6443480214
 20
-42.7268629438
 10
5.6636961529
 20
-42.7500316808
 10
5.6835645689
 20
-42.7711479308
 10
5.7038701061
 20
-42.7904031248
 10
5.7244437856
 20
-42.8078690129
 10
5.7451093944
 20
-42.8236088983
 10
5.7658305826
 20
-42.8377798741
 10
5.7864905843
 20
-42.8504603997
 10
5.8069651243
 20
-42.861722223
 10
5.8272437749
 20
-42.8716912993
 10
5.8472475739
 20
-42.880444513
 10
5.8668895859
 20
-42.888053318
 10
5.8861712128
 20
-42.894617721
 10
5.9050423723
 20
-42.9002098501
 10
5.9234413085
 20
-42.9048964639
 10
5.9413669254
 20
-42.9087564198
 10
5.9587815082
 20
-42.9118546341
 10
5.9756496829
 20
-42.9142547698
 10
5.9919836919
 20
-42.9160235787
 10
6.0077731842
 20
-42.9172195979
 10
6.0229842328
 20
-42.9178975545
 10
6.0376002261
 20
-42.9181123486
  0
LINE
  5
331
100
AcDbEntity
  8
IMPORT_IGES
100
AcDbLine
 62
7
  6
CONTINUOUS
 10
0.6834746066
 20
-27.5156279916
 11
0.6834746066
 21
-26.7237455265
  0
LINE
  5
332
100
AcDbEntity
  8
IMPORT_IGES
100
AcDbLine
 62
7
  6
CONTINUOUS
 10
0.6834746066
 20
-25.2237455265
 11
0.6834746066
 21
-24.9156279916
  0
LINE
  5
333
100
AcDbEntity
  8
IMPORT_IGES
100
AcDbLine
 62
7
  6
CONTINUOUS
 10
0.6834746066
 20
-23.4156279916
 11
0.6834746066
 21
-18.2156279916
  0
LINE
  5
334
100
AcDbEntity
  8
IMPORT_IGES
100
AcDbLine
 62
7
  6
CONTINUOUS
 10
0.693946848
 20
-18.2051557502
 11
0.693946848
 21
-23.4261002329
  0
LINE
  5
335
100
AcDbEntity
  8
IMPORT_IGES
100
AcDbLine
 62
7
  6
CONTINUOUS
 10
0.693946848
 20
-23.9156279916
 11
0.693946848
 21
-25.2237455265
  0
LINE
  5
336
100
AcDbEntity
  8
IMPORT_IGES
100
AcDbLine
 62
7
  6
CONTINUOUS
 10
0.693946848
 20
-26.7237455265
 11
0.693946848
 21
-27.5261002329
  0
LINE
  5
337
100
AcDbEntity
  8
IMPORT_IGES
100
AcDbLine
 62
7
  6
CONTINUOUS
 10
3.3747477389
 20
-16.7656279916
 11
3.3747477389
 21
-16.9158962683
  0
LINE
  5
338
100
AcDbEntity
  8
IMPORT_IGES
100
AcDbLine
 62
7
  6
CONTINUOUS
 10
3.3834746066
 20
-45.0237569496
 11
3.3834746066
 21
-32.0237341034
  0
LINE
  5
339
100
AcDbEntity
  8
IMPORT_IGES
100
AcDbLine
 62
7
  6
CONTINUOUS
 10
3.3834746066
 20
-31.2110915682
 11
3.3834746066
 21
-30.2363994848
  0
LINE
  5
33A
100
AcDbEntity
  8
IMPORT_IGES
100
AcDbLine
 62
7
  6
CONTINUOUS
 10
3.3834746066
 20
-29.4237569496
 11
3.3834746066
 21
-27.0237341034
  0
LINE
  5
33B
100
AcDbEntity
  8
IMPORT_IGES
100
AcDbLine
 62
7
  6
CONTINUOUS
 10
3.3834746066
 20
-24.9237569496
 11
3.3834746066
 21
-17.5656165685
  0
LINE
  5
33C
100
AcDbEntity
  8
IMPORT_IGES
100
AcDbLine
 62
7
  6
CONTINUOUS
 10
3.3834746066
 20
-16.9246231361
 11
3.3834746066
 21
-15.9265283604
  0
LINE
  5
33D
100
AcDbEntity
  8
IMPORT_IGES
100
AcDbLine
 62
7
  6
CONTINUOUS
 10
3.411836927
 20
-30.2237455265
 11
3.411836927
 21
-29.4521192699
  0
LINE
  5
33E
100
AcDbEntity
  8
IMPORT_IGES
100
AcDbLine
 62
7
  6
CONTINUOUS
 10
3.411836927
 20
-31.2237455265
 11
3.411836927
 21
-31.9953717831
  0
LINE
  5
33F
100
AcDbEntity
  8
IMPORT_IGES
100
AcDbLine
 62
7
  6
CONTINUOUS
 10
3.4244908853
 20
-17.5246002899
 11
3.4244908853
 21
-24.9647732282
  0
LINE
  5
340
100
AcDbEntity
  8
IMPORT_IGES
100
AcDbLine
 62
7
  6
CONTINUOUS
 10
3.4244908853
 20
-26.9827178248
 11
3.4244908853
 21
-30.2363994848
  0
LINE
  5
341
100
AcDbEntity
  8
IMPORT_IGES
100
AcDbLine
 62
7
  6
CONTINUOUS
 10
3.4244908853
 20
-31.2110915682
 11
3.4244908853
 21
-45.0647732282
  0
LINE
  5
342
100
AcDbEntity
  8
IMPORT_IGES
100
AcDbLine
 62
7
  6
CONTINUOUS
 10
0.693946848
 20
-23.9156279916
 11
0.6852353459
 21
-24.9138672523
  0
LINE
  5
343
100
AcDbEntity
  8
IMPORT_IGES
100
AcDbLine
 62
7
  6
CONTINUOUS
 10
3.3834746066
 20
-15.9265283604
 11
3.3747477389
 21
-16.7656279916
  0
LWPOLYLINE
  5
344
100
AcDbEntity
  8
IMPORT_IGES
100
AcDbPolyline
 62
7
  6
CONTINUOUS
 90
5
 70
0
 10
13.7883894013
 20
19.8260887096
 10
13.7929473146
 20
19.8347459621
 10
13.7981782364
 20
19.8442466209
 10
13.8041110832
 20
19.8546663482
 10
13.8107687618
 20
19.8660495949
  0
LWPOLYLINE
  5
345
100
AcDbEntity
  8
IMPORT_IGES
100
AcDbPolyline
 62
7
  6
CONTINUOUS
 90
23
 70
0
 10
13.8751219495
 20
19.9733803061
 10
13.8857813165
 20
19.99200603
 10
13.8964370556
 20
20.011151016
 10
13.9070633369
 20
20.0307341467
 10
13.9171493206
 20
20.0503046431
 10
13.9265951946
 20
20.0696523655
 10
13.9355007711
 20
20.0888342888
 10
13.9436546465
 20
20.1077773891
 10
13.9510015556
 20
20.1263684546
 10
13.9575967636
 20
20.1446086339
 10
13.9633946625
 20
20.1626100604
 10
13.9683780787
 20
20.1803215549
 10
13.9725641859
 20
20.1977227101
 10
13.9759588972
 20
20.2149865504
 10
13.97856038
 20
20.2321109259
 10
13.9803704671
 20
20.2490502987
 10
13.9814005695
 20
20.2659201877
 10
13.9816465434
 20
20.2826909405
 10
13.9811125327
 20
20.2993534988
 10
13.9798223803
 20
20.3160560262
 10
13.9777840338
 20
20.3328347848
 10
13.9749895455
 20
20.3496145781
 10
13.9714389155
 20
20.366375438
  0
LINE
  5
346
100
AcDbEntity
  8
IMPORT_IGES
100
AcDbLine
 62
7
  6
CONTINUOUS
 10
13.8107687618
 20
19.8660495949
 11
13.8261500907
 21
19.8917642372
  0
LWPOLYLINE
  5
347
100
AcDbEntity
  8
IMPORT_IGES
100
AcDbPolyline
 62
7
  6
CONTINUOUS
 90
4
 70
0
 10
13.8261500907
 20
19.8917642372
 10
13.8443255229
 20
19.9216910091
 10
13.8541481914
 20
19.9380521128
 10
13.8751219495
 20
19.9733803061
  0
LINE
  5
348
100
AcDbEntity
  8
IMPORT_IGES
100
AcDbLine
 62
7
  6
CONTINUOUS
 10
-15.6165253934
 20
-17.7737455265
 11
-15.6551817175
 21
-17.8124018506
  0
LINE
  5
349
100
AcDbEntity
  8
IMPORT_IGES
100
AcDbLine
 62
250
  6
CONTINUOUS
 10
-15.4702545363
 20
16.7381248889
 11
-15.5122366281
 21
16.7804749516
  0
LINE
  5
34A
100
AcDbEntity
  8
IMPORT_IGES
100
AcDbLine
 62
250
  6
CONTINUOUS
 10
-15.0079501773
 20
17.2803797636
 11
-14.9511482605
 21
17.223079981
  0
LWPOLYLINE
  5
34B
100
AcDbEntity
  8
IMPORT_IGES
100
AcDbPolyline
 62
7
  6
CONTINUOUS
 90
37
 70
0
 10
5.4834765791
 20
-42.4722740725
 10
5.4838515223
 20
-42.4917269173
 10
5.4849462091
 20
-42.5107533676
 10
5.4867130305
 20
-42.5293284728
 10
5.489076959
 20
-42.5472471497
 10
5.4920057044
 20
-42.5646769128
 10
5.4955747853
 20
-42.5821466741
 10
5.4998374589
 20
-42.599789974
 10
5.504773933
 20
-42.6174181748
 10
5.5104138165
 20
-42.6350636184
 10
5.5167723028
 20
-42.6526950564
 10
5.5238630964
 20
-42.670279334
 10
5.5317249963
 20
-42.6878391389
 10
5.5403764313
 20
-42.70533699
 10
5.5498325437
 20
-42.7227301616
 10
5.5601371954
 20
-42.7400245606
 10
5.5713094689
 20
-42.7571732146
 10
5.583363809
 20
-42.7741230304
 10
5.5963446375
 20
-42.7908601299
 10
5.6102774857
 20
-42.8073363221
 10
5.6251646971
 20
-42.8234757779
 10
5.6410163679
 20
-42.8392150626
 10
5.6578381393
 20
-42.8544868602
 10
5.6756292167
 20
-42.8692189642
 10
5.6943837629
 20
-42.8833369961
 10
5.7141036974
 20
-42.8967737158
 10
5.7347637526
 20
-42.909443917
 10
5.7563061
 20
-42.9212494084
 10
5.7787256662
 20
-42.9321281616
 10
5.8019653508
 20
-42.9419933221
 10
5.8258706209
 20
-42.9507317386
 10
5.8503764118
 20
-42.9582854524
 10
5.8754396203
 20
-42.9646068598
 10
5.9009221604
 20
-42.9696307171
 10
5.9267316623
 20
-42.9733185292
 10
5.9528248913
 20
-42.9756451194
 10
5.9791302119
 20
-42.9765823628
  0
LINE
  5
34C
100
AcDbEntity
  8
IMPORT_IGES
100
AcDbLine
 62
7
  6
CONTINUOUS
 10
5.3738750521
 20
-15.4737455265
 11
5.3723497378
 21
-13.4759585938
  0
LINE
  5
34D
100
AcDbEntity
  8
IMPORT_IGES
100
AcDbLine
 62
7
  6
CONTINUOUS
 10
4.1706174638
 20
33.9476830449
 11
4.1706174638
 21
32.8048259021
  0
LINE
  5
34E
100
AcDbEntity
  8
IMPORT_IGES
100
AcDbLine
 62
7
  6
CONTINUOUS
 10
4.1732759151
 20
32.8021633569
 11
4.1732759151
 21
33.9503374086
  0
LINE
  5
34F
100
AcDbEntity
  8
IMPORT_IGES
100
AcDbLine
 62
7
  6
CONTINUOUS
 10
4.2419446208
 20
-36.873020305
 11
4.2419446208
 21
-23.872982228
  0
LINE
  5
350
100
AcDbEntity
  8
IMPORT_IGES
100
AcDbLine
 62
7
  6
CONTINUOUS
 10
4.2542003134
 20
-23.8852379206
 11
4.2542003134
 21
-36.8607646124
  0
LINE
  5
351
100
AcDbEntity
  8
IMPORT_IGES
100
AcDbLine
 62
250
  6
CONTINUOUS
 10
4.7541812749
 20
-37.3607455739
 11
4.7541812749
 21
-23.3852569591
  0
LINE
  5
352
100
AcDbEntity
  8
IMPORT_IGES
100
AcDbLine
 62
7
  6
CONTINUOUS
 10
4.9325222257
 20
37.3717167523
 11
4.9325222257
 21
36.2270410539
  0
LINE
  5
353
100
AcDbEntity
  8
IMPORT_IGES
100
AcDbLine
 62
7
  6
CONTINUOUS
 10
4.9325222257
 20
30.5254678931
 11
4.9325222257
 21
29.3807921948
  0
LINE
  5
354
100
AcDbEntity
  8
IMPORT_IGES
100
AcDbLine
 62
7
  6
CONTINUOUS
 10
4.935180677
 20
29.378253367
 11
4.935180677
 21
30.5283058094
  0
LINE
  5
355
100
AcDbEntity
  8
IMPORT_IGES
100
AcDbLine
 62
7
  6
CONTINUOUS
 10
4.935180677
 20
36.224194956
 11
4.935180677
 21
37.3742473985
  0
LINE
  5
356
100
AcDbEntity
  8
IMPORT_IGES
100
AcDbLine
 62
7
  6
CONTINUOUS
 10
5.342458328
 20
-45.4327863633
 11
5.342458328
 21
-37.3730012665
  0
LINE
  5
357
100
AcDbEntity
  8
IMPORT_IGES
100
AcDbLine
 62
7
  6
CONTINUOUS
 10
5.342458328
 20
-23.3730012665
 11
5.342458328
 21
-15.9265283604
  0
LINE
  5
358
100
AcDbEntity
  8
IMPORT_IGES
100
AcDbLine
 62
7
  6
CONTINUOUS
 10
5.3834746066
 20
-15.5699830564
 11
5.3834746066
 21
-23.3730012665
  0
LINE
  5
359
100
AcDbEntity
  8
IMPORT_IGES
100
AcDbLine
 62
7
  6
CONTINUOUS
 10
5.3834746066
 20
-37.3730012665
 11
5.3834746066
 21
-45.4738026419
  0
LINE
  5
35A
100
AcDbEntity
  8
IMPORT_IGES
100
AcDbLine
 62
7
  6
CONTINUOUS
 10
5.4834746066
 20
-42.4766014012
 11
5.4834746066
 21
-37.7929468514
  0
LINE
  5
35B
100
AcDbEntity
  8
IMPORT_IGES
100
AcDbLine
 62
7
  6
CONTINUOUS
 10
5.4834746066
 20
-22.9530556816
 11
5.4834746066
 21
-18.273726488
  0
LINE
  5
35C
100
AcDbEntity
  8
IMPORT_IGES
100
AcDbLine
 62
7
  6
CONTINUOUS
 10
5.5376192646
 20
-18.327871146
 11
5.5376192646
 21
-23.3852569591
  0
LINE
  5
35D
100
AcDbEntity
  8
IMPORT_IGES
100
AcDbLine
 62
7
  6
CONTINUOUS
 10
5.5376192646
 20
-37.3607455739
 11
5.5376192646
 21
-42.418131387
  0
LINE
  5
35E
100
AcDbEntity
  8
IMPORT_IGES
100
AcDbLine
 62
250
  6
CONTINUOUS
 10
6.0376002261
 20
-42.9181123486
 11
6.0376002261
 21
-36.8607646124
  0
LINE
  5
35F
100
AcDbEntity
  8
IMPORT_IGES
100
AcDbLine
 62
250
  6
CONTINUOUS
 10
6.0376002261
 20
-23.8852379206
 11
6.0376002261
 21
-17.8278901845
  0
LINE
  5
360
100
AcDbEntity
  8
IMPORT_IGES
100
AcDbLine
 62
7
  6
CONTINUOUS
 10
5.342458328
 20
-15.9265283604
 11
5.3679219135
 21
-13.478171661
  0
LINE
  5
361
100
AcDbEntity
  8
IMPORT_IGES
100
AcDbLine
 62
7
  6
CONTINUOUS
 10
5.4834746066
 20
-37.7929468514
 11
5.525363572
 21
-37.3730012665
  0
LWPOLYLINE
  5
362
100
AcDbEntity
  8
IMPORT_IGES
100
AcDbPolyline
 62
7
  6
CONTINUOUS
 90
7
 70
0
 10
13.7748993906
 20
19.7904212943
 10
13.7755257253
 20
19.7945481051
 10
13.7768008601
 20
19.7993828798
 10
13.7787247952
 20
19.804940874
 10
13.781289461
 20
19.8112239822
 10
13.7845029269
 20
19.8182547617
 10
13.7883894013
 20
19.8260887096
  0
LINE
  5
363
100
AcDbEntity
  8
IMPORT_IGES
100
AcDbLine
 62
7
  6
CONTINUOUS
 10
-0.6314540979
 20
-25.2647618051
 11
-0.6268484337
 21
-25.2521078468
  0
LINE
  5
364
100
AcDbEntity
  8
IMPORT_IGES
100
AcDbLine
 62
250
  6
CONTINUOUS
 10
-7.2706510129
 20
-17.8278901845
 11
-7.2165063549
 21
-17.7737455265
  0
LINE
  5
365
100
AcDbEntity
  8
IMPORT_IGES
100
AcDbLine
 62
250
  6
CONTINUOUS
 10
-6.7165253934
 20
-18.273726488
 11
-6.7706700513
 21
-18.327871146
  0
LINE
  5
366
100
AcDbEntity
  8
IMPORT_IGES
100
AcDbLine
 62
250
  6
CONTINUOUS
 10
-4.6165253934
 20
-16.9246231361
 11
-4.6077985256
 21
-16.9158962683
  0
LINE
  5
367
100
AcDbEntity
  8
IMPORT_IGES
100
AcDbLine
 62
250
  6
CONTINUOUS
 10
-4.3165368164
 20
-17.224611713
 11
-4.3078099486
 21
-17.2158848452
  0
LWPOLYLINE
  5
368
100
AcDbEntity
  8
IMPORT_IGES
100
AcDbPolyline
 62
7
  6
CONTINUOUS
 90
25
 70
0
 10
1.9458870268
 20
32.8021633569
 10
1.9860445463
 20
32.6331940185
 10
2.0356613655
 20
32.4684560755
 10
2.0947374842
 20
32.3079495279
 10
2.1636124223
 20
32.1511953567
 10
2.2419466599
 20
31.9986725809
 10
2.3287216378
 20
31.8518182575
 10
2.4239026246
 20
31.710746131
 10
2.5275243517
 20
31.5753424568
 10
2.6386724539
 20
31.4467030583
 10
2.7575732065
 20
31.3247021085
 10
2.8840003342
 20
31.2094654344
 10
3.0163606457
 20
31.1024663401
 10
3.1545135693
 20
31.0039783464
 10
3.2985996766
 20
30.9137279327
 10
3.4474474913
 20
30.8323678411
 10
3.6013667118
 20
30.7598200844
 10
3.7600476397
 20
30.6961626499
 10
3.9213897027
 20
30.6422822423
 10
4.0849128621
 20
30.5984018277
 10
4.2510971566
 20
30.56429844
 10
4.4192821309
 20
30.5401898851
 10
4.5892476332
 20
30.5261487652
 10
4.7612138152
 20
30.5221024781
 10
4.935180677
 20
30.5280510239
  0
LWPOLYLINE
  5
369
100
AcDbEntity
  8
IMPORT_IGES
100
AcDbPolyline
 62
250
  6
CONTINUOUS
 90
75
 70
0
 10
13.7748993906
 20
17.2803797636
 10
13.7754857501
 20
17.2563268508
 10
13.7771867547
 20
17.2327645287
 10
13.7799368782
 20
17.2097409991
 10
13.7836962463
 20
17.1871598598
 10
13.78838434
 20
17.165199251
 10
13.7938185266
 20
17.1442989116
 10
13.7998312887
 20
17.1246206327
 10
13.8063474722
 20
17.1060124806
 10
13.8132809066
 20
17.0884217262
 10
13.8205231267
 20
17.0718688087
 10
13.8279954501
 20
17.0563106073
 10
13.8356838458
 20
17.0416001467
 10
13.8435304603
 20
17.0277078738
 10
13.8514642206
 20
17.0146327404
 10
13.8594781052
 20
17.0022774842
 10
13.8675250186
 20
16.9906228995
 10
13.8755570785
 20
16.979653779
 10
13.8835833273
 20
16.9692851275
 10
13.891572208
 20
16.95949602
 10
13.8994864588
 20
16.9502745795
 10
13.9073388908
 20
16.9415553583
 10
13.915105826
 20
16.9333208735
 10
13.9227602366
 20
16.9255586022
 10
13.9303184095
 20
16.9182155716
 10
13.937763224
 20
16.9112765014
 10
13.9450742837
 20
16.9047301876
 10
13.9522690148
 20
16.8985340389
 10
13.959334841
 20
16.8926750388
 10
13.9662563861
 20
16.8871432481
 10
13.9730512095
 20
16.8819042308
 10
13.9797100193
 20
16.8769469864
 10
13.9862211528
 20
16.8722628476
 10
13.9926017502
 20
16.8678237997
 10
13.9988450177
 20
16.8636205229
 10
14.0049419564
 20
16.8596456183
 10
14.0109086841
 20
16.8558763482
 10
14.0167401004
 20
16.8523049173
 10
14.0224293281
 20
16.8489249561
 10
14.0279914989
 20
16.8457178229
 10
14.0334227833
 20
16.8426769923
 10
14.0387178827
 20
16.839797025
 10
14.0438909729
 20
16.8370625219
 10
14.0489392905
 20
16.8344679641
 10
14.0538586154
 20
16.8320087917
 10
14.0586618704
 20
16.8296723664
 10
14.0633469211
 20
16.8274540956
 10
14.0679105296
 20
16.8253500757
 10
14.0723646621
 20
16.8233497891
 10
14.0767079291
 20
16.8214492939
 10
14.0809375748
 20
16.8196453821
 10
14.0850640404
 20
16.8179295205
 10
14.0890860266
 20
16.8162985019
 10
14.093001608
 20
16.8147494812
 10
14.0968206836
 20
16.8132751931
 10
14.1005422385
 20
16.8118729511
 10
14.104164778
 20
16.8105403371
 10
14.1076977919
 20
16.8092711082
 10
14.1111415216
 20
16.8080626615
 10
14.1144937778
 20
16.8069133262
 10
14.1177606274
 20
16.8058187256
 10
14.1209435982
 20
16.8047762278
 10
14.1240396133
 20
16.8037847854
 10
14.1270479491
 20
16.8028426139
 10
14.1299669068
 20
16.8019482836
 10
14.1327968685
 20
16.801099781
 10
14.1355403074
 20
16.8002945716
 10
14.1381971818
 20
16.7995309694
 10
14.1407664679
 20
16.7988076295
 10
14.1432492377
 20
16.7981226784
 10
14.145637863
 20
16.7974766616
 10
14.1479390806
 20
16.7968662583
 10
14.1501756459
 20
16.7962842215
 10
14.1523492732
 20
16.7957291204
 10
14.1565178196
 20
16.794693541
  0
LINE
  5
36A
100
AcDbEntity
  8
IMPORT_IGES
100
AcDbLine
 62
7
  6
CONTINUOUS
 10
13.6874571234
 20
19.7367194023
 11
13.6874571234
 21
18.2362429347
  0
LINE
  5
36B
100
AcDbEntity
  8
IMPORT_IGES
100
AcDbLine
 62
250
  6
CONTINUOUS
 10
13.7748993906
 20
19.7904212943
 11
13.7748993906
 21
17.2803797636
  0
LINE
  5
36C
100
AcDbEntity
  8
IMPORT_IGES
100
AcDbLine
 62
7
  6
CONTINUOUS
 10
-6.7706700513
 20
-23.3852569591
 11
-6.7711181351
 21
-23.3857151403
  0
LINE
  5
36D
100
AcDbEntity
  8
IMPORT_IGES
100
AcDbLine
 62
250
  6
CONTINUOUS
 10
-5.9872320617
 20
-23.3852569591
 11
-5.9749763691
 21
-23.3730012665
  0
LINE
  5
36E
100
AcDbEntity
  8
IMPORT_IGES
100
AcDbLine
 62
250
  6
CONTINUOUS
 10
-5.4749954076
 20
-23.872982228
 11
-5.4872511001
 21
-23.8852379206
  0
LINE
  5
36F
100
AcDbEntity
  8
IMPORT_IGES
100
AcDbLine
 62
7
  6
CONTINUOUS
 10
0.693946848
 20
-18.2051557502
 11
0.6834746066
 21
-18.2156279916
  0
LINE
  5
370
100
AcDbEntity
  8
IMPORT_IGES
100
AcDbLine
 62
7
  6
CONTINUOUS
 10
-6.7584143588
 20
-23.3730012665
 11
-7.2706510129
 21
-23.8852379206
  0
LWPOLYLINE
  5
371
100
AcDbEntity
  8
IMPORT_IGES
100
AcDbPolyline
 62
250
  6
CONTINUOUS
 90
75
 70
0
 10
16.8821899452
 20
16.813319705
 10
16.8843928619
 20
16.813795201
 10
16.8866903081
 20
16.8143021864
 10
16.8890888171
 20
16.8148435874
 10
16.8915811088
 20
16.8154193107
 10
16.8941615154
 20
16.8160295636
 10
16.8968263334
 20
16.8166749729
 10
16.8995784165
 20
16.8173577869
 10
16.9024218899
 20
16.818080713
 10
16.9053599505
 20
16.818846387
 10
16.9083883048
 20
16.8196555776
 10
16.911499804
 20
16.8205082226
 10
16.914689786
 20
16.8214048395
 10
16.9179616966
 20
16.8223482455
 10
16.9213204946
 20
16.8233418818
 10
16.924763573
 20
16.8243870914
 10
16.9282920112
 20
16.8254863794
 10
16.9319161202
 20
16.8266453607
 10
16.9356349358
 20
16.8278663437
 10
16.9394474251
 20
16.8291516883
 10
16.9433635406
 20
16.8305076829
 10
16.9473819497
 20
16.831937046
 10
16.9515014033
 20
16.8334426151
 10
16.955731666
 20
16.8350315167
 10
16.9600707705
 20
16.8367068531
 10
16.9645173632
 20
16.8384720702
 10
16.9690817333
 20
16.8403355608
 10
16.9737607797
 20
16.8423007036
 10
16.978553333
 20
16.8443718086
 10
16.9834720445
 20
16.8465596091
 10
16.988513686
 20
16.8488683985
 10
16.9936759187
 20
16.8513030369
 10
16.9989720052
 20
16.8538762779
 10
17.0043975252
 20
16.8565930452
 10
17.0099496436
 20
16.8594592499
 10
17.0156430386
 20
16.8624905428
 10
17.0214722621
 20
16.8656928472
 10
17.0274332469
 20
16.8690730928
 10
17.0335414506
 20
16.8726501607
 10
17.0397896265
 20
16.8764308851
 10
17.0461725125
 20
16.8804236111
 10
17.0527068002
 20
16.8846515772
 10
17.0593830818
 20
16.8891227744
 10
17.0661942249
 20
16.8938471148
 10
17.0731579445
 20
16.8988532845
 10
17.0802621182
 20
16.9041507084
 10
17.0874968646
 20
16.9097510053
 10
17.0948799866
 20
16.9156892606
 10
17.1023952202
 20
16.9219760624
 10
17.1100294488
 20
16.9286253091
 10
17.1178006566
 20
16.9356808235
 10
17.1256873753
 20
16.9431546434
 10
17.1336715452
 20
16.9510629524
 10
17.141769882
 20
16.9594603592
 10
17.1499538052
 20
16.9683602145
 10
17.1581983623
 20
16.9777810818
 10
17.1665167062
 20
16.9877907891
 10
17.1748702374
 20
16.9984031484
 10
17.1832246513
 20
17.0096392115
 10
17.1915866973
 20
17.0215838804
 10
17.1999034641
 20
17.0342492856
 10
17.2081279572
 20
17.0476591259
 10
17.216256964
 20
17.0619226331
 10
17.2242212781
 20
17.0770544995
 10
17.2319511653
 20
17.0930729847
 10
17.2394164071
 20
17.1100988906
 10
17.2465506634
 20
17.1282151471
 10
17.253224145
 20
17.1473603064
 10
17.2593045075
 20
17.1674317082
 10
17.2647208723
 20
17.188521209
 10
17.2693423059
 20
17.2105119753
 10
17.2730092528
 20
17.2329619321
 10
17.2756638174
 20
17.255690963
 10
17.2772884791
 20
17.2787937662
 10
17.2778414287
 20
17.3022234385
  0
LINE
  5
372
100
AcDbEntity
  8
IMPORT_IGES
100
AcDbLine
 62
250
  6
CONTINUOUS
 10
16.8780255118
 20
16.8124491403
 11
16.8821899452
 21
16.813319705
  0
LINE
  5
373
100
AcDbEntity
  8
IMPORT_IGES
100
AcDbLine
 62
250
  6
CONTINUOUS
 10
16.8741594746
 20
16.8116739705
 11
16.8780255118
 21
16.8124491403
  0
LINE
  5
374
100
AcDbEntity
  8
IMPORT_IGES
100
AcDbLine
 62
250
  6
CONTINUOUS
 10
16.87052346
 20
16.810973792
 11
16.8741594746
 21
16.8116739705
  0
LINE
  5
375
100
AcDbEntity
  8
IMPORT_IGES
100
AcDbLine
 62
250
  6
CONTINUOUS
 10
16.8670195008
 20
16.8103254077
 11
16.87052346
 21
16.810973792
  0
LINE
  5
376
100
AcDbEntity
  8
IMPORT_IGES
100
AcDbLine
 62
250
  6
CONTINUOUS
 10
16.8635710098
 20
16.8097124527
 11
16.8670195008
 21
16.8103254077
  0
LINE
  5
377
100
AcDbEntity
  8
IMPORT_IGES
100
AcDbLine
 62
250
  6
CONTINUOUS
 10
16.8600330365
 20
16.8091094391
 11
16.8635710098
 21
16.8097124527
  0
LINE
  5
378
100
AcDbEntity
  8
IMPORT_IGES
100
AcDbLine
 62
250
  6
CONTINUOUS
 10
16.8563077374
 20
16.8085026866
 11
16.8600330365
 21
16.8091094391
  0
LWPOLYLINE
  5
379
100
AcDbEntity
  8
IMPORT_IGES
100
AcDbPolyline
 62
250
  6
CONTINUOUS
 90
24
 70
0
 10
-18.0813647304
 20
16.8072978229
 10
-18.0790821431
 20
16.8069779926
 10
-18.0766886905
 20
16.8066541383
 10
-18.0741925084
 20
16.806328912
 10
-18.0715960018
 20
16.8060041606
 10
-18.0688940572
 20
16.8056808589
 10
-18.0660915467
 20
16.8053612653
 10
-18.063205907
 20
16.8050489089
 10
-18.0602222328
 20
16.8047437426
 10
-18.0571553131
 20
16.8044488913
 10
-18.0540672887
 20
16.8041712629
 10
-18.050948051
 20
16.8039104072
 10
-18.0478078759
 20
16.8036676454
 10
-18.0447397322
 20
16.8034496559
 10
-18.0417655866
 20
16.8032564386
 10
-18.0388638936
 20
16.8030850751
 10
-18.0360624893
 20
16.8029356853
 10
-18.0333743265
 20
16.8028071465
 10
-18.0307867945
 20
16.8026971111
 10
-18.0282893737
 20
16.8026036364
 10
-18.0258751952
 20
16.8025251556
 10
-18.0235513376
 20
16.8024606356
 10
-18.0213281768
 20
16.8024090292
 10
-18.0171910949
 20
16.802339321
  0
LINE
  5
37A
100
AcDbEntity
  8
IMPORT_IGES
100
AcDbLine
 62
250
  6
CONTINUOUS
 10
-18.0856450381
 20
16.8079265328
 11
-18.0813647304
 21
16.8072978229
  0
LINE
  5
37B
100
AcDbEntity
  8
IMPORT_IGES
100
AcDbLine
 62
250
  6
CONTINUOUS
 10
-18.0896024733
 20
16.8085415368
 11
-18.0856450381
 21
16.8079265328
  0
LINE
  5
37C
100
AcDbEntity
  8
IMPORT_IGES
100
AcDbLine
 62
250
  6
CONTINUOUS
 10
-18.0933206619
 20
16.8091489904
 11
-18.0896024733
 21
16.8085415368
  0
LINE
  5
37D
100
AcDbEntity
  8
IMPORT_IGES
100
AcDbLine
 62
250
  6
CONTINUOUS
 10
-18.0968605609
 20
16.8097540896
 11
-18.0933206619
 21
16.8091489904
  0
LINE
  5
37E
100
AcDbEntity
  8
IMPORT_IGES
100
AcDbLine
 62
250
  6
CONTINUOUS
 10
-18.1003168399
 20
16.8103701864
 11
-18.0968605609
 21
16.8097540896
  0
LINE
  5
37F
100
AcDbEntity
  8
IMPORT_IGES
100
AcDbLine
 62
250
  6
CONTINUOUS
 10
-18.1038327387
 20
16.8110226478
 11
-18.1003168399
 21
16.8103701864
  0
LINE
  5
380
100
AcDbEntity
  8
IMPORT_IGES
100
AcDbLine
 62
250
  6
CONTINUOUS
 10
-18.1074839135
 20
16.8117277978
 11
-18.1038327387
 21
16.8110226478
  0
LINE
  5
381
100
AcDbEntity
  8
IMPORT_IGES
100
AcDbLine
 62
250
  6
CONTINUOUS
 10
-18.1113674335
 20
16.8125088001
 11
-18.1074839135
 21
16.8117277978
  0
LINE
  5
382
100
AcDbEntity
  8
IMPORT_IGES
100
AcDbLine
 62
7
  6
CONTINUOUS
 10
-14.9205079101
 20
19.7367194023
 11
-15.0062164082
 21
19.7795703877
  0
LWPOLYLINE
  5
383
100
AcDbEntity
  8
IMPORT_IGES
100
AcDbPolyline
 62
7
  6
CONTINUOUS
 90
40
 70
0
 10
13.7180974738
 20
17.223079981
 10
13.7203009979
 20
17.1928105242
 10
13.7238816464
 20
17.1638024925
 10
13.7288394193
 20
17.1360558858
 10
13.7353141538
 20
17.109611548
 10
13.7431660127
 20
17.0844286352
 10
13.7519754848
 20
17.0603846163
 10
13.7616943961
 20
17.0374787676
 10
13.7723709206
 20
17.0157118127
 10
13.7837300685
 20
16.994963392
 10
13.7957441131
 20
16.9752258974
 10
13.8084407811
 20
16.956506937
 10
13.8216282626
 20
16.9387089748
 10
13.8352913672
 20
16.9218246266
 10
13.8494452853
 20
16.9058612767
 10
13.8639437783
 20
16.8907435419
 10
13.8787794896
 20
16.8764658974
 10
13.8939597758
 20
16.8630338679
 10
13.9093604678
 20
16.8503886445
 10
13.9249781293
 20
16.8385276652
 10
13.9408161965
 20
16.8274534919
 10
13.9567608099
 20
16.8171150019
 10
13.9728127695
 20
16.8075112579
 10
13.9889712751
 20
16.7986431971
 10
14.0051200661
 20
16.7904625078
 10
14.0212600769
 20
16.7829715204
 10
14.0373903731
 20
16.7761679046
 10
14.05339189
 20
16.7699963581
 10
14.0692395012
 20
16.7644655165
 10
14.084958333
 20
16.7595667441
 10
14.1005047004
 20
16.755218832
 10
14.1158658151
 20
16.7514194665
 10
14.1310544653
 20
16.7481709613
 10
14.1460653302
 20
16.7453990474
 10
14.1608661663
 20
16.7430988789
 10
14.175489217
 20
16.7412753018
 10
14.1900258915
 20
16.7398685854
 10
14.2045066596
 20
16.7388588194
 10
14.2189010515
 20
16.7382659142
 10
14.2332090671
 20
16.7380898696
  0
LWPOLYLINE
  5
384
100
AcDbEntity
  8
IMPORT_IGES
100
AcDbPolyline
 62
250
  6
CONTINUOUS
 90
31
 70
0
 10
17.2778414287
 20
-18.327871146
 10
17.275983913
 20
-18.2848510248
 10
17.2706988689
 20
-18.2436989795
 10
17.2624099934
 20
-18.2046492939
 10
17.2515577202
 20
-18.1679326096
 10
17.2385409355
 20
-18.1336011348
 10
17.2236685098
 20
-18.1015510536
 10
17.2072816992
 20
-18.07182111
 10
17.1897020877
 20
-18.0444109877
 10
17.1711126719
 20
-18.0191395892
 10
17.1517645404
 20
-17.9959708522
 10
17.1318961244
 20
-17.9748546022
 10
17.1115905872
 20
-17.9555994082
 10
17.0910169077
 20
-17.9381335201
 10
17.0703512989
 20
-17.9223936347
 10
17.0496301107
 20
-17.9082226589
 10
17.028970109
 20
-17.8955421333
 10
17.008495569
 20
-17.88428031
 10
16.9882169184
 20
-17.8743112337
 10
16.9682131195
 20
-17.86555802
 10
16.9485711075
 20
-17.857949215
 10
16.9292894805
 20
-17.851384812
 10
16.910418321
 20
-17.845792683
 10
16.8920193849
 20
-17.8411060691
 10
16.8740937679
 20
-17.8372461133
 10
16.8566791851
 20
-17.8341478989
 10
16.8398110104
 20
-17.8317477632
 10
16.8234770014
 20
-17.8299789543
 10
16.8076875091
 20
-17.8287829351
 10
16.7924764605
 20
-17.8281049786
 10
16.7778604672
 20
-17.8278901845
  0
LINE
  5
385
100
AcDbEntity
  8
IMPORT_IGES
100
AcDbLine
 62
7
  6
CONTINUOUS
 10
13.7180974738
 20
17.223079981
 11
13.6874571234
 21
18.2362429347
  0
LINE
  5
386
100
AcDbEntity
  8
IMPORT_IGES
100
AcDbLine
 62
7
  6
CONTINUOUS
 10
14.4011117736
 20
-15.7913826935
 11
14.4221309307
 21
-17.8124018506
  0
LINE
  5
387
100
AcDbEntity
  8
IMPORT_IGES
100
AcDbLine
 62
250
  6
CONTINUOUS
 10
14.2791858414
 20
16.7804749516
 11
14.2748232382
 21
17.2803797636
  0
LINE
  5
388
100
AcDbEntity
  8
IMPORT_IGES
100
AcDbLine
 62
250
  6
CONTINUOUS
 10
16.7778604672
 20
17.3022234385
 11
16.7822230704
 21
16.8023186265
  0
LINE
  5
389
100
AcDbEntity
  8
IMPORT_IGES
100
AcDbLine
 62
250
  6
CONTINUOUS
 10
14.2748232382
 20
17.2803797636
 11
14.2748232382
 21
19.7847244877
  0
LINE
  5
38A
100
AcDbEntity
  8
0
100
AcDbLine
 62
7
  6
CONTINUOUS
 10
14.2834746066
 20
-45.5437455265
 11
14.2834746066
 21
-43.0237455265
  0
LINE
  5
38B
100
AcDbEntity
  8
IMPORT_IGES
100
AcDbLine
 62
7
  6
CONTINUOUS
 10
14.3834746066
 20
-17.7737455265
 11
14.3834746066
 21
-15.7737455265
  0
LINE
  5
38C
100
AcDbEntity
  8
IMPORT_IGES
100
AcDbLine
 62
7
  6
CONTINUOUS
 10
16.2834746066
 20
-15.7737455265
 11
16.2834746066
 21
-17.7737455265
  0
LINE
  5
38D
100
AcDbEntity
  8
IMPORT_IGES
100
AcDbLine
 62
250
  6
CONTINUOUS
 10
16.7778604672
 20
19.7847244877
 11
16.7778604672
 21
17.3022234385
  0
LINE
  5
38E
100
AcDbEntity
  8
IMPORT_IGES
100
AcDbLine
 62
250
  6
CONTINUOUS
 10
16.7778604672
 20
-17.8278901845
 11
16.7778604672
 21
-42.9181123486
  0
LINE
  5
38F
100
AcDbEntity
  8
IMPORT_IGES
100
AcDbLine
 62
250
  6
CONTINUOUS
 10
16.8363304814
 20
16.7606193275
 11
16.8363304814
 21
-17.7737455265
  0
LINE
  5
390
100
AcDbEntity
  8
IMPORT_IGES
100
AcDbLine
 62
7
  6
CONTINUOUS
 10
17.2778414287
 20
-42.418131387
 11
17.2778414287
 21
-18.327871146
  0
LINE
  5
391
100
AcDbEntity
  8
IMPORT_IGES
100
AcDbLine
 62
7
  6
CONTINUOUS
 10
17.2778414287
 20
17.3022234385
 11
17.2778414287
 21
19.7409801559
  0
LINE
  5
392
100
AcDbEntity
  8
IMPORT_IGES
100
AcDbLine
 62
7
  6
CONTINUOUS
 10
17.3212444151
 20
19.7368577737
 11
17.3212444151
 21
18.2545516246
  0
LINE
  5
393
100
AcDbEntity
  8
IMPORT_IGES
100
AcDbLine
 62
7
  6
CONTINUOUS
 10
17.3363114429
 20
-18.2694011318
 11
17.3363114429
 21
19.7219291173
  0
LINE
  5
394
100
AcDbEntity
  8
IMPORT_IGES
100
AcDbLine
 62
7
  6
CONTINUOUS
 10
17.3834746066
 20
46.476273512
 11
17.3834746066
 21
-42.523764565
  0
LINE
  5
395
100
AcDbEntity
  8
IMPORT_IGES
100
AcDbLine
 62
7
  6
CONTINUOUS
 10
17.4234404688
 20
35.4952745582
 11
17.4234404688
 21
28.7626012909
  0
LINE
  5
396
100
AcDbEntity
  8
IMPORT_IGES
100
AcDbLine
 62
7
  6
CONTINUOUS
 10
17.4234404688
 20
-31.5344284121
 11
17.4234404688
 21
-24.8017551448
  0
LINE
  5
397
100
AcDbEntity
  8
IMPORT_IGES
100
AcDbLine
 62
250
  6
CONTINUOUS
 10
16.7777941768
 20
19.7847244877
 11
16.8189008678
 21
46.9116616962
  0
LINE
  5
398
100
AcDbEntity
  8
IMPORT_IGES
100
AcDbLine
 62
7
  6
CONTINUOUS
 10
17.3188818293
 20
46.4116807347
 11
17.2778414287
 21
19.7409801559
  0
LINE
  5
399
100
AcDbEntity
  8
IMPORT_IGES
100
AcDbLine
 62
7
  6
CONTINUOUS
 10
16.2448182825
 20
-17.8124018506
 11
16.2658374397
 21
-15.7913826935
  0
LINE
  5
39A
100
AcDbEntity
  8
IMPORT_IGES
100
AcDbLine
 62
7
  6
CONTINUOUS
 10
17.3212444151
 20
18.2545516246
 11
17.3060041721
 21
17.2461372893
  0
LINE
  5
39B
100
AcDbEntity
  8
IMPORT_IGES
100
AcDbLine
 62
250
  6
CONTINUOUS
 10
-1.5543420522
 20
-26.3413918989
 11
-1.5807068079
 21
-26.3728121912
  0
LINE
  5
39C
100
AcDbEntity
  8
IMPORT_IGES
100
AcDbLine
 62
250
  6
CONTINUOUS
 10
3.0834860297
 20
-17.2656279916
 11
3.1245023083
 21
-17.224611713
  0
LINE
  5
39D
100
AcDbEntity
  8
IMPORT_IGES
100
AcDbLine
 62
250
  6
CONTINUOUS
 10
3.4244908853
 20
-17.5246002899
 11
3.3834746066
 21
-17.5656165685
  0
LINE
  5
39E
100
AcDbEntity
  8
IMPORT_IGES
100
AcDbLine
 62
7
  6
CONTINUOUS
 10
-1.9165253934
 20
-23.4156279916
 11
-1.9269976347
 21
-23.4261002329
  0
LINE
  5
39F
100
AcDbEntity
  8
IMPORT_IGES
100
AcDbLine
 62
250
  6
CONTINUOUS
 10
-18.6165253934
 20
-42.523764565
 11
-18.5108922154
 21
-42.418131387
  0
LINE
  5
3A0
100
AcDbEntity
  8
IMPORT_IGES
100
AcDbLine
 62
250
  6
CONTINUOUS
 10
-18.0109112539
 20
-42.9181123486
 11
-18.1165444318
 21
-43.0237455265
  0
LWPOLYLINE
  5
3A1
100
AcDbEntity
  8
IMPORT_IGES
100
AcDbPolyline
 62
250
  6
CONTINUOUS
 90
25
 70
0
 10
16.7905577941
 20
16.8024620951
 10
16.792872328
 20
16.8025265999
 10
16.7952688399
 20
16.802604694
 10
16.7977402838
 20
16.8026972819
 10
16.8002935083
 20
16.8028057924
 10
16.8029399639
 20
16.8029320666
 10
16.8056904458
 20
16.803078204
 10
16.8085338418
 20
16.803245257
 10
16.8114487257
 20
16.8034333889
 10
16.8144542299
 20
16.8036452835
 10
16.8175308239
 20
16.8038810526
 10
16.8205991945
 20
16.8041352248
 10
16.8236531769
 20
16.8044071082
 10
16.8266987322
 20
16.8046970528
 10
16.8296749561
 20
16.8049985772
 10
16.8325708151
 20
16.8053092407
 10
16.8353974002
 20
16.8056289412
 10
16.8381271693
 20
16.8059531638
 10
16.8407544733
 20
16.8062796021
 10
16.8432851853
 20
16.8066074074
 10
16.845709135
 20
16.8069337075
 10
16.848015618
 20
16.8072554127
 10
16.8502156565
 20
16.807572485
 10
16.8523316556
 20
16.8078868718
 10
16.8563077374
 20
16.8085026866
  0
LINE
  5
3A2
100
AcDbEntity
  8
IMPORT_IGES
100
AcDbLine
 62
250
  6
CONTINUOUS
 10
16.7862059312
 20
16.8023698456
 11
16.7905577941
 21
16.8024620951
  0
LINE
  5
3A3
100
AcDbEntity
  8
IMPORT_IGES
100
AcDbLine
 62
250
  6
CONTINUOUS
 10
16.7822230704
 20
16.8023186265
 11
16.7862059312
 21
16.8023698456
  0
LINE
  5
3A4
100
AcDbEntity
  8
IMPORT_IGES
100
AcDbLine
 62
7
  6
CONTINUOUS
 10
14.2372037495
 20
16.7381248889
 11
16.803161692
 21
16.7606193275
  0
LINE
  5
3A5
100
AcDbEntity
  8
IMPORT_IGES
100
AcDbLine
 62
250
  6
CONTINUOUS
 10
14.2791858414
 20
16.7804749516
 11
16.7822230704
 21
16.8023186265
  0
LINE
  5
3A6
100
AcDbEntity
  8
IMPORT_IGES
100
AcDbLine
 62
250
  6
CONTINUOUS
 10
14.2748232382
 20
17.2803797636
 11
16.7778604672
 21
17.3022234385
  0
LINE
  5
3A7
100
AcDbEntity
  8
IMPORT_IGES
100
AcDbLine
 62
250
  6
CONTINUOUS
 10
14.2748232382
 20
17.2803797636
 11
13.7748993906
 21
17.2803797636
  0
LINE
  5
3A8
100
AcDbEntity
  8
IMPORT_IGES
100
AcDbLine
 62
250
  6
CONTINUOUS
 10
-15.0079501773
 20
17.2803797636
 11
-15.5078740249
 21
17.2803797636
  0
LINE
  5
3A9
100
AcDbEntity
  8
IMPORT_IGES
100
AcDbLine
 62
250
  6
CONTINUOUS
 10
17.2778414287
 20
17.3022234385
 11
16.7778604672
 21
17.3022234385
  0
LINE
  5
3AA
100
AcDbEntity
  8
IMPORT_IGES
100
AcDbLine
 62
250
  6
CONTINUOUS
 10
-18.0109112539
 20
17.3022234385
 11
-18.5108922154
 21
17.3022234385
  0
LWPOLYLINE
  5
3AB
100
AcDbEntity
  8
IMPORT_IGES
100
AcDbPolyline
 62
250
  6
CONTINUOUS
 90
22
 70
0
 10
-15.5122366281
 20
16.7804749516
 10
-15.5074039404
 20
16.7804576219
 10
-15.5029675312
 20
16.7804828419
 10
-15.4989276974
 20
16.7805400604
 10
-15.4954015331
 20
16.7806166992
 10
-15.4922720468
 20
16.7807055677
 10
-15.4891884069
 20
16.7808123243
 10
-15.4860229162
 20
16.780941741
 10
-15.4829035126
 20
16.781088938
 10
-15.4798629598
 20
16.781251217
 10
-15.4769115964
 20
16.7814265064
 10
-15.4740391359
 20
16.7816139375
 10
-15.4712473516
 20
16.7818120293
 10
-15.4685357817
 20
16.7820194754
 10
-15.465904863
 20
16.7822349406
 10
-15.4633576923
 20
16.7824568791
 10
-15.4608995222
 20
16.7826835164
 10
-15.4585249997
 20
16.7829140723
 10
-15.4562213132
 20
16.7831486884
 10
-15.453990896
 20
16.783386121
 10
-15.4518312091
 20
16.7836256744
 10
-15.4476626047
 20
16.7841149599
  0
LINE
  5
3AC
100
AcDbEntity
  8
IMPORT_IGES
100
AcDbLine
 62
7
  6
CONTINUOUS
 10
-18.0362124788
 20
16.7606193275
 11
-15.4702545363
 21
16.7381248889
  0
LINE
  5
3AD
100
AcDbEntity
  8
IMPORT_IGES
100
AcDbLine
 62
250
  6
CONTINUOUS
 10
-18.0109112539
 20
17.3022234385
 11
-15.5078740249
 21
17.2803797636
  0
LINE
  5
3AE
100
AcDbEntity
  8
IMPORT_IGES
100
AcDbLine
 62
250
  6
CONTINUOUS
 10
-18.0171910949
 20
16.802339321
 11
-15.5122366281
 21
16.7804749516
  0
LWPOLYLINE
  5
3AF
100
AcDbEntity
  8
IMPORT_IGES
100
AcDbPolyline
 62
250
  6
CONTINUOUS
 90
31
 70
0
 10
17.3188818293
 20
46.4116807347
 10
17.3170243305
 20
46.4547006602
 10
17.3117393289
 20
46.4958525533
 10
17.3034505097
 20
46.5349021321
 10
17.2925982921
 20
46.5716187636
 10
17.2795815545
 20
46.6059502281
 10
17.2647091721
 20
46.6380003115
 10
17.2483224027
 20
46.6677302628
 10
17.2307428252
 20
46.6951404035
 10
17.2121534401
 20
46.7204118232
 10
17.1928053383
 20
46.7435805809
 10
17.1729369485
 20
46.7646968537
 10
17.1526314316
 20
46.7839520747
 10
17.1320577645
 20
46.8014179939
 10
17.1113921615
 20
46.8171579127
 10
17.0906709738
 20
46.8313289222
 10
17.0700109677
 20
46.8440094812
 10
17.0495364182
 20
46.8552713374
 10
17.029257754
 20
46.8652404452
 10
17.0092539378
 20
46.8739936886
 10
16.9896119048
 20
46.8816025215
 10
16.9703302525
 20
46.8881669505
 10
16.9514590634
 20
46.8937591037
 10
16.9330600937
 20
46.8984457392
 10
16.9151344401
 20
46.9023057141
 10
16.8977198179
 20
46.9054039447
 10
16.880851601
 20
46.9078040937
 10
16.8645175474
 20
46.909572913
 10
16.8487280085
 20
46.9107689396
 10
16.8335169115
 20
46.9114469006
 10
16.8189008678
 20
46.9116616962
  0
LINE
  5
3B0
100
AcDbEntity
  8
IMPORT_IGES
100
AcDbLine
 62
7
  6
CONTINUOUS
 10
0.1334746066
 20
-25.2237455265
 11
0.1051122863
 21
-25.2521078468
  0
LINE
  5
3B1
100
AcDbEntity
  8
IMPORT_IGES
100
AcDbLine
 62
7
  6
CONTINUOUS
 10
-1.9165253934
 20
-27.5156279916
 11
-1.9269976347
 21
-27.5261002329
  0
LINE
  5
3B2
100
AcDbEntity
  8
IMPORT_IGES
100
AcDbLine
 62
7
  6
CONTINUOUS
 10
-4.4165253934
 20
-31.8737455265
 11
-4.4269976347
 21
-31.8842177678
  0
LINE
  5
3B3
100
AcDbEntity
  8
IMPORT_IGES
100
AcDbLine
 62
7
  6
CONTINUOUS
 10
-1.806053152
 20
-29.6632732851
 11
-1.8165253934
 21
-29.6737455265
  0
LINE
  5
3B4
100
AcDbEntity
  8
IMPORT_IGES
100
AcDbLine
 62
250
  6
CONTINUOUS
 10
-4.657541672
 20
-21.7465862358
 11
-4.6165253934
 21
-21.727460031
  0
LINE
  5
3B5
100
AcDbEntity
  8
IMPORT_IGES
100
AcDbLine
 62
250
  6
CONTINUOUS
 10
-4.5093657567
 20
-21.9572646134
 11
-4.5503820353
 21
-21.9763908182
  0
LWPOLYLINE
  5
3B6
100
AcDbEntity
  8
IMPORT_IGES
100
AcDbPolyline
 62
250
  6
CONTINUOUS
 90
73
 70
0
 10
-15.3894115786
 20
16.7947318625
 10
-15.3872124949
 20
16.7952741906
 10
-15.3849472489
 20
16.795843903
 10
-15.3826048282
 20
16.7964448787
 10
-15.3801884493
 20
16.7970775056
 10
-15.3776956137
 20
16.7977436933
 10
-15.3751068913
 20
16.7984501247
 10
-15.3724168219
 20
16.7992000628
 10
-15.3696319422
 20
16.7999935306
 10
-15.3667509611
 20
16.8008327755
 10
-15.3637755624
 20
16.8017192657
 10
-15.3607053637
 20
16.8026551455
 10
-15.3575360752
 20
16.8036438908
 10
-15.3542681314
 20
16.8046876704
 10
-15.3509027369
 20
16.805788486
 10
-15.3474368887
 20
16.8069498311
 10
-15.3438720886
 20
16.8081738413
 10
-15.3402088563
 20
16.8094630664
 10
-15.3364428784
 20
16.8108219219
 10
-15.3325773646
 20
16.8122522901
 10
-15.3286116074
 20
16.813757573
 10
-15.3245356832
 20
16.8153449761
 10
-15.3203514986
 20
16.817017477
 10
-15.316060383
 20
16.8187783905
 10
-15.3116519407
 20
16.8206361641
 10
-15.3071289
 20
16.8225941677
 10
-15.3024927003
 20
16.8246564543
 10
-15.29773153
 20
16.8268333897
 10
-15.2928487189
 20
16.8291289987
 10
-15.2878463413
 20
16.8315480523
 10
-15.282711397
 20
16.8341031373
 10
-15.2774481798
 20
16.8367989736
 10
-15.2720594332
 20
16.8396412673
 10
-15.2665307654
 20
16.8426454409
 10
-15.2608676562
 20
16.845817072
 10
-15.255073842
 20
16.8491629566
 10
-15.2491335812
 20
16.8527020171
 10
-15.2430538096
 20
16.8564409079
 10
-15.2368397309
 20
16.8603876594
 10
-15.2304747167
 20
16.8645653001
 10
-15.2239679086
 20
16.8689815517
 10
-15.2173262167
 20
16.873646046
 10
-15.2105319959
 20
16.8785871682
 10
-15.2035972073
 20
16.8838139082
 10
-15.1965312407
 20
16.8893377092
 10
-15.1893158055
 20
16.8951936848
 10
-15.1819666411
 20
16.9013922191
 10
-15.1744965821
 20
16.9079468275
 10
-15.1668874387
 20
16.914901033
 10
-15.1591600838
 20
16.9222666345
 10
-15.1513321203
 20
16.9300594665
 10
-15.1433866877
 20
16.9383335755
 10
-15.1353517293
 20
16.9471019468
 10
-15.127251426
 20
16.9563829339
 10
-15.1190720783
 20
16.9662439395
 10
-15.1108518806
 20
16.9766978825
 10
-15.1026236746
 20
16.9877662338
 10
-15.094378483
 20
16.9995354914
 10
-15.0861663824
 20
17.0120206988
 10
-15.0780353929
 20
17.025242815
 10
-15.0699915096
 20
17.0393038942
 10
-15.0621076698
 20
17.054207306
 10
-15.0544450975
 20
17.0699820473
 10
-15.0470200745
 20
17.0867758896
 10
-15.0399080004
 20
17.1046499913
 10
-15.0332290763
 20
17.1235672771
 10
-15.0270886239
 20
17.1435268568
 10
-15.0215623463
 20
17.1646639405
 10
-15.0168100982
 20
17.1868287297
 10
-15.013012386
 20
17.2095683863
 10
-15.0102438351
 20
17.2326990064
 10
-15.0085369097
 20
17.25631916
 10
-15.0079501773
 20
17.2803797636
  0
LINE
  5
3B7
100
AcDbEntity
  8
IMPORT_IGES
100
AcDbLine
 62
250
  6
CONTINUOUS
 10
-15.3936150931
 20
16.7937245365
 11
-15.3894115786
 21
16.7947318625
  0
LINE
  5
3B8
100
AcDbEntity
  8
IMPORT_IGES
100
AcDbLine
 62
250
  6
CONTINUOUS
 10
-15.3975597428
 20
16.7928140902
 11
-15.3936150931
 21
16.7937245365
  0
LINE
  5
3B9
100
AcDbEntity
  8
IMPORT_IGES
100
AcDbLine
 62
250
  6
CONTINUOUS
 10
-15.4012611141
 20
16.7919903035
 11
-15.3975597428
 21
16.7928140902
  0
LINE
  5
3BA
100
AcDbEntity
  8
IMPORT_IGES
100
AcDbLine
 62
250
  6
CONTINUOUS
 10
-15.4047504876
 20
16.7912406124
 11
-15.4012611141
 21
16.7919903035
  0
LINE
  5
3BB
100
AcDbEntity
  8
IMPORT_IGES
100
AcDbLine
 62
250
  6
CONTINUOUS
 10
-15.408122507
 20
16.7905408361
 11
-15.4047504876
 21
16.7912406124
  0
LINE
  5
3BC
100
AcDbEntity
  8
IMPORT_IGES
100
AcDbLine
 62
250
  6
CONTINUOUS
 10
-15.4114402199
 20
16.7898759234
 11
-15.408122507
 21
16.7905408361
  0
LINE
  5
3BD
100
AcDbEntity
  8
IMPORT_IGES
100
AcDbLine
 62
250
  6
CONTINUOUS
 10
-15.4148321694
 20
16.7892202268
 11
-15.4114402199
 21
16.7898759234
  0
LINE
  5
3BE
100
AcDbEntity
  8
IMPORT_IGES
100
AcDbLine
 62
250
  6
CONTINUOUS
 10
-15.418277609
 20
16.7885790306
 11
-15.4148321694
 21
16.7892202268
  0
LINE
  5
3BF
100
AcDbEntity
  8
IMPORT_IGES
100
AcDbLine
 62
250
  6
CONTINUOUS
 10
-15.4217703639
 20
16.7879544825
 11
-15.418277609
 21
16.7885790306
  0
LINE
  5
3C0
100
AcDbEntity
  8
IMPORT_IGES
100
AcDbLine
 62
250
  6
CONTINUOUS
 10
-15.4252847335
 20
16.7873518368
 11
-15.4217703639
 21
16.7879544825
  0
LINE
  5
3C1
100
AcDbEntity
  8
IMPORT_IGES
100
AcDbLine
 62
250
  6
CONTINUOUS
 10
-15.4288249317
 20
16.7867707992
 11
-15.4252847335
 21
16.7873518368
  0
LINE
  5
3C2
100
AcDbEntity
  8
IMPORT_IGES
100
AcDbLine
 62
250
  6
CONTINUOUS
 10
-15.4324031037
 20
16.7862099898
 11
-15.4288249317
 21
16.7867707992
  0
LINE
  5
3C3
100
AcDbEntity
  8
IMPORT_IGES
100
AcDbLine
 62
250
  6
CONTINUOUS
 10
-15.4360591573
 20
16.7856643572
 11
-15.4324031037
 21
16.7862099898
  0
LINE
  5
3C4
100
AcDbEntity
  8
IMPORT_IGES
100
AcDbLine
 62
250
  6
CONTINUOUS
 10
-15.4398125923
 20
16.7851328898
 11
-15.4360591573
 21
16.7856643572
  0
LINE
  5
3C5
100
AcDbEntity
  8
IMPORT_IGES
100
AcDbLine
 62
250
  6
CONTINUOUS
 10
-15.4436769472
 20
16.7846159966
 11
-15.4398125923
 21
16.7851328898
  0
LINE
  5
3C6
100
AcDbEntity
  8
IMPORT_IGES
100
AcDbLine
 62
250
  6
CONTINUOUS
 10
-15.4476626047
 20
16.7841149599
 11
-15.4436769472
 21
16.7846159966
  0
LWPOLYLINE
  5
3C7
100
AcDbEntity
  8
IMPORT_IGES
100
AcDbPolyline
 62
7
  6
CONTINUOUS
 90
19
 70
0
 10
-18.0109112539
 20
19.784724093
 10
-18.0531564452
 20
19.7845396738
 10
-18.0954790018
 20
19.7840315874
 10
-18.1375582083
 20
19.7831998337
 10
-18.1793962434
 20
19.7820180885
 10
-18.2202914843
 20
19.7805126761
 10
-18.2589595654
 20
19.7787625693
 10
-18.2946642327
 20
19.7767892121
 10
-18.3278221136
 20
19.7745711606
 10
-18.3589143923
 20
19.7721230561
 10
-18.3877204923
 20
19.7694513667
 10
-18.4139828125
 20
19.7665496243
 10
-18.4378716322
 20
19.7634130662
 10
-18.4592722244
 20
19.7599909531
 10
-18.4774638487
 20
19.7563340242
 10
-18.4918038898
 20
19.7525897345
 10
-18.5021333537
 20
19.7488072357
 10
-18.5085064938
 20
19.7449373762
 10
-18.5108922154
 20
19.7409801559
  0
LINE
  5
3C8
100
AcDbEntity
  8
IMPORT_IGES
100
AcDbLine
 62
7
  6
CONTINUOUS
 10
13.6874571234
 20
19.7262544735
 11
-14.9205079101
 21
19.7262544735
  0
LINE
  5
3C9
100
AcDbEntity
  8
IMPORT_IGES
100
AcDbLine
 62
7
  6
CONTINUOUS
 10
-15.0062164082
 20
19.7795703877
 11
13.7731656215
 21
19.7795703877
  0
LINE
  5
3CA
100
AcDbEntity
  8
IMPORT_IGES
100
AcDbLine
 62
7
  6
CONTINUOUS
 10
16.7778604672
 20
19.7847244877
 11
14.2748232382
 21
19.7847244877
  0
LINE
  5
3CB
100
AcDbEntity
  8
IMPORT_IGES
100
AcDbLine
 62
7
  6
CONTINUOUS
 10
-15.5078740249
 20
19.7847244877
 11
-18.0109112539
 21
19.7847244877
  0
LINE
  5
3CC
100
AcDbEntity
  8
IMPORT_IGES
100
AcDbLine
 62
250
  6
CONTINUOUS
 10
13.9714389155
 20
20.366375438
 11
-15.2044897022
 21
20.366375438
  0
LWPOLYLINE
  5
3CD
100
AcDbEntity
  8
IMPORT_IGES
100
AcDbPolyline
 62
250
  6
CONTINUOUS
 90
27
 70
0
 10
14.1966855262
 20
16.7866254365
 10
14.1988743805
 20
16.7862833611
 10
14.2011486241
 20
16.7859384544
 10
14.2035031725
 20
16.7855926339
 10
14.2059433521
 20
16.7852463046
 10
14.208505222
 20
16.7848958941
 10
14.2112013234
 20
16.7845416838
 10
14.2140194947
 20
16.7841873636
 10
14.2169588008
 20
16.7838351214
 10
14.2200406154
 20
16.7834847387
 10
14.2232438771
 20
16.7831410519
 10
14.2265038387
 20
16.7828126956
 10
14.2298251604
 20
16.7825003307
 10
14.23320311
 20
16.782205551
 10
14.2365585593
 20
16.7819355692
 10
14.2398724007
 20
16.7816912356
 10
14.2431633486
 20
16.7814704898
 10
14.2464088494
 20
16.7812741384
 10
14.2495776535
 20
16.7811028551
 10
14.25270062
 20
16.780953777
 10
14.2558484105
 20
16.7808233143
 10
14.258904083
 20
16.7807156694
 10
14.2619843192
 20
16.780626091
 10
14.2655104986
 20
16.7805468655
 10
14.2696231628
 20
16.7804858998
 10
14.2741817148
 20
16.7804578652
 10
14.2791858414
 20
16.7804749516
  0
LINE
  5
3CE
100
AcDbEntity
  8
IMPORT_IGES
100
AcDbLine
 62
250
  6
CONTINUOUS
 10
14.1924965277
 20
16.7873078445
 11
14.1966855262
 21
16.7866254365
  0
LINE
  5
3CF
100
AcDbEntity
  8
IMPORT_IGES
100
AcDbLine
 62
250
  6
CONTINUOUS
 10
14.1885595803
 20
16.7879825332
 11
14.1924965277
 21
16.7873078445
  0
LINE
  5
3D0
100
AcDbEntity
  8
IMPORT_IGES
100
AcDbLine
 62
250
  6
CONTINUOUS
 10
14.1848837283
 20
16.7886417608
 11
14.1885595803
 21
16.7879825332
  0
LINE
  5
3D1
100
AcDbEntity
  8
IMPORT_IGES
100
AcDbLine
 62
250
  6
CONTINUOUS
 10
14.1814411942
 20
16.7892848922
 11
14.1848837283
 21
16.7886417608
  0
LINE
  5
3D2
100
AcDbEntity
  8
IMPORT_IGES
100
AcDbLine
 62
250
  6
CONTINUOUS
 10
14.1781699904
 20
16.7899191817
 11
14.1814411942
 21
16.7892848922
  0
LINE
  5
3D3
100
AcDbEntity
  8
IMPORT_IGES
100
AcDbLine
 62
250
  6
CONTINUOUS
 10
14.1748951115
 20
16.7905768859
 11
14.1781699904
 21
16.7899191817
  0
LINE
  5
3D4
100
AcDbEntity
  8
IMPORT_IGES
100
AcDbLine
 62
250
  6
CONTINUOUS
 10
14.1715197722
 20
16.7912786333
 11
14.1748951115
 21
16.7905768859
  0
LINE
  5
3D5
100
AcDbEntity
  8
IMPORT_IGES
100
AcDbLine
 62
250
  6
CONTINUOUS
 10
14.1680029141
 20
16.7920356874
 11
14.1715197722
 21
16.7912786333
  0
LINE
  5
3D6
100
AcDbEntity
  8
IMPORT_IGES
100
AcDbLine
 62
250
  6
CONTINUOUS
 10
14.164320971
 20
16.7928567155
 11
14.1680029141
 21
16.7920356874
  0
LINE
  5
3D7
100
AcDbEntity
  8
IMPORT_IGES
100
AcDbLine
 62
250
  6
CONTINUOUS
 10
14.160495558
 20
16.7937407025
 11
14.164320971
 21
16.7928567155
  0
LINE
  5
3D8
100
AcDbEntity
  8
IMPORT_IGES
100
AcDbLine
 62
250
  6
CONTINUOUS
 10
14.1565178196
 20
16.794693541
 11
14.160495558
 21
16.7937407025
  0
LINE
  5
3D9
100
AcDbEntity
  8
IMPORT_IGES
100
AcDbLine
 62
7
  6
CONTINUOUS
 10
-1.9219621802
 20
29.378253367
 11
-1.9246206315
 21
29.3807921948
  0
LINE
  5
3DA
100
AcDbEntity
  8
IMPORT_IGES
100
AcDbLine
 62
250
  6
CONTINUOUS
 10
-18.551932616
 20
46.4116807347
 11
-18.6165253934
 21
46.476273512
  0
LINE
  5
3DB
100
AcDbEntity
  8
IMPORT_IGES
100
AcDbLine
 62
250
  6
CONTINUOUS
 10
-18.1165444318
 20
46.9762544735
 11
-18.0519516545
 21
46.9116616962
  0
LINE
  5
3DC
100
AcDbEntity
  8
IMPORT_IGES
100
AcDbLine
 62
250
  6
CONTINUOUS
 10
3.0834860297
 20
-26.7237455265
 11
3.1245023083
 21
-26.6827292479
  0
LINE
  5
3DD
100
AcDbEntity
  8
IMPORT_IGES
100
AcDbLine
 62
250
  6
CONTINUOUS
 10
3.4244908853
 20
-26.9827178248
 11
3.3834746066
 21
-27.0237341034
  0
LINE
  5
3DE
100
AcDbEntity
  8
IMPORT_IGES
100
AcDbLine
 62
7
  6
CONTINUOUS
 10
16.2834746066
 20
-15.7737455265
 11
16.2658374397
 21
-15.7913826935
  0
LINE
  5
3DF
100
AcDbEntity
  8
IMPORT_IGES
100
AcDbLine
 62
7
  6
CONTINUOUS
 10
16.2448182825
 20
-17.8124018506
 11
16.2834746066
 21
-17.7737455265
  0
LINE
  5
3E0
100
AcDbEntity
  8
IMPORT_IGES
100
AcDbLine
 62
250
  6
CONTINUOUS
 10
16.7778604672
 20
-17.8278901845
 11
16.8320051251
 21
-17.7737455265
  0
LINE
  5
3E1
100
AcDbEntity
  8
IMPORT_IGES
100
AcDbLine
 62
7
  6
CONTINUOUS
 10
3.4244908853
 20
-31.2110915682
 11
3.411836927
 21
-31.2237455265
  0
LINE
  5
3E2
100
AcDbEntity
  8
IMPORT_IGES
100
AcDbLine
 62
7
  6
CONTINUOUS
 10
-1.9219621802
 20
36.224194956
 11
-1.9246206315
 21
36.2270410539
  0
LINE
  5
3E3
100
AcDbEntity
  8
IMPORT_IGES
100
AcDbLine
 62
250
  6
CONTINUOUS
 10
16.803161692
 20
16.7606193275
 11
16.7822230704
 21
16.8023186265
  0
LINE
  5
3E4
100
AcDbEntity
  8
IMPORT_IGES
100
AcDbLine
 62
250
  6
CONTINUOUS
 10
17.2778414287
 20
17.3022234385
 11
17.3060041721
 21
17.2461372893
  0
LINE
  5
3E5
100
AcDbEntity
  8
IMPORT_IGES
100
AcDbLine
 62
250
  6
CONTINUOUS
 10
3.0834860297
 20
-31.7237455265
 11
3.11184835
 21
-31.6953832062
  0
LINE
  5
3E6
100
AcDbEntity
  8
IMPORT_IGES
100
AcDbLine
 62
250
  6
CONTINUOUS
 10
3.411836927
 20
-31.9953717831
 11
3.3834746066
 21
-32.0237341034
  0
LINE
  5
3E7
100
AcDbEntity
  8
IMPORT_IGES
100
AcDbLine
 62
250
  6
CONTINUOUS
 10
17.3363114429
 20
-18.2694011318
 11
17.2778414287
 21
-18.327871146
  0
LINE
  5
3E8
100
AcDbEntity
  8
IMPORT_IGES
100
AcDbLine
 62
7
  6
CONTINUOUS
 10
-4.4165253934
 20
-40.9737455265
 11
-4.4269976347
 21
-40.9842177678
  0
LINE
  5
3E9
100
AcDbEntity
  8
IMPORT_IGES
100
AcDbLine
 62
250
  6
CONTINUOUS
 10
-6.6165253934
 20
-45.4738026419
 11
-6.5755091147
 21
-45.4327863633
  0
LINE
  5
3EA
100
AcDbEntity
  8
IMPORT_IGES
100
AcDbLine
 62
7
  6
CONTINUOUS
 10
1.9458870268
 20
32.8021633569
 11
1.9426291863
 21
32.8048259021
  0
LINE
  5
3EB
100
AcDbEntity
  8
IMPORT_IGES
100
AcDbLine
 62
7
  6
CONTINUOUS
 10
4.935180677
 20
29.378253367
 11
4.9325222257
 21
29.3807921948
  0
LINE
  5
3EC
100
AcDbEntity
  8
IMPORT_IGES
100
AcDbLine
 62
7
  6
CONTINUOUS
 10
17.3212444151
 20
19.7369961451
 11
17.3363114429
 21
19.7219291173
  0
LINE
  5
3ED
100
AcDbEntity
  8
IMPORT_IGES
100
AcDbLine
 62
7
  6
CONTINUOUS
 10
4.1706174638
 20
32.8048259021
 11
4.1732759151
 21
32.8021633569
  0
LWPOLYLINE
  5
3EE
100
AcDbEntity
  8
IMPORT_IGES
100
AcDbPolyline
 62
7
  6
CONTINUOUS
 90
19
 70
0
 10
17.2778414287
 20
19.7409801559
 10
17.2756671888
 20
19.7447415006
 10
17.2698374515
 20
19.74844827
 10
17.2603046763
 20
19.752100464
 10
17.2469317558
 20
19.7557491353
 10
17.2297937908
 20
19.7593432311
 10
17.2094582141
 20
19.7627295942
 10
17.1865835984
 20
19.7658576578
 10
17.161217489
 20
19.7687779885
 10
17.1331144409
 20
19.7714891291
 10
17.1024477807
 20
19.7740013202
 10
17.0694136261
 20
19.7763043211
 10
17.033553764
 20
19.778365953
 10
16.9944600599
 20
19.7802080284
 10
16.9528192844
 20
19.7818087348
 10
16.9098738043
 20
19.7830704546
 10
16.8663234104
 20
19.7839606487
 10
16.8222007926
 20
19.7845118563
 10
16.7778604672
 20
19.7847240773
  0
LINE
  5
3EF
100
AcDbEntity
  8
IMPORT_IGES
100
AcDbLine
 62
7
  6
CONTINUOUS
 10
5.5376192646
 20
-37.3607455739
 11
5.5380673484
 21
-37.3602873927
  0
LINE
  5
3F0
100
AcDbEntity
  8
IMPORT_IGES
100
AcDbLine
 62
250
  6
CONTINUOUS
 10
-4.657541672
 20
-45.0647732282
 11
-4.6165253934
 21
-45.0237569496
  0
LINE
  5
3F1
100
AcDbEntity
  8
IMPORT_IGES
100
AcDbLine
 62
250
  6
CONTINUOUS
 10
-4.3165368164
 20
-45.3237455265
 11
-4.3575530951
 21
-45.3647618051
  0
LINE
  5
3F2
100
AcDbEntity
  8
IMPORT_IGES
100
AcDbLine
 62
250
  6
CONTINUOUS
 10
4.2419446208
 20
-36.873020305
 11
4.2542003134
 21
-36.8607646124
  0
LINE
  5
3F3
100
AcDbEntity
  8
IMPORT_IGES
100
AcDbLine
 62
250
  6
CONTINUOUS
 10
-5.0755662301
 20
-46.9327292479
 11
-5.1165825088
 21
-46.9737455265
  0
LINE
  5
3F4
100
AcDbEntity
  8
IMPORT_IGES
100
AcDbLine
 62
250
  6
CONTINUOUS
 10
4.7541812749
 20
-37.3607455739
 11
4.7419255824
 21
-37.3730012665
  0
LINE
  5
3F5
100
AcDbEntity
  8
IMPORT_IGES
100
AcDbLine
 62
7
  6
CONTINUOUS
 10
5.5408511544
 20
-37.3575136841
 11
6.0376002261
 21
-36.8607646124
  0
LINE
  5
3F6
100
AcDbEntity
  8
IMPORT_IGES
100
AcDbLine
 62
7
  6
CONTINUOUS
 10
5.525363572
 20
-37.3730012665
 11
5.5408511544
 21
-37.3575136841
  0
LWPOLYLINE
  5
3F7
100
AcDbEntity
  8
IMPORT_IGES
100
AcDbPolyline
 62
7
  6
CONTINUOUS
 90
25
 70
0
 10
4.9325222257
 20
30.5254678931
 10
4.7617982439
 20
30.5193080807
 10
4.5921071298
 20
30.5231697321
 10
4.4234488837
 20
30.5370528476
 10
4.2552151897
 20
30.5610505914
 10
4.0880143636
 20
30.5950697992
 10
3.923671352
 20
30.6388309775
 10
3.7622207494
 20
30.6924845173
 10
3.6036279614
 20
30.7558800278
 10
3.4496141515
 20
30.8282868427
 10
3.3002877296
 20
30.9097082352
 10
3.1555402859
 20
31.0001409322
 10
3.0167677538
 20
31.0988444486
 10
2.8839289918
 20
31.206025027
 10
2.7570651415
 20
31.3214764248
 10
2.6376955605
 20
31.4438394295
 10
2.5259583549
 20
31.5730840109
 10
2.4217154185
 20
31.7092401993
 10
2.3260717912
 20
31.8510388723
 10
2.2391134644
 20
31.9985369499
 10
2.1607544466
 20
32.1516775121
 10
2.0918418034
 20
32.3090206766
 10
2.0326578898
 20
32.4700864827
 10
1.9829203508
 20
32.6353548912
 10
1.9426291863
 20
32.8048259021
  0
LWPOLYLINE
  5
3F8
100
AcDbEntity
  8
IMPORT_IGES
100
AcDbPolyline
 62
7
  6
CONTINUOUS
 90
53
 70
0
 10
-1.9246206315
 20
30.5254678931
 10
-2.0970901823
 20
30.5193388092
 10
-2.2684850729
 20
30.5234187697
 10
-2.4388053031
 20
30.5377077745
 10
-2.6087035163
 20
30.5623115266
 10
-2.7775270692
 20
30.597124323
 10
-2.9433180321
 20
30.641829055
 10
-3.1060314957
 20
30.6966070184
 10
-3.2657123692
 20
30.7612769174
 10
-3.4205374506
 20
30.8349777563
 10
-3.5702156013
 20
30.9175668231
 10
-3.7150379598
 20
31.0091868296
 10
-3.8540547404
 20
31.1094049157
 10
-3.9875554347
 20
31.2185190887
 10
-4.1152505511
 20
31.3362313412
 10
-4.2353218289
 20
31.4612147908
 10
-4.3475884204
 20
31.5935372762
 10
-4.4522311733
 20
31.7331309587
 10
-4.5479743696
 20
31.8784654393
 10
-4.6347493949
 20
32.0296515481
 10
-4.7126248637
 20
32.1865784551
 10
-4.780530901
 20
32.3473832715
 10
-4.8382682213
 20
32.512084386
 10
-4.8860361102
 20
32.6806634098
 10
-4.92336255
 20
32.8512022878
 10
-4.9501790006
 20
33.0237171354
 10
-4.966554002
 20
33.1981918371
 10
-4.9722211572
 20
33.3726599915
 10
-4.9669970671
 20
33.5471215297
 10
-4.9510651308
 20
33.7215765206
 10
-4.9247091482
 20
33.8940587692
 10
-4.8878646429
 20
34.0645413694
 10
-4.8405960913
 20
34.2330512273
 10
-4.7833807221
 20
34.397702866
 10
-4.7160307892
 20
34.5584759979
 10
-4.6387340387
 20
34.7153909107
 10
-4.5525309383
 20
34.8666229906
 10
-4.4573629005
 20
35.0120638953
 10
-4.3532885128
 20
35.1518219671
 10
-4.241524005
 20
35.2843976187
 10
-4.1218867492
 20
35.4097433971
 10
-3.9945593733
 20
35.5279067554
 10
-3.861305991
 20
35.6375304656
 10
-3.7224025984
 20
35.73832361
 10
-3.5775731994
 20
35.8305771062
 10
-3.4277539196
 20
35.9138064794
 10
-3.2726520361
 20
35.9881577082
 10
-3.1125602717
 20
36.0534848141
 10
-2.9492929207
 20
36.1088653859
 10
-2.7827884311
 20
36.1541173506
 10
-2.6131083548
 20
36.1894227813
 10
-2.4422516417
 20
36.2144054862
 10
-2.2708846084
 20
36.228940068
  0
LWPOLYLINE
  5
3F9
100
AcDbEntity
  8
IMPORT_IGES
100
AcDbPolyline
 62
7
  6
CONTINUOUS
 90
53
 70
0
 10
-1.9219621802
 20
30.5280243219
 10
-2.1170329
 20
30.5231876587
 10
-2.3065070634
 20
30.5294285647
 10
-2.4903846704
 20
30.5467470401
 10
-2.6684951196
 20
30.5756409016
 10
-2.8410090125
 20
30.6156123325
 10
-3.0084381529
 20
30.6651678816
 10
-3.1710852044
 20
30.7241458594
 10
-3.3286475035
 20
30.7927079556
 10
-3.4807288636
 20
30.8698457882
 10
-3.6272967892
 20
30.9552595171
 10
-3.7683837757
 20
31.0492489824
 10
-3.9036911234
 20
31.1517053228
 10
-4.0337218209
 20
31.2630247034
 10
-4.1579728795
 20
31.382810959
 10
-4.2746366328
 20
31.5097667326
 10
-4.3836180048
 20
31.6441219064
 10
-4.4850120715
 20
31.7856465983
 10
-4.577296394
 20
31.9323538046
 10
-4.66019897
 20
32.0840252016
 10
-4.7339918018
 20
32.2408791131
 10
-4.7979684583
 20
32.4015835068
 10
-4.852082973
 20
32.5663969961
 10
-4.8963813122
 20
32.7350609675
 10
-4.9302949436
 20
32.9054675491
 10
-4.9537020552
 20
33.0775896206
 10
-4.9667244591
 20
33.2514543023
 10
-4.9691590584
 20
33.4250350826
 10
-4.9608647469
 20
33.5981796986
 10
-4.9419826308
 20
33.7710404132
 10
-4.9127329324
 20
33.9420475038
 10
-4.8729582082
 20
34.1114977359
 10
-4.8228159015
 20
34.279094344
 10
-4.7629985652
 20
34.4423773092
 10
-4.6934036276
 20
34.601004466
 10
-4.6141336603
 20
34.7553179801
 10
-4.5261889315
 20
34.9038843296
 10
-4.4295099007
 20
35.0467044266
 10
-4.3241561084
 20
35.183777359
 10
-4.2113064438
 20
35.3136668697
 10
-4.0907694197
 20
35.436327491
 10
-3.9627365233
 20
35.5518046906
 10
-3.8289611057
 20
35.6587986133
 10
-3.6895221628
 20
35.7570984647
 10
-3.5443406987
 20
35.8469150393
 10
-3.394933077
 20
35.9275808664
 10
-3.2412719227
 20
35.9990454086
 10
-3.0833846109
 20
36.0613592033
 10
-2.9228696295
 20
36.1140063912
 10
-2.7597351221
 20
36.1568673972
 10
-2.5939729452
 20
36.1900617964
 10
-2.4271571567
 20
36.2134324551
 10
-2.2598124427
 20
36.2269269953
  0
LINE
  5
3FA
100
AcDbEntity
  8
IMPORT_IGES
100
AcDbLine
 62
7
  6
CONTINUOUS
 10
4.7171126196
 20
29.3765156774
 11
4.9325222257
 21
29.3807921948
  0
LINE
  5
3FB
100
AcDbEntity
  8
IMPORT_IGES
100
AcDbLine
 62
7
  6
CONTINUOUS
 10
-2.1400302375
 20
29.3765156774
 11
-1.9246206315
 21
29.3807921948
  0
LINE
  5
3FC
100
AcDbEntity
  8
IMPORT_IGES
100
AcDbLine
 62
7
  6
CONTINUOUS
 10
17.4234404688
 20
28.7626012909
 11
17.3834746066
 21
28.7626012909
  0
LINE
  5
3FD
100
AcDbEntity
  8
IMPORT_IGES
100
AcDbLine
 62
7
  6
CONTINUOUS
 10
-18.6165253934
 20
28.7626012909
 11
-18.655767452
 21
28.7626012909
  0
LINE
  5
3FE
100
AcDbEntity
  8
IMPORT_IGES
100
AcDbLine
 62
7
  6
CONTINUOUS
 10
4.935180677
 20
36.224194956
 11
4.9325222257
 21
36.2270410539
  0
LINE
  5
3FF
100
AcDbEntity
  8
IMPORT_IGES
100
AcDbLine
 62
250
  6
CONTINUOUS
 10
5.4834746066
 20
-42.472276045
 11
5.5376192646
 21
-42.418131387
  0
LINE
  5
400
100
AcDbEntity
  8
IMPORT_IGES
100
AcDbLine
 62
250
  6
CONTINUOUS
 10
6.0376002261
 20
-42.9181123486
 11
5.9791302119
 21
-42.9765823628
  0
LINE
  5
401
100
AcDbEntity
  8
IMPORT_IGES
100
AcDbLine
 62
7
  6
CONTINUOUS
 10
1.9458870268
 20
32.8021633569
 11
4.1732759151
 21
32.8021633569
  0
LINE
  5
402
100
AcDbEntity
  8
IMPORT_IGES
100
AcDbLine
 62
7
  6
CONTINUOUS
 10
1.9426291863
 20
32.8048259021
 11
4.1706174638
 21
32.8048259021
  0
LINE
  5
403
100
AcDbEntity
  8
IMPORT_IGES
100
AcDbLine
 62
7
  6
CONTINUOUS
 10
4.1706174638
 20
33.9476830449
 11
1.9426291863
 21
33.9476830449
  0
LINE
  5
404
100
AcDbEntity
  8
IMPORT_IGES
100
AcDbLine
 62
7
  6
CONTINUOUS
 10
4.1732759151
 20
33.9503374086
 11
1.9458870268
 21
33.9503374086
  0
LWPOLYLINE
  5
405
100
AcDbEntity
  8
IMPORT_IGES
100
AcDbPolyline
 62
7
  6
CONTINUOUS
 90
3
 70
0
 10
-2.2708846084
 20
36.228940068
 10
-2.0983409383
 20
36.2331519239
 10
-1.9246206315
 20
36.2270410539
  0
LWPOLYLINE
  5
406
100
AcDbEntity
  8
IMPORT_IGES
100
AcDbPolyline
 62
7
  6
CONTINUOUS
 90
3
 70
0
 10
-2.2598124427
 20
36.2269269953
 10
-2.0914141172
 20
36.2305977949
 10
-1.9219621802
 20
36.2244448539
  0
LINE
  5
407
100
AcDbEntity
  8
IMPORT_IGES
100
AcDbLine
 62
7
  6
CONTINUOUS
 10
-18.655767452
 20
35.4952745582
 11
-18.6165253934
 21
35.4952745582
  0
LINE
  5
408
100
AcDbEntity
  8
IMPORT_IGES
100
AcDbLine
 62
7
  6
CONTINUOUS
 10
17.3834746066
 20
35.4952745582
 11
17.4234404688
 21
35.4952745582
  0
LWPOLYLINE
  5
409
100
AcDbEntity
  8
IMPORT_IGES
100
AcDbPolyline
 62
7
  6
CONTINUOUS
 90
60
 70
0
 10
-1.9246206315
 20
37.3717167523
 10
-2.1383675918
 20
37.3760531983
 10
-2.3511129713
 20
37.3691020117
 10
-2.5628567697
 20
37.3508631924
 10
-2.7742498596
 20
37.3212622348
 10
-2.9846413684
 20
37.2803736444
 10
-3.1920786795
 20
37.2284209388
 10
-3.3965899628
 20
37.1652239329
 10
-3.5981470482
 20
37.0909628118
 10
-3.7947128094
 20
37.0064016475
 10
-3.9858650141
 20
36.9116782634
 10
-4.1720258944
 20
36.8066548362
 10
-4.3524250202
 20
36.6916819684
 10
-4.5274900095
 20
36.5664928334
 10
-4.6967932442
 20
36.4313542578
 10
-4.8582814406
 20
36.287417324
 10
-5.0117436093
 20
36.1345539567
 10
-5.1573907396
 20
35.9728922312
 10
-5.2938025156
 20
35.8039674562
 10
-5.420901007
 20
35.6277431709
 10
-5.5387641441
 20
35.4442558361
 10
-5.6462054024
 20
35.2551501436
 10
-5.7431189329
 20
35.0602496205
 10
-5.8296105846
 20
34.8597307396
 10
-5.9048113787
 20
34.6557676107
 10
-5.96850916
 20
34.4485525725
 10
-6.0209160837
 20
34.2378932864
 10
-6.0617996376
 20
34.0253868466
 10
-6.0911607726
 20
33.8109434337
 10
-6.1089985377
 20
33.5946528672
 10
-6.115077568
 20
33.3783816998
 10
-6.1092332732
 20
33.162130305
 10
-6.0916302435
 20
32.9458983094
 10
-6.062526885
 20
32.7315511453
 10
-6.0219257818
 20
32.5191862642
 10
-5.9698243496
 20
32.3087062147
 10
-5.9064732423
 20
32.101684075
 10
-5.8316690281
 20
31.8979320459
 10
-5.7456151387
 20
31.6976379266
 10
-5.6491725224
 20
31.5029381935
 10
-5.5422420449
 20
31.3140090698
 10
-5.4249228406
 20
31.1306743322
 10
-5.2983732604
 20
30.9545417877
 10
-5.1625242493
 20
30.7856423732
 10
-5.0174448624
 20
30.6239451516
 10
-4.8645006154
 20
30.4709651187
 10
-4.7034761753
 20
30.3268164157
 10
-4.5345868751
 20
30.1913849013
 10
-4.3598442296
 20
30.0658431478
 10
-4.1796766053
 20
29.9504556437
 10
-3.9936556356
 20
29.8449579004
 10
-3.8025077354
 20
29.7497290244
 10
-3.6058146005
 20
29.6646219484
 10
-3.403994535
 20
29.5897837396
 10
-3.1990288665
 20
29.5260347062
 10
-2.9909306007
 20
29.4735468622
 10
-2.7796867317
 20
29.4321481935
 10
-2.5672395694
 20
29.4021429658
 10
-2.3542365502
 20
29.3836326011
 10
-2.1400302375
 20
29.3765156774
  0
LWPOLYLINE
  5
40A
100
AcDbEntity
  8
IMPORT_IGES
100
AcDbPolyline
 62
7
  6
CONTINUOUS
 90
61
 70
0
 10
-1.9219621802
 20
37.3744470787
 10
-2.1339805321
 20
37.378729751
 10
-2.3446208961
 20
37.3720919467
 10
-2.5538832722
 20
37.354533666
 10
-2.7620808836
 20
37.3260592943
 10
-2.9689005072
 20
37.2866644462
 10
-3.1734024735
 20
37.2363359651
 10
-3.3759038743
 20
37.1749474579
 10
-3.5760876179
 20
37.1026253179
 10
-3.77206276
 20
37.019735568
 10
-3.9639047753
 20
36.9260288044
 10
-4.1515381891
 20
36.821754431
 10
-4.3328456337
 20
36.7080266826
 10
-4.5074605731
 20
36.5850658235
 10
-4.6757495432
 20
36.4526515895
 10
-4.8366947845
 20
36.3112374225
 10
-4.9905898269
 20
36.1603097314
 10
-5.1371411404
 20
36.0003821074
 10
-5.2744503756
 20
35.8334487662
 10
-5.4021434581
 20
35.6598632202
 10
-5.5205944622
 20
35.4792719571
 10
-5.6290272617
 20
35.2926086546
 10
-5.7275769029
 20
35.0993645529
 10
-5.8161083396
 20
34.9000484119
 10
-5.8934403067
 20
34.6971201891
 10
-5.9592668906
 20
34.4909645468
 10
-6.0138940049
 20
34.2811968227
 10
-6.0570581263
 20
34.0691229873
 10
-6.0887742952
 20
33.8543035607
 10
-6.1090274712
 20
33.6371780227
 10
-6.1175090094
 20
33.4203707832
 10
-6.1140330153
 20
33.2043372969
 10
-6.0987853834
 20
32.9886221091
 10
-6.0720151532
 20
32.774483266
 10
-6.033627663
 20
32.5615708423
 10
-5.9837175744
 20
32.3502347632
 10
-5.9228179117
 20
32.1427828503
 10
-5.8508858842
 20
31.9395058807
 10
-5.7679642825
 20
31.7401130772
 10
-5.6747145035
 20
31.5460399296
 10
-5.5709132102
 20
31.3571579758
 10
-5.4567837396
 20
31.1735956778
 10
-5.3336574987
 20
30.997173911
 10
-5.2014981586
 20
30.8280174182
 10
-5.0603420482
 20
30.6660014565
 10
-4.9116295622
 20
30.5125726729
 10
-4.7552553559
 20
30.367904846
 10
-4.591324774
 20
30.2318241971
 10
-4.4215942448
 20
30.1052560369
 10
-4.2466876898
 20
29.9884844064
 10
-4.0659811876
 20
29.8812252646
 10
-3.8793594022
 20
29.7835517991
 10
-3.6869057219
 20
29.69517734
 10
-3.4885367584
 20
29.6163885571
 10
-3.2838870111
 20
29.5481186477
 10
-3.072886457
 20
29.4900576794
 10
-2.8556051191
 20
29.4425155846
 10
-2.6318875657
 20
29.4073553565
 10
-2.4016819861
 20
29.3851979929
 10
-2.1650401909
 20
29.375422496
 10
-1.9219621802
 20
29.3780288659
  0
LWPOLYLINE
  5
40B
100
AcDbEntity
  8
IMPORT_IGES
100
AcDbPolyline
 62
7
  6
CONTINUOUS
 90
60
 70
0
 10
4.9325222257
 20
37.3717167523
 10
4.7187752653
 20
37.3760531983
 10
4.5060298859
 20
37.3691020117
 10
4.2942860874
 20
37.3508631924
 10
4.0828929976
 20
37.3212622348
 10
3.8725014887
 20
37.2803736444
 10
3.6650641776
 20
37.2284209388
 10
3.4605528944
 20
37.1652239329
 10
3.2589958089
 20
37.0909628118
 10
3.0624300478
 20
37.0064016475
 10
2.8712778431
 20
36.9116782634
 10
2.6851169628
 20
36.8066548362
 10
2.5047178369
 20
36.6916819684
 10
2.3296528477
 20
36.5664928334
 10
2.1603496129
 20
36.4313542578
 10
1.9988614166
 20
36.287417324
 10
1.8453992479
 20
36.1345539567
 10
1.6997521176
 20
35.9728922312
 10
1.5633403415
 20
35.8039674562
 10
1.4362418501
 20
35.6277431709
 10
1.318378713
 20
35.4442558361
 10
1.2109374548
 20
35.2551501436
 10
1.1140239242
 20
35.0602496205
 10
1.0275322726
 20
34.8597307396
 10
0.9523314784
 20
34.6557676107
 10
0.8886336972
 20
34.4485525725
 10
0.8362267734
 20
34.2378932864
 10
0.7953432195
 20
34.0253868466
 10
0.7659820845
 20
33.8109434337
 10
0.7481443194
 20
33.5946528672
 10
0.7420652891
 20
33.3783816998
 10
0.747909584
 20
33.162130305
 10
0.7655126136
 20
32.9458983094
 10
0.7946159721
 20
32.7315511453
 10
0.8352170754
 20
32.5191862642
 10
0.8873185075
 20
32.3087062147
 10
0.9506696148
 20
32.101684075
 10
1.025473829
 20
31.8979320459
 10
1.1115277184
 20
31.6976379266
 10
1.2079703348
 20
31.5029381935
 10
1.3149008122
 20
31.3140090698
 10
1.4322200165
 20
31.1306743322
 10
1.5587695968
 20
30.9545417877
 10
1.6946186078
 20
30.7856423731
 10
1.8396979947
 20
30.6239451516
 10
1.9926422417
 20
30.4709651187
 10
2.1536666818
 20
30.3268164157
 10
2.322555982
 20
30.1913849013
 10
2.4972986276
 20
30.0658431478
 10
2.6774662519
 20
29.9504556437
 10
2.8634872216
 20
29.8449579004
 10
3.0546351217
 20
29.7497290244
 10
3.2513282567
 20
29.6646219484
 10
3.4531483221
 20
29.5897837396
 10
3.6581139907
 20
29.5260347062
 10
3.8662122565
 20
29.4735468622
 10
4.0774561254
 20
29.4321481935
 10
4.2899032878
 20
29.4021429658
 10
4.502906307
 20
29.3836326011
 10
4.7171126196
 20
29.3765156774
  0
LWPOLYLINE
  5
40C
100
AcDbEntity
  8
IMPORT_IGES
100
AcDbPolyline
 62
7
  6
CONTINUOUS
 90
61
 70
0
 10
4.935180677
 20
37.3744470787
 10
4.7231623251
 20
37.378729751
 10
4.5125219611
 20
37.3720919467
 10
4.3032595849
 20
37.354533666
 10
4.0950619735
 20
37.3260592943
 10
3.88824235
 20
37.2866644462
 10
3.6837403836
 20
37.2363359651
 10
3.4812389829
 20
37.1749474579
 10
3.2810552393
 20
37.1026253179
 10
3.0850800971
 20
37.019735568
 10
2.8932380819
 20
36.9260288044
 10
2.705604668
 20
36.821754431
 10
2.5242972234
 20
36.7080266826
 10
2.3496822841
 20
36.5850658235
 10
2.1813933139
 20
36.4526515895
 10
2.0204480727
 20
36.3112374225
 10
1.8665530303
 20
36.1603097314
 10
1.7200017167
 20
36.0003821074
 10
1.5826924815
 20
35.8334487662
 10
1.4549993991
 20
35.6598632202
 10
1.336548395
 20
35.4792719571
 10
1.2281155954
 20
35.2926086546
 10
1.1295659542
 20
35.0993645529
 10
1.0410345176
 20
34.9000484119
 10
0.9637025504
 20
34.6971201891
 10
0.8978759666
 20
34.4909645468
 10
0.8432488523
 20
34.2811968227
 10
0.8000847309
 20
34.0691229873
 10
0.768368562
 20
33.8543035606
 10
0.748115386
 20
33.6371780227
 10
0.7396338477
 20
33.4203707832
 10
0.7431098419
 20
33.2043372969
 10
0.7583574737
 20
32.9886221091
 10
0.7851277039
 20
32.774483266
 10
0.8235151942
 20
32.5615708423
 10
0.8734252827
 20
32.3502347632
 10
0.9343249454
 20
32.1427828503
 10
1.006256973
 20
31.9395058807
 10
1.0891785746
 20
31.7401130772
 10
1.1824283536
 20
31.5460399296
 10
1.2862296469
 20
31.3571579758
 10
1.4003591175
 20
31.1735956778
 10
1.5234853584
 20
30.997173911
 10
1.6556446985
 20
30.8280174182
 10
1.7968008089
 20
30.6660014565
 10
1.9455132949
 20
30.5125726729
 10
2.1018875012
 20
30.367904846
 10
2.2658180832
 20
30.2318241971
 10
2.4355486123
 20
30.1052560369
 10
2.6104551673
 20
29.9884844064
 10
2.7911616696
 20
29.8812252646
 10
2.977783455
 20
29.7835517991
 10
3.1702371353
 20
29.69517734
 10
3.3686060987
 20
29.6163885571
 10
3.573255846
 20
29.5481186477
 10
3.7842564001
 20
29.4900576794
 10
4.001537738
 20
29.4425155846
 10
4.2252552915
 20
29.4073553565
 10
4.4554608711
 20
29.3851979929
 10
4.6921026663
 20
29.375422496
 10
4.935180677
 20
29.3780288659
  0
LWPOLYLINE
  5
40D
100
AcDbEntity
  8
IMPORT_IGES
100
AcDbPolyline
 62
7
  6
CONTINUOUS
 90
25
 70
0
 10
4.935180677
 20
36.2244469065
 10
4.7638399582
 20
36.2305894969
 10
4.5937859892
 20
36.2267597235
 10
4.4250187701
 20
36.2129575863
 10
4.2569688367
 20
36.1890657693
 10
4.0902056531
 20
36.1552015884
 10
3.926437612
 20
36.1117169917
 10
3.7658152716
 20
36.0585674483
 10
3.6081880737
 20
35.995797489
 10
3.4548127363
 20
35.9238926548
 10
3.3054509921
 20
35.8426393084
 10
3.1603411084
 20
35.752251087
 10
3.0214546048
 20
35.653854443
 10
2.8891333464
 20
35.5475601076
 10
2.7630354682
 20
35.4332573496
 10
2.6441068944
 20
35.3117404278
 10
2.5321480234
 20
35.1826751039
 10
2.4273584568
 20
35.0463956162
 10
2.3312829236
 20
34.9046989384
 10
2.244252143
 20
34.7579623738
 10
2.1659353956
 20
34.6058086192
 10
2.0968852532
 20
34.448902739
 10
2.0372859062
 20
34.2874664212
 10
1.986953164
 20
34.1212779777
 10
1.9458870268
 20
33.9503374086
  0
LWPOLYLINE
  5
40E
100
AcDbEntity
  8
IMPORT_IGES
100
AcDbPolyline
 62
250
  6
CONTINUOUS
 90
31
 70
0
 10
-18.0519516545
 20
46.9116616962
 10
-18.0658241987
 20
46.9114681479
 10
-18.0803454305
 20
46.9108526456
 10
-18.0955006071
 20
46.9097581855
 10
-18.1112568129
 20
46.908127485
 10
-18.1276063647
 20
46.9058989375
 10
-18.1445657837
 20
46.90300207
 10
-18.162102198
 20
46.8993687886
 10
-18.180178227
 20
46.8949296047
 10
-18.1987935253
 20
46.8896009564
 10
-18.2178921066
 20
46.8833085631
 10
-18.2374188725
 20
46.8759756385
 10
-18.2573600377
 20
46.8675031757
 10
-18.2776269435
 20
46.8578155703
 10
-18.2981421494
 20
46.846830003
 10
-18.3188859287
 20
46.8344216346
 10
-18.3397261586
 20
46.8205191838
 10
-18.3605529913
 20
46.8050351405
 10
-18.3813417567
 20
46.7877980748
 10
-18.4019158175
 20
46.7687339732
 10
-18.4220976342
 20
46.7477669866
 10
-18.4418005746
 20
46.7246986186
 10
-18.4607708326
 20
46.6994826136
 10
-18.4787578816
 20
46.672065988
 10
-18.4955899531
 20
46.6422245363
 10
-18.5109172032
 20
46.6099677141
 10
-18.5243867151
 20
46.5753092823
 10
-18.5356923407
 20
46.5380397502
 10
-18.5443884417
 20
46.4981705361
 10
-18.5499639227
 20
46.4559682431
 10
-18.551932616
 20
46.4116807347
  0
LINE
  5
40F
100
AcDbEntity
  8
IMPORT_IGES
100
AcDbLine
 62
250
  6
CONTINUOUS
 10
-18.0519516545
 20
46.4985048235
 11
16.8189008678
 21
46.4985048235
  0
LINE
  5
410
100
AcDbEntity
  8
IMPORT_IGES
100
AcDbLine
 62
7
  6
CONTINUOUS
 10
16.8189008678
 20
46.9116616962
 11
-18.0519516545
 21
46.9116616962
  0
LINE
  5
411
100
AcDbEntity
  8
IMPORT_IGES
100
AcDbLine
 62
7
  6
CONTINUOUS
 10
-18.1165444318
 20
46.9762544735
 11
16.8834936451
 21
46.9762544735
  0
LWPOLYLINE
  5
412
100
AcDbEntity
  8
IMPORT_IGES
100
AcDbPolyline
 62
250
  6
CONTINUOUS
 90
19
 70
0
 10
16.8189008678
 20
46.4985048235
 10
16.8623152122
 20
46.4981121197
 10
16.905381382
 20
46.4970672039
 10
16.9477750788
 20
46.4953788802
 10
16.9891743738
 20
46.4930610043
 10
17.029272723
 20
46.4901317975
 10
17.0677800576
 20
46.4866131823
 10
17.1044085558
 20
46.4825319208
 10
17.1388834835
 20
46.4779191107
 10
17.1709534859
 20
46.4728086748
 10
17.2003777304
 20
46.4672390371
 10
17.226935282
 20
46.4612520691
 10
17.2504311712
 20
46.4548914593
 10
17.2706867306
 20
46.4482049468
 10
17.2875482984
 20
46.4412425274
 10
17.3008901011
 20
46.4340545707
 10
17.3106076694
 20
46.4266942978
 10
17.3166216656
 20
46.4192175923
 10
17.3188818293
 20
46.4116807347
  0
ARC
  5
413
100
AcDbEntity
  8
IMPORT_IGES
100
AcDbCircle
 62
7
  6
CONTINUOUS
 10
-0.6165253934
 20
-25.2237455265
 40
1.5
100
AcDbArc
 50
229.9999999999
 51
270.0000000001
  0
ARC
  5
414
100
AcDbEntity
  8
IMPORT_IGES
100
AcDbCircle
 62
7
  6
CONTINUOUS
 10
-0.6165253934
 20
-25.2237455265
 40
1.4589837214
100
AcDbArc
 50
229.9999999997
 51
270.0000000003
  0
ARC
  5
415
100
AcDbEntity
  8
IMPORT_IGES
100
AcDbCircle
 62
7
  6
CONTINUOUS
 10
-3.1165253934
 20
-30.7237455265
 40
1.0
100
AcDbArc
 50
90.0
 51
270.0
  0
ARC
  5
416
100
AcDbEntity
  8
IMPORT_IGES
100
AcDbCircle
 62
7
  6
CONTINUOUS
 10
-3.1165253934
 20
-30.7237455265
 40
0.9716376797
100
AcDbArc
 50
90.0000000001
 51
269.9999999999
  0
ARC
  5
417
100
AcDbEntity
  8
IMPORT_IGES
100
AcDbCircle
 62
7
  6
CONTINUOUS
 10
-0.6165253934
 20
-19.0156279916
 40
0.75
100
AcDbArc
 50
0.0
 51
180.0
  0
ARC
  5
418
100
AcDbEntity
  8
IMPORT_IGES
100
AcDbCircle
 62
7
  6
CONTINUOUS
 10
-0.6165253934
 20
-19.0156279916
 40
0.7216376797
100
AcDbArc
 50
0.0000000002
 51
179.9999999998
  0
ELLIPSE
  5
419
100
AcDbEntity
  8
IMPORT_IGES
100
AcDbEllipse
 62
7
  6
CONTINUOUS
 10
3.8834174891
 20
-45.4736884089
 30
0.0
 11
1.0607409467
 21
-1.0607409467
 31
0.0
 40
0.9999238505
 41
-0.7853600872
 42
0.7853600872
  0
ELLIPSE
  5
41A
100
AcDbEntity
  8
IMPORT_IGES
100
AcDbEllipse
 62
7
  6
CONTINUOUS
 10
-5.1164682758
 20
-45.4736884089
 30
0.0
 11
1.0607409467
 21
1.0607409467
 31
0.0
 40
0.9999238505
 41
-3.9269527408
 42
-2.3562325664
  0
ELLIPSE
  5
41B
100
AcDbEntity
  8
IMPORT_IGES
100
AcDbEllipse
 62
7
  6
CONTINUOUS
 10
-4.3165139698
 20
-17.5656394151
 30
0.0
 11
0.2121481893
 21
-0.2121481893
 31
0.0
 40
0.9999238505
 41
2.3562325664
 42
3.9269527408
  0
ELLIPSE
  5
41C
100
AcDbEntity
  8
IMPORT_IGES
100
AcDbEllipse
 62
7
  6
CONTINUOUS
 10
-4.3165139698
 20
-21.7274493775
 30
0.0
 11
0.2719049405
 21
0.1267913561
 31
0.0
 40
0.9999536441
 41
2.7052780961
 42
3.5779072111
  0
ELLIPSE
  5
41D
100
AcDbEntity
  8
IMPORT_IGES
100
AcDbEllipse
 62
7
  6
CONTINUOUS
 10
3.0834631831
 20
-24.923734103
 30
0.0
 11
0.2121481893
 21
-0.2121481893
 31
0.0
 40
0.9999238505
 41
-0.7853600872
 42
0.7853600872
  0
ELLIPSE
  5
41E
100
AcDbEntity
  8
IMPORT_IGES
100
AcDbEllipse
 62
7
  6
CONTINUOUS
 10
3.0834631831
 20
-17.5656394151
 30
0.0
 11
0.2121481893
 21
0.2121481893
 31
0.0
 40
0.9999238505
 41
-0.7853600872
 42
0.7853600872
  0
ELLIPSE
  5
41F
100
AcDbEntity
  8
IMPORT_IGES
100
AcDbEllipse
 62
7
  6
CONTINUOUS
 10
3.0834631831
 20
-32.02375695
 30
0.0
 11
0.2121481893
 21
0.2121481893
 31
0.0
 40
0.9999238505
 41
-0.7853600872
 42
0.7853600872
  0
ELLIPSE
  5
420
100
AcDbEntity
  8
IMPORT_IGES
100
AcDbEllipse
 62
7
  6
CONTINUOUS
 10
3.0834631831
 20
-45.023734103
 30
0.0
 11
0.2121481893
 21
-0.2121481893
 31
0.0
 40
0.9999238505
 41
-0.7853600872
 42
0.7853600872
  0
ELLIPSE
  5
421
100
AcDbEntity
  8
IMPORT_IGES
100
AcDbEllipse
 62
7
  6
CONTINUOUS
 10
-4.3165139698
 20
-45.023734103
 30
0.0
 11
0.2121481893
 21
0.2121481893
 31
0.0
 40
0.9999238505
 41
2.3562325664
 42
3.9269527408
  0
ELLIPSE
  5
422
100
AcDbEntity
  8
IMPORT_IGES
100
AcDbEllipse
 62
7
  6
CONTINUOUS
 10
3.0834631831
 20
-27.02375695
 30
0.0
 11
0.2121481893
 21
0.2121481893
 31
0.0
 40
0.9999238505
 41
-0.7853600872
 42
0.7853600872
  0
ELLIPSE
  5
423
100
AcDbEntity
  8
IMPORT_IGES
100
AcDbEllipse
 62
7
  6
CONTINUOUS
 10
3.0834631831
 20
-29.423734103
 30
0.0
 11
0.2121481893
 21
-0.2121481893
 31
0.0
 40
0.9999238505
 41
-0.7853600872
 42
0.7853600872
  0
ELLIPSE
  5
424
100
AcDbEntity
  8
IMPORT_IGES
100
AcDbEllipse
 62
7
  6
CONTINUOUS
 10
3.8424012104
 20
-45.4326721303
 30
0.0
 11
1.0607409467
 21
-1.0607409467
 31
0.0
 40
0.9999238505
 41
-0.7853600872
 42
0.7853600872
  0
ELLIPSE
  5
425
100
AcDbEntity
  8
IMPORT_IGES
100
AcDbEllipse
 62
7
  6
CONTINUOUS
 10
-5.0754519972
 20
-45.4326721303
 30
0.0
 11
-1.0607409467
 21
-1.0607409467
 31
0.0
 40
0.9999238505
 41
-0.7853600872
 42
0.7853600872
  0
ELLIPSE
  5
426
100
AcDbEntity
  8
IMPORT_IGES
100
AcDbEllipse
 62
7
  6
CONTINUOUS
 10
3.0834631831
 20
-16.9246002895
 30
0.0
 11
0.2121481893
 21
-0.2121481893
 31
0.0
 40
0.9999238505
 41
-0.7853600872
 42
0.7853600872
  0
ELLIPSE
  5
427
100
AcDbEntity
  8
IMPORT_IGES
100
AcDbEllipse
 62
7
  6
CONTINUOUS
 10
3.0747363153
 20
-16.9158734217
 30
0.0
 11
0.2121481893
 21
-0.2121481893
 31
0.0
 40
0.9999238505
 41
-0.7853600872
 42
0.7853600872
  0
ELLIPSE
  5
428
100
AcDbEntity
  8
IMPORT_IGES
100
AcDbEllipse
 62
7
  6
CONTINUOUS
 10
-4.3575302485
 20
-21.7465755823
 30
0.0
 11
0.2719049405
 21
0.1267913561
 31
0.0
 40
0.9999536441
 41
2.7052780961
 42
3.5779072111
  0
ELLIPSE
  5
429
100
AcDbEntity
  8
IMPORT_IGES
100
AcDbEllipse
 62
7
  6
CONTINUOUS
 10
3.1244794617
 20
-24.9647503816
 30
0.0
 11
-0.2121481893
 21
0.2121481893
 31
0.0
 40
0.9999238505
 41
2.3562325664
 42
3.9269527408
  0
ELLIPSE
  5
42A
100
AcDbEntity
  8
IMPORT_IGES
100
AcDbEllipse
 62
7
  6
CONTINUOUS
 10
3.1244794617
 20
-17.5246231365
 30
0.0
 11
-0.2121481893
 21
-0.2121481893
 31
0.0
 40
0.9999238505
 41
2.3562325664
 42
3.9269527408
  0
ELLIPSE
  5
42B
100
AcDbEntity
  8
IMPORT_IGES
100
AcDbEllipse
 62
7
  6
CONTINUOUS
 10
-4.3077871021
 20
-16.9158734217
 30
0.0
 11
0.2121481893
 21
0.2121481893
 31
0.0
 40
0.9999238505
 41
2.3562325664
 42
3.9269527408
  0
ELLIPSE
  5
42C
100
AcDbEntity
  8
IMPORT_IGES
100
AcDbEllipse
 62
7
  6
CONTINUOUS
 10
3.1118255034
 20
-31.9953946297
 30
0.0
 11
-0.2121481893
 21
-0.2121481893
 31
0.0
 40
0.9999238505
 41
2.3562325664
 42
3.9269527408
  0
ELLIPSE
  5
42D
100
AcDbEntity
  8
IMPORT_IGES
100
AcDbEllipse
 62
7
  6
CONTINUOUS
 10
3.1244794617
 20
-45.0647503816
 30
0.0
 11
-0.2121481893
 21
0.2121481893
 31
0.0
 40
0.9999238505
 41
2.3562325664
 42
3.9269527408
  0
ELLIPSE
  5
42E
100
AcDbEntity
  8
IMPORT_IGES
100
AcDbEllipse
 62
7
  6
CONTINUOUS
 10
-4.3575302485
 20
-45.0647503816
 30
0.0
 11
0.2121481893
 21
0.2121481893
 31
0.0
 40
0.9999238505
 41
2.3562325664
 42
3.9269527408
  0
ELLIPSE
  5
42F
100
AcDbEntity
  8
IMPORT_IGES
100
AcDbEllipse
 62
7
  6
CONTINUOUS
 10
3.1244794617
 20
-26.9827406714
 30
0.0
 11
-0.2121481893
 21
-0.2121481893
 31
0.0
 40
0.9999238505
 41
2.3562325664
 42
3.9269527408
  0
ELLIPSE
  5
430
100
AcDbEntity
  8
IMPORT_IGES
100
AcDbEllipse
 62
7
  6
CONTINUOUS
 10
3.1118255034
 20
-29.4520964233
 30
0.0
 11
-0.2121481893
 21
0.2121481893
 31
0.0
 40
0.9999238505
 41
2.3562325664
 42
3.9269527408
  0
ELLIPSE
  5
431
100
AcDbEntity
  8
IMPORT_IGES
100
AcDbEllipse
 62
7
  6
CONTINUOUS
 10
16.8060601701
 20
17.2460636845
 30
0.0
 11
0.4873364861
 21
0.1155608309
 31
0.0
 40
0.9675233235
 41
-1.8021167691
 42
-0.2401977321
  0
ELLIPSE
  5
432
100
AcDbEntity
  8
IMPORT_IGES
100
AcDbEllipse
 62
7
  6
CONTINUOUS
 10
16.8834555674
 20
46.4762354343
 30
0.0
 11
0.3535803156
 21
0.3535803156
 31
0.0
 40
0.9999238505
 41
-0.7853600872
 42
0.7853600872
  0
ELLIPSE
  5
433
100
AcDbEntity
  8
IMPORT_IGES
100
AcDbEllipse
 62
7
  6
CONTINUOUS
 10
-18.1165063542
 20
46.4762354343
 30
0.0
 11
-0.3535803156
 21
0.3535803156
 31
0.0
 40
0.9999238505
 41
-0.7853600872
 42
0.7853600872
  0
ELLIPSE
  5
434
100
AcDbEntity
  8
IMPORT_IGES
100
AcDbEllipse
 62
7
  6
CONTINUOUS
 10
-18.0391109568
 20
17.2460636845
 30
0.0
 11
0.4873364861
 21
-0.1155608309
 31
0.0
 40
0.9675233235
 41
-2.9013949215
 42
-1.3394758845
  0
ELLIPSE
  5
435
100
AcDbEntity
  8
IMPORT_IGES
100
AcDbEllipse
 62
7
  6
CONTINUOUS
 10
-5.9750144468
 20
-23.8730203057
 30
0.0
 11
0.3535803156
 21
0.3535803156
 31
0.0
 40
0.9999238505
 41
-0.7853600872
 42
0.7853600872
  0
ELLIPSE
  5
436
100
AcDbEntity
  8
IMPORT_IGES
100
AcDbEllipse
 62
7
  6
CONTINUOUS
 10
-5.9750144467
 20
-36.8729822273
 30
0.0
 11
0.3535803156
 21
-0.3535803156
 31
0.0
 40
0.9999238505
 41
-0.7853600872
 42
0.7853600872
  0
ELLIPSE
  5
437
100
AcDbEntity
  8
IMPORT_IGES
100
AcDbEllipse
 62
7
  6
CONTINUOUS
 10
4.74196366
 20
-23.8730203057
 30
0.0
 11
0.3535803156
 21
-0.3535803156
 31
0.0
 40
0.9999238505
 41
2.3562325664
 42
3.9269527408
  0
ELLIPSE
  5
438
100
AcDbEntity
  8
IMPORT_IGES
100
AcDbEllipse
 62
7
  6
CONTINUOUS
 10
4.74196366
 20
-36.8729822273
 30
0.0
 11
0.3535803156
 21
0.3535803156
 31
0.0
 40
0.9999238505
 41
-3.9269527408
 42
-2.3562325664
  0
ELLIPSE
  5
439
100
AcDbEntity
  8
IMPORT_IGES
100
AcDbEllipse
 62
7
  6
CONTINUOUS
 10
16.8834555674
 20
-42.5237264873
 30
0.0
 11
0.3535803156
 21
-0.3535803156
 31
0.0
 40
0.9999238505
 41
-0.7853600872
 42
0.7853600872
  0
ELLIPSE
  5
43A
100
AcDbEntity
  8
IMPORT_IGES
100
AcDbEllipse
 62
7
  6
CONTINUOUS
 10
-18.1165063542
 20
-42.5237264873
 30
0.0
 11
0.3535803156
 21
0.3535803156
 31
0.0
 40
0.9999238505
 41
-3.9269527408
 42
-2.3562325664
  0
ELLIPSE
  5
43B
100
AcDbEntity
  8
IMPORT_IGES
100
AcDbEllipse
 62
7
  6
CONTINUOUS
 10
14.2748232382
 20
22.6203653975
 30
0.0
 11
0.0
 21
2.8356409098
 31
0.0
 40
0.1763269807
 41
-3.7935816877
 42
-3.1415926536
  0
ELLIPSE
  5
43C
100
AcDbEntity
  8
IMPORT_IGES
100
AcDbEllipse
 62
7
  6
CONTINUOUS
 10
13.7730894604
 20
20.2795513492
 30
0.0
 11
-0.0
 21
0.5
 31
0.0
 40
0.0174550649
 41
-3.1328660073
 42
-2.9326949727
  0
ELLIPSE
  5
43D
100
AcDbEntity
  8
IMPORT_IGES
100
AcDbEllipse
 62
7
  6
CONTINUOUS
 10
-15.0061402471
 20
20.2795513492
 30
0.0
 11
0.0
 21
0.5
 31
0.0
 40
0.0174550649
 41
-3.3504903345
 42
-3.1503192999
  0
ELLIPSE
  5
43E
100
AcDbEntity
  8
IMPORT_IGES
100
AcDbEllipse
 62
7
  6
CONTINUOUS
 10
-15.5078740249
 20
22.6203653975
 30
0.0
 11
-0.0
 21
2.8356409098
 31
0.0
 40
0.1763269807
 41
-3.1415926536
 42
-2.4896036195
  0
ELLIPSE
  5
43F
100
AcDbEntity
  8
IMPORT_IGES
100
AcDbEllipse
 62
7
  6
CONTINUOUS
 10
16.8363304814
 20
19.7218910396
 30
0.0
 11
0.5
 21
-0.0
 31
0.0
 40
0.0087268678
 41
0.0969161025
 42
0.2429856623
  0
ELLIPSE
  5
440
100
AcDbEntity
  8
IMPORT_IGES
100
AcDbEllipse
 62
7
  6
CONTINUOUS
 10
-18.0693812681
 20
19.7218910396
 30
0.0
 11
0.5
 21
0.0
 31
0.0
 40
0.0087268678
 41
2.898508523
 42
3.0450060729
  0
ELLIPSE
  5
441
100
AcDbEntity
  8
IMPORT_IGES
100
AcDbEllipse
 62
7
  6
CONTINUOUS
 10
5.9834936458
 20
-18.2737645657
 30
0.0
 11
0.3535803156
 21
-0.3535803156
 31
0.0
 40
0.9999238505
 41
2.3562325664
 42
3.9269527408
  0
ELLIPSE
  5
442
100
AcDbEntity
  8
IMPORT_IGES
100
AcDbEllipse
 62
7
  6
CONTINUOUS
 10
-7.2165444326
 20
-18.2737645657
 30
0.0
 11
0.3535803156
 21
0.3535803156
 31
0.0
 40
0.9999238505
 41
-0.7853600872
 42
0.7853600872
  0
ENDSEC
  0
SECTION
  2
OBJECTS
  0
DICTIONARY
  5
C
100
AcDbDictionary
280
0
281
1
  3
ACAD_GROUP
350
D
  3
ACAD_MLINESTYLE
350
17
  3
ACAD_LAYOUT
350
1A
  3
ACAD_PLOTSETTINGS
350
19
  3
ACAD_PLOTSTYLENAME
350
E
  0
DICTIONARY
  5
D
102
{ACAD_REACTORS
330
C
102
}
100
AcDbDictionary
280
0
281
1
  0
ACDBDICTIONARYWDFLT
  5
E
102
{ACAD_REACTORS
330
C
102
}
100
AcDbDictionary
281
1
  3
Normal
350
F
100
AcDbDictionaryWithDefault
340
F
  0
DICTIONARY
  5
17
102
{ACAD_REACTORS
330
C
102
}
100
AcDbDictionary
280
0
281
1
  3
Standard
350
18
  0
DICTIONARY
  5
19
102
{ACAD_REACTORS
330
C
102
}
100
AcDbDictionary
281
1
  0
DICTIONARY
  5
1A
102
{ACAD_REACTORS
330
C
102
}
100
AcDbDictionary
281
1
  3
Model
350
443
  3
Layout1
350
444
  0
ACDBPLACEHOLDER
  5
F
102
{ACAD_REACTORS
330
E
102
}
  0
MLINESTYLE
  5
18
102
{ACAD_REACTORS
330
17
102
}
100
AcDbMlineStyle
  2
STANDARD
 70
0
  3

 62
256
 51
90.0
 52
90.0
 71
2
 49
0.5
 62
256
  6
BYLAYER
 49
-0.5
 62
256
  6
BYLAYER
  0
LAYOUT
  5
443
102
{ACAD_REACTORS
330
1A
102
}
100
AcDbPlotSettings
  1

  2
none_device
  4
ISO_A4_(297.00_x_210.00_MM)
  6

 40
0.0
 41
0.0
 42
0.0
 43
0.0
 44
297.0
 45
210.0
 46
0.0
 47
0.0
 48
0.0
 49
0.0
140
0.0
141
0.0
142
1.0
143
1.0
 70
1024
 72
1
 73
0
 74
0
  7

 75
0
147
1.0
148
0.0
149
0.0
100
AcDbLayout
  1
Model
 70
0
 71
0
 10
0.0
 20
0.0
 11
297.0
 21
210.0
 12
0.0
 22
0.0
 32
0.0
 14
0.0
 24
0.0
 34
0.0
 15
0.0
 25
0.0
 35
0.0
146
0.0
 13
0.0
 23
0.0
 33
0.0
 16
1.0
 26
0.0
 36
0.0
 17
0.0
 27
1.0
 37
0.0
 76
0
330
21E
345
0
346
0
  0
LAYOUT
  5
444
102
{ACAD_REACTORS
330
1A
102
}
100
AcDbPlotSettings
  1

  2
none_device
  4
ISO_A4_(297.00_x_210.00_MM)
  6

 40
0.0
 41
0.0
 42
0.0
 43
0.0
 44
297.0
 45
210.0
 46
0.0
 47
0.0
 48
0.0
 49
0.0
140
0.0
141
0.0
142
1.0
143
1.0
 70
0
 72
1
 73
0
 74
0
  7

 75
0
147
1.0
148
0.0
149
0.0
100
AcDbLayout
  1
Layout1
 70
0
 71
1
 10
0.0
 20
0.0
 11
297.0
 21
210.0
 12
0.0
 22
0.0
 32
0.0
 14
0.0
 24
0.0
 34
0.0
 15
0.0
 25
0.0
 35
0.0
146
0.0
 13
0.0
 23
0.0
 33
0.0
 16
1.0
 26
0.0
 36
0.0
 17
0.0
 27
1.0
 37
0.0
 76
0
330
21F
345
0
346
0
  0
ENDSEC
  0
EOF
