  0
SECTION
  2
HEADER
  9
$ACADVER
  1
AC1015
  9
$DWGCODEPAGE
  3
ANSI_1252
  9
$EXTMAX
 10
297.0
 20
210.0
 30
0.0
  9
$EXTMIN
 10
0.0
 20
0.0
 30
0.0
  9
$LIMMIN
 10
0.0
 20
0.0
  9
$LIMMAX
 10
297.0
 20
210.0
  9
$VIEWCTR
 10
148.5
 20
105.0
  9
$VIEWSIZE
 40
210.0
  9
$CLAYER
  8
0
  9
$LTSCALE
 40
16.335
  9
$CELTYPE
  6
BYLAYER
  9
$DIMSCALE
 40
1.0
  9
$DIMASZ
 40
3.0
  9
$DIMEXO
 40
0.5
  9
$DIMDLI
 40
11.286
  9
$DIMEXE
 40
1.5
  9
$DIMCEN
 40
2.673
  9
$DIMLFAC
 40
1.0
  9
$DIMBLK
  1
_FILLED
  9
$DIMTXT
 40
3.0
  9
$DIMTOL
 70
1
  9
$DIMLIM
 70
0
  9
$DIMTFAC
 40
1.0
  9
$DIMTP
 40
0.01
  9
$DIMTM
 40
0.01
  9
$DIMGAP
 40
0.625
  9
$DIMDSEP
 70
44
  9
$PDMODE
 70
3
  9
$PDSIZE
 40
3.0
  9
$HANDSEED
  5
282
  9
$TILEMODE
 70
1
  9
$MEASUREMENT
 70
1
  9
$INSUNITS
 70
4
  0
ENDSEC
  0
SECTION
  2
CLASSES
  0
CLASS
  1
ACDBDICTIONARYWDFLT
  2
AcDbDictionaryWithDefault
  3
AutoCAD 2000
 90
0
280
0
281
0
  0
CLASS
  1
ACDBPLACEHOLDER
  2
AcDbPlaceHolder
  3
AutoCAD 2000
 90
0
280
0
281
0
  0
CLASS
  1
LAYOUT
  2
AcDbLayout
  3
AutoCAD 2000
 90
0
280
0
281
0
  0
ENDSEC
  0
SECTION
  2
TABLES
  0
TABLE
  2
VPORT
  5
8
100
AcDbSymbolTable
 70
2
  0
VPORT
  5
1F4
100
AcDbSymbolTableRecord
100
AcDbViewportTableRecord
  2
*ACTIVE
 70
0
 10
0.0
 20
0.0
 11
1.0
 21
1.0
 12
148.5
 22
105.0
 13
0.0
 23
0.0
 14
1.0
 24
1.0
 15
0.0
 25
0.0
 16
0.0
 26
0.0
 36
1.0
 17
0.0
 27
0.0
 37
0.0
 40
210.0
 41
1.4142857143
 42
50.0
 43
0.0
 44
0.0
 50
0.0
 51
0.0
 71
0
 72
100
 73
1
 74
1
 75
0
 76
0
 77
0
 78
0
  0
ENDTAB
  0
TABLE
  2
LTYPE
  5
5
100
AcDbSymbolTable
 70
6
  0
LTYPE
  5
14
100
AcDbSymbolTableRecord
100
AcDbLinetypeTableRecord
  2
BYBLOCK
 70
0
  3

 72
65
 73
0
 40
0.0
  0
LTYPE
  5
15
100
AcDbSymbolTableRecord
100
AcDbLinetypeTableRecord
  2
BYLAYER
 70
0
  3

 72
65
 73
0
 40
0.0
  0
LTYPE
  5
16
100
AcDbSymbolTableRecord
100
AcDbLinetypeTableRecord
  2
CONTINUOUS
 70
64
  3
Solid line
 72
65
 73
0
 40
0.0
  0
LTYPE
  5
1F5
100
AcDbSymbolTableRecord
100
AcDbLinetypeTableRecord
  2
CENTER
 70
64
  3
____ _ ____ _ ____ _ ____ _ ____ _ ____ _ ____
 72
65
 73
4
 40
0.6
 49
0.375
 74
0
 49
-0.075
 74
0
 49
0.075
 74
0
 49
-0.075
 74
0
  0
LTYPE
  5
1F6
100
AcDbSymbolTableRecord
100
AcDbLinetypeTableRecord
  2
HIDDEN
 70
64
  3
- - - - - - - - - - - - - - - - - - - -
 72
65
 73
2
 40
0.2
 49
0.1
 74
0
 49
-0.1
 74
0
  0
LTYPE
  5
1F7
100
AcDbSymbolTableRecord
100
AcDbLinetypeTableRecord
  2
PHANTOM
 70
64
  3
_____ _ _ _____ _ _ _____ _ _ _____
 72
65
 73
6
 40
0.8
 49
0.45
 74
0
 49
-0.05
 74
0
 49
0.1
 74
0
 49
-0.05
 74
0
 49
0.1
 74
0
 49
-0.05
 74
0
  0
LTYPE
  5
1F8
100
AcDbSymbolTableRecord
100
AcDbLinetypeTableRecord
  2
DOT
 70
64
  3
. . . . . . . . . . . . . . . . . . . .
 72
65
 73
2
 40
0.2
 49
0.1
 74
0
 49
-0.1
 74
0
  0
LTYPE
  5
1F9
100
AcDbSymbolTableRecord
100
AcDbLinetypeTableRecord
  2
DASHED
 70
64
  3
- - - - - - - - - - - - - - - - - - - -
 72
65
 73
2
 40
0.2
 49
0.1
 74
0
 49
-0.1
 74
0
  0
ENDTAB
  0
TABLE
  2
LAYER
  5
2
100
AcDbSymbolTable
 70
36
  0
LAYER
  5
10
100
AcDbSymbolTableRecord
100
AcDbLayerTableRecord
  2
0
 70
0
 62
7
  6
CONTINUOUS
370
-3
390
F
  0
LAYER
  5
1FA
100
AcDbSymbolTableRecord
100
AcDbLayerTableRecord
  2
DEFAULT_1
 70
0
 62
7
  6
CENTER
370
-3
390
F
  0
LAYER
  5
1FB
100
AcDbSymbolTableRecord
100
AcDbLayerTableRecord
  2
DEFAULT_2
 70
0
 62
7
  6
HIDDEN
370
-3
390
F
  0
LAYER
  5
1FC
100
AcDbSymbolTableRecord
100
AcDbLayerTableRecord
  2
DEFAULT_3
 70
0
 62
7
  6
PHANTOM
370
-3
390
F
  0
LAYER
  5
1FD
100
AcDbSymbolTableRecord
100
AcDbLayerTableRecord
  2
ASSI
 70
0
 62
7
  6
CONTINUOUS
370
-3
390
F
  0
LAYER
  5
1FE
100
AcDbSymbolTableRecord
100
AcDbLayerTableRecord
  2
COORDINATE
 70
0
 62
7
  6
CONTINUOUS
370
-3
390
F
  0
LAYER
  5
1FF
100
AcDbSymbolTableRecord
100
AcDbLayerTableRecord
  2
COPY_PUBLISH
 70
0
 62
7
  6
CONTINUOUS
370
-3
390
F
  0
LAYER
  5
200
100
AcDbSymbolTableRecord
100
AcDbLayerTableRecord
  2
COSMETICI
 70
0
 62
7
  6
CONTINUOUS
370
-3
390
F
  0
LAYER
  5
201
100
AcDbSymbolTableRecord
100
AcDbLayerTableRecord
  2
CURVE
 70
0
 62
7
  6
CONTINUOUS
370
-3
390
F
  0
LAYER
  5
202
100
AcDbSymbolTableRecord
100
AcDbLayerTableRecord
  2
DRAFT
 70
0
 62
7
  6
CONTINUOUS
370
-3
390
F
  0
LAYER
  5
203
100
AcDbSymbolTableRecord
100
AcDbLayerTableRecord
  2
IMPORT_IGES
 70
0
 62
7
  6
CONTINUOUS
370
-3
390
F
  0
LAYER
  5
204
100
AcDbSymbolTableRecord
100
AcDbLayerTableRecord
  2
NOTE
 70
0
 62
7
  6
CONTINUOUS
370
-3
390
F
  0
LAYER
  5
205
100
AcDbSymbolTableRecord
100
AcDbLayerTableRecord
  2
PIANI
 70
0
 62
7
  6
CONTINUOUS
370
-3
390
F
  0
LAYER
  5
206
100
AcDbSymbolTableRecord
100
AcDbLayerTableRecord
  2
PUNTI
 70
0
 62
7
  6
CONTINUOUS
370
-3
390
F
  0
LAYER
  5
207
100
AcDbSymbolTableRecord
100
AcDbLayerTableRecord
  2
RACCORDO
 70
0
 62
7
  6
CONTINUOUS
370
-3
390
F
  0
LAYER
  5
208
100
AcDbSymbolTableRecord
100
AcDbLayerTableRecord
  2
SIMBOLI
 70
0
 62
7
  6
CONTINUOUS
370
-3
390
F
  0
LAYER
  5
209
100
AcDbSymbolTableRecord
100
AcDbLayerTableRecord
  2
SMUSSO
 70
0
 62
7
  6
CONTINUOUS
370
-3
390
F
  0
LAYER
  5
20A
100
AcDbSymbolTableRecord
100
AcDbLayerTableRecord
  2
SNAPLINE
 70
0
 62
7
  6
CONTINUOUS
370
-3
390
F
  0
LAYER
  5
20B
100
AcDbSymbolTableRecord
100
AcDbLayerTableRecord
  2
SUPERFICI
 70
0
 62
7
  6
CONTINUOUS
370
-3
390
F
  0
LAYER
  5
20C
100
AcDbSymbolTableRecord
100
AcDbLayerTableRecord
  2
TRASH
 70
0
 62
7
  6
CONTINUOUS
370
-3
390
F
  0
ENDTAB
  0
TABLE
  2
STYLE
  5
3
100
AcDbSymbolTable
 70
1
  0
STYLE
  5
11
100
AcDbSymbolTableRecord
100
AcDbTextStyleTableRecord
  2
STANDARD
 70
0
 40
0.0
 41
0.8
 50
0.0
 71
0
 42
0.2
  3
txt
  4

  0
STYLE
  5
20D
100
AcDbSymbolTableRecord
100
AcDbTextStyleTableRecord
  2
TEXTSTYLE_1
 70
0
 40
0.0
 41
0.8
 50
0.0
 71
0
 42
0.2
  3
gdt
  4

  0
ENDTAB
  0
TABLE
  2
VIEW
  5
6
100
AcDbSymbolTable
 70
0
  0
ENDTAB
  0
TABLE
  2
UCS
  5
7
100
AcDbSymbolTable
 70
0
  0
ENDTAB
  0
TABLE
  2
APPID
  5
9
100
AcDbSymbolTable
 70
1
  0
APPID
  5
20E
100
AcDbSymbolTableRecord
100
AcDbRegAppTableRecord
  2
ACAD
 70
0
  0
ENDTAB
  0
TABLE
  2
BLOCK_RECORD
  5
1
100
AcDbSymbolTable
 70
0
  0
BLOCK_RECORD
  5
20F
100
AcDbSymbolTableRecord
100
AcDbBlockTableRecord
  2
*Model_Space
  0
BLOCK_RECORD
  5
210
100
AcDbSymbolTableRecord
100
AcDbBlockTableRecord
  2
*Paper_Space
  0
ENDTAB
  0
TABLE
  2
DIMSTYLE
  5
A
100
AcDbSymbolTable
 70
1
100
AcDbDimStyleTable
 71
0
  0
DIMSTYLE
105
211
100
AcDbSymbolTableRecord
100
AcDbDimStyleTableRecord
  2
STANDARD
 70
0
  3

  4

 40
1.0
 41
3.0
 42
0.5
 43
0.38
 44
1.5
 45
0.0
 46
0.0
 47
0.01
 48
0.01
140
3.0
141
0.09
142
0.0
143
25.4
144
1.0
145
0.0
146
1.0
147
0.625
 71
1.0
 72
0.0
 73
0
 74
0
 75
0
 76
0
 77
1
 78
8
170
0
171
2
172
0
173
0
174
0
175
0
176
0
177
0
178
0
270
2
271
2
272
2
273
2
274
2
275
0
280
0
281
0
282
0
283
1
284
8
285
0
286
0
287
3
288
0
340
11
278
44
  0
ENDTAB
  0
ENDSEC
  0
SECTION
  2
BLOCKS
  0
BLOCK
  5
20
100
AcDbEntity
  8
0
100
AcDbBlockBegin
  2
*Model_Space
 70
0
 10
0.0
 20
0.0
 30
0.0
  3
*Model_Space
  1

  0
ENDBLK
  5
21
100
AcDbEntity
  8
0
100
AcDbBlockEnd
  0
BLOCK
  5
1C
100
AcDbEntity
  8
0
100
AcDbBlockBegin
  2
*Paper_Space
 70
0
 10
0.0
 20
0.0
 30
0.0
  3
*Paper_Space
  1

  0
ENDBLK
  5
1D
100
AcDbEntity
  8
0
100
AcDbBlockEnd
  0
ENDSEC
  0
SECTION
  2
ENTITIES
  0
LINE
  5
212
100
AcDbEntity
  8
0
100
AcDbLine
 62
7
  6
CONTINUOUS
 10
-1.6082914369
 20
-17.1951606533
 11
1.4917085631
 21
-17.1951606533
  0
LINE
  5
213
100
AcDbEntity
  8
0
100
AcDbLine
 62
7
  6
CONTINUOUS
 10
-1.6068421341
 20
-11.1757441733
 11
1.4902592602
 21
-11.1757441733
  0
LINE
  5
214
100
AcDbEntity
  8
RACCORDO
100
AcDbLine
 62
253
  6
CONTINUOUS
 10
1.3212981631
 20
-6.8415043394
 11
2.2362830472
 21
-7.2404764888
  0
LINE
  5
215
100
AcDbEntity
  8
RACCORDO
100
AcDbLine
 62
7
  6
CONTINUOUS
 10
1.8560641179
 20
-6.636073554
 11
2.0376647732
 21
-6.7201912155
  0
LWPOLYLINE
  5
216
100
AcDbEntity
  8
RACCORDO
100
AcDbPolyline
 62
7
  6
CONTINUOUS
 90
13
 70
0
 10
-2.3537255823
 20
-7.2408512675
 10
-2.2870615209
 20
-7.3989880868
 10
-2.2223123714
 20
-7.5577561569
 10
-2.1594781336
 20
-7.7171554776
 10
-2.0985300199
 20
-7.877142804
 10
-2.0394968181
 20
-8.0377613811
 10
-1.9824648911
 20
-8.1991409439
 10
-1.9273945062
 20
-8.361278221
 10
-1.8743253962
 20
-8.5241764838
 10
-1.8234631222
 20
-8.6879752819
 10
-1.7748762045
 20
-8.8527211318
 10
-1.7284961227
 20
-9.018367517
 10
-1.6843228769
 20
-9.1849144375
  0
LINE
  5
217
100
AcDbEntity
  8
RACCORDO
100
AcDbLine
 62
7
  6
CONTINUOUS
 10
-3.7582914369
 20
-9.7396082194
 11
-3.7582914369
 21
-6.6611519677
  0
LINE
  5
218
100
AcDbEntity
  8
0
100
AcDbLine
 62
7
  6
CONTINUOUS
 10
-3.2582914369
 20
-5.9296323902
 11
-3.2582914369
 21
-9.7396082194
  0
LWPOLYLINE
  5
219
100
AcDbEntity
  8
RACCORDO
100
AcDbPolyline
 62
7
  6
CONTINUOUS
 90
5
 70
0
 10
3.1248576139
 20
-5.9169198863
 10
3.1320985162
 20
-5.9223716323
 10
3.1373807189
 20
-5.9262741348
 10
3.1406127864
 20
-5.9286943874
 10
3.1417085631
 20
-5.9296323902
  0
LINE
  5
21A
100
AcDbEntity
  8
RACCORDO
100
AcDbLine
 62
7
  6
CONTINUOUS
 10
2.5831803173
 20
-5.4995772272
 11
3.1248576139
 21
-5.9169198863
  0
LINE
  5
21B
100
AcDbEntity
  8
RACCORDO
100
AcDbLine
 62
7
  6
CONTINUOUS
 10
2.4015958692
 20
-5.3560595508
 11
2.5831803173
 21
-5.4995772272
  0
LINE
  5
21C
100
AcDbEntity
  8
RACCORDO
100
AcDbLine
 62
7
  6
CONTINUOUS
 10
2.3417085631
 20
-5.3082415281
 11
2.4015958692
 21
-5.3560595508
  0
LINE
  5
21D
100
AcDbEntity
  8
RACCORDO
100
AcDbLine
 62
7
  6
CONTINUOUS
 10
-1.6843228769
 20
-9.1849144375
 11
-1.6534582422
 21
-9.3077933502
  0
LWPOLYLINE
  5
21E
100
AcDbEntity
  8
RACCORDO
100
AcDbPolyline
 62
7
  6
CONTINUOUS
 90
9
 70
0
 10
-1.6534582422
 20
-9.3077933502
 10
-1.6335629205
 20
-9.3884658096
 10
-1.6235791503
 20
-9.4279111536
 10
-1.6135487956
 20
-9.4665953399
 10
-1.6034193706
 20
-9.5044238955
 10
-1.5928644758
 20
-9.5411070441
 10
-1.5817730388
 20
-9.5765199066
 10
-1.5702493098
 20
-9.6106870509
 10
-1.5582914369
 20
-9.6435675226
  0
LWPOLYLINE
  5
21F
100
AcDbEntity
  8
RACCORDO
100
AcDbPolyline
 62
7
  6
CONTINUOUS
 90
3
 70
0
 10
-1.5582914369
 20
-9.7333692067
 10
-1.5329156672
 20
-9.8622389747
 10
-1.5091628875
 20
-9.9917649746
  0
LWPOLYLINE
  5
220
100
AcDbEntity
  8
RACCORDO
100
AcDbPolyline
 62
7
  6
CONTINUOUS
 90
5
 70
0
 10
-1.5091628875
 20
-9.9917649746
 10
-1.487033098
 20
-10.1219472062
 10
-1.4665262986
 20
-10.2527856697
 10
-1.4476424893
 20
-10.3842803649
 10
-1.4303816702
 20
-10.5164312919
  0
LWPOLYLINE
  5
221
100
AcDbEntity
  8
0
100
AcDbPolyline
 62
7
  6
CONTINUOUS
 90
5
 70
0
 10
-0.4174867957
 20
-10.5716863817
 10
-0.3996769408
 20
-10.7535702407
 10
-0.384957213
 20
-10.9363123521
 10
-0.3733922194
 20
-11.1199102678
 10
-0.3708663137
 20
-11.1757441733
  0
LINE
  5
222
100
AcDbEntity
  8
RACCORDO
100
AcDbLine
 62
253
  6
CONTINUOUS
 10
-2.4582914369
 20
-9.0771329952
 11
-2.4582914369
 21
-5.3082415281
  0
LINE
  5
223
100
AcDbEntity
  8
0
100
AcDbLine
 62
7
  6
CONTINUOUS
 10
-1.6082914369
 20
-17.1951606533
 11
-1.6082914369
 21
-11.1757441733
  0
LINE
  5
224
100
AcDbEntity
  8
RACCORDO
100
AcDbLine
 62
7
  6
CONTINUOUS
 10
-1.5582914369
 20
-9.6435675226
 11
-1.5582914369
 21
-10.0025181326
  0
LINE
  5
225
100
AcDbEntity
  8
0
100
AcDbLine
 62
7
  6
CONTINUOUS
 10
-1.5582914369
 20
-10.0025181326
 11
-1.5582914369
 21
-10.5048313232
  0
LWPOLYLINE
  5
226
100
AcDbEntity
  8
RACCORDO
100
AcDbPolyline
 62
7
  6
CONTINUOUS
 90
18
 70
0
 10
-0.4915817038
 20
-10.0148855806
 10
-0.5246662598
 20
-9.8175495464
 10
-0.5609066897
 20
-9.6218117174
 10
-0.6004000135
 20
-9.4277258161
 10
-0.6430492112
 20
-9.23523812
 10
-0.6885632233
 20
-9.0441874618
 10
-0.7369249153
 20
-8.8546029147
 10
-0.7881514216
 20
-8.6664554055
 10
-0.8420030857
 20
-8.4794965471
 10
-0.898478422
 20
-8.2937232993
 10
-0.957578916
 20
-8.1091387022
 10
-1.019069368
 20
-7.9255034898
 10
-1.0828980036
 20
-7.7428129351
 10
-1.1491165971
 20
-7.561071765
 10
-1.2176452714
 20
-7.3800548942
 10
-1.2884574008
 20
-7.1996872945
 10
-1.3615796109
 20
-7.0200439942
 10
-1.4370119019
 20
-6.8411249932
  0
LINE
  5
227
100
AcDbEntity
  8
RACCORDO
100
AcDbLine
 62
7
  6
CONTINUOUS
 10
-0.4616530219
 20
-10.2138198199
 11
-0.4915817038
 21
-10.0148855806
  0
LWPOLYLINE
  5
228
100
AcDbEntity
  8
0
100
AcDbPolyline
 62
7
  6
CONTINUOUS
 90
5
 70
0
 10
-1.4303816702
 20
-10.5164312919
 10
-1.4087018351
 20
-10.7076730205
 10
-1.3907804367
 20
-10.8996908198
 10
-1.3766962691
 20
-11.0924920322
 10
-1.3723241795
 20
-11.1757441733
  0
LINE
  5
229
100
AcDbEntity
  8
0
100
AcDbLine
 62
7
  6
CONTINUOUS
 10
-0.4697623841
 20
-10.5704191199
 11
-0.4583948526
 21
-10.0705458042
  0
LINE
  5
22A
100
AcDbEntity
  8
RACCORDO
100
AcDbLine
 62
7
  6
CONTINUOUS
 10
-0.4583948526
 20
-10.0705458042
 11
-0.4402067938
 21
-9.2707481356
  0
LINE
  5
22B
100
AcDbEntity
  8
0
100
AcDbLine
 62
7
  6
CONTINUOUS
 10
1.4417085631
 20
-10.5048313232
 11
1.4417085631
 21
-10.0025181326
  0
LINE
  5
22C
100
AcDbEntity
  8
0
100
AcDbLine
 62
7
  6
CONTINUOUS
 10
1.4917085631
 20
-17.1951606533
 11
1.4917085631
 21
-11.1757441733
  0
LINE
  5
22D
100
AcDbEntity
  8
RACCORDO
100
AcDbLine
 62
7
  6
CONTINUOUS
 10
0.3600227303
 20
-9.2697502462
 11
0.3418119787
 21
-10.0705458042
  0
LINE
  5
22E
100
AcDbEntity
  8
0
100
AcDbLine
 62
7
  6
CONTINUOUS
 10
0.3418119787
 20
-10.0705458042
 11
0.3304314258
 21
-10.5709917189
  0
LWPOLYLINE
  5
22F
100
AcDbEntity
  8
0
100
AcDbPolyline
 62
7
  6
CONTINUOUS
 90
5
 70
0
 10
0.3009039218
 20
-10.5716863817
 10
0.2830940669
 20
-10.7535702407
 10
0.2683743392
 20
-10.9363123521
 10
0.2568093455
 20
-11.1199102678
 10
0.2542834398
 20
-11.1757441733
  0
LINE
  5
230
100
AcDbEntity
  8
RACCORDO
100
AcDbLine
 62
253
  6
CONTINUOUS
 10
2.3417085631
 20
-5.3082415281
 11
2.3417085631
 21
-9.8875816691
  0
LWPOLYLINE
  5
231
100
AcDbEntity
  8
0
100
AcDbPolyline
 62
7
  6
CONTINUOUS
 90
5
 70
0
 10
1.3137987963
 20
-10.5164312919
 10
1.2921189612
 20
-10.7076730205
 10
1.2741975628
 20
-10.8996908198
 10
1.2601133952
 20
-11.0924920322
 10
1.2557413056
 20
-11.1757441733
  0
LWPOLYLINE
  5
232
100
AcDbEntity
  8
RACCORDO
100
AcDbPolyline
 62
7
  6
CONTINUOUS
 90
3
 70
0
 10
1.3137987963
 20
-10.5164312919
 10
1.3396422162
 20
-10.3239396575
 10
1.36882958
 20
-10.1328311702
  0
LINE
  5
233
100
AcDbEntity
  8
RACCORDO
100
AcDbLine
 62
7
  6
CONTINUOUS
 10
0.3667107697
 20
-10.0679956633
 11
0.3372631582
 21
-10.2705746311
  0
LINE
  5
234
100
AcDbEntity
  8
RACCORDO
100
AcDbLine
 62
7
  6
CONTINUOUS
 10
-2.4582914369
 20
-5.3082415281
 11
-2.5181787431
 21
-5.3560595508
  0
LINE
  5
235
100
AcDbEntity
  8
RACCORDO
100
AcDbLine
 62
7
  6
CONTINUOUS
 10
-2.5181787431
 20
-5.3560595508
 11
-2.6997631912
 21
-5.4995772272
  0
LINE
  5
236
100
AcDbEntity
  8
RACCORDO
100
AcDbLine
 62
7
  6
CONTINUOUS
 10
-2.6997631912
 20
-5.4995772272
 11
-3.0345977751
 21
-5.7594118237
  0
LINE
  5
237
100
AcDbEntity
  8
RACCORDO
100
AcDbLine
 62
7
  6
CONTINUOUS
 10
-3.0345977751
 20
-5.7594118237
 11
-3.1620033231
 21
-5.8566946103
  0
LWPOLYLINE
  5
238
100
AcDbEntity
  8
RACCORDO
100
AcDbPolyline
 62
7
  6
CONTINUOUS
 90
5
 70
0
 10
-3.1620033231
 20
-5.8566946103
 10
-3.2486813901
 20
-5.9223716323
 10
-3.2539635928
 20
-5.9262741348
 10
-3.2571956602
 20
-5.9286943874
 10
-3.2582914369
 20
-5.9296323902
  0
LINE
  5
239
100
AcDbEntity
  8
0
100
AcDbLine
 62
7
  6
CONTINUOUS
 10
3.1417085631
 20
-9.7396082194
 11
3.1417085631
 21
-5.9296323902
  0
LINE
  5
23A
100
AcDbEntity
  8
RACCORDO
100
AcDbLine
 62
7
  6
CONTINUOUS
 10
3.6417085631
 20
-6.6611519677
 11
3.6417085631
 21
-9.7396082194
  0
LINE
  5
23B
100
AcDbEntity
  8
RACCORDO
100
AcDbLine
 62
7
  6
CONTINUOUS
 10
1.36882958
 20
-10.1328311702
 11
1.4013608877
 21
-9.9431058298
  0
LWPOLYLINE
  5
23C
100
AcDbEntity
  8
RACCORDO
100
AcDbPolyline
 62
7
  6
CONTINUOUS
 90
16
 70
0
 10
1.4013608877
 20
-9.9431058298
 10
1.4373454378
 20
-9.7547860959
 10
1.4766739318
 20
-9.567849509
 10
1.519018474
 20
-9.3822286906
 10
1.5643633029
 20
-9.1979612072
 10
1.61272418
 20
-9.0150094921
 10
1.663820494
 20
-8.8331934675
 10
1.7176511056
 20
-8.6525138185
 10
1.7742171542
 20
-8.4729698598
 10
1.8332414463
 20
-8.2943794577
 10
1.894680222
 20
-8.1167428706
 10
1.9585772414
 20
-7.9400598401
 10
2.0247865907
 20
-7.7641474566
 10
2.0932596321
 20
-7.5889447503
 10
2.1640450035
 20
-7.414512691
 10
2.2371427047
 20
-7.2408512786
  0
LWPOLYLINE
  5
23D
100
AcDbEntity
  8
RACCORDO
100
AcDbPolyline
 62
7
  6
CONTINUOUS
 90
18
 70
0
 10
1.3204290305
 20
-6.8411249885
 10
1.2438300194
 20
-7.0228605118
 10
1.1696146836
 20
-7.205343835
 10
1.0977830231
 20
-7.3885749582
 10
1.0283054686
 20
-7.5724738449
 10
0.9612115893
 20
-7.7571205316
 10
0.8965900936
 20
-7.942755127
 10
0.8343882711
 20
-8.1293734356
 10
0.7746588323
 20
-8.3169796528
 10
0.7176486161
 20
-8.5058264739
 10
0.6633559178
 20
-8.6959105477
 10
0.6117824421
 20
-8.8872352253
 10
0.5631801427
 20
-9.0800632559
 10
0.517529367
 20
-9.2744286193
 10
0.4748497675
 20
-9.4702973356
 10
0.4354522558
 20
-9.667830214
 10
0.3994404689
 20
-9.8670808576
 10
0.3667107697
 20
-10.0679956633
  0
LWPOLYLINE
  5
23E
100
AcDbEntity
  8
RACCORDO
100
AcDbPolyline
 62
7
  6
CONTINUOUS
 90
7
 70
0
 10
-3.2582914369
 20
-9.7396082194
 10
-3.2571506573
 20
-9.7385460821
 10
-3.2537932903
 20
-9.7358534735
 10
-3.2483200725
 20
-9.7315303934
 10
-3.2408372341
 20
-9.7254939284
 10
-3.2314511618
 20
-9.7178269919
 10
-3.1000775316
 20
-9.6109514393
  0
LINE
  5
23F
100
AcDbEntity
  8
RACCORDO
100
AcDbLine
 62
7
  6
CONTINUOUS
 10
-2.6073986291
 20
-9.2029141184
 11
-2.4582914369
 21
-9.0771329952
  0
LINE
  5
240
100
AcDbEntity
  8
RACCORDO
100
AcDbLine
 62
7
  6
CONTINUOUS
 10
-3.1000775316
 20
-9.6109514393
 11
-2.6073986291
 21
-9.2029141184
  0
LINE
  5
241
100
AcDbEntity
  8
RACCORDO
100
AcDbLine
 62
7
  6
CONTINUOUS
 10
-2.154247647
 20
-6.7201912155
 11
-1.9726469918
 21
-6.636073554
  0
LINE
  5
242
100
AcDbEntity
  8
RACCORDO
100
AcDbLine
 62
253
  6
CONTINUOUS
 10
-2.3537255828
 20
-7.240851266
 11
-1.437871419
 21
-6.8415001037
  0
LINE
  5
243
100
AcDbEntity
  8
0
100
AcDbLine
 62
7
  6
CONTINUOUS
 10
2.4417085631
 20
-37.0111368325
 11
-2.5582914369
 21
-37.0111368325
  0
LINE
  5
244
100
AcDbEntity
  8
0
100
AcDbLine
 62
7
  6
CONTINUOUS
 10
2.4417085631
 20
-34.3111368325
 11
1.9417085631
 21
-34.3111368325
  0
LINE
  5
245
100
AcDbEntity
  8
0
100
AcDbLine
 62
7
  6
CONTINUOUS
 10
-2.0582914369
 20
-34.3111368325
 11
-2.5582914369
 21
-34.3111368325
  0
LINE
  5
246
100
AcDbEntity
  8
0
100
AcDbLine
 62
7
  6
CONTINUOUS
 10
-1.7582914369
 20
-33.8111368325
 11
-1.6582914369
 21
-33.8111368325
  0
LINE
  5
247
100
AcDbEntity
  8
0
100
AcDbLine
 62
7
  6
CONTINUOUS
 10
-1.7582914369
 20
-33.6111368325
 11
-1.6582914369
 21
-33.6111368325
  0
LINE
  5
248
100
AcDbEntity
  8
0
100
AcDbLine
 62
7
  6
CONTINUOUS
 10
2.4417085631
 20
-33.3111368325
 11
1.9417085631
 21
-33.3111368325
  0
LINE
  5
249
100
AcDbEntity
  8
0
100
AcDbLine
 62
7
  6
CONTINUOUS
 10
-2.0582914369
 20
-33.3111368325
 11
-2.5582914369
 21
-33.3111368325
  0
LINE
  5
24A
100
AcDbEntity
  8
0
100
AcDbLine
 62
7
  6
CONTINUOUS
 10
1.5417085631
 20
-32.1111368325
 11
-1.6582914369
 21
-32.1111368325
  0
LINE
  5
24B
100
AcDbEntity
  8
0
100
AcDbLine
 62
7
  6
CONTINUOUS
 10
-2.5582914369
 20
-37.0111368325
 11
-2.5582914369
 21
-31.3111368325
  0
LINE
  5
24C
100
AcDbEntity
  8
0
100
AcDbLine
 62
7
  6
CONTINUOUS
 10
-2.0582914369
 20
-31.3111368325
 11
-2.0582914369
 21
-37.0111368325
  0
LINE
  5
24D
100
AcDbEntity
  8
0
100
AcDbLine
 62
7
  6
CONTINUOUS
 10
2.4417085631
 20
-31.3111368325
 11
-2.5582914369
 21
-31.3111368325
  0
LINE
  5
24E
100
AcDbEntity
  8
RACCORDO
100
AcDbLine
 62
253
  6
CONTINUOUS
 10
1.8417085631
 20
-31.2902586134
 11
1.6917085631
 21
-31.2902586134
  0
LINE
  5
24F
100
AcDbEntity
  8
RACCORDO
100
AcDbLine
 62
253
  6
CONTINUOUS
 10
1.1917085631
 20
-31.2902586134
 11
1.0417085631
 21
-31.2902586134
  0
LINE
  5
250
100
AcDbEntity
  8
RACCORDO
100
AcDbLine
 62
253
  6
CONTINUOUS
 10
1.8417085631
 20
-31.1906391436
 11
1.6917085631
 21
-31.1906391436
  0
LINE
  5
251
100
AcDbEntity
  8
RACCORDO
100
AcDbLine
 62
253
  6
CONTINUOUS
 10
1.1917085631
 20
-31.1906391436
 11
1.0417085631
 21
-31.1906391436
  0
LINE
  5
252
100
AcDbEntity
  8
0
100
AcDbLine
 62
7
  6
CONTINUOUS
 10
-1.7082914369
 20
-31.1111368325
 11
-1.4082914369
 21
-31.1111368325
  0
LINE
  5
253
100
AcDbEntity
  8
0
100
AcDbLine
 62
7
  6
CONTINUOUS
 10
-1.6068421341
 20
-30.8111368325
 11
1.4902592602
 21
-30.8111368325
  0
LWPOLYLINE
  5
254
100
AcDbEntity
  8
0
100
AcDbPolyline
 62
7
  6
CONTINUOUS
 90
10
 70
0
 10
-1.4082914369
 20
-31.1111368325
 10
-1.3629926592
 20
-31.1115463387
 10
-1.3213866842
 20
-31.1125200476
 10
-1.2834735121
 20
-31.1140579591
 10
-1.2483365465
 20
-31.1162387654
 10
-1.2168923838
 20
-31.1189837744
 10
-1.1918908126
 20
-31.1220569098
 10
-1.1742484292
 20
-31.1253794796
 10
-1.1630486373
 20
-31.1290301758
 10
-1.1582914369
 20
-31.1330089984
  0
LINE
  5
255
100
AcDbEntity
  8
0
100
AcDbLine
 62
7
  6
CONTINUOUS
 10
-1.7582914369
 20
-33.6111368325
 11
-1.7582914369
 21
-33.8111368325
  0
LINE
  5
256
100
AcDbEntity
  8
0
100
AcDbLine
 62
253
  6
CONTINUOUS
 10
-1.7082914369
 20
-31.1111368325
 11
-1.7082914369
 21
-31.3111368325
  0
LINE
  5
257
100
AcDbEntity
  8
0
100
AcDbLine
 62
7
  6
CONTINUOUS
 10
-1.6582914369
 20
-37.0111368325
 11
-1.6582914369
 21
-31.3111368325
  0
LINE
  5
258
100
AcDbEntity
  8
0
100
AcDbLine
 62
7
  6
CONTINUOUS
 10
-1.6082914369
 20
-30.0478331732
 11
-1.6082914369
 21
-20.1953626533
  0
LINE
  5
259
100
AcDbEntity
  8
0
100
AcDbLine
 62
253
  6
CONTINUOUS
 10
-1.4082914369
 20
-31.1111368325
 11
-1.4082914369
 21
-31.3111368325
  0
LINE
  5
25A
100
AcDbEntity
  8
RACCORDO
100
AcDbLine
 62
7
  6
CONTINUOUS
 10
1.0417085631
 20
-31.1906391436
 11
1.0417085631
 21
-31.3111368325
  0
LWPOLYLINE
  5
25B
100
AcDbEntity
  8
0
100
AcDbPolyline
 62
7
  6
CONTINUOUS
 90
10
 70
0
 10
-1.9582914369
 20
-31.1330089984
 10
-1.9535345362
 20
-31.1290302132
 10
-1.9423348772
 20
-31.1253795371
 10
-1.9246924599
 20
-31.1220569701
 10
-1.8996905656
 20
-31.1189838095
 10
-1.868245913
 20
-31.1162387579
 10
-1.8331086582
 20
-31.1140579236
 10
-1.7951955199
 20
-31.1125200093
 10
-1.7535897795
 20
-31.1115463123
 10
-1.7082914369
 20
-31.1111368325
  0
LINE
  5
25C
100
AcDbEntity
  8
RACCORDO
100
AcDbLine
 62
7
  6
CONTINUOUS
 10
1.1917085631
 20
-31.1906391436
 11
1.1917085631
 21
-31.3111368325
  0
LINE
  5
25D
100
AcDbEntity
  8
0
100
AcDbLine
 62
7
  6
CONTINUOUS
 10
1.4917085631
 20
-30.04791301
 11
1.4917085631
 21
-20.1953626533
  0
LINE
  5
25E
100
AcDbEntity
  8
0
100
AcDbLine
 62
7
  6
CONTINUOUS
 10
1.5417085631
 20
-37.0111368325
 11
1.5417085631
 21
-31.3111368325
  0
LINE
  5
25F
100
AcDbEntity
  8
RACCORDO
100
AcDbLine
 62
7
  6
CONTINUOUS
 10
1.6917085631
 20
-31.1906391436
 11
1.6917085631
 21
-31.3111368325
  0
LINE
  5
260
100
AcDbEntity
  8
RACCORDO
100
AcDbLine
 62
7
  6
CONTINUOUS
 10
1.8417085631
 20
-31.1906391436
 11
1.8417085631
 21
-31.3111368325
  0
LINE
  5
261
100
AcDbEntity
  8
0
100
AcDbLine
 62
7
  6
CONTINUOUS
 10
1.9417085631
 20
-31.3111368325
 11
1.9417085631
 21
-37.0111368325
  0
LINE
  5
262
100
AcDbEntity
  8
0
100
AcDbLine
 62
7
  6
CONTINUOUS
 10
2.4417085631
 20
-37.0111368325
 11
2.4417085631
 21
-31.3111368325
  0
LINE
  5
263
100
AcDbEntity
  8
0
100
AcDbLine
 62
7
  6
CONTINUOUS
 10
1.4917085631
 20
-20.1953626533
 11
-1.6082914369
 21
-20.1953626533
  0
ARC
  5
264
100
AcDbEntity
  8
0
100
AcDbCircle
 62
7
  6
CONTINUOUS
 10
-0.0582914369
 20
5.3242558267
 40
15.9
100
AcDbArc
 50
268.5170955404
 51
271.4009055802
  0
ARC
  5
265
100
AcDbEntity
  8
RACCORDO
100
AcDbCircle
 62
7
  6
CONTINUOUS
 10
-0.0582914369
 20
5.3242558267
 40
15.9
100
AcDbArc
 50
275.413312274
 51
281.9930012769
  0
ARC
  5
266
100
AcDbEntity
  8
RACCORDO
100
AcDbCircle
 62
7
  6
CONTINUOUS
 10
-0.0582914369
 20
5.3242558267
 40
15.9
100
AcDbArc
 50
258.0069987231
 51
264.586687726
  0
ARC
  5
267
100
AcDbEntity
  8
0
100
AcDbCircle
 62
7
  6
CONTINUOUS
 10
-0.0582914369
 20
5.3242558267
 40
15.9
100
AcDbArc
 50
264.586687726
 51
265.0495044094
  0
ARC
  5
268
100
AcDbEntity
  8
0
100
AcDbCircle
 62
7
  6
CONTINUOUS
 10
-0.0582914369
 20
5.3242558267
 40
15.9
100
AcDbArc
 50
274.9504955906
 51
275.413312274
  0
ARC
  5
269
100
AcDbEntity
  8
0
100
AcDbCircle
 62
7
  6
CONTINUOUS
 10
-0.0582914369
 20
5.3242558267
 40
15.4
100
AcDbArc
 50
268.5112456596
 51
271.4887543404
  0
ARC
  5
26A
100
AcDbEntity
  8
0
100
AcDbCircle
 62
7
  6
CONTINUOUS
 10
-0.0582914369
 20
5.3242558267
 40
15.4
100
AcDbArc
 50
275.589619988
 51
281.9930012769
  0
ARC
  5
26B
100
AcDbEntity
  8
0
100
AcDbCircle
 62
7
  6
CONTINUOUS
 10
-0.0582914369
 20
5.3242558267
 40
15.4
100
AcDbArc
 50
258.0069987231
 51
264.410380012
  0
ARC
  5
26C
100
AcDbEntity
  8
RACCORDO
100
AcDbCircle
 62
253
  6
CONTINUOUS
 10
-0.0582914369
 20
5.3242558267
 40
14.6
100
AcDbArc
 50
260.5385738074
 51
263.6055876569
  0
ARC
  5
26D
100
AcDbEntity
  8
RACCORDO
100
AcDbCircle
 62
253
  6
CONTINUOUS
 10
-0.0582914369
 20
5.3242558267
 40
14.6
100
AcDbArc
 50
268.5010524381
 51
271.6418436128
  0
ARC
  5
26E
100
AcDbEntity
  8
RACCORDO
100
AcDbCircle
 62
7
  6
CONTINUOUS
 10
-0.0582914369
 20
5.3242558267
 40
12.2
100
AcDbArc
 50
289.3117939891
 51
250.6882060109
  0
ARC
  5
26F
100
AcDbEntity
  8
0
100
AcDbCircle
 62
7
  6
CONTINUOUS
 10
-0.0582914369
 20
5.3242558267
 40
11.7
100
AcDbArc
 50
285.8728984459
 51
254.1271015541
  0
ARC
  5
270
100
AcDbEntity
  8
RACCORDO
100
AcDbCircle
 62
253
  6
CONTINUOUS
 10
-0.0582914369
 20
5.3242558267
 40
10.9
100
AcDbArc
 50
282.7198102486
 51
257.2801897514
  0
CIRCLE
  5
271
100
AcDbEntity
  8
RACCORDO
100
AcDbCircle
 62
253
  6
CONTINUOUS
 10
-0.0582914369
 20
5.3242558267
 40
5.8
  0
CIRCLE
  5
272
100
AcDbEntity
  8
0
100
AcDbCircle
 62
7
  6
CONTINUOUS
 10
-0.0582914369
 20
5.3242558267
 40
5.0
  0
CIRCLE
  5
273
100
AcDbEntity
  8
ASSI
100
AcDbCircle
 62
7
  6
CONTINUOUS
 10
-0.0582914369
 20
5.3242558267
 40
4.5
  0
ARC
  5
274
100
AcDbEntity
  8
RACCORDO
100
AcDbCircle
 62
7
  6
CONTINUOUS
 10
3.1417085631
 20
-9.7396082194
 40
0.5
100
AcDbArc
 50
281.9930012769
 51
360.0
  0
ARC
  5
275
100
AcDbEntity
  8
RACCORDO
100
AcDbCircle
 62
7
  6
CONTINUOUS
 10
-3.2582914369
 20
-9.7396082194
 40
0.5
100
AcDbArc
 50
180.0
 51
258.0069987231
  0
ARC
  5
276
100
AcDbEntity
  8
RACCORDO
100
AcDbCircle
 62
7
  6
CONTINUOUS
 10
4.1417085631
 20
-6.6611519677
 40
0.5
100
AcDbArc
 50
109.3117939891
 51
180.0
  0
ARC
  5
277
100
AcDbEntity
  8
RACCORDO
100
AcDbCircle
 62
7
  6
CONTINUOUS
 10
-4.2582914369
 20
-6.6611519677
 40
0.5
100
AcDbArc
 50
0.0
 51
70.6882060109
  0
ARC
  5
278
100
AcDbEntity
  8
RACCORDO
100
AcDbCircle
 62
7
  6
CONTINUOUS
 10
1.8695439204
 20
-7.0831449025
 40
0.4
100
AcDbArc
 50
336.7798123433
 51
65.1463361973
  0
ARC
  5
279
100
AcDbEntity
  8
RACCORDO
100
AcDbCircle
 62
7
  6
CONTINUOUS
 10
1.6879435254
 20
-6.9990273615
 40
0.4
100
AcDbArc
 50
65.1463772709
 51
156.7492518021
  0
ARC
  5
27A
100
AcDbEntity
  8
RACCORDO
100
AcDbCircle
 62
7
  6
CONTINUOUS
 10
-1.8045265167
 20
-6.9990274159
 40
0.4
100
AcDbArc
 50
23.2507479493
 51
114.8536041924
  0
ARC
  5
27B
100
AcDbEntity
  8
RACCORDO
100
AcDbCircle
 62
7
  6
CONTINUOUS
 10
-1.9861269117
 20
-7.0831449569
 40
0.4
100
AcDbArc
 50
114.853645263
 51
203.2201854472
  0
ARC
  5
27C
100
AcDbEntity
  8
0
100
AcDbCircle
 62
7
  6
CONTINUOUS
 10
-0.0582914369
 20
-31.3111368325
 40
2.0
100
AcDbArc
 50
0.0
 51
39.1795500631
  0
ARC
  5
27D
100
AcDbEntity
  8
0
100
AcDbCircle
 62
7
  6
CONTINUOUS
 10
-0.0582914369
 20
-31.3111368325
 40
2.0
100
AcDbArc
 50
140.8204499369
 51
180.0
  0
ARC
  5
27E
100
AcDbEntity
  8
0
100
AcDbCircle
 62
7
  6
CONTINUOUS
 10
-0.0582914369
 20
-31.3111368325
 40
1.0
100
AcDbArc
 50
0.0
 51
30.0027572322
  0
ARC
  5
27F
100
AcDbEntity
  8
0
100
AcDbCircle
 62
7
  6
CONTINUOUS
 10
-0.0582914369
 20
-31.3111368325
 40
1.0
100
AcDbArc
 50
149.9949352215
 51
180.0
  0
ENDSEC
  0
SECTION
  2
OBJECTS
  0
DICTIONARY
  5
C
100
AcDbDictionary
280
0
281
1
  3
ACAD_GROUP
350
D
  3
ACAD_MLINESTYLE
350
17
  3
ACAD_LAYOUT
350
1A
  3
ACAD_PLOTSETTINGS
350
19
  3
ACAD_PLOTSTYLENAME
350
E
  0
DICTIONARY
  5
D
102
{ACAD_REACTORS
330
C
102
}
100
AcDbDictionary
280
0
281
1
  0
ACDBDICTIONARYWDFLT
  5
E
102
{ACAD_REACTORS
330
C
102
}
100
AcDbDictionary
281
1
  3
Normal
350
F
100
AcDbDictionaryWithDefault
340
F
  0
DICTIONARY
  5
17
102
{ACAD_REACTORS
330
C
102
}
100
AcDbDictionary
280
0
281
1
  3
Standard
350
18
  0
DICTIONARY
  5
19
102
{ACAD_REACTORS
330
C
102
}
100
AcDbDictionary
281
1
  0
DICTIONARY
  5
1A
102
{ACAD_REACTORS
330
C
102
}
100
AcDbDictionary
281
1
  3
Model
350
280
  3
Layout1
350
281
  0
ACDBPLACEHOLDER
  5
F
102
{ACAD_REACTORS
330
E
102
}
  0
MLINESTYLE
  5
18
102
{ACAD_REACTORS
330
17
102
}
100
AcDbMlineStyle
  2
STANDARD
 70
0
  3

 62
256
 51
90.0
 52
90.0
 71
2
 49
0.5
 62
256
  6
BYLAYER
 49
-0.5
 62
256
  6
BYLAYER
  0
LAYOUT
  5
280
102
{ACAD_REACTORS
330
1A
102
}
100
AcDbPlotSettings
  1

  2
none_device
  4
ISO_A4_(297.00_x_210.00_MM)
  6

 40
0.0
 41
0.0
 42
0.0
 43
0.0
 44
297.0
 45
210.0
 46
0.0
 47
0.0
 48
0.0
 49
0.0
140
0.0
141
0.0
142
1.0
143
1.0
 70
1024
 72
1
 73
0
 74
0
  7

 75
0
147
1.0
148
0.0
149
0.0
100
AcDbLayout
  1
Model
 70
0
 71
0
 10
0.0
 20
0.0
 11
297.0
 21
210.0
 12
0.0
 22
0.0
 32
0.0
 14
0.0
 24
0.0
 34
0.0
 15
0.0
 25
0.0
 35
0.0
146
0.0
 13
0.0
 23
0.0
 33
0.0
 16
1.0
 26
0.0
 36
0.0
 17
0.0
 27
1.0
 37
0.0
 76
0
330
20F
345
0
346
0
  0
LAYOUT
  5
281
102
{ACAD_REACTORS
330
1A
102
}
100
AcDbPlotSettings
  1

  2
none_device
  4
ISO_A4_(297.00_x_210.00_MM)
  6

 40
0.0
 41
0.0
 42
0.0
 43
0.0
 44
297.0
 45
210.0
 46
0.0
 47
0.0
 48
0.0
 49
0.0
140
0.0
141
0.0
142
1.0
143
1.0
 70
0
 72
1
 73
0
 74
0
  7

 75
0
147
1.0
148
0.0
149
0.0
100
AcDbLayout
  1
Layout1
 70
0
 71
1
 10
0.0
 20
0.0
 11
297.0
 21
210.0
 12
0.0
 22
0.0
 32
0.0
 14
0.0
 24
0.0
 34
0.0
 15
0.0
 25
0.0
 35
0.0
146
0.0
 13
0.0
 23
0.0
 33
0.0
 16
1.0
 26
0.0
 36
0.0
 17
0.0
 27
1.0
 37
0.0
 76
0
330
210
345
0
346
0
  0
ENDSEC
  0
EOF
