  0
SECTION
  2
HEADER
  9
$ACADVER
  1
AC1015
  9
$DWGCODEPAGE
  3
ANSI_1252
  9
$EXTMAX
 10
297.0
 20
210.0
 30
0.0
  9
$EXTMIN
 10
0.0
 20
0.0
 30
0.0
  9
$LIMMIN
 10
0.0
 20
0.0
  9
$LIMMAX
 10
297.0
 20
210.0
  9
$VIEWCTR
 10
148.5
 20
105.0
  9
$VIEWSIZE
 40
210.0
  9
$CLAYER
  8
0
  9
$LTSCALE
 40
16.335
  9
$CELTYPE
  6
BYLAYER
  9
$DIMSCALE
 40
1.0
  9
$DIMASZ
 40
3.0
  9
$DIMEXO
 40
1.85625
  9
$DIMDLI
 40
11.286
  9
$DIMEXE
 40
5.346
  9
$DIMCEN
 40
2.673
  9
$DIMLFAC
 40
1.0
  9
$DIMBLK
  1
_FILLED
  9
$DIMTXT
 40
3.0
  9
$DIMTOL
 70
1
  9
$DIMLIM
 70
0
  9
$DIMTFAC
 40
1.0
  9
$DIMTP
 40
0.01
  9
$DIMTM
 40
0.01
  9
$PDMODE
 70
3
  9
$PDSIZE
 40
3.0
  9
$HANDSEED
  5
322
  9
$TILEMODE
 70
1
  9
$MEASUREMENT
 70
1
  9
$INSUNITS
 70
4
  0
ENDSEC
  0
SECTION
  2
CLASSES
  0
CLASS
  1
ACDBDICTIONARYWDFLT
  2
AcDbDictionaryWithDefault
  3
AutoCAD 2000
 90
0
280
0
281
0
  0
CLASS
  1
ACDBPLACEHOLDER
  2
AcDbPlaceHolder
  3
AutoCAD 2000
 90
0
280
0
281
0
  0
CLASS
  1
LAYOUT
  2
AcDbLayout
  3
AutoCAD 2000
 90
0
280
0
281
0
  0
ENDSEC
  0
SECTION
  2
TABLES
  0
TABLE
  2
VPORT
  5
8
100
AcDbSymbolTable
 70
2
  0
VPORT
  5
1F4
100
AcDbSymbolTableRecord
100
AcDbViewportTableRecord
  2
*ACTIVE
 70
0
 10
0.0
 20
0.0
 11
1.0
 21
1.0
 12
148.5
 22
105.0
 13
0.0
 23
0.0
 14
1.0
 24
1.0
 15
0.0
 25
0.0
 16
0.0
 26
0.0
 36
1.0
 17
0.0
 27
0.0
 37
0.0
 40
210.0
 41
1.4142857143
 42
50.0
 43
0.0
 44
0.0
 50
0.0
 51
0.0
 71
0
 72
100
 73
1
 74
1
 75
0
 76
0
 77
0
 78
0
  0
ENDTAB
  0
TABLE
  2
LTYPE
  5
5
100
AcDbSymbolTable
 70
6
  0
LTYPE
  5
14
100
AcDbSymbolTableRecord
100
AcDbLinetypeTableRecord
  2
BYBLOCK
 70
0
  3

 72
65
 73
0
 40
0.0
  0
LTYPE
  5
15
100
AcDbSymbolTableRecord
100
AcDbLinetypeTableRecord
  2
BYLAYER
 70
0
  3

 72
65
 73
0
 40
0.0
  0
LTYPE
  5
16
100
AcDbSymbolTableRecord
100
AcDbLinetypeTableRecord
  2
CONTINUOUS
 70
64
  3
Solid line
 72
65
 73
0
 40
0.0
  0
LTYPE
  5
1F5
100
AcDbSymbolTableRecord
100
AcDbLinetypeTableRecord
  2
CENTER
 70
64
  3
____ _ ____ _ ____ _ ____ _ ____ _ ____ _ ____
 72
65
 73
4
 40
0.6
 49
0.375
 74
0
 49
-0.075
 74
0
 49
0.075
 74
0
 49
-0.075
 74
0
  0
LTYPE
  5
1F6
100
AcDbSymbolTableRecord
100
AcDbLinetypeTableRecord
  2
HIDDEN
 70
64
  3
- - - - - - - - - - - - - - - - - - - -
 72
65
 73
2
 40
0.2
 49
0.1
 74
0
 49
-0.1
 74
0
  0
LTYPE
  5
1F7
100
AcDbSymbolTableRecord
100
AcDbLinetypeTableRecord
  2
PHANTOM
 70
64
  3
_____ _ _ _____ _ _ _____ _ _ _____
 72
65
 73
6
 40
0.8
 49
0.45
 74
0
 49
-0.05
 74
0
 49
0.1
 74
0
 49
-0.05
 74
0
 49
0.1
 74
0
 49
-0.05
 74
0
  0
LTYPE
  5
1F8
100
AcDbSymbolTableRecord
100
AcDbLinetypeTableRecord
  2
DOT
 70
64
  3
. . . . . . . . . . . . . . . . . . . .
 72
65
 73
2
 40
0.2
 49
0.1
 74
0
 49
-0.1
 74
0
  0
LTYPE
  5
1F9
100
AcDbSymbolTableRecord
100
AcDbLinetypeTableRecord
  2
DASHED
 70
64
  3
- - - - - - - - - - - - - - - - - - - -
 72
65
 73
2
 40
0.2
 49
0.1
 74
0
 49
-0.1
 74
0
  0
ENDTAB
  0
TABLE
  2
LAYER
  5
2
100
AcDbSymbolTable
 70
36
  0
LAYER
  5
10
100
AcDbSymbolTableRecord
100
AcDbLayerTableRecord
  2
0
 70
0
 62
7
  6
CONTINUOUS
370
-3
390
F
  0
LAYER
  5
1FA
100
AcDbSymbolTableRecord
100
AcDbLayerTableRecord
  2
DEFAULT_1
 70
0
 62
7
  6
CENTER
370
-3
390
F
  0
LAYER
  5
1FB
100
AcDbSymbolTableRecord
100
AcDbLayerTableRecord
  2
DEFAULT_2
 70
0
 62
7
  6
HIDDEN
370
-3
390
F
  0
LAYER
  5
1FC
100
AcDbSymbolTableRecord
100
AcDbLayerTableRecord
  2
DEFAULT_3
 70
0
 62
7
  6
PHANTOM
370
-3
390
F
  0
LAYER
  5
1FD
100
AcDbSymbolTableRecord
100
AcDbLayerTableRecord
  2
ASSI
 70
0
 62
7
  6
CONTINUOUS
370
-3
390
F
  0
LAYER
  5
1FE
100
AcDbSymbolTableRecord
100
AcDbLayerTableRecord
  2
COORDINATE
 70
0
 62
7
  6
CONTINUOUS
370
-3
390
F
  0
LAYER
  5
1FF
100
AcDbSymbolTableRecord
100
AcDbLayerTableRecord
  2
COPY_PUBLISH
 70
0
 62
7
  6
CONTINUOUS
370
-3
390
F
  0
LAYER
  5
200
100
AcDbSymbolTableRecord
100
AcDbLayerTableRecord
  2
COSMETIC
 70
0
 62
7
  6
CONTINUOUS
370
-3
390
F
  0
LAYER
  5
201
100
AcDbSymbolTableRecord
100
AcDbLayerTableRecord
  2
CURVE
 70
0
 62
7
  6
CONTINUOUS
370
-3
390
F
  0
LAYER
  5
202
100
AcDbSymbolTableRecord
100
AcDbLayerTableRecord
  2
DRAFT
 70
0
 62
7
  6
CONTINUOUS
370
-3
390
F
  0
LAYER
  5
203
100
AcDbSymbolTableRecord
100
AcDbLayerTableRecord
  2
IMPORT_IGES
 70
0
 62
7
  6
CONTINUOUS
370
-3
390
F
  0
LAYER
  5
204
100
AcDbSymbolTableRecord
100
AcDbLayerTableRecord
  2
NOTE
 70
0
 62
7
  6
CONTINUOUS
370
-3
390
F
  0
LAYER
  5
205
100
AcDbSymbolTableRecord
100
AcDbLayerTableRecord
  2
PIANI
 70
0
 62
7
  6
CONTINUOUS
370
-3
390
F
  0
LAYER
  5
206
100
AcDbSymbolTableRecord
100
AcDbLayerTableRecord
  2
PUNTI
 70
0
 62
7
  6
CONTINUOUS
370
-3
390
F
  0
LAYER
  5
207
100
AcDbSymbolTableRecord
100
AcDbLayerTableRecord
  2
RACCORDO
 70
0
 62
7
  6
CONTINUOUS
370
-3
390
F
  0
LAYER
  5
208
100
AcDbSymbolTableRecord
100
AcDbLayerTableRecord
  2
SMUSSO
 70
0
 62
7
  6
CONTINUOUS
370
-3
390
F
  0
LAYER
  5
209
100
AcDbSymbolTableRecord
100
AcDbLayerTableRecord
  2
SNAPLINE
 70
0
 62
7
  6
CONTINUOUS
370
-3
390
F
  0
LAYER
  5
20A
100
AcDbSymbolTableRecord
100
AcDbLayerTableRecord
  2
TRASH
 70
0
 62
7
  6
CONTINUOUS
370
-3
390
F
  0
ENDTAB
  0
TABLE
  2
STYLE
  5
3
100
AcDbSymbolTable
 70
1
  0
STYLE
  5
11
100
AcDbSymbolTableRecord
100
AcDbTextStyleTableRecord
  2
STANDARD
 70
0
 40
0.0
 41
0.8
 50
0.0
 71
0
 42
0.2
  3
txt
  4

  0
STYLE
  5
20B
100
AcDbSymbolTableRecord
100
AcDbTextStyleTableRecord
  2
TEXTSTYLE_1
 70
0
 40
0.0
 41
0.8
 50
0.0
 71
0
 42
0.2
  3
gdt
  4

  0
ENDTAB
  0
TABLE
  2
VIEW
  5
6
100
AcDbSymbolTable
 70
0
  0
ENDTAB
  0
TABLE
  2
UCS
  5
7
100
AcDbSymbolTable
 70
0
  0
ENDTAB
  0
TABLE
  2
APPID
  5
9
100
AcDbSymbolTable
 70
1
  0
APPID
  5
20C
100
AcDbSymbolTableRecord
100
AcDbRegAppTableRecord
  2
ACAD
 70
0
  0
ENDTAB
  0
TABLE
  2
BLOCK_RECORD
  5
1
100
AcDbSymbolTable
 70
0
  0
BLOCK_RECORD
  5
20D
100
AcDbSymbolTableRecord
100
AcDbBlockTableRecord
  2
*Model_Space
  0
BLOCK_RECORD
  5
20E
100
AcDbSymbolTableRecord
100
AcDbBlockTableRecord
  2
*Paper_Space
  0
ENDTAB
  0
TABLE
  2
DIMSTYLE
  5
A
100
AcDbSymbolTable
 70
1
100
AcDbDimStyleTable
 71
0
  0
DIMSTYLE
105
20F
100
AcDbSymbolTableRecord
100
AcDbDimStyleTableRecord
  2
STANDARD
 70
0
  3

  4

 40
1.0
 41
3.0
 42
0.0625
 43
0.38
 44
0.18
 45
0.0
 46
0.0
 47
0.01
 48
0.01
140
3.0
141
0.09
142
0.0
143
25.4
144
1.0
145
0.0
146
1.0
147
0.09
 71
1.0
 72
0.0
 73
0
 74
0
 75
0
 76
0
 77
1
 78
8
170
0
171
2
172
0
173
0
174
0
175
0
176
0
177
0
178
0
270
2
271
2
272
2
273
2
274
2
275
0
280
0
281
0
282
0
283
1
284
8
285
0
286
0
287
3
288
0
340
11
  0
ENDTAB
  0
ENDSEC
  0
SECTION
  2
BLOCKS
  0
BLOCK
  5
20
100
AcDbEntity
  8
0
100
AcDbBlockBegin
  2
*Model_Space
 70
0
 10
0.0
 20
0.0
 30
0.0
  3
*Model_Space
  1

  0
ENDBLK
  5
21
100
AcDbEntity
  8
0
100
AcDbBlockEnd
  0
BLOCK
  5
1C
100
AcDbEntity
  8
0
100
AcDbBlockBegin
  2
*Paper_Space
 70
0
 10
0.0
 20
0.0
 30
0.0
  3
*Paper_Space
  1

  0
ENDBLK
  5
1D
100
AcDbEntity
  8
0
100
AcDbBlockEnd
  0
ENDSEC
  0
SECTION
  2
ENTITIES
  0
LINE
  5
210
100
AcDbEntity
  8
RACCORDO
100
AcDbLine
 62
7
  6
CONTINUOUS
 10
-3.4161747943
 20
17.3332467468
 11
-3.5428681064
 21
17.2910499581
  0
LINE
  5
211
100
AcDbEntity
  8
DRAFT
100
AcDbLine
 62
7
  6
CONTINUOUS
 10
11.8838252057
 20
-19.4108970454
 11
-12.1161747943
 21
-19.4108970454
  0
LINE
  5
212
100
AcDbEntity
  8
DRAFT
100
AcDbLine
 62
7
  6
CONTINUOUS
 10
-4.4161747943
 20
-19.3550408376
 11
4.1838252057
 21
-19.3550408376
  0
LINE
  5
213
100
AcDbEntity
  8
RACCORDO
100
AcDbLine
 62
253
  6
CONTINUOUS
 10
-12.1161747943
 20
-19.3128440489
 11
-4.5428681064
 21
-19.3128440489
  0
LINE
  5
214
100
AcDbEntity
  8
RACCORDO
100
AcDbLine
 62
253
  6
CONTINUOUS
 10
4.3105185179
 20
-19.3128440489
 11
11.8838252057
 21
-19.3128440489
  0
LINE
  5
215
100
AcDbEntity
  8
RACCORDO
100
AcDbLine
 62
7
  6
CONTINUOUS
 10
-4.4161747943
 20
-19.3550408376
 11
-4.5428681064
 21
-19.3128440489
  0
LINE
  5
216
100
AcDbEntity
  8
DRAFT
100
AcDbLine
 62
7
  6
CONTINUOUS
 10
4.2781592084
 20
-17.6108970454
 11
4.1838252057
 21
-17.6266054074
  0
LINE
  5
217
100
AcDbEntity
  8
DRAFT
100
AcDbLine
 62
7
  6
CONTINUOUS
 10
3.820986972
 20
-18.4108970454
 11
-4.0533365606
 21
-18.4108970454
  0
LINE
  5
218
100
AcDbEntity
  8
RACCORDO
100
AcDbLine
 62
253
  6
CONTINUOUS
 10
-12.1161747943
 20
-18.3129963538
 11
-4.5943612439
 21
-18.3129963538
  0
LINE
  5
219
100
AcDbEntity
  8
RACCORDO
100
AcDbLine
 62
253
  6
CONTINUOUS
 10
4.3620116553
 20
-18.3129963538
 11
11.8838252057
 21
-18.3129963538
  0
LINE
  5
21A
100
AcDbEntity
  8
DRAFT
100
AcDbLine
 62
7
  6
CONTINUOUS
 10
-4.4161747943
 20
-17.9108970454
 11
-4.0603185865
 21
-17.9108970454
  0
LINE
  5
21B
100
AcDbEntity
  8
DRAFT
100
AcDbLine
 62
7
  6
CONTINUOUS
 10
3.8279689979
 20
-17.9108970454
 11
4.1838252057
 21
-17.9108970454
  0
LINE
  5
21C
100
AcDbEntity
  8
DRAFT
100
AcDbLine
 62
7
  6
CONTINUOUS
 10
-4.510508797
 20
-17.6108970454
 11
-4.4161747943
 21
-17.6266054074
  0
LINE
  5
21D
100
AcDbEntity
  8
DRAFT
100
AcDbLine
 62
7
  6
CONTINUOUS
 10
-4.510508797
 20
-17.2108970454
 11
-4.5943612439
 21
-17.1829689415
  0
LINE
  5
21E
100
AcDbEntity
  8
RACCORDO
100
AcDbLine
 62
7
  6
CONTINUOUS
 10
-14.0415611353
 20
6.748513185
 11
-14.0181217978
 21
6.7719525225
  0
LINE
  5
21F
100
AcDbEntity
  8
DRAFT
100
AcDbLine
 62
7
  6
CONTINUOUS
 10
-3.5943612439
 20
15.1611748507
 11
-3.510508797
 21
15.1891029546
  0
LINE
  5
220
100
AcDbEntity
  8
DRAFT
100
AcDbLine
 62
7
  6
CONTINUOUS
 10
-4.4161747943
 20
-17.7550408376
 11
-4.1161747943
 21
-17.7550408376
  0
LINE
  5
221
100
AcDbEntity
  8
DRAFT
100
AcDbLine
 62
7
  6
CONTINUOUS
 10
3.8838252057
 20
-17.7550408376
 11
4.1838252057
 21
-17.7550408376
  0
LINE
  5
222
100
AcDbEntity
  8
DRAFT
100
AcDbLine
 62
7
  6
CONTINUOUS
 10
3.810513933
 20
-17.6958448899
 11
-4.0428635216
 21
-17.6958448899
  0
LINE
  5
223
100
AcDbEntity
  8
RACCORDO
100
AcDbLine
 62
253
  6
CONTINUOUS
 10
12.7859245141
 20
-17.4108970454
 11
13.8838252057
 21
-17.4108970454
  0
LINE
  5
224
100
AcDbEntity
  8
RACCORDO
100
AcDbLine
 62
253
  6
CONTINUOUS
 10
-13.0182741027
 20
-17.4108970454
 11
-14.1161747943
 21
-17.4108970454
  0
LINE
  5
225
100
AcDbEntity
  8
DRAFT
100
AcDbLine
 62
7
  6
CONTINUOUS
 10
4.2781592084
 20
-17.2108970454
 11
-4.510508797
 21
-17.2108970454
  0
LINE
  5
226
100
AcDbEntity
  8
DRAFT
100
AcDbLine
 62
7
  6
CONTINUOUS
 10
-4.5943612439
 20
-17.1829689415
 11
4.3620116553
 21
-17.1829689415
  0
LINE
  5
227
100
AcDbEntity
  8
RACCORDO
100
AcDbLine
 62
7
  6
CONTINUOUS
 10
6.4841298154
 20
-17.1108970454
 11
6.283520596
 21
-17.1108970454
  0
LINE
  5
228
100
AcDbEntity
  8
RACCORDO
100
AcDbLine
 62
7
  6
CONTINUOUS
 10
-6.5158701846
 20
-17.1108970454
 11
-6.716479404
 21
-17.1108970454
  0
LINE
  5
229
100
AcDbEntity
  8
DRAFT
100
AcDbLine
 62
7
  6
CONTINUOUS
 10
-14.1161747943
 20
-17.4108970454
 11
-14.1161747943
 21
15.3891029546
  0
LINE
  5
22A
100
AcDbEntity
  8
DRAFT
100
AcDbLine
 62
7
  6
CONTINUOUS
 10
-14.0415611353
 20
6.748513185
 11
-14.0415611353
 21
-6.1703072758
  0
LINE
  5
22B
100
AcDbEntity
  8
RACCORDO
100
AcDbLine
 62
253
  6
CONTINUOUS
 10
-14.0181217978
 20
15.3891029546
 11
-14.0181217978
 21
6.7719525225
  0
LINE
  5
22C
100
AcDbEntity
  8
RACCORDO
100
AcDbLine
 62
253
  6
CONTINUOUS
 10
-14.0181217978
 20
-6.1937466134
 11
-14.0181217978
 21
-17.4108970454
  0
LINE
  5
22D
100
AcDbEntity
  8
DRAFT
100
AcDbLine
 62
7
  6
CONTINUOUS
 10
-3.0603185865
 20
15.7891029546
 11
-3.1161747943
 21
15.7332467468
  0
LINE
  5
22E
100
AcDbEntity
  8
ASSI
100
AcDbLine
 62
7
  6
CONTINUOUS
 10
-7.5161747943
 20
-15.9708970454
 11
-6.9161747943
 21
-15.9708970454
  0
LINE
  5
22F
100
AcDbEntity
  8
ASSI
100
AcDbLine
 62
7
  6
CONTINUOUS
 10
7.2838252057
 20
-15.9708970454
 11
6.6838252057
 21
-15.9708970454
  0
LINE
  5
230
100
AcDbEntity
  8
ASSI
100
AcDbLine
 62
7
  6
CONTINUOUS
 10
-5.3892672208
 20
-15.9708970454
 11
-4.6314050081
 21
-15.9708970454
  0
LINE
  5
231
100
AcDbEntity
  8
ASSI
100
AcDbLine
 62
7
  6
CONTINUOUS
 10
5.1569176323
 20
-15.9708970454
 11
4.3990554195
 21
-15.9708970454
  0
LINE
  5
232
100
AcDbEntity
  8
ASSI
100
AcDbLine
 62
7
  6
CONTINUOUS
 10
5.1569176323
 20
-15.9708970454
 11
5.7494180053
 21
-15.9708970454
  0
LINE
  5
233
100
AcDbEntity
  8
ASSI
100
AcDbLine
 62
7
  6
CONTINUOUS
 10
-5.3892672208
 20
-15.9708970454
 11
-5.9817675939
 21
-15.9708970454
  0
LINE
  5
234
100
AcDbEntity
  8
0
100
AcDbLine
 62
7
  6
CONTINUOUS
 10
6.0838252057
 20
-15.9708970454
 11
6.6701955362
 21
-15.9708970454
  0
LINE
  5
235
100
AcDbEntity
  8
0
100
AcDbLine
 62
7
  6
CONTINUOUS
 10
-6.3161747943
 20
-15.9708970454
 11
-6.9025451248
 21
-15.9708970454
  0
LINE
  5
236
100
AcDbEntity
  8
0
100
AcDbLine
 62
7
  6
CONTINUOUS
 10
-7.5161747943
 20
-15.2090168301
 11
-6.9161747943
 21
-15.2090168301
  0
LINE
  5
237
100
AcDbEntity
  8
0
100
AcDbLine
 62
7
  6
CONTINUOUS
 10
7.2838252057
 20
-15.2090168301
 11
6.6838252057
 21
-15.2090168301
  0
LINE
  5
238
100
AcDbEntity
  8
0
100
AcDbLine
 62
7
  6
CONTINUOUS
 10
6.0838252057
 20
-14.9708970454
 11
6.0224153786
 21
-14.9708970454
  0
LINE
  5
239
100
AcDbEntity
  8
0
100
AcDbLine
 62
7
  6
CONTINUOUS
 10
-6.2547649671
 20
-14.9708970454
 11
-6.3161747943
 21
-14.9708970454
  0
LINE
  5
23A
100
AcDbEntity
  8
0
100
AcDbLine
 62
253
  6
CONTINUOUS
 10
-6.8337466169
 20
-14.8048716416
 11
-6.6886987351
 21
-14.8048716416
  0
LINE
  5
23B
100
AcDbEntity
  8
0
100
AcDbLine
 62
253
  6
CONTINUOUS
 10
6.6013970283
 20
-14.8048716416
 11
6.4563491466
 21
-14.8048716416
  0
LINE
  5
23C
100
AcDbEntity
  8
ASSI
100
AcDbLine
 62
253
  6
CONTINUOUS
 10
5.4752395046
 20
-14.8048716416
 11
6.0677398777
 21
-14.8048716416
  0
LINE
  5
23D
100
AcDbEntity
  8
ASSI
100
AcDbLine
 62
253
  6
CONTINUOUS
 10
-5.7075890932
 20
-14.8048716416
 11
-6.3000894663
 21
-14.8048716416
  0
LINE
  5
23E
100
AcDbEntity
  8
0
100
AcDbLine
 62
7
  6
CONTINUOUS
 10
5.4950746461
 20
-14.7435306882
 11
6.0875750192
 21
-14.7435306882
  0
LINE
  5
23F
100
AcDbEntity
  8
0
100
AcDbLine
 62
7
  6
CONTINUOUS
 10
-5.7274242347
 20
-14.7435306882
 11
-6.3199246077
 21
-14.7435306882
  0
LINE
  5
240
100
AcDbEntity
  8
DRAFT
100
AcDbLine
 62
7
  6
CONTINUOUS
 10
-4.1161747943
 20
-17.7550408376
 11
-4.0603185865
 21
-17.8108970454
  0
LINE
  5
241
100
AcDbEntity
  8
RACCORDO
100
AcDbLine
 62
253
  6
CONTINUOUS
 10
-13.0182741027
 20
15.3891029546
 11
-13.0182741027
 21
6.7891029546
  0
LINE
  5
242
100
AcDbEntity
  8
RACCORDO
100
AcDbLine
 62
253
  6
CONTINUOUS
 10
-13.0182741027
 20
-6.2108970454
 11
-13.0182741027
 21
-17.4108970454
  0
LINE
  5
243
100
AcDbEntity
  8
RACCORDO
100
AcDbLine
 62
7
  6
CONTINUOUS
 10
-14.0415611353
 20
-6.1703072758
 11
-14.0181217978
 21
-6.1937466134
  0
LINE
  5
244
100
AcDbEntity
  8
RACCORDO
100
AcDbLine
 62
253
  6
CONTINUOUS
 10
-12.1161747943
 20
-19.4108970454
 11
-12.1161747943
 21
-18.3129963538
  0
LINE
  5
245
100
AcDbEntity
  8
RACCORDO
100
AcDbLine
 62
253
  6
CONTINUOUS
 10
-12.1161747943
 20
16.2912022629
 11
-12.1161747943
 21
17.3891029546
  0
LINE
  5
246
100
AcDbEntity
  8
DRAFT
100
AcDbLine
 62
7
  6
CONTINUOUS
 10
-11.7161747943
 20
6.7891029546
 11
-11.7161747943
 21
-6.2108970454
  0
LINE
  5
247
100
AcDbEntity
  8
0
100
AcDbLine
 62
7
  6
CONTINUOUS
 10
5.4950746461
 20
-10.1982634026
 11
6.0875750192
 21
-10.1982634026
  0
LINE
  5
248
100
AcDbEntity
  8
0
100
AcDbLine
 62
7
  6
CONTINUOUS
 10
-5.7274242347
 20
-10.1982634026
 11
-6.3199246077
 21
-10.1982634026
  0
LINE
  5
249
100
AcDbEntity
  8
0
100
AcDbLine
 62
253
  6
CONTINUOUS
 10
-6.8337466169
 20
-10.1369224492
 11
-6.6886987351
 21
-10.1369224492
  0
LINE
  5
24A
100
AcDbEntity
  8
0
100
AcDbLine
 62
253
  6
CONTINUOUS
 10
6.6013970283
 20
-10.1369224492
 11
6.4563491466
 21
-10.1369224492
  0
LINE
  5
24B
100
AcDbEntity
  8
ASSI
100
AcDbLine
 62
253
  6
CONTINUOUS
 10
5.4752395046
 20
-10.1369224492
 11
6.0677398777
 21
-10.1369224492
  0
LINE
  5
24C
100
AcDbEntity
  8
ASSI
100
AcDbLine
 62
253
  6
CONTINUOUS
 10
-5.7075890932
 20
-10.1369224492
 11
-6.3000894663
 21
-10.1369224492
  0
LINE
  5
24D
100
AcDbEntity
  8
ASSI
100
AcDbLine
 62
7
  6
CONTINUOUS
 10
-6.3000894663
 20
-14.8048716416
 11
-5.9817675939
 21
-15.9708970454
  0
LINE
  5
24E
100
AcDbEntity
  8
RACCORDO
100
AcDbLine
 62
7
  6
CONTINUOUS
 10
-8.7161747943
 20
-15.1112016551
 11
-8.7161747943
 21
-14.3655550496
  0
LINE
  5
24F
100
AcDbEntity
  8
RACCORDO
100
AcDbLine
 62
7
  6
CONTINUOUS
 10
-8.7161747943
 20
-10.6562390411
 11
-8.7161747943
 21
-9.9105924357
  0
LINE
  5
250
100
AcDbEntity
  8
0
100
AcDbLine
 62
7
  6
CONTINUOUS
 10
-6.3161747943
 20
-9.9708970454
 11
-6.2547649671
 21
-9.9708970454
  0
LINE
  5
251
100
AcDbEntity
  8
0
100
AcDbLine
 62
7
  6
CONTINUOUS
 10
6.0224153786
 20
-9.9708970454
 11
6.0838252057
 21
-9.9708970454
  0
LINE
  5
252
100
AcDbEntity
  8
0
100
AcDbLine
 62
7
  6
CONTINUOUS
 10
-7.5161747943
 20
-9.7327772608
 11
-6.9161747943
 21
-9.7327772608
  0
LINE
  5
253
100
AcDbEntity
  8
0
100
AcDbLine
 62
7
  6
CONTINUOUS
 10
7.2838252057
 20
-9.7327772608
 11
6.6838252057
 21
-9.7327772608
  0
LINE
  5
254
100
AcDbEntity
  8
ASSI
100
AcDbLine
 62
7
  6
CONTINUOUS
 10
-7.5161747943
 20
-8.9708970454
 11
-6.9161747943
 21
-8.9708970454
  0
LINE
  5
255
100
AcDbEntity
  8
ASSI
100
AcDbLine
 62
7
  6
CONTINUOUS
 10
7.2838252057
 20
-8.9708970454
 11
6.6838252057
 21
-8.9708970454
  0
LINE
  5
256
100
AcDbEntity
  8
ASSI
100
AcDbLine
 62
7
  6
CONTINUOUS
 10
-5.3892672208
 20
-8.9708970454
 11
-4.6314050081
 21
-8.9708970454
  0
LINE
  5
257
100
AcDbEntity
  8
ASSI
100
AcDbLine
 62
7
  6
CONTINUOUS
 10
5.1569176323
 20
-8.9708970454
 11
4.3990554195
 21
-8.9708970454
  0
LINE
  5
258
100
AcDbEntity
  8
ASSI
100
AcDbLine
 62
7
  6
CONTINUOUS
 10
5.1569176323
 20
-8.9708970454
 11
5.7494180053
 21
-8.9708970454
  0
LINE
  5
259
100
AcDbEntity
  8
ASSI
100
AcDbLine
 62
7
  6
CONTINUOUS
 10
-5.3892672208
 20
-8.9708970454
 11
-5.9817675939
 21
-8.9708970454
  0
LINE
  5
25A
100
AcDbEntity
  8
0
100
AcDbLine
 62
7
  6
CONTINUOUS
 10
6.0838252057
 20
-8.9708970454
 11
6.6701955362
 21
-8.9708970454
  0
LINE
  5
25B
100
AcDbEntity
  8
0
100
AcDbLine
 62
7
  6
CONTINUOUS
 10
-6.3161747943
 20
-8.9708970454
 11
-6.9025451248
 21
-8.9708970454
  0
LINE
  5
25C
100
AcDbEntity
  8
ASSI
100
AcDbLine
 62
7
  6
CONTINUOUS
 10
-5.7075890932
 20
-14.8048716416
 11
-5.3892672208
 21
-15.9708970454
  0
LINE
  5
25D
100
AcDbEntity
  8
ASSI
100
AcDbLine
 62
7
  6
CONTINUOUS
 10
-7.5161747943
 20
-8.9708970454
 11
-7.5161747943
 21
-9.7327772608
  0
LINE
  5
25E
100
AcDbEntity
  8
0
100
AcDbLine
 62
7
  6
CONTINUOUS
 10
-7.5161747943
 20
-9.7327772608
 11
-7.5161747943
 21
-15.2090168301
  0
LINE
  5
25F
100
AcDbEntity
  8
ASSI
100
AcDbLine
 62
7
  6
CONTINUOUS
 10
-7.5161747943
 20
-15.2090168301
 11
-7.5161747943
 21
-15.9708970454
  0
LINE
  5
260
100
AcDbEntity
  8
ASSI
100
AcDbLine
 62
7
  6
CONTINUOUS
 10
-6.9161747943
 20
-8.9708970454
 11
-6.9161747943
 21
-9.7327772608
  0
LINE
  5
261
100
AcDbEntity
  8
ASSI
100
AcDbLine
 62
7
  6
CONTINUOUS
 10
-6.9161747943
 20
-15.2090168301
 11
-6.9161747943
 21
-15.9708970454
  0
LINE
  5
262
100
AcDbEntity
  8
0
100
AcDbLine
 62
253
  6
CONTINUOUS
 10
-6.9025451248
 20
-8.9708970454
 11
-6.9025451248
 21
-9.8244761924
  0
LINE
  5
263
100
AcDbEntity
  8
0
100
AcDbLine
 62
253
  6
CONTINUOUS
 10
-6.9025451248
 20
-15.1173178984
 11
-6.9025451248
 21
-15.9708970454
  0
LINE
  5
264
100
AcDbEntity
  8
0
100
AcDbLine
 62
253
  6
CONTINUOUS
 10
-6.350248968
 20
-8.9708970454
 11
-6.350248968
 21
-10.248866462
  0
LINE
  5
265
100
AcDbEntity
  8
0
100
AcDbLine
 62
253
  6
CONTINUOUS
 10
-6.350248968
 20
-14.6936999733
 11
-6.350248968
 21
-15.9708970454
  0
LINE
  5
266
100
AcDbEntity
  8
0
100
AcDbLine
 62
7
  6
CONTINUOUS
 10
-6.3161747943
 20
-8.9708970454
 11
-6.3161747943
 21
-10.1369224492
  0
LINE
  5
267
100
AcDbEntity
  8
0
100
AcDbLine
 62
7
  6
CONTINUOUS
 10
-6.3161747943
 20
-14.8048716416
 11
-6.3161747943
 21
-15.9708970454
  0
LINE
  5
268
100
AcDbEntity
  8
RACCORDO
100
AcDbLine
 62
7
  6
CONTINUOUS
 10
-6.716479404
 20
-7.9108970454
 11
-6.5158701846
 21
-7.9108970454
  0
LINE
  5
269
100
AcDbEntity
  8
RACCORDO
100
AcDbLine
 62
7
  6
CONTINUOUS
 10
6.283520596
 20
-7.9108970454
 11
6.4841298154
 21
-7.9108970454
  0
LINE
  5
26A
100
AcDbEntity
  8
0
100
AcDbLine
 62
253
  6
CONTINUOUS
 10
-5.7274242347
 20
-10.1982634026
 11
-5.7274242347
 21
-14.7435306882
  0
LINE
  5
26B
100
AcDbEntity
  8
0
100
AcDbLine
 62
7
  6
CONTINUOUS
 10
-4.9161747943
 20
-16.3089455856
 11
-4.9161747943
 21
-15.9708970454
  0
LINE
  5
26C
100
AcDbEntity
  8
RACCORDO
100
AcDbLine
 62
7
  6
CONTINUOUS
 10
-4.5943612439
 20
-18.3129963538
 11
-4.5943612439
 21
-17.1829689415
  0
LINE
  5
26D
100
AcDbEntity
  8
DRAFT
100
AcDbLine
 62
7
  6
CONTINUOUS
 10
11.4838252057
 20
-6.2108970454
 11
13.8092115467
 21
-6.1703072758
  0
LINE
  5
26E
100
AcDbEntity
  8
RACCORDO
100
AcDbLine
 62
7
  6
CONTINUOUS
 10
12.7859245141
 20
-6.2108970454
 11
11.4838252057
 21
-6.2108970454
  0
LINE
  5
26F
100
AcDbEntity
  8
RACCORDO
100
AcDbLine
 62
7
  6
CONTINUOUS
 10
-11.7161747943
 20
-6.2108970454
 11
-13.0182741027
 21
-6.2108970454
  0
LINE
  5
270
100
AcDbEntity
  8
DRAFT
100
AcDbLine
 62
7
  6
CONTINUOUS
 10
-14.0415611353
 20
-6.1703072758
 11
-11.7161747943
 21
-6.2108970454
  0
LINE
  5
271
100
AcDbEntity
  8
SMUSSO
100
AcDbLine
 62
7
  6
CONTINUOUS
 10
-4.3161747943
 20
-10.9708970454
 11
-4.6314050081
 21
-8.9708970454
  0
LINE
  5
272
100
AcDbEntity
  8
DRAFT
100
AcDbLine
 62
7
  6
CONTINUOUS
 10
-4.510508797
 20
-17.6108970454
 11
-4.510508797
 21
-17.2108970454
  0
LINE
  5
273
100
AcDbEntity
  8
DRAFT
100
AcDbLine
 62
7
  6
CONTINUOUS
 10
-4.4161747943
 20
-19.3550408376
 11
-4.4161747943
 21
-17.6266054074
  0
LINE
  5
274
100
AcDbEntity
  8
SMUSSO
100
AcDbLine
 62
7
  6
CONTINUOUS
 10
-4.3161747943
 20
-10.9708970454
 11
-4.3161747943
 21
-13.9708970454
  0
LINE
  5
275
100
AcDbEntity
  8
DRAFT
100
AcDbLine
 62
7
  6
CONTINUOUS
 10
-4.1161747943
 20
-17.7550408376
 11
-4.1161747943
 21
-17.2108970454
  0
LINE
  5
276
100
AcDbEntity
  8
DRAFT
100
AcDbLine
 62
7
  6
CONTINUOUS
 10
-4.0603185865
 20
-17.8108970454
 11
-4.0603185865
 21
-18.4108970454
  0
LINE
  5
277
100
AcDbEntity
  8
DRAFT
100
AcDbLine
 62
7
  6
CONTINUOUS
 10
-4.0428635216
 20
-17.6958448899
 11
-4.0428635216
 21
-17.2108970454
  0
LINE
  5
278
100
AcDbEntity
  8
RACCORDO
100
AcDbLine
 62
7
  6
CONTINUOUS
 10
-3.5943612439
 20
16.2912022629
 11
-3.5943612439
 21
15.1611748507
  0
LINE
  5
279
100
AcDbEntity
  8
DRAFT
100
AcDbLine
 62
7
  6
CONTINUOUS
 10
-3.510508797
 20
15.5891029546
 11
-3.510508797
 21
15.1891029546
  0
LINE
  5
27A
100
AcDbEntity
  8
DRAFT
100
AcDbLine
 62
7
  6
CONTINUOUS
 10
-3.4161747943
 20
15.6048113166
 11
-3.4161747943
 21
17.3332467468
  0
LINE
  5
27B
100
AcDbEntity
  8
DRAFT
100
AcDbLine
 62
7
  6
CONTINUOUS
 10
-3.1161747943
 20
15.1891029546
 11
-3.1161747943
 21
15.7332467468
  0
LINE
  5
27C
100
AcDbEntity
  8
DRAFT
100
AcDbLine
 62
7
  6
CONTINUOUS
 10
-3.0603185865
 20
16.3891029546
 11
-3.0603185865
 21
15.7891029546
  0
LINE
  5
27D
100
AcDbEntity
  8
DRAFT
100
AcDbLine
 62
7
  6
CONTINUOUS
 10
-3.0428635216
 20
15.1891029546
 11
-3.0428635216
 21
15.674050799
  0
LINE
  5
27E
100
AcDbEntity
  8
DRAFT
100
AcDbLine
 62
7
  6
CONTINUOUS
 10
-4.0533365606
 20
-18.4108970454
 11
-4.0428635216
 21
-17.6958448899
  0
LINE
  5
27F
100
AcDbEntity
  8
ASSI
100
AcDbLine
 62
7
  6
CONTINUOUS
 10
-5.9817675939
 20
-8.9708970454
 11
-6.3000894663
 21
-10.1369224492
  0
LINE
  5
280
100
AcDbEntity
  8
ASSI
100
AcDbLine
 62
7
  6
CONTINUOUS
 10
-5.3892672208
 20
-8.9708970454
 11
-5.7075890932
 21
-10.1369224492
  0
LINE
  5
281
100
AcDbEntity
  8
DRAFT
100
AcDbLine
 62
7
  6
CONTINUOUS
 10
-3.0428635216
 20
15.674050799
 11
-3.0533365606
 21
16.3891029546
  0
LINE
  5
282
100
AcDbEntity
  8
SMUSSO
100
AcDbLine
 62
7
  6
CONTINUOUS
 10
-4.6314050081
 20
-15.9708970454
 11
-4.3161747943
 21
-13.9708970454
  0
LINE
  5
283
100
AcDbEntity
  8
DRAFT
100
AcDbLine
 62
7
  6
CONTINUOUS
 10
2.810513933
 20
15.1891029546
 11
2.810513933
 21
15.674050799
  0
LINE
  5
284
100
AcDbEntity
  8
DRAFT
100
AcDbLine
 62
7
  6
CONTINUOUS
 10
2.8279689979
 20
16.3891029546
 11
2.8279689979
 21
15.7891029546
  0
LINE
  5
285
100
AcDbEntity
  8
DRAFT
100
AcDbLine
 62
7
  6
CONTINUOUS
 10
2.8838252057
 20
15.7332467468
 11
2.8838252057
 21
15.1891029546
  0
LINE
  5
286
100
AcDbEntity
  8
DRAFT
100
AcDbLine
 62
7
  6
CONTINUOUS
 10
2.810513933
 20
15.674050799
 11
2.820986972
 21
16.3891029546
  0
LINE
  5
287
100
AcDbEntity
  8
ASSI
100
AcDbLine
 62
7
  6
CONTINUOUS
 10
5.4752395046
 20
-10.1369224492
 11
5.1569176323
 21
-8.9708970454
  0
LINE
  5
288
100
AcDbEntity
  8
SMUSSO
100
AcDbLine
 62
7
  6
CONTINUOUS
 10
4.0838252057
 20
-13.9708970454
 11
4.3990554195
 21
-15.9708970454
  0
LINE
  5
289
100
AcDbEntity
  8
DRAFT
100
AcDbLine
 62
7
  6
CONTINUOUS
 10
3.820986972
 20
-18.4108970454
 11
3.810513933
 21
-17.6958448899
  0
LINE
  5
28A
100
AcDbEntity
  8
DRAFT
100
AcDbLine
 62
7
  6
CONTINUOUS
 10
3.1838252057
 20
15.6048113166
 11
3.1838252057
 21
17.3332467468
  0
LINE
  5
28B
100
AcDbEntity
  8
DRAFT
100
AcDbLine
 62
7
  6
CONTINUOUS
 10
3.2781592084
 20
15.5891029546
 11
3.2781592084
 21
15.1891029546
  0
LINE
  5
28C
100
AcDbEntity
  8
RACCORDO
100
AcDbLine
 62
7
  6
CONTINUOUS
 10
3.3620116553
 20
16.2912022629
 11
3.3620116553
 21
15.1611748507
  0
LINE
  5
28D
100
AcDbEntity
  8
DRAFT
100
AcDbLine
 62
7
  6
CONTINUOUS
 10
3.810513933
 20
-17.6958448899
 11
3.810513933
 21
-17.2108970454
  0
LINE
  5
28E
100
AcDbEntity
  8
DRAFT
100
AcDbLine
 62
7
  6
CONTINUOUS
 10
3.8279689979
 20
-17.8108970454
 11
3.8279689979
 21
-18.4108970454
  0
LINE
  5
28F
100
AcDbEntity
  8
DRAFT
100
AcDbLine
 62
7
  6
CONTINUOUS
 10
3.8838252057
 20
-17.7550408376
 11
3.8838252057
 21
-17.2108970454
  0
LINE
  5
290
100
AcDbEntity
  8
SMUSSO
100
AcDbLine
 62
7
  6
CONTINUOUS
 10
4.0838252057
 20
-13.9708970454
 11
4.0838252057
 21
-10.9708970454
  0
LINE
  5
291
100
AcDbEntity
  8
DRAFT
100
AcDbLine
 62
7
  6
CONTINUOUS
 10
4.1838252057
 20
-17.6266054074
 11
4.1838252057
 21
-19.3550408376
  0
LINE
  5
292
100
AcDbEntity
  8
DRAFT
100
AcDbLine
 62
7
  6
CONTINUOUS
 10
4.2781592084
 20
-17.6108970454
 11
4.2781592084
 21
-17.2108970454
  0
LINE
  5
293
100
AcDbEntity
  8
RACCORDO
100
AcDbLine
 62
7
  6
CONTINUOUS
 10
4.3620116553
 20
-18.3129963538
 11
4.3620116553
 21
-17.1829689415
  0
LINE
  5
294
100
AcDbEntity
  8
0
100
AcDbLine
 62
7
  6
CONTINUOUS
 10
4.6838252057
 20
-16.3089456301
 11
4.6838252057
 21
-15.9708970454
  0
LINE
  5
295
100
AcDbEntity
  8
ASSI
100
AcDbLine
 62
7
  6
CONTINUOUS
 10
6.0677398777
 20
-10.1369224492
 11
5.7494180053
 21
-8.9708970454
  0
LINE
  5
296
100
AcDbEntity
  8
0
100
AcDbLine
 62
253
  6
CONTINUOUS
 10
5.4950746461
 20
-14.7435306882
 11
5.4950746461
 21
-10.1982634026
  0
LINE
  5
297
100
AcDbEntity
  8
0
100
AcDbLine
 62
7
  6
CONTINUOUS
 10
6.0838252057
 20
-15.9708970454
 11
6.0838252057
 21
-14.8048716416
  0
LINE
  5
298
100
AcDbEntity
  8
0
100
AcDbLine
 62
7
  6
CONTINUOUS
 10
6.0838252057
 20
-10.1369224492
 11
6.0838252057
 21
-8.9708970454
  0
LINE
  5
299
100
AcDbEntity
  8
0
100
AcDbLine
 62
253
  6
CONTINUOUS
 10
6.1178993794
 20
-15.9708970454
 11
6.1178993794
 21
-14.6929276288
  0
LINE
  5
29A
100
AcDbEntity
  8
0
100
AcDbLine
 62
253
  6
CONTINUOUS
 10
6.1178993794
 20
-10.2480941175
 11
6.1178993794
 21
-8.9708970454
  0
LINE
  5
29B
100
AcDbEntity
  8
SMUSSO
100
AcDbLine
 62
7
  6
CONTINUOUS
 10
4.3990554195
 20
-8.9708970454
 11
4.0838252057
 21
-10.9708970454
  0
LINE
  5
29C
100
AcDbEntity
  8
0
100
AcDbLine
 62
253
  6
CONTINUOUS
 10
6.6701955362
 20
-15.9708970454
 11
6.6701955362
 21
-15.1173178984
  0
LINE
  5
29D
100
AcDbEntity
  8
0
100
AcDbLine
 62
253
  6
CONTINUOUS
 10
6.6701955362
 20
-9.8244761924
 11
6.6701955362
 21
-8.9708970454
  0
LINE
  5
29E
100
AcDbEntity
  8
ASSI
100
AcDbLine
 62
7
  6
CONTINUOUS
 10
6.6838252057
 20
-15.9708970454
 11
6.6838252057
 21
-15.2090168301
  0
LINE
  5
29F
100
AcDbEntity
  8
ASSI
100
AcDbLine
 62
7
  6
CONTINUOUS
 10
6.6838252057
 20
-9.7327772608
 11
6.6838252057
 21
-8.9708970454
  0
LINE
  5
2A0
100
AcDbEntity
  8
ASSI
100
AcDbLine
 62
7
  6
CONTINUOUS
 10
7.2838252057
 20
-15.9708970454
 11
7.2838252057
 21
-15.2090168301
  0
LINE
  5
2A1
100
AcDbEntity
  8
0
100
AcDbLine
 62
7
  6
CONTINUOUS
 10
7.2838252057
 20
-15.2090168301
 11
7.2838252057
 21
-9.7327772608
  0
LINE
  5
2A2
100
AcDbEntity
  8
ASSI
100
AcDbLine
 62
7
  6
CONTINUOUS
 10
7.2838252057
 20
-9.7327772608
 11
7.2838252057
 21
-8.9708970454
  0
LINE
  5
2A3
100
AcDbEntity
  8
RACCORDO
100
AcDbLine
 62
7
  6
CONTINUOUS
 10
12.7859245141
 20
6.7891029546
 11
11.4838252057
 21
6.7891029546
  0
LINE
  5
2A4
100
AcDbEntity
  8
RACCORDO
100
AcDbLine
 62
7
  6
CONTINUOUS
 10
-11.7161747943
 20
6.7891029546
 11
-13.0182741027
 21
6.7891029546
  0
LINE
  5
2A5
100
AcDbEntity
  8
RACCORDO
100
AcDbLine
 62
7
  6
CONTINUOUS
 10
8.4838252057
 20
-9.9105924357
 11
8.4838252057
 21
-10.6562390412
  0
LINE
  5
2A6
100
AcDbEntity
  8
RACCORDO
100
AcDbLine
 62
7
  6
CONTINUOUS
 10
8.4838252057
 20
-14.3655550497
 11
8.4838252057
 21
-15.1112016551
  0
LINE
  5
2A7
100
AcDbEntity
  8
ASSI
100
AcDbLine
 62
7
  6
CONTINUOUS
 10
5.1569176323
 20
-15.9708970454
 11
5.4752395046
 21
-14.8048716416
  0
LINE
  5
2A8
100
AcDbEntity
  8
DRAFT
100
AcDbLine
 62
7
  6
CONTINUOUS
 10
-14.0415611353
 20
6.748513185
 11
-11.7161747943
 21
6.7891029546
  0
LINE
  5
2A9
100
AcDbEntity
  8
DRAFT
100
AcDbLine
 62
7
  6
CONTINUOUS
 10
11.4838252057
 20
6.7891029546
 11
13.8092115467
 21
6.748513185
  0
LINE
  5
2AA
100
AcDbEntity
  8
ASSI
100
AcDbLine
 62
7
  6
CONTINUOUS
 10
5.7494180053
 20
-15.9708970454
 11
6.0677398777
 21
-14.8048716416
  0
LINE
  5
2AB
100
AcDbEntity
  8
DRAFT
100
AcDbLine
 62
7
  6
CONTINUOUS
 10
13.8838252057
 20
-16.648340363
 11
13.7965498811
 21
-16.2108970454
  0
LINE
  5
2AC
100
AcDbEntity
  8
DRAFT
100
AcDbLine
 62
7
  6
CONTINUOUS
 10
11.4838252057
 20
6.7891029546
 11
11.4838252057
 21
-6.2108970454
  0
LINE
  5
2AD
100
AcDbEntity
  8
RACCORDO
100
AcDbLine
 62
253
  6
CONTINUOUS
 10
11.8838252057
 20
-19.4108970454
 11
11.8838252057
 21
-18.3129963538
  0
LINE
  5
2AE
100
AcDbEntity
  8
RACCORDO
100
AcDbLine
 62
253
  6
CONTINUOUS
 10
11.8838252057
 20
16.2912022629
 11
11.8838252057
 21
17.3891029546
  0
LINE
  5
2AF
100
AcDbEntity
  8
RACCORDO
100
AcDbLine
 62
253
  6
CONTINUOUS
 10
12.7859245141
 20
-17.4108970454
 11
12.7859245141
 21
-6.2108970454
  0
LINE
  5
2B0
100
AcDbEntity
  8
RACCORDO
100
AcDbLine
 62
253
  6
CONTINUOUS
 10
12.7859245141
 20
6.7891029546
 11
12.7859245141
 21
15.3891029546
  0
LINE
  5
2B1
100
AcDbEntity
  8
RACCORDO
100
AcDbLine
 62
253
  6
CONTINUOUS
 10
13.7857722092
 20
-17.4108970454
 11
13.7857722092
 21
-6.1937466134
  0
LINE
  5
2B2
100
AcDbEntity
  8
RACCORDO
100
AcDbLine
 62
253
  6
CONTINUOUS
 10
13.7857722092
 20
6.7719525225
 11
13.7857722092
 21
15.3891029546
  0
LINE
  5
2B3
100
AcDbEntity
  8
DRAFT
100
AcDbLine
 62
7
  6
CONTINUOUS
 10
13.7965498811
 20
-7.2108970454
 11
13.7965498811
 21
-16.2108970454
  0
LINE
  5
2B4
100
AcDbEntity
  8
DRAFT
100
AcDbLine
 62
7
  6
CONTINUOUS
 10
13.8092115467
 20
6.748513185
 11
13.8092115467
 21
-6.1703072758
  0
LINE
  5
2B5
100
AcDbEntity
  8
DRAFT
100
AcDbLine
 62
7
  6
CONTINUOUS
 10
13.8698622172
 20
-6.8434393282
 11
13.8698622172
 21
-16.5783547626
  0
LINE
  5
2B6
100
AcDbEntity
  8
DRAFT
100
AcDbLine
 62
7
  6
CONTINUOUS
 10
13.8838252057
 20
15.3891029546
 11
13.8838252057
 21
-17.4108970454
  0
LINE
  5
2B7
100
AcDbEntity
  8
RACCORDO
100
AcDbLine
 62
7
  6
CONTINUOUS
 10
13.8092115467
 20
-6.1703072758
 11
13.7857722092
 21
-6.1937466134
  0
LINE
  5
2B8
100
AcDbEntity
  8
DRAFT
100
AcDbLine
 62
7
  6
CONTINUOUS
 10
2.8279689979
 20
15.7891029546
 11
2.8838252057
 21
15.7332467468
  0
LINE
  5
2B9
100
AcDbEntity
  8
DRAFT
100
AcDbLine
 62
7
  6
CONTINUOUS
 10
13.8838252057
 20
-6.7734537278
 11
13.7965498811
 21
-7.2108970454
  0
LINE
  5
2BA
100
AcDbEntity
  8
DRAFT
100
AcDbLine
 62
7
  6
CONTINUOUS
 10
3.8838252057
 20
-17.7550408376
 11
3.8279689979
 21
-17.8108970454
  0
LINE
  5
2BB
100
AcDbEntity
  8
RACCORDO
100
AcDbLine
 62
7
  6
CONTINUOUS
 10
13.8092115467
 20
6.748513185
 11
13.7857722092
 21
6.7719525225
  0
LINE
  5
2BC
100
AcDbEntity
  8
DRAFT
100
AcDbLine
 62
7
  6
CONTINUOUS
 10
4.2781592084
 20
-17.2108970454
 11
4.3620116553
 21
-17.1829689415
  0
LINE
  5
2BD
100
AcDbEntity
  8
DRAFT
100
AcDbLine
 62
7
  6
CONTINUOUS
 10
-3.510508797
 20
15.5891029546
 11
-3.4161747943
 21
15.6048113166
  0
LINE
  5
2BE
100
AcDbEntity
  8
DRAFT
100
AcDbLine
 62
7
  6
CONTINUOUS
 10
3.3620116553
 20
15.1611748507
 11
-3.5943612439
 21
15.1611748507
  0
LINE
  5
2BF
100
AcDbEntity
  8
DRAFT
100
AcDbLine
 62
7
  6
CONTINUOUS
 10
-3.510508797
 20
15.1891029546
 11
3.2781592084
 21
15.1891029546
  0
LINE
  5
2C0
100
AcDbEntity
  8
RACCORDO
100
AcDbLine
 62
253
  6
CONTINUOUS
 10
12.7859245141
 20
15.3891029546
 11
13.8838252057
 21
15.3891029546
  0
LINE
  5
2C1
100
AcDbEntity
  8
RACCORDO
100
AcDbLine
 62
253
  6
CONTINUOUS
 10
-13.0182741027
 20
15.3891029546
 11
-14.1161747943
 21
15.3891029546
  0
LINE
  5
2C2
100
AcDbEntity
  8
DRAFT
100
AcDbLine
 62
7
  6
CONTINUOUS
 10
2.810513933
 20
15.674050799
 11
-3.0428635216
 21
15.674050799
  0
LINE
  5
2C3
100
AcDbEntity
  8
DRAFT
100
AcDbLine
 62
7
  6
CONTINUOUS
 10
-3.4161747943
 20
15.7332467468
 11
-3.1161747943
 21
15.7332467468
  0
LINE
  5
2C4
100
AcDbEntity
  8
DRAFT
100
AcDbLine
 62
7
  6
CONTINUOUS
 10
2.8838252057
 20
15.7332467468
 11
3.1838252057
 21
15.7332467468
  0
LINE
  5
2C5
100
AcDbEntity
  8
DRAFT
100
AcDbLine
 62
7
  6
CONTINUOUS
 10
-3.4161747943
 20
15.8891029546
 11
-3.0603185865
 21
15.8891029546
  0
LINE
  5
2C6
100
AcDbEntity
  8
DRAFT
100
AcDbLine
 62
7
  6
CONTINUOUS
 10
2.8279689979
 20
15.8891029546
 11
3.1838252057
 21
15.8891029546
  0
LINE
  5
2C7
100
AcDbEntity
  8
DRAFT
100
AcDbLine
 62
7
  6
CONTINUOUS
 10
3.2781592084
 20
15.5891029546
 11
3.1838252057
 21
15.6048113166
  0
LINE
  5
2C8
100
AcDbEntity
  8
DRAFT
100
AcDbLine
 62
7
  6
CONTINUOUS
 10
3.3620116553
 20
15.1611748507
 11
3.2781592084
 21
15.1891029546
  0
LINE
  5
2C9
100
AcDbEntity
  8
RACCORDO
100
AcDbLine
 62
253
  6
CONTINUOUS
 10
11.8838252057
 20
16.2912022629
 11
3.3620116553
 21
16.2912022629
  0
LINE
  5
2CA
100
AcDbEntity
  8
RACCORDO
100
AcDbLine
 62
253
  6
CONTINUOUS
 10
-3.5943612439
 20
16.2912022629
 11
-12.1161747943
 21
16.2912022629
  0
LINE
  5
2CB
100
AcDbEntity
  8
DRAFT
100
AcDbLine
 62
7
  6
CONTINUOUS
 10
2.820986972
 20
16.3891029546
 11
-3.0533365606
 21
16.3891029546
  0
LINE
  5
2CC
100
AcDbEntity
  8
RACCORDO
100
AcDbLine
 62
253
  6
CONTINUOUS
 10
11.8838252057
 20
17.2910499581
 11
3.3105185179
 21
17.2910499581
  0
LINE
  5
2CD
100
AcDbEntity
  8
RACCORDO
100
AcDbLine
 62
253
  6
CONTINUOUS
 10
-3.5428681064
 20
17.2910499581
 11
-12.1161747943
 21
17.2910499581
  0
LINE
  5
2CE
100
AcDbEntity
  8
DRAFT
100
AcDbLine
 62
7
  6
CONTINUOUS
 10
-3.4161747943
 20
17.3332467468
 11
3.1838252057
 21
17.3332467468
  0
LINE
  5
2CF
100
AcDbEntity
  8
DRAFT
100
AcDbLine
 62
7
  6
CONTINUOUS
 10
-12.1161747943
 20
17.3891029546
 11
11.8838252057
 21
17.3891029546
  0
LINE
  5
2D0
100
AcDbEntity
  8
RACCORDO
100
AcDbLine
 62
7
  6
CONTINUOUS
 10
3.3105185179
 20
17.2910499581
 11
3.1838252057
 21
17.3332467468
  0
LINE
  5
2D1
100
AcDbEntity
  8
RACCORDO
100
AcDbLine
 62
7
  6
CONTINUOUS
 10
4.1838252057
 20
-19.3550408376
 11
4.3105185179
 21
-19.3128440489
  0
ARC
  5
2D2
100
AcDbEntity
  8
RACCORDO
100
AcDbCircle
 62
7
  6
CONTINUOUS
 10
-6.6161747943
 20
-12.5108970454
 40
2.5
100
AcDbArc
 50
336.9664922739
 51
23.0335077469
  0
ARC
  5
2D3
100
AcDbEntity
  8
RACCORDO
100
AcDbCircle
 62
7
  6
CONTINUOUS
 10
-6.6161747943
 20
-12.5108970454
 40
2.5
100
AcDbArc
 50
155.6585166049
 51
204.3414836824
  0
ARC
  5
2D4
100
AcDbEntity
  8
RACCORDO
100
AcDbCircle
 62
7
  6
CONTINUOUS
 10
6.3838252057
 20
-12.5108970454
 40
2.5
100
AcDbArc
 50
156.9664922739
 51
203.0335077469
  0
ARC
  5
2D5
100
AcDbEntity
  8
RACCORDO
100
AcDbCircle
 62
7
  6
CONTINUOUS
 10
6.3838252057
 20
-12.5108970454
 40
2.5
100
AcDbArc
 50
335.6585166049
 51
24.3414836822
  0
ARC
  5
2D6
100
AcDbEntity
  8
DRAFT
100
AcDbCircle
 62
7
  6
CONTINUOUS
 10
11.8838252057
 20
15.3891029546
 40
2.0
100
AcDbArc
 50
0.0
 51
90.0
  0
ARC
  5
2D7
100
AcDbEntity
  8
DRAFT
100
AcDbCircle
 62
7
  6
CONTINUOUS
 10
-12.1161747943
 20
15.3891029546
 40
2.0
100
AcDbArc
 50
90.0
 51
180.0
  0
ARC
  5
2D8
100
AcDbEntity
  8
DRAFT
100
AcDbCircle
 62
7
  6
CONTINUOUS
 10
-12.1161747943
 20
-17.4108970454
 40
2.0
100
AcDbArc
 50
180.0
 51
270.0
  0
ARC
  5
2D9
100
AcDbEntity
  8
DRAFT
100
AcDbCircle
 62
7
  6
CONTINUOUS
 10
11.8838252057
 20
-17.4108970454
 40
2.0
100
AcDbArc
 50
270.0
 51
360.0
  0
ARC
  5
2DA
100
AcDbEntity
  8
RACCORDO
100
AcDbCircle
 62
7
  6
CONTINUOUS
 10
-10.7157852666
 20
-10.6562573544
 40
1.9996104724
100
AcDbArc
 50
335.6579922062
 51
0.0005247411
  0
ARC
  5
2DB
100
AcDbEntity
  8
RACCORDO
100
AcDbCircle
 62
7
  6
CONTINUOUS
 10
10.483435678
 20
-14.3655367364
 40
1.9996104724
100
AcDbArc
 50
155.6579922062
 51
180.0005247411
  0
ARC
  5
2DC
100
AcDbEntity
  8
RACCORDO
100
AcDbCircle
 62
7
  6
CONTINUOUS
 10
-10.7157852464
 20
-14.3655367342
 40
1.9996104522
100
AcDbArc
 50
359.9994751982
 51
24.3420076151
  0
ARC
  5
2DD
100
AcDbEntity
  8
RACCORDO
100
AcDbCircle
 62
7
  6
CONTINUOUS
 10
10.4834356578
 20
-10.6562573566
 40
1.9996104522
100
AcDbArc
 50
179.9994751982
 51
204.3420076152
  0
ARC
  5
2DE
100
AcDbEntity
  8
RACCORDO
100
AcDbCircle
 62
253
  6
CONTINUOUS
 10
11.8838252057
 20
-17.4108970454
 40
1.9019470035
100
AcDbArc
 50
270.0
 51
360.0
  0
ARC
  5
2DF
100
AcDbEntity
  8
RACCORDO
100
AcDbCircle
 62
253
  6
CONTINUOUS
 10
-12.1161747943
 20
-17.4108970454
 40
1.9019470035
100
AcDbArc
 50
180.0
 51
270.0
  0
ARC
  5
2E0
100
AcDbEntity
  8
RACCORDO
100
AcDbCircle
 62
253
  6
CONTINUOUS
 10
11.8838252057
 20
15.3891029546
 40
1.9019470035
100
AcDbArc
 50
0.0
 51
90.0
  0
ARC
  5
2E1
100
AcDbEntity
  8
RACCORDO
100
AcDbCircle
 62
253
  6
CONTINUOUS
 10
-12.1161747943
 20
15.3891029546
 40
1.9019470035
100
AcDbArc
 50
90.0
 51
180.0
  0
ARC
  5
2E2
100
AcDbEntity
  8
RACCORDO
100
AcDbCircle
 62
253
  6
CONTINUOUS
 10
11.8838252057
 20
-17.4108970454
 40
0.9020993084
100
AcDbArc
 50
270.0
 51
360.0
  0
ARC
  5
2E3
100
AcDbEntity
  8
RACCORDO
100
AcDbCircle
 62
253
  6
CONTINUOUS
 10
-12.1161747943
 20
-17.4108970454
 40
0.9020993084
100
AcDbArc
 50
180.0
 51
270.0
  0
ARC
  5
2E4
100
AcDbEntity
  8
RACCORDO
100
AcDbCircle
 62
253
  6
CONTINUOUS
 10
-12.1161747943
 20
15.3891029546
 40
0.9020993084
100
AcDbArc
 50
90.0
 51
180.0
  0
ARC
  5
2E5
100
AcDbEntity
  8
RACCORDO
100
AcDbCircle
 62
253
  6
CONTINUOUS
 10
11.8838252057
 20
15.3891029546
 40
0.9020993084
100
AcDbArc
 50
0.0
 51
90.0
  0
ARC
  5
2E6
100
AcDbEntity
  8
0
100
AcDbCircle
 62
7
  6
CONTINUOUS
 10
-6.3311074789
 20
-9.7953590068
 40
0.4945069178
100
AcDbArc
 50
223.6867494865
 51
234.7975135012
  0
ARC
  5
2E7
100
AcDbEntity
  8
0
100
AcDbCircle
 62
7
  6
CONTINUOUS
 10
6.0987578903
 20
-15.1464350841
 40
0.4945069178
100
AcDbArc
 50
43.6867494866
 51
54.7975135012
  0
ARC
  5
2E8
100
AcDbEntity
  8
0
100
AcDbCircle
 62
7
  6
CONTINUOUS
 10
-6.3334408806
 20
-15.14372779
 40
0.4909497251
100
AcDbArc
 50
125.1621067903
 51
136.353630222
  0
ARC
  5
2E9
100
AcDbEntity
  8
0
100
AcDbCircle
 62
7
  6
CONTINUOUS
 10
6.101091292
 20
-9.7980663008
 40
0.4909497251
100
AcDbArc
 50
305.1621067903
 51
316.353630222
  0
SPLINE
  5
2EA
100
AcDbEntity
  8
0
100
AcDbSpline
 62
7
  6
CONTINUOUS
 70
0
 71
3
 72
9
 73
5
 74
3
 42
0.0000001
 43
0.0000001
 44
0.0000000001
 12
0.0452318408
 22
0.0377527193
 32
0.0
 13
0.0127747885
 23
0.0575151459
 33
0.0
 40
0.0
 40
0.0
 40
0.0
 40
0.0
 40
0.4785903751
 40
1.0
 40
1.0
 40
1.0
 40
1.0
 10
-6.3487659208
 20
-10.2486917436
 30
0.0
 10
-6.3415500796
 20
-10.2426690476
 30
0.0
 10
-6.3287641245
 20
-10.2271099096
 30
0.0
 10
-6.322144907
 20
-10.2082597195
 30
0.0
 10
-6.3199246077
 20
-10.1982634026
 30
0.0
 11
-6.3487659208
 21
-10.2486917436
 31
0.0
 11
-6.330724093
 21
-10.2270223289
 31
0.0
 11
-6.3199246077
 21
-10.1982634026
 31
0.0
  0
SPLINE
  5
2EB
100
AcDbEntity
  8
0
100
AcDbSpline
 62
7
  6
CONTINUOUS
 70
0
 71
3
 72
9
 73
5
 74
3
 42
0.0000001
 43
0.0000001
 44
0.0000000001
 12
-0.0058409725
 22
0.0262974519
 32
0.0
 13
-0.0123265316
 23
0.0239526523
 33
0.0
 40
0.0
 40
0.0
 40
0.0
 40
0.0
 40
0.2616401455
 40
1.0
 40
1.0
 40
1.0
 40
1.0
 10
-6.3199246077
 20
-14.7435306882
 30
0.0
 10
-6.3204340187
 20
-14.7412371985
 30
0.0
 10
-6.3226225891
 20
-14.7325292245
 30
0.0
 10
-6.3258475786
 20
-14.7240631329
 30
0.0
 10
-6.328881384
 20
-14.7181679073
 30
0.0
 11
-6.3199246077
 21
-14.7435306882
 31
0.0
 11
-6.3216502031
 21
-14.7366970455
 31
0.0
 11
-6.328881384
 21
-14.7181679073
 31
0.0
  0
SPLINE
  5
2EC
100
AcDbEntity
  8
0
100
AcDbSpline
 62
7
  6
CONTINUOUS
 70
0
 71
3
 72
9
 73
5
 74
3
 42
0.0000001
 43
0.0000001
 44
0.0000000001
 12
0.0
 22
0.2402515832
 32
0.0
 13
0.1326705203
 23
0.2002981685
 33
0.0
 40
0.0
 40
0.0
 40
0.0
 40
0.0
 40
0.4748778608
 40
1.0
 40
1.0
 40
1.0
 40
1.0
 10
-6.9161747943
 20
-15.2090168301
 30
0.0
 10
-6.9161747943
 20
-15.1709867774
 30
0.0
 10
-6.9001633563
 20
-15.0906122581
 30
0.0
 10
-6.8615360241
 20
-15.019540413
 30
0.0
 10
-6.8383132816
 20
-14.9844800788
 30
0.0
 11
-6.9161747943
 21
-15.2090168301
 31
0.0
 11
-6.8958677521
 21
-15.0967484544
 31
0.0
 11
-6.8383132816
 21
-14.9844800788
 31
0.0
  0
SPLINE
  5
2ED
100
AcDbEntity
  8
0
100
AcDbSpline
 62
7
  6
CONTINUOUS
 70
0
 71
3
 72
9
 73
5
 74
3
 42
0.0000001
 43
0.0000001
 44
0.0000000001
 12
0.1292066859
 22
0.1950686745
 32
0.0
 13
0.1616465234
 23
0.1691642897
 33
0.0
 40
0.0
 40
0.0
 40
0.0
 40
0.0
 40
0.4820107771
 40
1.0
 40
1.0
 40
1.0
 40
1.0
 10
-6.8383132816
 20
-14.9844800788
 30
0.0
 10
-6.8175536099
 20
-14.9531383443
 30
0.0
 10
-6.7694669542
 20
-14.8914561956
 30
0.0
 10
-6.7166091208
 20
-14.8340800679
 30
0.0
 10
-6.6886987351
 20
-14.8048716416
 30
0.0
 11
-6.8383132816
 21
-14.9844800788
 31
0.0
 11
-6.7700885287
 21
-14.8946758602
 31
0.0
 11
-6.6886987351
 21
-14.8048716416
 31
0.0
  0
SPLINE
  5
2EE
100
AcDbEntity
  8
0
100
AcDbSpline
 62
7
  6
CONTINUOUS
 70
0
 71
3
 72
9
 73
5
 74
3
 42
0.0000001
 43
0.0000001
 44
0.0000000001
 12
0.0
 22
-0.2402515832
 32
0.0
 13
0.1326705203
 23
-0.2002981685
 33
0.0
 40
0.0
 40
0.0
 40
0.0
 40
0.0
 40
0.4748778608
 40
1.0
 40
1.0
 40
1.0
 40
1.0
 10
-6.9161747943
 20
-9.7327772608
 30
0.0
 10
-6.9161747943
 20
-9.7708073134
 30
0.0
 10
-6.9001633563
 20
-9.8511818327
 30
0.0
 10
-6.8615360241
 20
-9.9222536778
 30
0.0
 10
-6.8383132816
 20
-9.957314012
 30
0.0
 11
-6.9161747943
 21
-9.7327772608
 31
0.0
 11
-6.8958677521
 21
-9.8450456364
 31
0.0
 11
-6.8383132816
 21
-9.957314012
 31
0.0
  0
SPLINE
  5
2EF
100
AcDbEntity
  8
0
100
AcDbSpline
 62
7
  6
CONTINUOUS
 70
0
 71
3
 72
9
 73
5
 74
3
 42
0.0000001
 43
0.0000001
 44
0.0000000001
 12
0.1292066859
 22
-0.1950686745
 32
0.0
 13
0.1616465234
 23
-0.1691642897
 33
0.0
 40
0.0
 40
0.0
 40
0.0
 40
0.0
 40
0.4820107771
 40
1.0
 40
1.0
 40
1.0
 40
1.0
 10
-6.8383132816
 20
-9.957314012
 30
0.0
 10
-6.8175536099
 20
-9.9886557465
 30
0.0
 10
-6.7694669542
 20
-10.0503378952
 30
0.0
 10
-6.7166091208
 20
-10.1077140229
 30
0.0
 10
-6.6886987351
 20
-10.1369224492
 30
0.0
 11
-6.8383132816
 21
-9.957314012
 31
0.0
 11
-6.7700885287
 21
-10.0471182306
 31
0.0
 11
-6.6886987351
 21
-10.1369224492
 31
0.0
  0
SPLINE
  5
2F0
100
AcDbEntity
  8
ASSI
100
AcDbSpline
 62
7
  6
CONTINUOUS
 70
0
 71
3
 72
9
 73
5
 74
3
 42
0.0000001
 43
0.0000001
 44
0.0000000001
 12
-0.0169824056
 22
0.0622072124
 32
0.0
 13
-0.0234641907
 23
0.0600630596
 33
0.0
 40
0.0
 40
0.0
 40
0.0
 40
0.0
 40
0.2737331072
 40
1.0
 40
1.0
 40
1.0
 40
1.0
 10
-6.3000894663
 20
-14.8048716416
 30
0.0
 10
-6.3016390151
 20
-14.7991955838
 30
0.0
 10
-6.3075098921
 20
-14.7785203746
 30
0.0
 10
-6.3142441861
 20
-14.7580712921
 30
0.0
 10
-6.3199246077
 20
-14.7435306882
 30
0.0
 11
-6.3000894663
 21
-14.8048716416
 31
0.0
 11
-6.3049178176
 21
-14.7878935489
 31
0.0
 11
-6.3199246077
 21
-14.7435306882
 31
0.0
  0
SPLINE
  5
2F1
100
AcDbEntity
  8
ASSI
100
AcDbSpline
 62
7
  6
CONTINUOUS
 70
0
 71
3
 72
9
 73
5
 74
3
 42
0.0000001
 43
0.0000001
 44
0.0000000001
 12
0.0234649558
 22
0.0600650183
 32
0.0
 13
0.0169829594
 23
0.062209241
 33
0.0
 40
0.0
 40
0.0
 40
0.0
 40
0.0
 40
0.2261794072
 40
1.0
 40
1.0
 40
1.0
 40
1.0
 10
-6.3199246077
 20
-10.1982634026
 30
0.0
 10
-6.3181555111
 20
-10.1937349126
 30
0.0
 10
-6.310690265
 20
-10.1735739605
 30
0.0
 10
-6.3044700542
 20
-10.1529687131
 30
0.0
 10
-6.3000894663
 20
-10.1369224492
 30
0.0
 11
-6.3199246077
 21
-10.1982634026
 31
0.0
 11
-6.3148422337
 21
-10.1845921993
 31
0.0
 11
-6.3000894663
 21
-10.1369224492
 31
0.0
  0
SPLINE
  5
2F2
100
AcDbEntity
  8
0
100
AcDbSpline
 62
7
  6
CONTINUOUS
 70
0
 71
3
 72
9
 73
5
 74
3
 42
0.0000001
 43
0.0000001
 44
0.0000000001
 12
-0.0452318408
 22
-0.0377527193
 32
0.0
 13
-0.0127747885
 23
-0.0575151459
 33
0.0
 40
0.0
 40
0.0
 40
0.0
 40
0.0
 40
0.4785903751
 40
1.0
 40
1.0
 40
1.0
 40
1.0
 10
6.1164163322
 20
-14.6931023472
 30
0.0
 10
6.109200491
 20
-14.6991250432
 30
0.0
 10
6.0964145359
 20
-14.7146841812
 30
0.0
 10
6.0897953184
 20
-14.7335343713
 30
0.0
 10
6.0875750192
 20
-14.7435306882
 30
0.0
 11
6.1164163322
 21
-14.6931023472
 31
0.0
 11
6.0983745044
 21
-14.7147717619
 31
0.0
 11
6.0875750192
 21
-14.7435306882
 31
0.0
  0
SPLINE
  5
2F3
100
AcDbEntity
  8
0
100
AcDbSpline
 62
7
  6
CONTINUOUS
 70
0
 71
3
 72
9
 73
5
 74
3
 42
0.0000001
 43
0.0000001
 44
0.0000000001
 12
0.0058409725
 22
-0.0262974519
 32
0.0
 13
0.0123265316
 23
-0.0239526523
 33
0.0
 40
0.0
 40
0.0
 40
0.0
 40
0.0
 40
0.2616401455
 40
1.0
 40
1.0
 40
1.0
 40
1.0
 10
6.0875750192
 20
-10.1982634026
 30
0.0
 10
6.0880844301
 20
-10.2005568924
 30
0.0
 10
6.0902730005
 20
-10.2092648663
 30
0.0
 10
6.0934979901
 20
-10.2177309579
 30
0.0
 10
6.0965317954
 20
-10.2236261836
 30
0.0
 11
6.0875750192
 21
-10.1982634026
 31
0.0
 11
6.0893006145
 21
-10.2050970453
 31
0.0
 11
6.0965317954
 21
-10.2236261836
 31
0.0
  0
SPLINE
  5
2F4
100
AcDbEntity
  8
0
100
AcDbSpline
 62
7
  6
CONTINUOUS
 70
0
 71
3
 72
9
 73
5
 74
3
 42
0.0000001
 43
0.0000001
 44
0.0000000001
 12
0.0
 22
-0.2402515832
 32
0.0
 13
-0.1326705203
 23
-0.2002981685
 33
0.0
 40
0.0
 40
0.0
 40
0.0
 40
0.0
 40
0.4748778608
 40
1.0
 40
1.0
 40
1.0
 40
1.0
 10
6.6838252057
 20
-9.7327772608
 30
0.0
 10
6.6838252057
 20
-9.7708073134
 30
0.0
 10
6.6678137677
 20
-9.8511818327
 30
0.0
 10
6.6291864355
 20
-9.9222536778
 30
0.0
 10
6.605963693
 20
-9.957314012
 30
0.0
 11
6.6838252057
 21
-9.7327772608
 31
0.0
 11
6.6635181636
 21
-9.8450456364
 31
0.0
 11
6.605963693
 21
-9.957314012
 31
0.0
  0
SPLINE
  5
2F5
100
AcDbEntity
  8
0
100
AcDbSpline
 62
7
  6
CONTINUOUS
 70
0
 71
3
 72
9
 73
5
 74
3
 42
0.0000001
 43
0.0000001
 44
0.0000000001
 12
-0.1292066859
 22
-0.1950686745
 32
0.0
 13
-0.1616465234
 23
-0.1691642897
 33
0.0
 40
0.0
 40
0.0
 40
0.0
 40
0.0
 40
0.4820107771
 40
1.0
 40
1.0
 40
1.0
 40
1.0
 10
6.605963693
 20
-9.957314012
 30
0.0
 10
6.5852040213
 20
-9.9886557465
 30
0.0
 10
6.5371173656
 20
-10.0503378952
 30
0.0
 10
6.4842595322
 20
-10.1077140229
 30
0.0
 10
6.4563491466
 20
-10.1369224492
 30
0.0
 11
6.605963693
 21
-9.957314012
 31
0.0
 11
6.5377389401
 21
-10.0471182306
 31
0.0
 11
6.4563491466
 21
-10.1369224492
 31
0.0
  0
SPLINE
  5
2F6
100
AcDbEntity
  8
0
100
AcDbSpline
 62
7
  6
CONTINUOUS
 70
0
 71
3
 72
9
 73
5
 74
3
 42
0.0000001
 43
0.0000001
 44
0.0000000001
 12
0.0
 22
0.2402515832
 32
0.0
 13
-0.1326705203
 23
0.2002981685
 33
0.0
 40
0.0
 40
0.0
 40
0.0
 40
0.0
 40
0.4748778608
 40
1.0
 40
1.0
 40
1.0
 40
1.0
 10
6.6838252057
 20
-15.2090168301
 30
0.0
 10
6.6838252057
 20
-15.1709867774
 30
0.0
 10
6.6678137677
 20
-15.0906122581
 30
0.0
 10
6.6291864355
 20
-15.019540413
 30
0.0
 10
6.605963693
 20
-14.9844800788
 30
0.0
 11
6.6838252057
 21
-15.2090168301
 31
0.0
 11
6.6635181636
 21
-15.0967484544
 31
0.0
 11
6.605963693
 21
-14.9844800788
 31
0.0
  0
SPLINE
  5
2F7
100
AcDbEntity
  8
0
100
AcDbSpline
 62
7
  6
CONTINUOUS
 70
0
 71
3
 72
9
 73
5
 74
3
 42
0.0000001
 43
0.0000001
 44
0.0000000001
 12
-0.1292066859
 22
0.1950686745
 32
0.0
 13
-0.1616465234
 23
0.1691642897
 33
0.0
 40
0.0
 40
0.0
 40
0.0
 40
0.0
 40
0.4820107771
 40
1.0
 40
1.0
 40
1.0
 40
1.0
 10
6.605963693
 20
-14.9844800788
 30
0.0
 10
6.5852040213
 20
-14.9531383443
 30
0.0
 10
6.5371173656
 20
-14.8914561956
 30
0.0
 10
6.4842595322
 20
-14.8340800679
 30
0.0
 10
6.4563491466
 20
-14.8048716416
 30
0.0
 11
6.605963693
 21
-14.9844800788
 31
0.0
 11
6.5377389401
 21
-14.8946758602
 31
0.0
 11
6.4563491466
 21
-14.8048716416
 31
0.0
  0
SPLINE
  5
2F8
100
AcDbEntity
  8
ASSI
100
AcDbSpline
 62
7
  6
CONTINUOUS
 70
0
 71
3
 72
9
 73
5
 74
3
 42
0.0000001
 43
0.0000001
 44
0.0000000001
 12
0.0169824056
 22
-0.0622072124
 32
0.0
 13
0.0234641907
 23
-0.0600630596
 33
0.0
 40
0.0
 40
0.0
 40
0.0
 40
0.0
 40
0.2737331072
 40
1.0
 40
1.0
 40
1.0
 40
1.0
 10
6.0677398777
 20
-10.1369224492
 30
0.0
 10
6.0692894266
 20
-10.142598507
 30
0.0
 10
6.0751603035
 20
-10.1632737163
 30
0.0
 10
6.0818945975
 20
-10.1837227988
 30
0.0
 10
6.0875750192
 20
-10.1982634026
 30
0.0
 11
6.0677398777
 21
-10.1369224492
 31
0.0
 11
6.072568229
 21
-10.1539005419
 31
0.0
 11
6.0875750192
 21
-10.1982634026
 31
0.0
  0
SPLINE
  5
2F9
100
AcDbEntity
  8
ASSI
100
AcDbSpline
 62
7
  6
CONTINUOUS
 70
0
 71
3
 72
9
 73
5
 74
3
 42
0.0000001
 43
0.0000001
 44
0.0000000001
 12
-0.0234649558
 22
-0.0600650183
 32
0.0
 13
-0.0169829594
 23
-0.062209241
 33
0.0
 40
0.0
 40
0.0
 40
0.0
 40
0.0
 40
0.2261794072
 40
1.0
 40
1.0
 40
1.0
 40
1.0
 10
6.0875750192
 20
-14.7435306882
 30
0.0
 10
6.0858059226
 20
-14.7480591782
 30
0.0
 10
6.0783406764
 20
-14.7682201303
 30
0.0
 10
6.0721204656
 20
-14.7888253777
 30
0.0
 10
6.0677398777
 20
-14.8048716416
 30
0.0
 11
6.0875750192
 21
-14.7435306882
 31
0.0
 11
6.0824926451
 21
-14.7572018915
 31
0.0
 11
6.0677398777
 21
-14.8048716416
 31
0.0
  0
SPLINE
  5
2FA
100
AcDbEntity
  8
0
100
AcDbSpline
 62
7
  6
CONTINUOUS
 70
0
 71
3
 72
9
 73
5
 74
3
 42
0.0000001
 43
0.0000001
 44
0.0000000001
 12
-0.5871529451
 22
-0.000000092
 32
0.0
 13
-0.5716397428
 23
-0.1340767891
 33
0.0
 40
0.0
 40
0.0
 40
0.0
 40
0.0
 40
0.473540687
 40
1.0
 40
1.0
 40
1.0
 40
1.0
 10
-6.0342573164
 20
-14.6709021419
 30
0.0
 10
-6.1269375861
 20
-14.6709021565
 30
0.0
 10
-6.3226116796
 20
-14.6855205319
 30
0.0
 10
-6.5158579289
 20
-14.7188345674
 30
0.0
 10
-6.616172951
 20
-14.7423632255
 30
0.0
 11
-6.0342573164
 21
-14.6709021419
 31
0.0
 11
-6.3117124537
 21
-14.688939277
 31
0.0
 11
-6.616172951
 21
-14.7423632255
 31
0.0
  0
SPLINE
  5
2FB
100
AcDbEntity
  8
0
100
AcDbSpline
 62
7
  6
CONTINUOUS
 70
0
 71
3
 72
9
 73
5
 74
3
 42
0.0000001
 43
0.0000001
 44
0.0000000001
 12
0.5716397428
 22
-0.1340767891
 32
0.0
 13
0.5871529451
 23
-0.000000092
 33
0.0
 40
0.0
 40
0.0
 40
0.0
 40
0.0
 40
0.526459313
 40
1.0
 40
1.0
 40
1.0
 40
1.0
 10
-6.616172951
 20
-10.1994308653
 30
0.0
 10
-6.5158579289
 20
-10.2229595234
 30
0.0
 10
-6.3226116796
 20
-10.2562735589
 30
0.0
 10
-6.1269375861
 20
-10.2708919344
 30
0.0
 10
-6.0342573164
 20
-10.2708919489
 30
0.0
 11
-6.616172951
 21
-10.1994308653
 31
0.0
 11
-6.3117124537
 21
-10.2528548138
 31
0.0
 11
-6.0342573164
 21
-10.2708919489
 31
0.0
  0
SPLINE
  5
2FC
100
AcDbEntity
  8
ASSI
100
AcDbSpline
 62
7
  6
CONTINUOUS
 70
0
 71
3
 72
9
 73
5
 74
3
 42
0.0000001
 43
0.0000001
 44
0.0000000001
 12
-0.0169824056
 22
0.0622072124
 32
0.0
 13
-0.0234641907
 23
0.0600630596
 33
0.0
 40
0.0
 40
0.0
 40
0.0
 40
0.0
 40
0.2737331072
 40
1.0
 40
1.0
 40
1.0
 40
1.0
 10
-5.7075890932
 20
-14.8048716416
 30
0.0
 10
-5.7091386421
 20
-14.7991955838
 30
0.0
 10
-5.715009519
 20
-14.7785203746
 30
0.0
 10
-5.721743813
 20
-14.7580712921
 30
0.0
 10
-5.7274242347
 20
-14.7435306882
 30
0.0
 11
-5.7075890932
 21
-14.8048716416
 31
0.0
 11
-5.7124174445
 21
-14.7878935489
 31
0.0
 11
-5.7274242347
 21
-14.7435306882
 31
0.0
  0
SPLINE
  5
2FD
100
AcDbEntity
  8
ASSI
100
AcDbSpline
 62
7
  6
CONTINUOUS
 70
0
 71
3
 72
9
 73
5
 74
3
 42
0.0000001
 43
0.0000001
 44
0.0000000001
 12
0.0234649558
 22
0.0600650183
 32
0.0
 13
0.0169829594
 23
0.062209241
 33
0.0
 40
0.0
 40
0.0
 40
0.0
 40
0.0
 40
0.2261794072
 40
1.0
 40
1.0
 40
1.0
 40
1.0
 10
-5.7274242347
 20
-10.1982634026
 30
0.0
 10
-5.7256551381
 20
-10.1937349126
 30
0.0
 10
-5.7181898919
 20
-10.1735739605
 30
0.0
 10
-5.7119696811
 20
-10.1529687131
 30
0.0
 10
-5.7075890932
 20
-10.1369224492
 30
0.0
 11
-5.7274242347
 21
-10.1982634026
 31
0.0
 11
-5.7223418606
 21
-10.1845921993
 31
0.0
 11
-5.7075890932
 21
-10.1369224492
 31
0.0
  0
SPLINE
  5
2FE
100
AcDbEntity
  8
0
100
AcDbSpline
 62
7
  6
CONTINUOUS
 70
0
 71
3
 72
15
 73
11
 74
9
 42
0.0000001
 43
0.0000001
 44
0.0000000001
 12
0.0
 22
-0.8209316158
 32
0.0
 13
0.775124117
 23
-0.2703910523
 33
0.0
 40
0.0
 40
0.0
 40
0.0
 40
0.0
 40
0.0631650264
 40
0.1392773301
 40
0.2348471729
 40
0.3518880791
 40
0.4896626293
 40
0.6462733712
 40
0.81800307
 40
1.0
 40
1.0
 40
1.0
 40
1.0
 10
-7.5161747943
 20
-9.7327772608
 30
0.0
 10
-7.5161747943
 20
-9.7500619831
 30
0.0
 10
-7.505443195
 20
-9.7882939135
 30
0.0
 10
-7.4651154832
 20
-9.839444706
 30
0.0
 10
-7.4034170829
 20
-9.8893778781
 30
0.0
 10
-7.3210856153
 20
-9.9388796187
 30
0.0
 10
-7.2199781402
 20
-9.988582338
 30
0.0
 10
-7.1024703359
 20
-10.0383041898
 30
0.0
 10
-6.9719680714
 20
-10.0880652155
 30
0.0
 10
-6.8807700201
 20
-10.1205190021
 30
0.0
 10
-6.8337466169
 20
-10.1369224492
 30
0.0
 11
-7.5161747943
 21
-9.7327772608
 31
0.0
 11
-7.5037289239
 21
-9.7831156652
 31
0.0
 11
-7.4670403429
 21
-9.8336930601
 31
0.0
 11
-7.4070911475
 21
-9.8843041838
 31
0.0
 11
-7.3253782516
 21
-9.934849855
 31
0.0
 11
-7.2241975556
 21
-9.9853955261
 31
0.0
 11
-7.1060116304
 21
-10.0360066499
 31
0.0
 11
-6.9744182444
 21
-10.0865840448
 31
0.0
 11
-6.8337466169
 21
-10.1369224492
 31
0.0
  0
SPLINE
  5
2FF
100
AcDbEntity
  8
0
100
AcDbSpline
 62
7
  6
CONTINUOUS
 70
0
 71
3
 72
9
 73
5
 74
3
 42
0.0000001
 43
0.0000001
 44
0.0000000001
 12
0.2138005494
 22
-0.0745812887
 32
0.0
 13
0.2204528513
 23
-0.0517067101
 33
0.0
 40
0.0
 40
0.0
 40
0.0
 40
0.0
 40
0.2430988166
 40
1.0
 40
1.0
 40
1.0
 40
1.0
 10
-6.8337466169
 20
-10.1369224492
 30
0.0
 10
-6.81642173
 20
-10.1429659902
 30
0.0
 10
-6.744766023
 20
-10.1667079314
 30
0.0
 10
-6.6717932924
 20
-10.1863852419
 30
0.0
 10
-6.616172951
 20
-10.1994308653
 30
0.0
 11
-6.8337466169
 21
-10.1369224492
 31
0.0
 11
-6.7815050627
 21
-10.1542690582
 31
0.0
 11
-6.616172951
 21
-10.1994308653
 31
0.0
  0
SPLINE
  5
300
100
AcDbEntity
  8
0
100
AcDbSpline
 62
7
  6
CONTINUOUS
 70
0
 71
3
 72
11
 73
7
 74
5
 42
0.0000001
 43
0.0000001
 44
0.0000000001
 12
-0.1793273025
 22
0.2691247686
 32
0.0
 13
-0.3233982413
 23
-0.0000000507
 33
0.0
 40
0.0
 40
0.0
 40
0.0
 40
0.0
 40
0.1513390061
 40
0.3622119995
 40
0.6460912533
 40
1.0
 40
1.0
 40
1.0
 40
1.0
 10
-5.7274242347
 20
-14.7435306882
 30
0.0
 10
-5.7364706399
 20
-14.7299543298
 30
0.0
 10
-5.7694784631
 20
-14.7057748468
 30
0.0
 10
-5.83634476
 20
-14.6853794607
 30
0.0
 10
-5.9273206215
 20
-14.6730678472
 30
0.0
 10
-5.996106161
 20
-14.670902136
 30
0.0
 10
-6.0342573164
 20
-14.6709021419
 30
0.0
 11
-5.7274242347
 21
-14.7435306882
 31
0.0
 11
-5.7648350969
 21
-14.7119740413
 31
0.0
 11
-5.8291221437
 21
-14.6892174176
 31
0.0
 11
-5.919895749
 21
-14.6754877541
 31
0.0
 11
-6.0342573164
 21
-14.6709021419
 31
0.0
  0
SPLINE
  5
301
100
AcDbEntity
  8
0
100
AcDbSpline
 62
7
  6
CONTINUOUS
 70
0
 71
3
 72
15
 73
11
 74
9
 42
0.0000001
 43
0.0000001
 44
0.0000000001
 12
0.0
 22
0.8209316158
 32
0.0
 13
0.775124117
 23
0.2703910523
 33
0.0
 40
0.0
 40
0.0
 40
0.0
 40
0.0
 40
0.0631650264
 40
0.1392773301
 40
0.2348471729
 40
0.3518880791
 40
0.4896626293
 40
0.6462733712
 40
0.81800307
 40
1.0
 40
1.0
 40
1.0
 40
1.0
 10
-7.5161747943
 20
-15.2090168301
 30
0.0
 10
-7.5161747943
 20
-15.1917321077
 30
0.0
 10
-7.505443195
 20
-15.1535001773
 30
0.0
 10
-7.4651154832
 20
-15.1023493848
 30
0.0
 10
-7.4034170829
 20
-15.0524162127
 30
0.0
 10
-7.3210856153
 20
-15.0029144721
 30
0.0
 10
-7.2199781402
 20
-14.9532117528
 30
0.0
 10
-7.1024703359
 20
-14.9034899011
 30
0.0
 10
-6.9719680714
 20
-14.8537288753
 30
0.0
 10
-6.8807700201
 20
-14.8212750888
 30
0.0
 10
-6.8337466169
 20
-14.8048716416
 30
0.0
 11
-7.5161747943
 21
-15.2090168301
 31
0.0
 11
-7.5037289239
 21
-15.1586784256
 31
0.0
 11
-7.4670403429
 21
-15.1081010308
 31
0.0
 11
-7.4070911475
 21
-15.057489907
 31
0.0
 11
-7.3253782516
 21
-15.0069442358
 31
0.0
 11
-7.2241975556
 21
-14.9563985647
 31
0.0
 11
-7.1060116304
 21
-14.9057874409
 31
0.0
 11
-6.9744182444
 21
-14.855210046
 31
0.0
 11
-6.8337466169
 21
-14.8048716416
 31
0.0
  0
SPLINE
  5
302
100
AcDbEntity
  8
0
100
AcDbSpline
 62
7
  6
CONTINUOUS
 70
0
 71
3
 72
11
 73
7
 74
5
 42
0.0000001
 43
0.0000001
 44
0.0000000001
 12
0.3233982413
 22
-0.0000000507
 32
0.0
 13
0.1793273025
 23
0.2691247686
 33
0.0
 40
0.0
 40
0.0
 40
0.0
 40
0.0
 40
0.3539087467
 40
0.6377880005
 40
0.8486609939
 40
1.0
 40
1.0
 40
1.0
 40
1.0
 10
-6.0342573164
 20
-10.2708919489
 30
0.0
 10
-5.996106161
 20
-10.2708919549
 30
0.0
 10
-5.9273206215
 20
-10.2687262437
 30
0.0
 10
-5.83634476
 20
-10.2564146302
 30
0.0
 10
-5.7694784631
 20
-10.236019244
 30
0.0
 10
-5.7364706399
 20
-10.211839761
 30
0.0
 10
-5.7274242347
 20
-10.1982634026
 30
0.0
 11
-6.0342573164
 21
-10.2708919489
 31
0.0
 11
-5.919895749
 21
-10.2663063367
 31
0.0
 11
-5.8291221437
 21
-10.2525766732
 31
0.0
 11
-5.7648350969
 21
-10.2298200496
 31
0.0
 11
-5.7274242347
 21
-10.1982634026
 31
0.0
  0
SPLINE
  5
303
100
AcDbEntity
  8
0
100
AcDbSpline
 62
7
  6
CONTINUOUS
 70
0
 71
3
 72
9
 73
5
 74
3
 42
0.0000001
 43
0.0000001
 44
0.0000000001
 12
-0.2204478197
 22
-0.0517055299
 32
0.0
 13
-0.2137956696
 23
-0.0745795864
 33
0.0
 40
0.0
 40
0.0
 40
0.0
 40
0.0
 40
0.2559318619
 40
1.0
 40
1.0
 40
1.0
 40
1.0
 10
-6.616172951
 20
-14.7423632255
 30
0.0
 10
-6.6349794914
 20
-14.7467742564
 30
0.0
 10
-6.7082579549
 20
-14.7648501081
 30
0.0
 10
-6.7807204349
 20
-14.7863742103
 30
0.0
 10
-6.8337466169
 20
-14.8048716416
 30
0.0
 11
-6.616172951
 21
-14.7423632255
 31
0.0
 11
-6.6724346308
 21
-14.7562524934
 31
0.0
 11
-6.8337466169
 21
-14.8048716416
 31
0.0
  0
SPLINE
  5
304
100
AcDbEntity
  8
0
100
AcDbSpline
 62
7
  6
CONTINUOUS
 70
0
 71
3
 72
9
 73
5
 74
3
 42
0.0000001
 43
0.0000001
 44
0.0000000001
 12
0.5871529451
 22
0.000000092
 32
0.0
 13
0.5716397428
 23
0.1340767891
 33
0.0
 40
0.0
 40
0.0
 40
0.0
 40
0.0
 40
0.473540687
 40
1.0
 40
1.0
 40
1.0
 40
1.0
 10
5.8019077279
 20
-10.2708919489
 30
0.0
 10
5.8945879975
 20
-10.2708919344
 30
0.0
 10
6.090262091
 20
-10.2562735589
 30
0.0
 10
6.2835083404
 20
-10.2229595234
 30
0.0
 10
6.3838233625
 20
-10.1994308653
 30
0.0
 11
5.8019077279
 21
-10.2708919489
 31
0.0
 11
6.0793628652
 21
-10.2528548138
 31
0.0
 11
6.3838233625
 21
-10.1994308653
 31
0.0
  0
SPLINE
  5
305
100
AcDbEntity
  8
0
100
AcDbSpline
 62
7
  6
CONTINUOUS
 70
0
 71
3
 72
9
 73
5
 74
3
 42
0.0000001
 43
0.0000001
 44
0.0000000001
 12
-0.5716397428
 22
0.1340767891
 32
0.0
 13
-0.5871529451
 23
0.000000092
 33
0.0
 40
0.0
 40
0.0
 40
0.0
 40
0.0
 40
0.526459313
 40
1.0
 40
1.0
 40
1.0
 40
1.0
 10
6.3838233625
 20
-14.7423632255
 30
0.0
 10
6.2835083404
 20
-14.7188345674
 30
0.0
 10
6.090262091
 20
-14.6855205319
 30
0.0
 10
5.8945879975
 20
-14.6709021565
 30
0.0
 10
5.8019077279
 20
-14.6709021419
 30
0.0
 11
6.3838233625
 21
-14.7423632255
 31
0.0
 11
6.0793628652
 21
-14.688939277
 31
0.0
 11
5.8019077279
 21
-14.6709021419
 31
0.0
  0
SPLINE
  5
306
100
AcDbEntity
  8
ASSI
100
AcDbSpline
 62
7
  6
CONTINUOUS
 70
0
 71
3
 72
9
 73
5
 74
3
 42
0.0000001
 43
0.0000001
 44
0.0000000001
 12
0.0169824056
 22
-0.0622072124
 32
0.0
 13
0.0234641907
 23
-0.0600630596
 33
0.0
 40
0.0
 40
0.0
 40
0.0
 40
0.0
 40
0.2737331072
 40
1.0
 40
1.0
 40
1.0
 40
1.0
 10
5.4752395046
 20
-10.1369224492
 30
0.0
 10
5.4767890535
 20
-10.142598507
 30
0.0
 10
5.4826599304
 20
-10.1632737163
 30
0.0
 10
5.4893942245
 20
-10.1837227988
 30
0.0
 10
5.4950746461
 20
-10.1982634026
 30
0.0
 11
5.4752395046
 21
-10.1369224492
 31
0.0
 11
5.4800678559
 21
-10.1539005419
 31
0.0
 11
5.4950746461
 21
-10.1982634026
 31
0.0
  0
SPLINE
  5
307
100
AcDbEntity
  8
ASSI
100
AcDbSpline
 62
7
  6
CONTINUOUS
 70
0
 71
3
 72
9
 73
5
 74
3
 42
0.0000001
 43
0.0000001
 44
0.0000000001
 12
-0.0234649558
 22
-0.0600650183
 32
0.0
 13
-0.0169829594
 23
-0.062209241
 33
0.0
 40
0.0
 40
0.0
 40
0.0
 40
0.0
 40
0.2261794072
 40
1.0
 40
1.0
 40
1.0
 40
1.0
 10
5.4950746461
 20
-14.7435306882
 30
0.0
 10
5.4933055495
 20
-14.7480591782
 30
0.0
 10
5.4858403033
 20
-14.7682201303
 30
0.0
 10
5.4796200925
 20
-14.7888253777
 30
0.0
 10
5.4752395046
 20
-14.8048716416
 30
0.0
 11
5.4950746461
 21
-14.7435306882
 31
0.0
 11
5.489992272
 21
-14.7572018915
 31
0.0
 11
5.4752395046
 21
-14.8048716416
 31
0.0
  0
SPLINE
  5
308
100
AcDbEntity
  8
0
100
AcDbSpline
 62
7
  6
CONTINUOUS
 70
0
 71
3
 72
15
 73
11
 74
9
 42
0.0000001
 43
0.0000001
 44
0.0000000001
 12
0.0
 22
0.8209316158
 32
0.0
 13
-0.775124117
 23
0.2703910523
 33
0.0
 40
0.0
 40
0.0
 40
0.0
 40
0.0
 40
0.0631650264
 40
0.1392773301
 40
0.2348471729
 40
0.3518880791
 40
0.4896626293
 40
0.6462733712
 40
0.81800307
 40
1.0
 40
1.0
 40
1.0
 40
1.0
 10
7.2838252057
 20
-15.2090168301
 30
0.0
 10
7.2838252057
 20
-15.1917321077
 30
0.0
 10
7.2730936065
 20
-15.1535001773
 30
0.0
 10
7.2327658946
 20
-15.1023493848
 30
0.0
 10
7.1710674944
 20
-15.0524162127
 30
0.0
 10
7.0887360267
 20
-15.0029144721
 30
0.0
 10
6.9876285516
 20
-14.9532117528
 30
0.0
 10
6.8701207473
 20
-14.9034899011
 30
0.0
 10
6.7396184828
 20
-14.8537288753
 30
0.0
 10
6.6484204315
 20
-14.8212750888
 30
0.0
 10
6.6013970283
 20
-14.8048716416
 30
0.0
 11
7.2838252057
 21
-15.2090168301
 31
0.0
 11
7.2713793353
 21
-15.1586784256
 31
0.0
 11
7.2346907543
 21
-15.1081010308
 31
0.0
 11
7.1747415589
 21
-15.057489907
 31
0.0
 11
7.093028663
 21
-15.0069442358
 31
0.0
 11
6.991847967
 21
-14.9563985647
 31
0.0
 11
6.8736620418
 21
-14.9057874409
 31
0.0
 11
6.7420686558
 21
-14.855210046
 31
0.0
 11
6.6013970283
 21
-14.8048716416
 31
0.0
  0
SPLINE
  5
309
100
AcDbEntity
  8
0
100
AcDbSpline
 62
7
  6
CONTINUOUS
 70
0
 71
3
 72
9
 73
5
 74
3
 42
0.0000001
 43
0.0000001
 44
0.0000000001
 12
-0.2138005494
 22
0.0745812887
 32
0.0
 13
-0.2204528513
 23
0.0517067101
 33
0.0
 40
0.0
 40
0.0
 40
0.0
 40
0.0
 40
0.2430988166
 40
1.0
 40
1.0
 40
1.0
 40
1.0
 10
6.6013970283
 20
-14.8048716416
 30
0.0
 10
6.5840721414
 20
-14.7988281006
 30
0.0
 10
6.5124164344
 20
-14.7750861594
 30
0.0
 10
6.4394437038
 20
-14.7554088489
 30
0.0
 10
6.3838233625
 20
-14.7423632255
 30
0.0
 11
6.6013970283
 21
-14.8048716416
 31
0.0
 11
6.5491554741
 21
-14.7875250326
 31
0.0
 11
6.3838233625
 21
-14.7423632255
 31
0.0
  0
SPLINE
  5
30A
100
AcDbEntity
  8
0
100
AcDbSpline
 62
7
  6
CONTINUOUS
 70
0
 71
3
 72
11
 73
7
 74
5
 42
0.0000001
 43
0.0000001
 44
0.0000000001
 12
0.1793273025
 22
-0.2691247686
 32
0.0
 13
0.3233982413
 23
0.0000000507
 33
0.0
 40
0.0
 40
0.0
 40
0.0
 40
0.0
 40
0.1513390061
 40
0.3622119995
 40
0.6460912533
 40
1.0
 40
1.0
 40
1.0
 40
1.0
 10
5.4950746461
 20
-10.1982634026
 30
0.0
 10
5.5041210513
 20
-10.211839761
 30
0.0
 10
5.5371288746
 20
-10.236019244
 30
0.0
 10
5.6039951715
 20
-10.2564146302
 30
0.0
 10
5.6949710329
 20
-10.2687262437
 30
0.0
 10
5.7637565724
 20
-10.2708919549
 30
0.0
 10
5.8019077279
 20
-10.2708919489
 30
0.0
 11
5.4950746461
 21
-10.1982634026
 31
0.0
 11
5.5324855083
 21
-10.2298200496
 31
0.0
 11
5.5967725552
 21
-10.2525766732
 31
0.0
 11
5.6875461604
 21
-10.2663063367
 31
0.0
 11
5.8019077279
 21
-10.2708919489
 31
0.0
  0
SPLINE
  5
30B
100
AcDbEntity
  8
0
100
AcDbSpline
 62
7
  6
CONTINUOUS
 70
0
 71
3
 72
15
 73
11
 74
9
 42
0.0000001
 43
0.0000001
 44
0.0000000001
 12
0.0
 22
-0.8209316158
 32
0.0
 13
-0.775124117
 23
-0.2703910523
 33
0.0
 40
0.0
 40
0.0
 40
0.0
 40
0.0
 40
0.0631650264
 40
0.1392773301
 40
0.2348471729
 40
0.3518880791
 40
0.4896626293
 40
0.6462733712
 40
0.81800307
 40
1.0
 40
1.0
 40
1.0
 40
1.0
 10
7.2838252057
 20
-9.7327772608
 30
0.0
 10
7.2838252057
 20
-9.7500619831
 30
0.0
 10
7.2730936065
 20
-9.7882939135
 30
0.0
 10
7.2327658946
 20
-9.839444706
 30
0.0
 10
7.1710674944
 20
-9.8893778781
 30
0.0
 10
7.0887360267
 20
-9.9388796187
 30
0.0
 10
6.9876285516
 20
-9.988582338
 30
0.0
 10
6.8701207473
 20
-10.0383041898
 30
0.0
 10
6.7396184828
 20
-10.0880652155
 30
0.0
 10
6.6484204315
 20
-10.1205190021
 30
0.0
 10
6.6013970283
 20
-10.1369224492
 30
0.0
 11
7.2838252057
 21
-9.7327772608
 31
0.0
 11
7.2713793353
 21
-9.7831156652
 31
0.0
 11
7.2346907543
 21
-9.8336930601
 31
0.0
 11
7.1747415589
 21
-9.8843041838
 31
0.0
 11
7.093028663
 21
-9.934849855
 31
0.0
 11
6.991847967
 21
-9.9853955261
 31
0.0
 11
6.8736620418
 21
-10.0360066499
 31
0.0
 11
6.7420686558
 21
-10.0865840448
 31
0.0
 11
6.6013970283
 21
-10.1369224492
 31
0.0
  0
SPLINE
  5
30C
100
AcDbEntity
  8
0
100
AcDbSpline
 62
7
  6
CONTINUOUS
 70
0
 71
3
 72
11
 73
7
 74
5
 42
0.0000001
 43
0.0000001
 44
0.0000000001
 12
-0.3233982413
 22
0.0000000507
 32
0.0
 13
-0.1793273025
 23
-0.2691247686
 33
0.0
 40
0.0
 40
0.0
 40
0.0
 40
0.0
 40
0.3539087467
 40
0.6377880005
 40
0.8486609939
 40
1.0
 40
1.0
 40
1.0
 40
1.0
 10
5.8019077279
 20
-14.6709021419
 30
0.0
 10
5.7637565724
 20
-14.670902136
 30
0.0
 10
5.6949710329
 20
-14.6730678472
 30
0.0
 10
5.6039951715
 20
-14.6853794607
 30
0.0
 10
5.5371288746
 20
-14.7057748468
 30
0.0
 10
5.5041210513
 20
-14.7299543298
 30
0.0
 10
5.4950746461
 20
-14.7435306882
 30
0.0
 11
5.8019077279
 21
-14.6709021419
 31
0.0
 11
5.6875461604
 21
-14.6754877541
 31
0.0
 11
5.5967725552
 21
-14.6892174176
 31
0.0
 11
5.5324855083
 21
-14.7119740413
 31
0.0
 11
5.4950746461
 21
-14.7435306882
 31
0.0
  0
SPLINE
  5
30D
100
AcDbEntity
  8
0
100
AcDbSpline
 62
7
  6
CONTINUOUS
 70
0
 71
3
 72
9
 73
5
 74
3
 42
0.0000001
 43
0.0000001
 44
0.0000000001
 12
0.2204478197
 22
0.0517055299
 32
0.0
 13
0.2137956696
 23
0.0745795864
 33
0.0
 40
0.0
 40
0.0
 40
0.0
 40
0.0
 40
0.2559318619
 40
1.0
 40
1.0
 40
1.0
 40
1.0
 10
6.3838233625
 20
-10.1994308653
 30
0.0
 10
6.4026299028
 20
-10.1950198344
 30
0.0
 10
6.4759083663
 20
-10.1769439827
 30
0.0
 10
6.5483708463
 20
-10.1554198805
 30
0.0
 10
6.6013970283
 20
-10.1369224492
 30
0.0
 11
6.3838233625
 21
-10.1994308653
 31
0.0
 11
6.4400850422
 21
-10.1855415974
 31
0.0
 11
6.6013970283
 21
-10.1369224492
 31
0.0
  0
ELLIPSE
  5
30E
100
AcDbEntity
  8
RACCORDO
100
AcDbEllipse
 62
7
  6
CONTINUOUS
 10
6.4835205496
 20
-9.9112017015
 30
0.0
 11
1.4146443783
 21
1.4146443783
 31
0.0
 40
0.9996954599
 41
-0.7852458702
 42
0.7852458701
  0
ELLIPSE
  5
30F
100
AcDbEntity
  8
RACCORDO
100
AcDbEllipse
 62
7
  6
CONTINUOUS
 10
6.4835205496
 20
-15.1105923893
 30
0.0
 11
1.4146443783
 21
-1.4146443783
 31
0.0
 40
0.9996954599
 41
-0.7852458701
 42
0.7852458701
  0
ELLIPSE
  5
310
100
AcDbEntity
  8
RACCORDO
100
AcDbEllipse
 62
7
  6
CONTINUOUS
 10
6.2841298618
 20
-15.1105923893
 30
0.0
 11
1.4146443783
 21
1.4146443783
 31
0.0
 40
0.9996954599
 41
-3.4819711586
 42
-2.3563467834
  0
ELLIPSE
  5
311
100
AcDbEntity
  8
RACCORDO
100
AcDbEllipse
 62
7
  6
CONTINUOUS
 10
6.2841298618
 20
-15.1105923893
 30
0.0
 11
1.4146443783
 21
1.4146443783
 31
0.0
 40
0.9996954599
 41
-3.8267451386
 42
-3.7104417096
  0
ELLIPSE
  5
312
100
AcDbEntity
  8
RACCORDO
100
AcDbEllipse
 62
7
  6
CONTINUOUS
 10
6.2841298618
 20
-9.9112017015
 30
0.0
 11
1.4146443783
 21
-1.4146443783
 31
0.0
 40
0.9996954599
 41
2.3563467834
 42
3.437017342
  0
ELLIPSE
  5
313
100
AcDbEntity
  8
RACCORDO
100
AcDbEllipse
 62
7
  6
CONTINUOUS
 10
-6.5164794504
 20
-9.9112017015
 30
0.0
 11
1.4146443783
 21
1.4146443783
 31
0.0
 40
0.9996954599
 41
-0.295424681
 42
0.7852458702
  0
ELLIPSE
  5
314
100
AcDbEntity
  8
RACCORDO
100
AcDbEllipse
 62
7
  6
CONTINUOUS
 10
-6.7158701382
 20
-9.9112017015
 30
0.0
 11
1.4146443783
 21
-1.4146443783
 31
0.0
 40
0.9996954599
 41
2.3563467834
 42
3.9268385237
  0
ELLIPSE
  5
315
100
AcDbEntity
  8
RACCORDO
100
AcDbEllipse
 62
7
  6
CONTINUOUS
 10
-6.7158701382
 20
-15.1105923893
 30
0.0
 11
1.4146443783
 21
1.4146443783
 31
0.0
 40
0.9996954599
 41
-3.9268385237
 42
-2.3563467834
  0
ELLIPSE
  5
316
100
AcDbEntity
  8
RACCORDO
100
AcDbEllipse
 62
7
  6
CONTINUOUS
 10
-6.5164794504
 20
-15.1105923893
 30
0.0
 11
1.4146443783
 21
-1.4146443783
 31
0.0
 40
0.9996954599
 41
0.568849116
 42
0.6851524829
  0
ELLIPSE
  5
317
100
AcDbEntity
  8
RACCORDO
100
AcDbEllipse
 62
7
  6
CONTINUOUS
 10
-6.5164794504
 20
-15.1105923893
 30
0.0
 11
1.4146443783
 21
-1.4146443783
 31
0.0
 40
0.9996954599
 41
-0.7852458701
 42
0.3403785058
  0
ELLIPSE
  5
318
100
AcDbEntity
  8
RACCORDO
100
AcDbEllipse
 62
7
  6
CONTINUOUS
 10
-3.5419534646
 20
16.2912022629
 30
0.0
 11
0.0
 21
1.0
 31
0.0
 40
0.0524077793
 41
0.0174532925
 42
1.5707963268
  0
ELLIPSE
  5
319
100
AcDbEntity
  8
RACCORDO
100
AcDbEllipse
 62
7
  6
CONTINUOUS
 10
3.309603876
 20
16.2912022629
 30
0.0
 11
0.0
 21
1.0
 31
0.0
 40
0.0524077793
 41
-1.5707963268
 42
-0.0174532925
  0
ELLIPSE
  5
31A
100
AcDbEntity
  8
RACCORDO
100
AcDbEllipse
 62
7
  6
CONTINUOUS
 10
4.309603876
 20
-18.3129963538
 30
0.0
 11
0.0
 21
1.0
 31
0.0
 40
0.0524077793
 41
-3.1241393611
 42
-1.5707963268
  0
ELLIPSE
  5
31B
100
AcDbEntity
  8
RACCORDO
100
AcDbEllipse
 62
7
  6
CONTINUOUS
 10
-4.5419534646
 20
-18.3129963538
 30
0.0
 11
-0.0
 21
1.0
 31
0.0
 40
0.0524077793
 41
-4.7123889804
 42
-3.1590459461
  0
ELLIPSE
  5
31C
100
AcDbEntity
  8
RACCORDO
100
AcDbEllipse
 62
7
  6
CONTINUOUS
 10
12.7859245141
 20
-6.1934419805
 30
0.0
 11
1.0
 21
-0.0
 31
0.0
 40
0.0174550649
 41
-1.5707963268
 42
-0.0174532925
  0
ELLIPSE
  5
31D
100
AcDbEntity
  8
RACCORDO
100
AcDbEllipse
 62
7
  6
CONTINUOUS
 10
-13.0182741027
 20
-6.1934419805
 30
0.0
 11
1.0
 21
-0.0
 31
0.0
 40
0.0174550649
 41
-3.1241393611
 42
-1.5707963268
  0
ELLIPSE
  5
31E
100
AcDbEntity
  8
RACCORDO
100
AcDbEllipse
 62
7
  6
CONTINUOUS
 10
12.7859245141
 20
6.7716478897
 30
0.0
 11
1.0
 21
0.0
 31
0.0
 40
0.0174550649
 41
0.0174532925
 42
1.5707963268
  0
ELLIPSE
  5
31F
100
AcDbEntity
  8
RACCORDO
100
AcDbEllipse
 62
7
  6
CONTINUOUS
 10
-13.0182741027
 20
6.7716478897
 30
0.0
 11
1.0
 21
0.0
 31
0.0
 40
0.0174550649
 41
1.5707963268
 42
3.1241393611
  0
ENDSEC
  0
SECTION
  2
OBJECTS
  0
DICTIONARY
  5
C
100
AcDbDictionary
280
0
281
1
  3
ACAD_GROUP
350
D
  3
ACAD_MLINESTYLE
350
17
  3
ACAD_LAYOUT
350
1A
  3
ACAD_PLOTSETTINGS
350
19
  3
ACAD_PLOTSTYLENAME
350
E
  0
DICTIONARY
  5
D
102
{ACAD_REACTORS
330
C
102
}
100
AcDbDictionary
280
0
281
1
  0
ACDBDICTIONARYWDFLT
  5
E
102
{ACAD_REACTORS
330
C
102
}
100
AcDbDictionary
281
1
  3
Normal
350
F
100
AcDbDictionaryWithDefault
340
F
  0
DICTIONARY
  5
17
102
{ACAD_REACTORS
330
C
102
}
100
AcDbDictionary
280
0
281
1
  3
Standard
350
18
  0
DICTIONARY
  5
19
102
{ACAD_REACTORS
330
C
102
}
100
AcDbDictionary
281
1
  0
DICTIONARY
  5
1A
102
{ACAD_REACTORS
330
C
102
}
100
AcDbDictionary
281
1
  3
Model
350
320
  3
Layout1
350
321
  0
ACDBPLACEHOLDER
  5
F
102
{ACAD_REACTORS
330
E
102
}
  0
MLINESTYLE
  5
18
102
{ACAD_REACTORS
330
17
102
}
100
AcDbMlineStyle
  2
STANDARD
 70
0
  3

 62
256
 51
90.0
 52
90.0
 71
2
 49
0.5
 62
256
  6
BYLAYER
 49
-0.5
 62
256
  6
BYLAYER
  0
LAYOUT
  5
320
102
{ACAD_REACTORS
330
1A
102
}
100
AcDbPlotSettings
  1

  2
none_device
  4
ISO_A4_(297.00_x_210.00_MM)
  6

 40
0.0
 41
0.0
 42
0.0
 43
0.0
 44
297.0
 45
210.0
 46
0.0
 47
0.0
 48
0.0
 49
0.0
140
0.0
141
0.0
142
1.0
143
1.0
 70
1024
 72
1
 73
0
 74
0
  7

 75
0
147
1.0
148
0.0
149
0.0
100
AcDbLayout
  1
Model
 70
0
 71
0
 10
0.0
 20
0.0
 11
297.0
 21
210.0
 12
0.0
 22
0.0
 32
0.0
 14
0.0
 24
0.0
 34
0.0
 15
0.0
 25
0.0
 35
0.0
146
0.0
 13
0.0
 23
0.0
 33
0.0
 16
1.0
 26
0.0
 36
0.0
 17
0.0
 27
1.0
 37
0.0
 76
0
330
20D
345
0
346
0
  0
LAYOUT
  5
321
102
{ACAD_REACTORS
330
1A
102
}
100
AcDbPlotSettings
  1

  2
none_device
  4
ISO_A4_(297.00_x_210.00_MM)
  6

 40
0.0
 41
0.0
 42
0.0
 43
0.0
 44
297.0
 45
210.0
 46
0.0
 47
0.0
 48
0.0
 49
0.0
140
0.0
141
0.0
142
1.0
143
1.0
 70
0
 72
1
 73
0
 74
0
  7

 75
0
147
1.0
148
0.0
149
0.0
100
AcDbLayout
  1
Layout1
 70
0
 71
1
 10
0.0
 20
0.0
 11
297.0
 21
210.0
 12
0.0
 22
0.0
 32
0.0
 14
0.0
 24
0.0
 34
0.0
 15
0.0
 25
0.0
 35
0.0
146
0.0
 13
0.0
 23
0.0
 33
0.0
 16
1.0
 26
0.0
 36
0.0
 17
0.0
 27
1.0
 37
0.0
 76
0
330
20E
345
0
346
0
  0
ENDSEC
  0
EOF
