  0
SECTION
  2
HEADER
  9
$ACADVER
  1
AC1024
  9
$DWGCODEPAGE
  3
ANSI_1252
  9
$EXTMAX
 10
558.8
 20
431.8
 30
0.0
  9
$EXTMIN
 10
0.0
 20
0.0
 30
0.0
  9
$LIMMIN
 10
0.0
 20
0.0
  9
$LIMMAX
 10
558.8
 20
431.8
  9
$VIEWCTR
 10
279.4
 20
215.9
  9
$VIEWSIZE
 40
431.8
  9
$CLAYER
  8
0
  9
$LTSCALE
 40
30.734
  9
$CELTYPE
  6
BYLAYER
  9
$DIMSCALE
 40
1.0
  9
$DIMASZ
 40
3.0
  9
$DIMEXO
 40
0.5
  9
$DIMDLI
 40
21.2344
  9
$DIMEXE
 40
1.5
  9
$DIMCEN
 40
5.0292
  9
$DIMLFAC
 40
1.0
  9
$DIMBLK
  1
_FILLED
  9
$DIMALT
 70
0
  9
$DIMALTF
 40
0.0393700787
  9
$DIMTXT
 40
3.0
  9
$DIMTOL
 70
1
  9
$DIMLIM
 70
0
  9
$DIMTFAC
 40
1.0
  9
$DIMTP
 40
0.01
  9
$DIMTM
 40
0.01
  9
$DIMGAP
 40
0.625
  9
$DIMDSEP
 70
44
  9
$AUNITS
 70
0
  9
$PDMODE
 70
3
  9
$PDSIZE
 40
3.0
  9
$HANDSEED
  5
552
  9
$TILEMODE
 70
1
  9
$MEASUREMENT
 70
1
  9
$INSUNITS
 70
4
  0
ENDSEC
  0
SECTION
  2
CLASSES
  0
CLASS
  1
ACDBDICTIONARYWDFLT
  2
AcDbDictionaryWithDefault
  3
AutoCAD 2000
 90
0
 91
1
280
0
281
0
  0
CLASS
  1
ACDBPLACEHOLDER
  2
AcDbPlaceHolder
  3
AutoCAD 2000
 90
0
 91
1
280
0
281
0
  0
CLASS
  1
LAYOUT
  2
AcDbLayout
  3
AutoCAD 2000
 90
0
 91
0
280
0
281
0
  0
ENDSEC
  0
SECTION
  2
TABLES
  0
TABLE
  2
VPORT
  5
8
100
AcDbSymbolTable
 70
2
  0
VPORT
  5
1F4
100
AcDbSymbolTableRecord
100
AcDbViewportTableRecord
  2
*ACTIVE
 70
0
 10
0.0
 20
0.0
 11
1.0
 21
1.0
 12
279.4
 22
215.9
 13
0.0
 23
0.0
 14
1.0
 24
1.0
 15
0.0
 25
0.0
 16
0.0
 26
0.0
 36
1.0
 17
0.0
 27
0.0
 37
0.0
 40
431.8
 41
1.2941176471
 42
50.0
 43
0.0
 44
0.0
 50
0.0
 51
0.0
 71
0
 72
100
 73
1
 74
1
 75
0
 76
0
 77
0
 78
0
  0
ENDTAB
  0
TABLE
  2
LTYPE
  5
5
100
AcDbSymbolTable
 70
6
  0
LTYPE
  5
14
100
AcDbSymbolTableRecord
100
AcDbLinetypeTableRecord
  2
BYBLOCK
 70
0
  3

 72
65
 73
0
 40
0.0
  0
LTYPE
  5
15
100
AcDbSymbolTableRecord
100
AcDbLinetypeTableRecord
  2
BYLAYER
 70
0
  3

 72
65
 73
0
 40
0.0
  0
LTYPE
  5
16
100
AcDbSymbolTableRecord
100
AcDbLinetypeTableRecord
  2
CONTINUOUS
 70
64
  3
Solid line
 72
65
 73
0
 40
0.0
  0
LTYPE
  5
1F5
100
AcDbSymbolTableRecord
100
AcDbLinetypeTableRecord
  2
CENTER
 70
64
  3
____ _ ____ _ ____ _ ____ _ ____ _ ____ _ ____
 72
65
 73
4
 40
0.6
 49
0.375
 74
0
 49
-0.075
 74
0
 49
0.075
 74
0
 49
-0.075
 74
0
  0
LTYPE
  5
1F6
100
AcDbSymbolTableRecord
100
AcDbLinetypeTableRecord
  2
HIDDEN
 70
64
  3
- - - - - - - - - - - - - - - - - - - -
 72
65
 73
2
 40
0.2
 49
0.1
 74
0
 49
-0.1
 74
0
  0
LTYPE
  5
1F7
100
AcDbSymbolTableRecord
100
AcDbLinetypeTableRecord
  2
PHANTOM
 70
64
  3
_____ _ _ _____ _ _ _____ _ _ _____
 72
65
 73
6
 40
0.8
 49
0.45
 74
0
 49
-0.05
 74
0
 49
0.1
 74
0
 49
-0.05
 74
0
 49
0.1
 74
0
 49
-0.05
 74
0
  0
LTYPE
  5
1F8
100
AcDbSymbolTableRecord
100
AcDbLinetypeTableRecord
  2
DOT
 70
64
  3
. . . . . . . . . . . . . . . . . . . .
 72
65
 73
2
 40
0.2
 49
0.1
 74
0
 49
-0.1
 74
0
  0
LTYPE
  5
1F9
100
AcDbSymbolTableRecord
100
AcDbLinetypeTableRecord
  2
DASHED
 70
64
  3
- - - - - - - - - - - - - - - - - - - -
 72
65
 73
2
 40
0.2
 49
0.1
 74
0
 49
-0.1
 74
0
  0
ENDTAB
  0
TABLE
  2
LAYER
  5
2
100
AcDbSymbolTable
 70
36
  0
LAYER
  5
10
100
AcDbSymbolTableRecord
100
AcDbLayerTableRecord
  2
0
 70
0
 62
7
  6
CONTINUOUS
370
-3
390
F
  0
LAYER
  5
1FA
100
AcDbSymbolTableRecord
100
AcDbLayerTableRecord
  2
DEFAULT_1
 70
0
 62
7
  6
CENTER
370
-3
390
F
  0
LAYER
  5
1FB
100
AcDbSymbolTableRecord
100
AcDbLayerTableRecord
  2
DEFAULT_2
 70
0
 62
7
  6
HIDDEN
370
-3
390
F
  0
LAYER
  5
1FC
100
AcDbSymbolTableRecord
100
AcDbLayerTableRecord
  2
DEFAULT_3
 70
0
 62
7
  6
PHANTOM
370
-3
390
F
  0
LAYER
  5
1FD
100
AcDbSymbolTableRecord
100
AcDbLayerTableRecord
  2
ASSI
 70
0
 62
7
  6
CONTINUOUS
370
-3
390
F
  0
LAYER
  5
1FE
100
AcDbSymbolTableRecord
100
AcDbLayerTableRecord
  2
COORDINATE
 70
0
 62
7
  6
CONTINUOUS
370
-3
390
F
  0
LAYER
  5
1FF
100
AcDbSymbolTableRecord
100
AcDbLayerTableRecord
  2
COORD_ORIGINE
 70
0
 62
7
  6
CONTINUOUS
370
-3
390
F
  0
LAYER
  5
200
100
AcDbSymbolTableRecord
100
AcDbLayerTableRecord
  2
COPY-PUBBLISH
 70
0
 62
7
  6
CONTINUOUS
370
-3
390
F
  0
LAYER
  5
201
100
AcDbSymbolTableRecord
100
AcDbLayerTableRecord
  2
CURVE
 70
0
 62
7
  6
CONTINUOUS
370
-3
390
F
  0
LAYER
  5
202
100
AcDbSymbolTableRecord
100
AcDbLayerTableRecord
  2
DRAFT
 70
0
 62
7
  6
CONTINUOUS
370
-3
390
F
  0
LAYER
  5
203
100
AcDbSymbolTableRecord
100
AcDbLayerTableRecord
  2
INTF_1
 70
0
 62
7
  6
CONTINUOUS
370
-3
390
F
  0
LAYER
  5
204
100
AcDbSymbolTableRecord
100
AcDbLayerTableRecord
  2
INTF_11
 70
0
 62
7
  6
CONTINUOUS
370
-3
390
F
  0
LAYER
  5
205
100
AcDbSymbolTableRecord
100
AcDbLayerTableRecord
  2
INTF_2
 70
0
 62
7
  6
CONTINUOUS
370
-3
390
F
  0
LAYER
  5
206
100
AcDbSymbolTableRecord
100
AcDbLayerTableRecord
  2
INTF_3
 70
0
 62
7
  6
CONTINUOUS
370
-3
390
F
  0
LAYER
  5
207
100
AcDbSymbolTableRecord
100
AcDbLayerTableRecord
  2
NOTE
 70
0
 62
7
  6
CONTINUOUS
370
-3
390
F
  0
LAYER
  5
208
100
AcDbSymbolTableRecord
100
AcDbLayerTableRecord
  2
PIANI
 70
0
 62
7
  6
CONTINUOUS
370
-3
390
F
  0
LAYER
  5
209
100
AcDbSymbolTableRecord
100
AcDbLayerTableRecord
  2
PIANI-RIFERIMENTO
 70
0
 62
7
  6
CONTINUOUS
370
-3
390
F
  0
LAYER
  5
20A
100
AcDbSymbolTableRecord
100
AcDbLayerTableRecord
  2
PIANI_ORIGINE
 70
0
 62
7
  6
CONTINUOUS
370
-3
390
F
  0
LAYER
  5
20B
100
AcDbSymbolTableRecord
100
AcDbLayerTableRecord
  2
PUNTI
 70
0
 62
7
  6
CONTINUOUS
370
-3
390
F
  0
LAYER
  5
20C
100
AcDbSymbolTableRecord
100
AcDbLayerTableRecord
  2
RACCORDO
 70
0
 62
7
  6
CONTINUOUS
370
-3
390
F
  0
LAYER
  5
20D
100
AcDbSymbolTableRecord
100
AcDbLayerTableRecord
  2
SMUSSO
 70
0
 62
7
  6
CONTINUOUS
370
-3
390
F
  0
LAYER
  5
20E
100
AcDbSymbolTableRecord
100
AcDbLayerTableRecord
  2
SNAPLINE
 70
0
 62
7
  6
CONTINUOUS
370
-3
390
F
  0
LAYER
  5
20F
100
AcDbSymbolTableRecord
100
AcDbLayerTableRecord
  2
SUPERFICI
 70
0
 62
7
  6
CONTINUOUS
370
-3
390
F
  0
LAYER
  5
210
100
AcDbSymbolTableRecord
100
AcDbLayerTableRecord
  2
TRASH
 70
0
 62
7
  6
CONTINUOUS
370
-3
390
F
  0
LAYER
  5
211
100
AcDbSymbolTableRecord
100
AcDbLayerTableRecord
  2
XSEC_DATUMS
 70
0
 62
7
  6
CONTINUOUS
370
-3
390
F
  0
ENDTAB
  0
TABLE
  2
STYLE
  5
3
100
AcDbSymbolTable
 70
1
  0
STYLE
  5
11
100
AcDbSymbolTableRecord
100
AcDbTextStyleTableRecord
  2
STANDARD
 70
0
 40
0.0
 41
0.8
 50
0.0
 71
0
 42
0.2
  3
txt
  4

  0
STYLE
  5
212
100
AcDbSymbolTableRecord
100
AcDbTextStyleTableRecord
  2
TEXTSTYLE_1
 70
0
 40
0.0
 41
0.8
 50
0.0
 71
0
 42
0.2
  3
gdt
  4

  0
ENDTAB
  0
TABLE
  2
VIEW
  5
6
100
AcDbSymbolTable
 70
0
  0
ENDTAB
  0
TABLE
  2
UCS
  5
7
100
AcDbSymbolTable
 70
0
  0
ENDTAB
  0
TABLE
  2
APPID
  5
9
100
AcDbSymbolTable
 70
1
  0
APPID
  5
213
100
AcDbSymbolTableRecord
100
AcDbRegAppTableRecord
  2
ACAD
 70
0
  0
ENDTAB
  0
TABLE
  2
BLOCK_RECORD
  5
1
100
AcDbSymbolTable
 70
0
  0
BLOCK_RECORD
  5
214
100
AcDbSymbolTableRecord
100
AcDbBlockTableRecord
  2
*Model_Space
  0
BLOCK_RECORD
  5
215
100
AcDbSymbolTableRecord
100
AcDbBlockTableRecord
  2
*Paper_Space
  0
BLOCK_RECORD
  5
216
100
AcDbSymbolTableRecord
100
AcDbBlockTableRecord
  2
_FILLED
  0
ENDTAB
  0
TABLE
  2
DIMSTYLE
  5
A
100
AcDbSymbolTable
 70
1
100
AcDbDimStyleTable
 71
0
  0
DIMSTYLE
105
217
100
AcDbSymbolTableRecord
100
AcDbDimStyleTableRecord
  2
STANDARD
 70
0
  3

  4

 40
1.0
 41
3.0
 42
0.5
 43
0.38
 44
1.5
 45
0.0
 46
0.0
 47
0.01
 48
0.01
140
3.0
141
0.09
142
0.0
143
25.4
144
1.0
145
0.0
146
1.0
147
0.625
 71
1
 72
0
 73
0
 74
0
 75
0
 76
0
 77
1
 78
8
 79
2
170
0
171
1
172
0
173
0
174
0
175
0
176
0
177
0
178
0
270
2
179
2
271
2
272
2
273
2
274
2
275
0
280
0
281
0
282
0
283
1
284
8
285
0
286
0
287
3
288
0
340
11
278
44
341
216
342
216
343
216
344
216
  0
ENDTAB
  0
ENDSEC
  0
SECTION
  2
BLOCKS
  0
BLOCK
  5
20
100
AcDbEntity
  8
0
100
AcDbBlockBegin
  2
*Model_Space
 70
0
 10
0.0
 20
0.0
 30
0.0
  3
*Model_Space
  1

  0
ENDBLK
  5
21
100
AcDbEntity
  8
0
100
AcDbBlockEnd
  0
BLOCK
  5
1C
100
AcDbEntity
  8
0
100
AcDbBlockBegin
  2
*Paper_Space
 70
0
 10
0.0
 20
0.0
 30
0.0
  3
*Paper_Space
  1

  0
ENDBLK
  5
1D
100
AcDbEntity
  8
0
100
AcDbBlockEnd
  0
BLOCK
  5
218
100
AcDbEntity
  8
0
100
AcDbBlockBegin
  2
_FILLED
 70
64
 10
0.0
 20
0.0
  3
_FILLED
  1

  0
SOLID
  5
219
100
AcDbEntity
  8
0
  6
BYBLOCK
 62
0
100
AcDbTrace
 10
0.0
 20
0.0
 11
-1.0
 21
0.3166666667
 12
-1.0
 22
-0.3166666667
 13
-1.0
 23
-0.3166666667
  0
ENDBLK
  5
21A
100
AcDbEntity
  8
0
  6
BYBLOCK
 62
0
100
AcDbBlockEnd
  0
ENDSEC
  0
SECTION
  2
ENTITIES
  0
LINE
  5
21B
100
AcDbEntity
  8
RACCORDO
100
AcDbLine
 62
7
  6
CONTINUOUS
 10
223.8495922043
 20
190.7815863299
 11
223.86284169
 21
190.8620306912
  0
LINE
  5
21C
100
AcDbEntity
  8
RACCORDO
100
AcDbLine
 62
7
  6
CONTINUOUS
 10
223.8810558805
 20
190.9412049852
 11
223.8628676018
 21
190.8621015111
  0
LWPOLYLINE
  5
21D
100
AcDbEntity
  8
RACCORDO
100
AcDbPolyline
 62
250
  6
CONTINUOUS
 90
5
 70
0
 10
224.1087393473
 20
190.8760988539
 10
224.1072951432
 20
190.8706340723
 10
224.1057373046
 20
190.8649561295
 10
224.1040708279
 20
190.8590655369
 10
224.1023009382
 20
190.8529628678
  0
LINE
  5
21E
100
AcDbEntity
  8
RACCORDO
100
AcDbLine
 62
7
  6
CONTINUOUS
 10
223.8810180632
 20
190.9410982144
 11
223.9041213237
 21
191.0187888995
  0
LINE
  5
21F
100
AcDbEntity
  8
RACCORDO
100
AcDbLine
 62
250
  6
CONTINUOUS
 10
224.1023009382
 20
190.8529628678
 11
224.0984729584
 21
190.8401239408
  0
LINE
  5
220
100
AcDbEntity
  8
RACCORDO
100
AcDbLine
 62
7
  6
CONTINUOUS
 10
223.9041403727
 20
191.0188407046
 11
223.9323436974
 21
191.0955418282
  0
LINE
  5
221
100
AcDbEntity
  8
RACCORDO
100
AcDbLine
 62
7
  6
CONTINUOUS
 10
223.9654624502
 20
191.170877855
 11
223.9323533047
 21
191.0955931571
  0
LINE
  5
222
100
AcDbEntity
  8
RACCORDO
100
AcDbLine
 62
7
  6
CONTINUOUS
 10
223.9654929585
 20
191.1709179188
 11
224.0029674888
 21
191.2435515852
  0
LINE
  5
223
100
AcDbEntity
  8
RACCORDO
100
AcDbLine
 62
7
  6
CONTINUOUS
 10
224.0029924299
 20
191.2435999262
 11
224.0446498857
 21
191.3131487687
  0
LWPOLYLINE
  5
224
100
AcDbEntity
  8
RACCORDO
100
AcDbPolyline
 62
250
  6
CONTINUOUS
 90
7
 70
0
 10
224.1753727256
 20
191.3084807448
 10
224.1852509679
 20
191.3246812554
 10
224.1955151284
 20
191.340642698
 10
224.2061661626
 20
191.3563586111
 10
224.2172048671
 20
191.3718225574
 10
224.2286318764
 20
191.3870281276
 10
224.2404476602
 20
191.4019689448
  0
LWPOLYLINE
  5
225
100
AcDbEntity
  8
RACCORDO
100
AcDbPolyline
 62
250
  6
CONTINUOUS
 90
13
 70
0
 10
224.1312484199
 20
191.250468308
 10
224.1069623363
 20
191.211763835
 10
224.0839959314
 20
191.1721598605
 10
224.0623879347
 20
191.1316994413
 10
224.0421479751
 20
191.0903719298
 10
224.0233439711
 20
191.0482775752
 10
224.0060817922
 20
191.0056359432
 10
223.9903811289
 20
190.9625177397
 10
223.9762479986
 20
190.9189654745
 10
223.9637322677
 20
190.8751686302
 10
223.952839392
 20
190.8312318277
 10
223.94354624
 20
190.7871700677
 10
223.9358423764
 20
190.7430411362
  0
LWPOLYLINE
  5
226
100
AcDbEntity
  8
RACCORDO
100
AcDbPolyline
 62
250
  6
CONTINUOUS
 90
7
 70
0
 10
224.1532520215
 20
191.2837531492
 10
224.1666627541
 20
191.3038621065
 10
224.1805208066
 20
191.3238238191
 10
224.1948273717
 20
191.3436270374
 10
224.2095833812
 20
191.363260354
 10
224.2247894982
 20
191.3827122088
 10
224.2404461094
 20
191.4019708939
  0
LWPOLYLINE
  5
227
100
AcDbEntity
  8
RACCORDO
100
AcDbPolyline
 62
250
  6
CONTINUOUS
 90
6
 70
0
 10
224.1532520215
 20
191.2837531492
 10
224.1493698725
 20
191.2780197779
 10
224.1455754479
 20
191.2723593386
 10
224.1418674091
 20
191.2667729236
 10
224.1382444307
 20
191.2612615956
 10
224.1312484199
 20
191.250468308
  0
LWPOLYLINE
  5
228
100
AcDbEntity
  8
RACCORDO
100
AcDbPolyline
 62
250
  6
CONTINUOUS
 90
10
 70
0
 10
224.1527417607
 20
191.2829745221
 10
224.1549483965
 20
191.2860180392
 10
224.1572332769
 20
191.2890091624
 10
224.159596043
 20
191.291947422
 10
224.1620363238
 20
191.2948323566
 10
224.1645537362
 20
191.2976635135
 10
224.1671478848
 20
191.300440448
 10
224.1698183625
 20
191.3031627243
 10
224.1725647499
 20
191.305829915
 10
224.1753866157
 20
191.3084416013
  0
LWPOLYLINE
  5
229
100
AcDbEntity
  8
RACCORDO
100
AcDbPolyline
 62
7
  6
CONTINUOUS
 90
3
 70
0
 10
224.1410154084
 20
191.4441641754
 10
224.0906232729
 20
191.3799372189
 10
224.0445974343
 20
191.3130498859
  0
LWPOLYLINE
  5
22A
100
AcDbEntity
  8
RACCORDO
100
AcDbPolyline
 62
250
  6
CONTINUOUS
 90
25
 70
0
 10
224.2404461198
 20
191.4019708895
 10
224.8683894194
 20
192.1118037723
 10
225.5145329531
 20
192.793807224
 10
226.1775339062
 20
193.447776264
 10
226.8565071892
 20
194.0739425567
 10
227.5497363595
 20
194.671810282
 10
228.25455351
 20
195.2403031534
 10
228.9693941168
 20
195.7794291242
 10
229.6931415117
 20
196.2895607172
 10
230.4236944886
 20
196.7704610099
 10
231.1595233117
 20
197.2223748467
 10
231.8996308175
 20
197.6458929273
 10
232.6427296405
 20
198.0414519191
 10
233.3874453205
 20
198.4094665648
 10
234.1329103813
 20
198.7506156055
 10
234.878691973
 20
199.0657398209
 10
235.6236028579
 20
199.3553259032
 10
236.3669236213
 20
199.6200543484
 10
237.1090536055
 20
199.8609325749
 10
237.8490837524
 20
200.0784590508
 10
238.5863445164
 20
200.2732127197
 10
239.3217232555
 20
200.4461073933
 10
240.0550938936
 20
200.5976908036
 10
240.7852786539
 20
200.7282922631
 10
241.5116651693
 20
200.8383866831
  0
LWPOLYLINE
  5
22B
100
AcDbEntity
  8
RACCORDO
100
AcDbPolyline
 62
250
  6
CONTINUOUS
 90
7
 70
0
 10
224.2404461094
 20
173.9219847197
 10
224.224791374
 20
173.9412411014
 10
224.2095825991
 20
173.9606963741
 10
224.1948197271
 20
173.9803390838
 10
224.1805024298
 20
174.0001579094
 10
224.1666301158
 20
174.0201416677
 10
224.153201937
 20
174.0402793177
  0
LWPOLYLINE
  5
22C
100
AcDbEntity
  8
RACCORDO
100
AcDbPolyline
 62
250
  6
CONTINUOUS
 90
7
 70
0
 10
224.2404470518
 20
173.9219858303
 10
224.2286288231
 20
173.9369300026
 10
224.2171996314
 20
173.9521389486
 10
224.2061589492
 20
173.9676062397
 10
224.1955060837
 20
173.9833254165
 10
224.1852401792
 20
173.9992899931
 10
224.175360221
 20
174.0154934608
  0
LINE
  5
22D
100
AcDbEntity
  8
RACCORDO
100
AcDbLine
 62
7
  6
CONTINUOUS
 10
224.1410154735
 20
173.8797913436
 11
224.0906796865
 21
173.9439166399
  0
LWPOLYLINE
  5
22E
100
AcDbEntity
  8
RACCORDO
100
AcDbPolyline
 62
250
  6
CONTINUOUS
 90
10
 70
0
 10
224.1527350594
 20
174.0409916429
 10
224.1549418628
 20
174.0379478915
 10
224.1572265886
 20
174.0349570363
 10
224.1595890343
 20
174.032019292
 10
224.1620291845
 20
174.0291346459
 10
224.1645466728
 20
174.026303551
 10
224.1671407339
 20
174.0235269104
 10
224.1698109425
 20
174.0208051606
 10
224.1725572625
 20
174.0181382874
 10
224.175379475
 20
174.0155265088
  0
LINE
  5
22F
100
AcDbEntity
  8
RACCORDO
100
AcDbLine
 62
7
  6
CONTINUOUS
 10
224.0446374796
 20
174.0108384403
 11
224.0906469448
 21
173.9439804584
  0
LWPOLYLINE
  5
230
100
AcDbEntity
  8
RACCORDO
100
AcDbPolyline
 62
250
  6
CONTINUOUS
 90
4
 70
0
 10
224.1418751727
 20
174.0571714953
 10
224.145556672
 20
174.0516252183
 10
224.1493317597
 20
174.0459940942
 10
224.153201937
 20
174.0402793177
  0
LWPOLYLINE
  5
231
100
AcDbEntity
  8
RACCORDO
100
AcDbPolyline
 62
250
  6
CONTINUOUS
 90
3
 70
0
 10
224.1313774596
 20
174.0732898142
 10
224.1347870225
 20
174.0680049025
 10
224.1418751727
 20
174.0571714953
  0
LINE
  5
232
100
AcDbEntity
  8
RACCORDO
100
AcDbLine
 62
7
  6
CONTINUOUS
 10
224.0446873288
 20
174.0107439612
 11
224.0030384003
 21
174.0802733076
  0
LWPOLYLINE
  5
233
100
AcDbEntity
  8
RACCORDO
100
AcDbPolyline
 62
250
  6
CONTINUOUS
 90
10
 70
0
 10
224.1087579687
 20
174.4478108336
 10
224.1342412478
 20
174.3966159967
 10
224.1634697889
 20
174.3456923075
 10
224.1964231557
 20
174.295246831
 10
224.2330748225
 20
174.2456265131
 10
224.2733662727
 20
174.1968927986
 10
224.3172682169
 20
174.1488262335
 10
224.3647855624
 20
174.1014960164
 10
224.415896006
 20
174.0552541718
 10
224.4705664022
 20
174.0103137174
  0
LWPOLYLINE
  5
234
100
AcDbEntity
  8
RACCORDO
100
AcDbPolyline
 62
7
  6
CONTINUOUS
 90
3
 70
0
 10
223.9323952849
 20
174.2282558119
 10
223.9655116496
 20
174.152976117
 10
224.0029870483
 20
174.0803653321
  0
LWPOLYLINE
  5
235
100
AcDbEntity
  8
RACCORDO
100
AcDbPolyline
 62
250
  6
CONTINUOUS
 90
10
 70
0
 10
223.9358420793
 20
174.5809154965
 10
223.940560918
 20
174.5690112686
 10
223.9479804696
 20
174.5578979421
 10
223.958143309
 20
174.5475104526
 10
223.9711431078
 20
174.5376207223
 10
223.9869684806
 20
174.5283172346
 10
224.0054375622
 20
174.5199648908
 10
224.0264367794
 20
174.5125895465
 10
224.049986146
 20
174.505918542
 10
224.0760378724
 20
174.4998323674
  0
LINE
  5
236
100
AcDbEntity
  8
RACCORDO
100
AcDbLine
 62
7
  6
CONTINUOUS
 10
223.932383025
 20
174.2283138314
 11
223.9041723451
 21
174.3050186952
  0
LINE
  5
237
100
AcDbEntity
  8
RACCORDO
100
AcDbLine
 62
7
  6
CONTINUOUS
 10
223.9041521901
 20
174.3050734966
 11
223.8810403963
 21
174.3827836744
  0
LWPOLYLINE
  5
238
100
AcDbEntity
  8
RACCORDO
100
AcDbPolyline
 62
250
  6
CONTINUOUS
 90
6
 70
0
 10
224.0984788656
 20
174.4838354235
 10
224.1023014168
 20
174.4709862375
 10
224.1040721465
 20
174.4648760767
 10
224.1057418984
 20
174.4589764174
 10
224.1073054915
 20
174.4532878324
 10
224.1087579687
 20
174.4478108336
  0
LWPOLYLINE
  5
239
100
AcDbEntity
  8
RACCORDO
100
AcDbPolyline
 62
250
  6
CONTINUOUS
 90
13
 70
0
 10
223.9358424518
 20
174.580914511
 10
223.9435552251
 20
174.5367395913
 10
223.9528601373
 20
174.4926340609
 10
223.9637674396
 20
174.448655841
 10
223.9763011949
 20
174.4048164034
 10
223.9904548884
 20
174.3612242129
 10
224.0061742924
 20
174.3180795751
 10
224.023449206
 20
174.2754312638
 10
224.0422609414
 20
174.233342757
 10
224.0625068922
 20
174.1920241165
 10
224.0841204655
 20
174.1515724957
 10
224.1070903246
 20
174.1119801068
 10
224.1313774596
 20
174.0732898142
  0
LWPOLYLINE
  5
23A
100
AcDbEntity
  8
RACCORDO
100
AcDbPolyline
 62
7
  6
CONTINUOUS
 90
3
 70
0
 10
223.8495922127
 20
174.542369247
 10
223.862880423
 20
174.4618086932
 10
223.8810796716
 20
174.3826721
  0
LWPOLYLINE
  5
23B
100
AcDbEntity
  8
RACCORDO
100
AcDbPolyline
 62
250
  6
CONTINUOUS
 90
40
 70
0
 10
224.1335761597
 20
174.6521776388
 10
224.0788820752
 20
175.0070360437
 10
224.025016247
 20
175.3720038862
 10
223.9725650741
 20
175.7467114957
 10
223.9222767418
 20
176.1321328481
 10
223.8743310241
 20
176.5267666084
 10
223.8285602618
 20
176.9266647793
 10
223.7856176702
 20
177.3312191543
 10
223.745845021
 20
177.7410024893
 10
223.7087802494
 20
178.1539634953
 10
223.6747614778
 20
178.5698451974
 10
223.6441798998
 20
178.9892266103
 10
223.6166564932
 20
179.411370928
 10
223.5922829932
 20
179.8367177695
 10
223.5713418314
 20
180.265388962
 10
223.5537458402
 20
180.6962134745
 10
223.5395566298
 20
181.1300044789
 10
223.5288425922
 20
181.5667054866
 10
223.5216523208
 20
182.0038900504
 10
223.5180907815
 20
182.4421080097
 10
223.5180900538
 20
182.8816949944
 10
223.5216513783
 20
183.3199275568
 10
223.5288435778
 20
183.7571529594
 10
223.5395588347
 20
184.1939096992
 10
223.5537472293
 20
184.6277368425
 10
223.5713435002
 20
185.0585682982
 10
223.5922853105
 20
185.4872266502
 10
223.6166550719
 20
185.9125343525
 10
223.644167916
 20
186.3345891371
 10
223.6747388536
 20
186.753853629
 10
223.7087526482
 20
187.169655733
 10
223.7458128917
 20
187.5825959594
 10
223.7855816184
 20
187.992396898
 10
223.82852987
 20
188.3970102841
 10
223.8743232466
 20
188.7970454893
 10
223.9222922101
 20
189.1918592778
 10
223.9725854681
 20
189.5773979354
 10
224.0250243777
 20
189.9521238012
 10
224.078872248
 20
190.3170455011
 10
224.1335483042
 20
190.6717931239
  0
LWPOLYLINE
  5
23C
100
AcDbEntity
  8
RACCORDO
100
AcDbPolyline
 62
250
  6
CONTINUOUS
 90
40
 70
0
 10
223.9358424254
 20
174.5809144992
 10
223.8814746202
 20
174.9506744668
 10
223.8288886351
 20
175.3278178475
 10
223.7782170177
 20
175.7123412568
 10
223.7294870522
 20
176.105283479
 10
223.6829576333
 20
176.5055955362
 10
223.6390510444
 20
176.9101329492
 10
223.5979102903
 20
177.318213545
 10
223.5595431105
 20
177.7304842623
 10
223.524085469
 20
178.1457841691
 10
223.49161518
 20
178.5637592246
 10
223.4621658321
 20
178.9847200267
 10
223.4357814082
 20
179.4085000265
 10
223.4125069353
 20
179.8351973859
 10
223.3924101259
 20
180.2646665369
 10
223.3755556108
 20
180.6963740037
 10
223.3619795136
 20
181.1305557201
 10
223.3517396327
 20
181.5669230681
 10
223.3448949401
 20
182.0041537266
 10
223.3414624803
 20
182.4423072525
 10
223.3414609859
 20
182.8812670354
 10
223.3448907993
 20
183.3194454562
 10
223.3517339539
 20
183.756736347
 10
223.3619738456
 20
184.1931887899
 10
223.3755510225
 20
184.6274490891
 10
223.3924078641
 20
185.0592335462
 10
223.4125078471
 20
185.488773153
 10
223.4357833587
 20
185.9154883381
 10
223.4621636223
 20
186.3392032872
 10
223.4916040803
 20
186.7600465833
 10
223.5240630441
 20
187.1778965959
 10
223.5595054883
 20
187.5930518438
 10
223.5978545973
 20
188.0051704579
 10
223.6389829225
 20
188.4131725637
 10
223.6828895426
 20
188.8177533628
 10
223.7294282036
 20
189.2181820139
 10
223.778170356
 20
189.6112496512
 10
223.8288545375
 20
189.9958858772
 10
223.8814560124
 20
190.3731508505
 10
223.9358423553
 20
190.7430411457
  0
LWPOLYLINE
  5
23D
100
AcDbEntity
  8
RACCORDO
100
AcDbPolyline
 62
250
  6
CONTINUOUS
 90
25
 70
0
 10
224.4705900367
 20
191.3136996611
 10
225.0151064118
 20
191.9302288797
 10
225.57335142
 20
192.526288442
 10
226.1447421914
 20
193.1016642039
 10
226.7292736782
 20
193.6564445926
 10
227.3258081531
 20
194.1901128146
 10
227.932008462
 20
194.7018010139
 10
228.5471581866
 20
195.1916381578
 10
229.17077455
 20
195.659678163
 10
229.8007912719
 20
196.105385823
 10
230.4364876207
 20
196.5290893893
 10
231.0774611748
 20
196.931102061
 10
231.7220829722
 20
197.31121493
 10
232.3697223071
 20
197.6699072596
 10
233.0200519817
 20
198.0076442195
 10
233.6718850036
 20
198.3244326353
 10
234.3246978969
 20
198.6208225896
 10
234.9782607427
 20
198.8973633511
 10
235.6318247946
 20
199.1541935386
 10
236.2849838384
 20
199.3918615905
 10
236.9375975013
 20
199.610937359
 10
237.5893167282
 20
199.8116333348
 10
238.2398927791
 20
199.9943678012
 10
238.8892089915
 20
200.1597456291
 10
239.5371408955
 20
200.3082409514
  0
LWPOLYLINE
  5
23E
100
AcDbEntity
  8
RACCORDO
100
AcDbPolyline
 62
250
  6
CONTINUOUS
 90
10
 70
0
 10
224.4706012529
 20
191.3136850088
 10
224.4159158525
 20
191.2687401794
 10
224.3647934277
 20
191.222492388
 10
224.3172669274
 20
191.1751550848
 10
224.2733595612
 20
191.1270809405
 10
224.233065326
 20
191.0783388578
 10
224.1964108729
 20
191.0287080616
 10
224.1634543206
 20
190.9782495264
 10
224.1342235299
 20
190.9273107301
 10
224.1087393473
 20
190.8760988539
  0
LWPOLYLINE
  5
23F
100
AcDbEntity
  8
RACCORDO
100
AcDbPolyline
 62
250
  6
CONTINUOUS
 90
7
 70
0
 10
224.0984729584
 20
190.8401239408
 10
224.1029309991
 20
190.811829801
 10
224.1079097463
 20
190.7836414491
 10
224.1134085666
 20
190.7555704053
 10
224.1194266
 20
190.7276281261
 10
224.1259627598
 20
190.699825999
 10
224.1330157338
 20
190.6721753379
  0
LWPOLYLINE
  5
240
100
AcDbEntity
  8
RACCORDO
100
AcDbPolyline
 62
250
  6
CONTINUOUS
 90
7
 70
0
 10
227.00172918
 20
180.907097878
 10
227.0175241419
 20
180.7527219098
 10
227.0345497636
 20
180.5985637815
 10
227.0528028594
 20
180.4446326615
 10
227.0722801829
 20
180.2909376762
 10
227.0929784273
 20
180.1374879103
 10
227.1148942255
 20
179.984292406
  0
LWPOLYLINE
  5
241
100
AcDbEntity
  8
RACCORDO
100
AcDbPolyline
 62
250
  6
CONTINUOUS
 90
10
 70
0
 10
226.8355555173
 20
184.3603188864
 10
226.8487786494
 20
184.1837006561
 10
226.8609705749
 20
184.0050572364
 10
226.8720827557
 20
183.8243932244
 10
226.8820682042
 20
183.6417933194
 10
226.8908751642
 20
183.457184246
 10
226.8984444775
 20
183.2703349345
 10
226.9047192713
 20
183.0811739732
 10
226.9096476138
 20
182.8897894932
 10
226.9131743517
 20
182.6961911958
  0
LINE
  5
242
100
AcDbEntity
  8
RACCORDO
100
AcDbLine
 62
250
  6
CONTINUOUS
 10
226.9334414019
 20
180.2455177457
 11
226.9427387454
 21
179.9589360137
  0
LINE
  5
243
100
AcDbEntity
  8
RACCORDO
100
AcDbLine
 62
250
  6
CONTINUOUS
 10
226.9257221516
 20
180.5377605122
 11
226.9334414019
 21
180.2455177457
  0
LINE
  5
244
100
AcDbEntity
  8
RACCORDO
100
AcDbLine
 62
250
  6
CONTINUOUS
 10
226.9193903096
 20
180.8348667718
 11
226.9257221516
 21
180.5377605122
  0
LINE
  5
245
100
AcDbEntity
  8
RACCORDO
100
AcDbLine
 62
250
  6
CONTINUOUS
 10
226.9146513714
 20
181.3429847785
 11
226.9193811602
 21
180.8348644015
  0
LWPOLYLINE
  5
246
100
AcDbEntity
  8
RACCORDO
100
AcDbPolyline
 62
250
  6
CONTINUOUS
 90
13
 70
0
 10
226.9139193335
 20
182.6314804064
 10
226.9147888354
 20
182.5100540139
 10
226.9165318447
 20
182.3845211344
 10
226.9192325304
 20
182.2548890074
 10
226.9229779304
 20
182.1211554731
 10
226.9278575704
 20
181.9833410009
 10
226.9339626465
 20
181.841488771
 10
226.9413873146
 20
181.6955993411
 10
226.9502283553
 20
181.5456993444
 10
226.9605823584
 20
181.3918734626
 10
226.9725482086
 20
181.2341624513
 10
226.9862289187
 20
181.0725632992
 10
227.00172918
 20
180.907097878
  0
LINE
  5
247
100
AcDbEntity
  8
RACCORDO
100
AcDbLine
 62
250
  6
CONTINUOUS
 10
226.9119859144
 20
181.9577754534
 11
226.9146513714
 21
181.3429847785
  0
LINE
  5
248
100
AcDbEntity
  8
RACCORDO
100
AcDbLine
 62
250
  6
CONTINUOUS
 10
226.9118705038
 20
183.2211185061
 11
226.9131743377
 21
182.6277683988
  0
LINE
  5
249
100
AcDbEntity
  8
RACCORDO
100
AcDbLine
 62
250
  6
CONTINUOUS
 10
226.9139193452
 20
182.6924782662
 11
226.9138602155
 21
182.6619778068
  0
LINE
  5
24A
100
AcDbEntity
  8
RACCORDO
100
AcDbLine
 62
250
  6
CONTINUOUS
 10
226.912834015
 20
183.6620341637
 11
226.9118705038
 21
183.2211185061
  0
LWPOLYLINE
  5
24B
100
AcDbEntity
  8
RACCORDO
100
AcDbPolyline
 62
250
  6
CONTINUOUS
 90
3
 70
0
 10
226.9131736828
 20
182.6277629292
 10
226.9126200355
 20
182.5024338617
 10
226.9119859144
 20
181.9577754534
  0
LINE
  5
24C
100
AcDbEntity
  8
RACCORDO
100
AcDbLine
 62
250
  6
CONTINUOUS
 10
226.9159305831
 20
184.1443652066
 11
226.912834015
 21
183.6620341637
  0
LINE
  5
24D
100
AcDbEntity
  8
RACCORDO
100
AcDbLine
 62
250
  6
CONTINUOUS
 10
226.9193815524
 20
184.4890918227
 11
226.9159305831
 21
184.1443652066
  0
LWPOLYLINE
  5
24E
100
AcDbEntity
  8
RACCORDO
100
AcDbPolyline
 62
250
  6
CONTINUOUS
 90
10
 70
0
 10
226.9131743377
 20
182.6277683988
 10
226.9096476987
 20
182.4341722794
 10
226.9047192982
 20
182.2427834795
 10
226.8984441421
 20
182.0536117064
 10
226.8908736773
 20
181.8667373166
 10
226.882064865
 20
181.6820966986
 10
226.8720780916
 20
181.4994821228
 10
226.8609659892
 20
181.3188280626
 10
226.8487755033
 20
181.1402114093
 10
226.8355555173
 20
180.9636367271
  0
LINE
  5
24F
100
AcDbEntity
  8
RACCORDO
100
AcDbLine
 62
250
  6
CONTINUOUS
 10
226.9257221755
 20
184.7861612206
 11
226.9193898924
 21
184.4890900453
  0
LINE
  5
250
100
AcDbEntity
  8
RACCORDO
100
AcDbLine
 62
250
  6
CONTINUOUS
 10
226.9334415041
 20
185.0783954771
 11
226.9257221755
 21
184.7861612206
  0
LINE
  5
251
100
AcDbEntity
  8
RACCORDO
100
AcDbLine
 62
250
  6
CONTINUOUS
 10
226.9427377594
 20
185.365014576
 11
226.9334415041
 21
185.0783954771
  0
LWPOLYLINE
  5
252
100
AcDbEntity
  8
RACCORDO
100
AcDbPolyline
 62
250
  6
CONTINUOUS
 90
25
 70
0
 10
226.8355555173
 20
180.9636367271
 10
226.8113909623
 20
180.6798610586
 10
226.7828638463
 20
180.3954901644
 10
226.7497338634
 20
180.1106186685
 10
226.7118134615
 20
179.8256383992
 10
226.6687353897
 20
179.540383606
 10
226.6198814541
 20
179.2541471387
 10
226.5647090607
 20
178.9664511417
 10
226.5028528561
 20
178.6781440127
 10
226.4338481556
 20
178.3905567739
 10
226.3570938914
 20
178.1037526524
 10
226.2720843381
 20
177.8182017623
 10
226.1784930297
 20
177.5358781419
 10
226.0758143101
 20
177.2573725485
 10
225.9633475651
 20
176.9827878832
 10
225.8404624998
 20
176.7134039014
 10
225.7065203273
 20
176.4496668876
 10
225.5607446157
 20
176.1920406109
 10
225.4021960378
 20
175.9419032742
 10
225.2299310377
 20
175.6994819038
 10
225.0431766274
 20
175.4657412598
 10
224.8411288976
 20
175.2432382401
 10
224.6228591984
 20
175.0332977975
 10
224.387345923
 20
174.8360198983
 10
224.1335761597
 20
174.6521776388
  0
LWPOLYLINE
  5
253
100
AcDbEntity
  8
RACCORDO
100
AcDbPolyline
 62
250
  6
CONTINUOUS
 90
13
 70
0
 10
227.0017290189
 20
184.4168557247
 10
226.9861569904
 20
184.2505846292
 10
226.9724305071
 20
184.0883247895
 10
226.9604405772
 20
183.9300986022
 10
226.9500800903
 20
183.775902777
 10
226.9412462322
 20
183.6257791185
 10
226.9338385926
 20
183.4798146929
 10
226.9277567035
 20
183.338038051
 10
226.9229030846
 20
183.200448144
 10
226.9191835778
 20
183.0670851568
 10
226.9165058177
 20
182.9379685616
 10
226.9147799718
 20
182.8130972024
 10
226.9139193452
 20
182.6924782662
  0
LWPOLYLINE
  5
254
100
AcDbEntity
  8
RACCORDO
100
AcDbPolyline
 62
250
  6
CONTINUOUS
 90
28
 70
0
 10
226.9427406694
 20
179.9589464344
 10
226.9170997142
 20
179.7175091839
 10
226.888142179
 20
179.4759711352
 10
226.8558518994
 20
179.2341524453
 10
226.8204232562
 20
178.9915204887
 10
226.7816516618
 20
178.7482605001
 10
226.7388863413
 20
178.5052678092
 10
226.6920354739
 20
178.2622082837
 10
226.6411136971
 20
178.0190773785
 10
226.5855319222
 20
177.7772743573
 10
226.5251466761
 20
177.5366568239
 10
226.4599166663
 20
177.2970881239
 10
226.3892895532
 20
177.060013049
 10
226.3130943926
 20
176.8254237335
 10
226.2312102585
 20
176.5931415626
 10
226.143055647
 20
176.3644049677
 10
226.0484528416
 20
176.1392418859
 10
225.9472049513
 20
175.9175477676
 10
225.8386187276
 20
175.7004156586
 10
225.7224914079
 20
175.4878449329
 10
225.5985894637
 20
175.2798849084
 10
225.466101295
 20
175.0777658646
 10
225.3247505219
 20
174.8815055197
 10
225.1743206872
 20
174.6912947533
 10
225.0140179199
 20
174.5087097783
 10
224.8433789009
 20
174.3344325493
 10
224.6623159096
 20
174.168215724
 10
224.4705689914
 20
174.0103160264
  0
LWPOLYLINE
  5
255
100
AcDbEntity
  8
RACCORDO
100
AcDbPolyline
 62
250
  6
CONTINUOUS
 90
7
 70
0
 10
227.1148926799
 20
185.3396529995
 10
227.0929740326
 20
185.1864364739
 10
227.0722744727
 20
185.0329746009
 10
227.0527971416
 20
184.879276456
 10
227.0345451196
 20
184.7253511535
 10
227.0175214261
 20
184.5712078462
 10
227.0017290189
 20
184.4168557247
  0
LWPOLYLINE
  5
256
100
AcDbEntity
  8
RACCORDO
100
AcDbPolyline
 62
250
  6
CONTINUOUS
 90
10
 70
0
 10
224.1098637113
 20
174.4453333704
 10
224.0996271087
 20
174.3946072188
 10
224.0937842357
 20
174.3436982603
 10
224.0923815359
 20
174.2930103685
 10
224.0954301954
 20
174.2429456809
 10
224.1029060526
 20
174.1939014236
 10
224.1147497852
 20
174.1462667594
 10
224.130867384
 20
174.1004196789
 10
224.1511309037
 20
174.0567240029
 10
224.175379475
 20
174.0155265088
  0
LWPOLYLINE
  5
257
100
AcDbEntity
  8
RACCORDO
100
AcDbPolyline
 62
250
  6
CONTINUOUS
 90
10
 70
0
 10
224.0758959465
 20
174.4995471645
 10
224.0646204494
 20
174.4506084111
 10
224.057716689
 20
174.4011799481
 10
224.0552261666
 20
174.3516482273
 10
224.0571509077
 20
174.3024038869
 10
224.0634763095
 20
174.2538233713
 10
224.0741672084
 20
174.2062621978
 10
224.0891419305
 20
174.1600747563
 10
224.1082776924
 20
174.1156166065
 10
224.1314309315
 20
174.0732238958
  0
LWPOLYLINE
  5
258
100
AcDbEntity
  8
RACCORDO
100
AcDbPolyline
 62
250
  6
CONTINUOUS
 90
7
 70
0
 10
224.1330111429
 20
174.6517783336
 10
224.1259600229
 20
174.6241115199
 10
224.1194262975
 20
174.596299905
 10
224.1134108139
 20
174.5683549498
 10
224.1079141912
 20
174.5402881688
 10
224.1029368207
 20
174.5121111248
 10
224.0984788656
 20
174.4838354235
  0
LWPOLYLINE
  5
259
100
AcDbEntity
  8
RACCORDO
100
AcDbPolyline
 62
250
  6
CONTINUOUS
 90
10
 70
0
 10
224.1098637113
 20
174.4453333704
 10
224.0968905252
 20
174.3976757169
 10
224.0882447184
 20
174.349912136
 10
224.0840441585
 20
174.3023698082
 10
224.0844060539
 20
174.2553254817
 10
224.0893252309
 20
174.2091519566
 10
224.0986813747
 20
174.1643181428
 10
224.1124023192
 20
174.1211809885
 10
224.1304561465
 20
174.0799812762
 10
224.1527350594
 20
174.0409916429
  0
LWPOLYLINE
  5
25A
100
AcDbEntity
  8
RACCORDO
100
AcDbPolyline
 62
250
  6
CONTINUOUS
 90
10
 70
0
 10
226.9131615306
 20
182.6277628771
 10
226.913276299
 20
182.6281759454
 10
226.913383426
 20
182.6285890172
 10
226.9134829111
 20
182.6290020899
 10
226.9135747536
 20
182.629415161
 10
226.913658953
 20
182.6298282281
 10
226.9137355088
 20
182.6302412886
 10
226.9138044206
 20
182.6306543402
 10
226.9138656879
 20
182.6310673803
 10
226.9139193104
 20
182.6314804064
  0
LWPOLYLINE
  5
25B
100
AcDbEntity
  8
RACCORDO
100
AcDbPolyline
 62
250
  6
CONTINUOUS
 90
10
 70
0
 10
224.0986054257
 20
174.4842067531
 10
224.0841378891
 20
174.4366370018
 10
224.0741805723
 20
174.3885432464
 10
224.068795095
 20
174.3403814933
 10
224.0679653788
 20
174.2926762525
 10
224.0716915586
 20
174.2458123491
 10
224.080008991
 20
174.2000316337
 10
224.0928560015
 20
174.1556993389
 10
224.1100568891
 20
174.1132985179
 10
224.1314309315
 20
174.0732238958
  0
LWPOLYLINE
  5
25C
100
AcDbEntity
  8
RACCORDO
100
AcDbPolyline
 62
250
  6
CONTINUOUS
 90
10
 70
0
 10
224.0985950262
 20
190.839708338
 10
224.0956393442
 20
190.8379294039
 10
224.0927907082
 20
190.8361685383
 10
224.0900494197
 20
190.834426519
 10
224.0874155579
 20
190.8327045983
 10
224.084889646
 20
190.8310030929
 10
224.0824726163
 20
190.8293213998
 10
224.080164936
 20
190.8276598687
 10
224.0779666402
 20
190.8260197861
 10
224.075877974
 20
190.8244019764
  0
LWPOLYLINE
  5
25D
100
AcDbEntity
  8
RACCORDO
100
AcDbPolyline
 62
250
  6
CONTINUOUS
 90
7
 70
0
 10
249.1121409542
 20
164.6646187013
 10
249.4396272177
 20
164.7371955989
 10
249.7642793953
 20
164.8153137028
 10
250.0860125851
 20
164.8988679103
 10
250.4047451091
 20
164.9877523773
 10
250.7203984899
 20
165.081860602
 10
251.0328974258
 20
165.1810855069
  0
LWPOLYLINE
  5
25E
100
AcDbEntity
  8
RACCORDO
100
AcDbPolyline
 62
250
  6
CONTINUOUS
 90
7
 70
0
 10
249.155284948
 20
164.5825929872
 10
249.4845821449
 20
164.6436567873
 10
249.8111060123
 20
164.7092805634
 10
250.1347340209
 20
164.7793827794
 10
250.4553450145
 20
164.8538798389
 10
250.7728193767
 20
164.9326859953
 10
251.0870392314
 20
165.0157132672
  0
LWPOLYLINE
  5
25F
100
AcDbEntity
  8
RACCORDO
100
AcDbPolyline
 62
250
  6
CONTINUOUS
 90
19
 70
0
 10
249.110536072
 20
164.4852868533
 10
248.631562472
 20
164.4235280446
 10
248.1678765379
 20
164.3718530955
 10
247.719701822
 20
164.3294442073
 10
247.2892121646
 20
164.2956731637
 10
246.8745976214
 20
164.2695465149
 10
246.4700444062
 20
164.2500079794
 10
246.0771333779
 20
164.2366317897
 10
245.6944796781
 20
164.2288972688
 10
245.3117700825
 20
164.226330434
 10
244.929072973
 20
164.2289065034
 10
244.5464534539
 20
164.2366493059
 10
244.1535933839
 20
164.25003245
 10
243.7491080032
 20
164.2695759003
 10
243.3345779614
 20
164.295704531
 10
242.9041840858
 20
164.3294742801
 10
242.4561145592
 20
164.3718780837
 10
241.9925448436
 20
164.4235432677
 10
241.5136983119
 20
164.4852868533
  0
LWPOLYLINE
  5
260
100
AcDbEntity
  8
RACCORDO
100
AcDbPolyline
 62
250
  6
CONTINUOUS
 90
25
 70
0
 10
241.5136983119
 20
164.4852868533
 10
240.7856449874
 20
164.5956025235
 10
240.0537222858
 20
164.726529457
 10
239.3185476945
 20
164.8785502266
 10
238.5811825382
 20
165.0520318117
 10
237.8418828948
 20
165.2475060035
 10
237.1001292263
 20
165.4657834127
 10
236.3566710657
 20
165.7073914174
 10
235.6123303442
 20
165.9728283484
 10
234.8668118885
 20
166.2630353843
 10
234.1210075377
 20
166.5785793
 10
233.3759042767
 20
166.9199821666
 10
232.6314914339
 20
167.2882718719
 10
231.888456869
 20
167.6842338856
 10
231.1483669616
 20
168.1081985684
 10
230.4126347328
 20
168.5605306052
 10
229.6820718346
 20
169.0419386253
 10
228.9583955886
 20
169.5525486662
 10
228.2443407263
 20
170.0916208594
 10
227.5414924943
 20
170.6590237761
 10
226.8508058174
 20
171.2550992417
 10
226.1739916284
 20
171.8795578536
 10
225.5124946108
 20
172.5322274159
 10
224.867524816
 20
173.2130953782
 10
224.2404461152
 20
173.9219847222
  0
LWPOLYLINE
  5
261
100
AcDbEntity
  8
RACCORDO
100
AcDbPolyline
 62
250
  6
CONTINUOUS
 90
16
 70
0
 10
241.4690015867
 20
164.5827092955
 10
241.9508120538
 20
164.5019769964
 10
242.4509972581
 20
164.4309523974
 10
242.9697386655
 20
164.3702036063
 10
243.5133920554
 20
164.3191586465
 10
244.0758941741
 20
164.280135985
 10
244.6388791769
 20
164.2560902294
 10
245.2021987755
 20
164.2468885983
 10
245.7652175496
 20
164.2513326318
 10
246.3093277638
 20
164.268321499
 10
246.8285604102
 20
164.2973021966
 10
247.3292835274
 20
164.3378200403
 10
247.812122531
 20
164.3875841249
 10
248.2773392368
 20
164.4450689276
 10
248.7249932647
 20
164.5103143222
 10
249.1552314885
 20
164.582709249
  0
LWPOLYLINE
  5
262
100
AcDbEntity
  8
RACCORDO
100
AcDbPolyline
 62
250
  6
CONTINUOUS
 90
16
 70
0
 10
241.5120923103
 20
164.664618953
 10
241.9851523615
 20
164.5707191578
 10
242.4780402533
 20
164.486546409
 10
242.9906317139
 20
164.4135885025
 10
243.5286683715
 20
164.3527755863
 10
244.0859610101
 20
164.3066671446
 10
244.6442236479
 20
164.2776498131
 10
245.2029350724
 20
164.2657743934
 10
245.7615589727
 20
164.2709951787
 10
246.3016630924
 20
164.2922866848
 10
246.8164613309
 20
164.3275250065
 10
247.3120364834
 20
164.375302726
 10
247.7894048289
 20
164.4342132573
 10
248.2488145014
 20
164.5029439563
 10
248.6897434125
 20
164.5801656873
 10
249.1121409542
 20
164.6646187013
  0
LWPOLYLINE
  5
263
100
AcDbEntity
  8
RACCORDO
100
AcDbPolyline
 62
250
  6
CONTINUOUS
 90
25
 70
0
 10
239.5371967769
 20
165.0157153682
 10
238.8874172127
 20
165.1646400737
 10
238.2363840131
 20
165.3305200697
 10
237.5842217265
 20
165.5138179866
 10
236.9309772761
 20
165.7151422897
 10
236.2769684449
 20
165.9348900188
 10
235.6227495239
 20
166.1732008706
 10
234.9685880457
 20
166.4305503994
 10
234.3147476418
 20
166.7074986842
 10
233.6617805124
 20
167.0042690475
 10
233.0099073713
 20
167.3214117216
 10
232.3596558972
 20
167.6594490701
 10
231.7120499223
 20
168.0184729094
 10
231.0672839746
 20
168.3990380685
 10
230.4261313544
 20
168.8015588775
 10
229.7904667581
 20
169.2256674711
 10
229.1606556179
 20
169.6716531118
 10
228.537436391
 20
170.1398183735
 10
227.9231751654
 20
170.6293915679
 10
227.3186533592
 20
171.1400820696
 10
226.7242052435
 20
171.6721982844
 10
226.1414768473
 20
172.2254774654
 10
225.5714073982
 20
172.7996679273
 10
225.014238371
 20
173.3946756312
 10
224.4705689914
 20
174.0103160264
  0
LWPOLYLINE
  5
264
100
AcDbEntity
  8
RACCORDO
100
AcDbPolyline
 62
250
  6
CONTINUOUS
 90
7
 70
0
 10
239.5371948271
 20
165.0157133462
 10
239.8514166266
 20
164.9326855724
 10
240.1688923209
 20
164.8538791535
 10
240.4895038698
 20
164.779382058
 10
240.8131314914
 20
164.7092800197
 10
241.1396538609
 20
164.6436566217
 10
241.4689482776
 20
164.5825933875
  0
LWPOLYLINE
  5
265
100
AcDbEntity
  8
RACCORDO
100
AcDbPolyline
 62
250
  6
CONTINUOUS
 90
7
 70
0
 10
239.5913369493
 20
165.1810855095
 10
239.9038371426
 20
165.0818602108
 10
240.2194912162
 20
164.9877518079
 10
240.5382238583
 20
164.8988673477
 10
240.8599565825
 20
164.8153133006
 10
241.1846077028
 20
164.7371954789
 10
241.5120923103
 20
164.664618953
  0
LWPOLYLINE
  5
266
100
AcDbEntity
  8
RACCORDO
100
AcDbPolyline
 62
250
  6
CONTINUOUS
 90
10
 70
0
 10
241.5137018383
 20
164.4853120071
 10
241.5074714033
 20
164.4881245028
 10
241.5015355015
 20
164.4929638537
 10
241.4959034997
 20
164.4998224232
 10
241.4905847009
 20
164.5086885941
 10
241.4855870309
 20
164.5195488482
 10
241.480917287
 20
164.532389386
 10
241.4765827459
 20
164.5471926303
 10
241.4725908897
 20
164.5639356537
 10
241.4689482776
 20
164.5825933875
  0
LWPOLYLINE
  5
267
100
AcDbEntity
  8
RACCORDO
100
AcDbPolyline
 62
250
  6
CONTINUOUS
 90
10
 70
0
 10
224.0986054257
 20
174.4842067531
 10
224.0956509851
 20
174.4859902037
 10
224.0928031122
 20
174.4877547044
 10
224.0900623629
 20
174.4894999109
 10
224.0874292722
 20
174.4912254824
 10
224.0849043541
 20
174.4929310821
 10
224.0824881015
 20
174.4946163771
 10
224.0801809861
 20
174.4962810385
 10
224.0779834581
 20
174.4979247413
 10
224.0758959465
 20
174.4995471645
  0
LWPOLYLINE
  5
268
100
AcDbEntity
  8
RACCORDO
100
AcDbPolyline
 62
250
  6
CONTINUOUS
 90
7
 70
0
 10
224.0760292574
 20
190.8241159594
 10
224.0841105311
 20
190.7986517915
 10
224.0927567184
 20
190.7732301834
 10
224.1019689984
 20
190.747861261
 10
224.1117482419
 20
190.7225552555
 10
224.1220950049
 20
190.6973224981
 10
224.1330095222
 20
190.6721734151
  0
LWPOLYLINE
  5
269
100
AcDbEntity
  8
RACCORDO
100
AcDbPolyline
 62
250
  6
CONTINUOUS
 90
10
 70
0
 10
224.0985950262
 20
190.839708338
 10
224.0841711406
 20
190.8873938186
 10
224.0742063845
 20
190.9354607647
 10
224.0687804712
 20
190.9835246795
 10
224.0679368001
 20
191.0312011352
 10
224.0716821155
 20
191.0781086948
 10
224.0799864037
 20
191.1238719732
 10
224.0927831496
 20
191.1681248461
 10
224.1099699189
 20
191.2105133681
 10
224.1314091505
 20
191.2506984579
  0
LWPOLYLINE
  5
26A
100
AcDbEntity
  8
RACCORDO
100
AcDbPolyline
 62
250
  6
CONTINUOUS
 90
10
 70
0
 10
226.9131738775
 20
182.696190385
 10
226.9132873817
 20
182.6957779157
 10
226.9133932379
 20
182.6953654437
 10
226.9134914455
 20
182.6949529713
 10
226.9135820037
 20
182.6945405012
 10
226.9136649122
 20
182.6941280356
 10
226.9137401704
 20
182.6937155768
 10
226.9138077779
 20
182.6933031271
 10
226.9138677343
 20
182.6928906891
 10
226.9139200392
 20
182.6924782651
  0
LWPOLYLINE
  5
26B
100
AcDbEntity
  8
RACCORDO
100
AcDbPolyline
 62
250
  6
CONTINUOUS
 90
10
 70
0
 10
224.1098676905
 20
190.8786347874
 10
224.0968039824
 20
190.9261804926
 10
224.0881778513
 20
190.9739679275
 10
224.084048409
 20
191.0216006346
 10
224.0844287464
 20
191.0686689586
 10
224.0893149648
 20
191.1147980103
 10
224.0986874793
 20
191.1596512588
 10
224.1124724014
 20
191.2028737461
 10
224.1305412165
 20
191.244094535
 10
224.1527417607
 20
191.2829745221
  0
LWPOLYLINE
  5
26C
100
AcDbEntity
  8
RACCORDO
100
AcDbPolyline
 62
250
  6
CONTINUOUS
 90
10
 70
0
 10
224.075877974
 20
190.8244019764
 10
224.0645767278
 20
190.8732692304
 10
224.0576784129
 20
190.9227060522
 10
224.0552120156
 20
190.9722860951
 10
224.0571414613
 20
191.0215338861
 10
224.0634500011
 20
191.0700792526
 10
224.0741492773
 20
191.1176586261
 10
224.0891608434
 20
191.1639118638
 10
224.108308611
 20
191.2083880673
 10
224.1314091505
 20
191.2506984579
  0
LWPOLYLINE
  5
26D
100
AcDbEntity
  8
RACCORDO
100
AcDbPolyline
 62
250
  6
CONTINUOUS
 90
10
 70
0
 10
224.1098676905
 20
190.8786347874
 10
224.0996499159
 20
190.9293745331
 10
224.0938026991
 20
190.9802815394
 10
224.0923849478
 20
191.0309596456
 10
224.0954299778
 20
191.0810226167
 10
224.1029135644
 20
191.13007273
 10
224.1147551359
 20
191.1777044359
 10
224.1308605072
 20
191.2235400326
 10
224.1511216515
 20
191.267232021
 10
224.1753866157
 20
191.3084416013
  0
LINE
  5
26E
100
AcDbEntity
  8
DRAFT
100
AcDbLine
 62
7
  6
CONTINUOUS
 10
229.1121171919
 20
174.0403783877
 11
229.1121171919
 21
180.5619778068
  0
LINE
  5
26F
100
AcDbEntity
  8
DRAFT
100
AcDbLine
 62
7
  6
CONTINUOUS
 10
229.1121171919
 20
184.7619778068
 11
229.1121171919
 21
191.2835772259
  0
LINE
  5
270
100
AcDbEntity
  8
RACCORDO
100
AcDbLine
 62
250
  6
CONTINUOUS
 10
229.2955351481
 20
191.1260824759
 11
229.2955351481
 21
184.670272251
  0
LINE
  5
271
100
AcDbEntity
  8
RACCORDO
100
AcDbLine
 62
250
  6
CONTINUOUS
 10
229.2955351481
 20
180.6536833626
 11
229.2955351481
 21
174.1978731377
  0
LWPOLYLINE
  5
272
100
AcDbEntity
  8
RACCORDO
100
AcDbPolyline
 62
250
  6
CONTINUOUS
 90
7
 70
0
 10
224.1330103104
 20
174.6517785916
 10
224.1220984482
 20
174.6266208177
 10
224.1117538172
 20
174.6013825846
 10
224.10197617
 20
174.5760743305
 10
224.0927649374
 20
174.5507063985
 10
224.0841192356
 20
174.5252890317
 10
224.0760378724
 20
174.4998323674
  0
LWPOLYLINE
  5
273
100
AcDbEntity
  8
0
100
AcDbPolyline
 62
7
  6
CONTINUOUS
 90
5
 70
0
 10
243.7121171919
 20
166.6900635352
 10
243.6491744916
 20
166.6877833946
 10
243.5870617958
 20
166.6843889042
 10
243.5257698789
 20
166.6803124113
 10
243.4741452707
 20
166.676593344
  0
LINE
  5
274
100
AcDbEntity
  8
0
100
AcDbLine
 62
7
  6
CONTINUOUS
 10
246.9121171919
 20
167.3784988235
 11
246.9697869818
 21
167.3787916144
  0
LINE
  5
275
100
AcDbEntity
  8
DRAFT
100
AcDbLine
 62
7
  6
CONTINUOUS
 10
247.0121171919
 20
166.2914243004
 11
243.6121171919
 21
166.2914243004
  0
LINE
  5
276
100
AcDbEntity
  8
0
100
AcDbLine
 62
7
  6
CONTINUOUS
 10
243.4741452707
 20
166.6619778068
 11
247.1500891132
 21
166.6619778068
  0
LINE
  5
277
100
AcDbEntity
  8
0
100
AcDbLine
 62
250
  6
CONTINUOUS
 10
243.7121171919
 20
166.8442221695
 11
246.9121171919
 21
166.8442221695
  0
LINE
  5
278
100
AcDbEntity
  8
RACCORDO
100
AcDbLine
 62
7
  6
CONTINUOUS
 10
243.4780439612
 20
167.3369778068
 11
243.4741452707
 21
167.3369778068
  0
LINE
  5
279
100
AcDbEntity
  8
0
100
AcDbLine
 62
7
  6
CONTINUOUS
 10
243.7121171919
 20
167.3784988235
 11
243.654447402
 21
167.3787916144
  0
LWPOLYLINE
  5
27A
100
AcDbEntity
  8
0
100
AcDbPolyline
 62
7
  6
CONTINUOUS
 90
5
 70
0
 10
246.9121171919
 20
166.6900635352
 10
246.9750598923
 20
166.6877833946
 10
247.037172588
 20
166.6843889042
 10
247.0984645049
 20
166.6803124113
 10
247.1500891132
 20
166.676593344
  0
LINE
  5
27B
100
AcDbEntity
  8
RACCORDO
100
AcDbLine
 62
250
  6
CONTINUOUS
 10
230.2954605178
 20
190.8735632868
 11
230.2954605178
 21
184.6642381529
  0
LINE
  5
27C
100
AcDbEntity
  8
RACCORDO
100
AcDbLine
 62
250
  6
CONTINUOUS
 10
230.2954605178
 20
180.6597174606
 11
230.2954605178
 21
174.4503681763
  0
LWPOLYLINE
  5
27D
100
AcDbEntity
  8
ASSI
100
AcDbPolyline
 62
7
  6
CONTINUOUS
 90
10
 70
0
 10
235.0197769661
 20
193.2375258199
 10
235.0308993573
 20
193.2593515241
 10
235.0435693342
 20
193.2786468095
 10
235.0577868968
 20
193.2954116761
 10
235.0736424418
 20
193.309685182
 10
235.0910455725
 20
193.3214282692
 10
235.1097250982
 20
193.330523763
 10
235.129590622
 20
193.3369326053
 10
235.1507325407
 20
193.3406938543
 10
235.1731508545
 20
193.34180751
  0
LWPOLYLINE
  5
27E
100
AcDbEntity
  8
RACCORDO
100
AcDbPolyline
 62
250
  6
CONTINUOUS
 90
7
 70
0
 10
226.9193815524
 20
184.4890918227
 10
226.8962204443
 20
184.467641887
 10
226.8766696493
 20
184.4461030683
 10
226.8607864375
 20
184.4245383527
 10
226.8486173566
 20
184.403010805
 10
226.8401980955
 20
184.3815833842
 10
226.8355533787
 20
184.3603187593
  0
LINE
  5
27F
100
AcDbEntity
  8
0
100
AcDbLine
 62
7
  6
CONTINUOUS
 10
243.4786042676
 20
167.3732024723
 11
243.4190392567
 21
167.3702189216
  0
LINE
  5
280
100
AcDbEntity
  8
0
100
AcDbLine
 62
7
  6
CONTINUOUS
 10
243.537673873
 20
167.3758404881
 11
243.4786042676
 21
167.3732024723
  0
LWPOLYLINE
  5
281
100
AcDbEntity
  8
0
100
AcDbPolyline
 62
7
  6
CONTINUOUS
 90
3
 70
0
 10
243.654447402
 20
167.3787916144
 10
243.5963016725
 20
167.3778076861
 10
243.537673873
 20
167.3758404881
  0
LINE
  5
282
100
AcDbEntity
  8
0
100
AcDbLine
 62
7
  6
CONTINUOUS
 10
243.7121171919
 20
167.5870196032
 11
246.9121171919
 21
167.5870196032
  0
LINE
  5
283
100
AcDbEntity
  8
DRAFT
100
AcDbLine
 62
7
  6
CONTINUOUS
 10
247.1634412346
 20
168.1619778068
 11
243.4607931492
 21
168.1619778068
  0
LINE
  5
284
100
AcDbEntity
  8
0
100
AcDbLine
 62
7
  6
CONTINUOUS
 10
243.7121171919
 20
168.2119778068
 11
246.9121171919
 21
168.2119778068
  0
LWPOLYLINE
  5
285
100
AcDbEntity
  8
0
100
AcDbPolyline
 62
7
  6
CONTINUOUS
 90
3
 70
0
 10
246.9697869818
 20
167.3787916144
 10
247.0279327113
 20
167.3778076861
 10
247.0865605109
 20
167.3758404881
  0
LINE
  5
286
100
AcDbEntity
  8
0
100
AcDbLine
 62
7
  6
CONTINUOUS
 10
247.0865605109
 20
167.3758404881
 11
247.1456301163
 21
167.3732024723
  0
LINE
  5
287
100
AcDbEntity
  8
0
100
AcDbLine
 62
7
  6
CONTINUOUS
 10
247.1456301163
 20
167.3732024723
 11
247.2051951271
 21
167.3702189216
  0
LWPOLYLINE
  5
288
100
AcDbEntity
  8
RACCORDO
100
AcDbPolyline
 62
250
  6
CONTINUOUS
 90
13
 70
0
 10
224.175360221
 20
174.0154934608
 10
224.1892889626
 20
174.010880082
 10
224.2051580876
 20
174.0070413717
 10
224.2229896489
 20
174.0039545271
 10
224.2428402847
 20
174.001548476
 10
224.26469009
 20
173.9998426252
 10
224.2884445049
 20
173.9989479711
 10
224.3141136659
 20
173.9988362151
 10
224.3417130314
 20
173.9994739868
 10
224.3711574485
 20
174.0009642288
 10
224.402425831
 20
174.0033182361
 10
224.4355572556
 20
174.0064538009
 10
224.4705562113
 20
174.0103318438
  0
LWPOLYLINE
  5
289
100
AcDbEntity
  8
RACCORDO
100
AcDbPolyline
 62
250
  6
CONTINUOUS
 90
7
 70
0
 10
226.9193903096
 20
180.8348667718
 10
226.8962286754
 20
180.8563159026
 10
226.8766769721
 20
180.8778540187
 10
226.8607925271
 20
180.899418148
 10
226.8486219481
 20
180.9209452378
 10
226.8402009864
 20
180.9423723393
 10
226.8355544309
 20
180.9636367917
  0
LINE
  5
28A
100
AcDbEntity
  8
DRAFT
100
AcDbLine
 62
7
  6
CONTINUOUS
 10
233.4121171919
 20
183.1276718819
 11
233.4121171919
 21
182.1962837317
  0
LWPOLYLINE
  5
28B
100
AcDbEntity
  8
ASSI
100
AcDbPolyline
 62
7
  6
CONTINUOUS
 90
19
 70
0
 10
233.7363155992
 20
192.6195398068
 10
233.7379869371
 20
192.6885995399
 10
233.7463156122
 20
192.7560515404
 10
233.7613016244
 20
192.8218958083
 10
233.7830241678
 20
192.8864240768
 10
233.8114040484
 20
192.9493446128
 10
233.8462036839
 20
193.0097822164
 10
233.8889487517
 20
193.0675887887
 10
233.9381135744
 20
193.1229124286
 10
233.9888835383
 20
193.1753222338
 10
234.041454925
 20
193.2236523456
 10
234.0956314528
 20
193.2690686225
 10
234.1460096625
 20
193.3146377379
 10
234.1924237668
 20
193.3603902982
 10
234.235039553
 20
193.4062956969
 10
234.2689509234
 20
193.4553287875
 10
234.2925225119
 20
193.5084811878
 10
234.3073896846
 20
193.56476128
 10
234.3135524414
 20
193.6241690641
  0
LWPOLYLINE
  5
28C
100
AcDbEntity
  8
RACCORDO
100
AcDbPolyline
 62
250
  6
CONTINUOUS
 90
10
 70
0
 10
266.5481922129
 20
174.4998344208
 10
266.5742952255
 20
174.5059330311
 10
266.5978709736
 20
174.5126143201
 10
266.6188765112
 20
174.5199971694
 10
266.6373337559
 20
174.5283515426
 10
266.6531383118
 20
174.5376513457
 10
266.6661198881
 20
174.547535587
 10
266.6762695746
 20
174.5579174084
 10
266.6836792564
 20
174.5690225512
 10
266.6883923017
 20
174.5809154908
  0
LWPOLYLINE
  5
28D
100
AcDbEntity
  8
ASSI
100
AcDbPolyline
 62
7
  6
CONTINUOUS
 90
13
 70
0
 10
234.3135524414
 20
193.6241690641
 10
234.3117246226
 20
193.655192523
 10
234.3071831733
 20
193.684079336
 10
234.2999280936
 20
193.7108295032
 10
234.2896533205
 20
193.7356968256
 10
234.2766649169
 20
193.7584275022
 10
234.261881072
 20
193.7782601294
 10
234.2451767979
 20
193.7950796765
 10
234.2266770825
 20
193.8090011742
 10
234.2076750787
 20
193.8196083114
 10
234.1886018375
 20
193.8267623177
 10
234.1690263079
 20
193.8306019634
 10
234.1489484899
 20
193.8311272486
  0
LINE
  5
28E
100
AcDbEntity
  8
ASSI
100
AcDbLine
 62
7
  6
CONTINUOUS
 10
234.5500301919
 20
192.6195398068
 11
234.5500301919
 21
192.8733438068
  0
LWPOLYLINE
  5
28F
100
AcDbEntity
  8
ASSI
100
AcDbPolyline
 62
7
  6
CONTINUOUS
 90
16
 70
0
 10
233.749471079
 20
193.5587128068
 10
233.7506300371
 20
193.6171445024
 10
233.7552912115
 20
193.6728865454
 10
233.7634546022
 20
193.7259389359
 10
233.7750376641
 20
193.776691273
 10
233.7901229423
 20
193.8247539576
 10
233.8089580716
 20
193.8689581919
 10
233.8317047755
 20
193.9090672165
 10
233.8582013304
 20
193.9453177908
 10
233.8882102005
 20
193.9772513953
 10
233.9217464777
 20
194.0048952491
 10
233.9587950701
 20
194.0282221332
 10
233.999073166
 20
194.0466918711
 10
234.0424864947
 20
194.060124404
 10
234.0891293269
 20
194.0686997907
 10
234.1390016625
 20
194.0724180313
  0
LWPOLYLINE
  5
290
100
AcDbEntity
  8
ASSI
100
AcDbPolyline
 62
7
  6
CONTINUOUS
 90
16
 70
0
 10
235.352193749
 20
193.081906534
 10
235.3512150605
 20
193.0524783958
 10
235.3486949869
 20
193.0242072215
 10
235.344633528
 20
192.9970930114
 10
235.3390697978
 20
192.9709673021
 10
235.3319646823
 20
192.9459985568
 10
235.3232008401
 20
192.9226921649
 10
235.3126758523
 20
192.9010245978
 10
235.3004921377
 20
192.8810193839
 10
235.2868396111
 20
192.8632524978
 10
235.2717825001
 20
192.847730573
 10
235.2552565771
 20
192.834446976
 10
235.237259074
 20
192.8239577801
 10
235.2177890681
 20
192.8164483431
 10
235.1968474821
 20
192.8117333074
 10
235.1744343161
 20
192.8098126727
  0
LWPOLYLINE
  5
291
100
AcDbEntity
  8
ASSI
100
AcDbPolyline
 62
7
  6
CONTINUOUS
 90
16
 70
0
 10
234.548425916
 20
193.6142222366
 10
234.5460870959
 20
193.5570637888
 10
234.5383483553
 20
193.501810874
 10
234.5252096941
 20
193.448463492
 10
234.5067581831
 20
193.3971047168
 10
234.4829067515
 20
193.3476514744
 10
234.4533941877
 20
193.2998545435
 10
234.4173554147
 20
193.2540012192
 10
234.3756555096
 20
193.2098042064
 10
234.3306284917
 20
193.1661523981
 10
234.2817264949
 20
193.1241615297
 10
234.2294973853
 20
193.0827158659
 10
234.1779187814
 20
193.037357093
 10
234.1283165558
 20
192.9865991066
 10
234.079364836
 20
192.9319280112
 10
234.0310636217
 20
192.8733438068
  0
LINE
  5
292
100
AcDbEntity
  8
ASSI
100
AcDbLine
 62
7
  6
CONTINUOUS
 10
234.8923931919
 20
194.0477118068
 11
234.8102521919
 21
193.2497188068
  0
LINE
  5
293
100
AcDbEntity
  8
ASSI
100
AcDbLine
 62
7
  6
CONTINUOUS
 10
235.019777189
 20
193.4913307849
 11
235.0618101919
 21
193.8064208068
  0
LINE
  5
294
100
AcDbEntity
  8
ASSI
100
AcDbLine
 62
7
  6
CONTINUOUS
 10
237.6242391919
 20
194.0887818068
 11
237.3608041919
 21
192.9686598068
  0
LINE
  5
295
100
AcDbEntity
  8
ASSI
100
AcDbLine
 62
7
  6
CONTINUOUS
 10
237.4765031919
 20
192.6193108068
 11
237.8860681919
 21
194.0887818068
  0
LINE
  5
296
100
AcDbEntity
  8
RACCORDO
100
AcDbLine
 62
7
  6
CONTINUOUS
 10
243.4695547462
 20
200.6834912118
 11
243.6121171919
 21
200.950192464
  0
LWPOLYLINE
  5
297
100
AcDbEntity
  8
0
100
AcDbPolyline
 62
7
  6
CONTINUOUS
 90
16
 70
0
 10
241.116455132
 20
171.6584438068
 10
241.176362988
 20
171.6639516548
 10
241.2328243777
 20
171.6753644203
 10
241.2858393011
 20
171.6926821032
 10
241.335657764
 20
171.7160680987
 10
241.3820297605
 20
171.7453590116
 10
241.4242052727
 20
171.7800646566
 10
241.4621442038
 20
171.820151174
 10
241.4958866506
 20
171.8656524234
 10
241.5248028863
 20
171.9161797981
 10
241.5485143319
 20
171.9720533054
 10
241.5673995664
 20
172.032952938
 10
241.5819645999
 20
172.0975300673
 10
241.5923781024
 20
172.1653351504
 10
241.5984714038
 20
172.2368177303
 10
241.6002445042
 20
172.3119778068
  0
LWPOLYLINE
  5
298
100
AcDbEntity
  8
0
100
AcDbPolyline
 62
7
  6
CONTINUOUS
 90
16
 70
0
 10
241.1222989105
 20
171.4619778068
 10
241.2055036032
 20
171.4656551492
 10
241.2848560514
 20
171.4778542107
 10
241.3603562552
 20
171.4985749913
 10
241.4325317209
 20
171.5280936989
 10
241.5008549422
 20
171.5661341256
 10
241.5637433997
 20
171.6118676478
 10
241.6212192161
 20
171.665638275
 10
241.6732602687
 20
171.7271019976
 10
241.7182176707
 20
171.7943981636
 10
241.7555178041
 20
171.8670901613
 10
241.7857342869
 20
171.9456146023
 10
241.8089390866
 20
172.0294206692
 10
241.8251561924
 20
172.1183247559
 10
241.8343616151
 20
172.2125104685
 10
241.8365553547
 20
172.3119778068
  0
LINE
  5
299
100
AcDbEntity
  8
0
100
AcDbLine
 62
7
  6
CONTINUOUS
 10
236.8627341919
 20
171.4619778068
 11
237.0852871919
 21
171.4619778068
  0
LINE
  5
29A
100
AcDbEntity
  8
0
100
AcDbLine
 62
7
  6
CONTINUOUS
 10
237.5636011919
 20
171.4619778068
 11
237.7909091919
 21
171.4619778068
  0
LINE
  5
29B
100
AcDbEntity
  8
0
100
AcDbLine
 62
7
  6
CONTINUOUS
 10
238.2691311919
 20
171.4619778068
 11
238.4917741919
 21
171.4619778068
  0
LINE
  5
29C
100
AcDbEntity
  8
0
100
AcDbLine
 62
7
  6
CONTINUOUS
 10
238.6954031919
 20
171.4619778068
 11
238.9321521919
 21
171.4619778068
  0
LINE
  5
29D
100
AcDbEntity
  8
0
100
AcDbLine
 62
7
  6
CONTINUOUS
 10
239.9597131919
 20
171.4619778068
 11
240.2107191919
 21
171.4619778068
  0
LINE
  5
29E
100
AcDbEntity
  8
0
100
AcDbLine
 62
7
  6
CONTINUOUS
 10
240.4332661919
 20
171.4619778068
 11
241.1222989105
 21
171.4619778068
  0
LINE
  5
29F
100
AcDbEntity
  8
0
100
AcDbLine
 62
7
  6
CONTINUOUS
 10
242.1546451919
 20
171.4619778068
 11
243.4096061919
 21
171.4619778068
  0
LINE
  5
2A0
100
AcDbEntity
  8
0
100
AcDbLine
 62
7
  6
CONTINUOUS
 10
244.4040891919
 20
171.4619778068
 11
244.6337441919
 21
171.4619778068
  0
LINE
  5
2A1
100
AcDbEntity
  8
0
100
AcDbLine
 62
7
  6
CONTINUOUS
 10
245.0267311919
 20
171.4619778068
 11
245.2493871919
 21
171.4619778068
  0
LINE
  5
2A2
100
AcDbEntity
  8
0
100
AcDbLine
 62
7
  6
CONTINUOUS
 10
246.1183601919
 20
171.4619778068
 11
246.3764331919
 21
171.4619778068
  0
LINE
  5
2A3
100
AcDbEntity
  8
0
100
AcDbLine
 62
7
  6
CONTINUOUS
 10
247.4300341919
 20
171.4619778068
 11
247.6597581919
 21
171.4619778068
  0
LINE
  5
2A4
100
AcDbEntity
  8
0
100
AcDbLine
 62
7
  6
CONTINUOUS
 10
248.4813811919
 20
171.4619778068
 11
248.7110221919
 21
171.4619778068
  0
LINE
  5
2A5
100
AcDbEntity
  8
0
100
AcDbLine
 62
7
  6
CONTINUOUS
 10
249.3526911919
 20
171.4619778068
 11
249.5894261919
 21
171.4619778068
  0
LINE
  5
2A6
100
AcDbEntity
  8
0
100
AcDbLine
 62
7
  6
CONTINUOUS
 10
250.6170841919
 20
171.4619778068
 11
250.8681311919
 21
171.4619778068
  0
LINE
  5
2A7
100
AcDbEntity
  8
0
100
AcDbLine
 62
7
  6
CONTINUOUS
 10
251.0787581919
 20
171.4619778068
 11
252.1703881919
 21
171.4619778068
  0
LINE
  5
2A8
100
AcDbEntity
  8
0
100
AcDbLine
 62
7
  6
CONTINUOUS
 10
252.8901211919
 20
171.4619778068
 11
253.1197201919
 21
171.4619778068
  0
LINE
  5
2A9
100
AcDbEntity
  8
0
100
AcDbLine
 62
7
  6
CONTINUOUS
 10
241.116455132
 20
171.6584438068
 11
240.6630031919
 21
171.6584438068
  0
LINE
  5
2AA
100
AcDbEntity
  8
0
100
AcDbLine
 62
7
  6
CONTINUOUS
 10
252.1703881919
 20
171.6655928068
 11
251.3084951919
 21
171.6655928068
  0
LINE
  5
2AB
100
AcDbEntity
  8
0
100
AcDbLine
 62
7
  6
CONTINUOUS
 10
243.4096061919
 20
171.6655928068
 11
242.3843681919
 21
171.6655928068
  0
LINE
  5
2AC
100
AcDbEntity
  8
0
100
AcDbLine
 62
7
  6
CONTINUOUS
 10
239.1097541919
 20
171.9567858068
 11
239.7916241919
 21
171.9567858068
  0
LINE
  5
2AD
100
AcDbEntity
  8
0
100
AcDbLine
 62
7
  6
CONTINUOUS
 10
249.7670431919
 20
171.9567858068
 11
250.4489811919
 21
171.9567858068
  0
LINE
  5
2AE
100
AcDbEntity
  8
0
100
AcDbLine
 62
7
  6
CONTINUOUS
 10
250.3660921919
 20
172.1604008068
 11
249.8380811919
 21
172.1604008068
  0
LINE
  5
2AF
100
AcDbEntity
  8
0
100
AcDbLine
 62
7
  6
CONTINUOUS
 10
239.7088171919
 20
172.1604008068
 11
239.1808071919
 21
172.1604008068
  0
LINE
  5
2B0
100
AcDbEntity
  8
0
100
AcDbLine
 62
7
  6
CONTINUOUS
 10
242.3843681919
 20
172.2338178068
 11
243.3148791919
 21
172.2338178068
  0
LINE
  5
2B1
100
AcDbEntity
  8
0
100
AcDbLine
 62
7
  6
CONTINUOUS
 10
243.3148791919
 20
172.4374328068
 11
242.3843681919
 21
172.4374328068
  0
LINE
  5
2B2
100
AcDbEntity
  8
0
100
AcDbLine
 62
7
  6
CONTINUOUS
 10
242.3843681919
 20
172.9583628068
 11
243.3930121919
 21
172.9583628068
  0
LINE
  5
2B3
100
AcDbEntity
  8
0
100
AcDbLine
 62
7
  6
CONTINUOUS
 10
247.9060071919
 20
172.9583628068
 11
248.4813811919
 21
172.9583628068
  0
LINE
  5
2B4
100
AcDbEntity
  8
0
100
AcDbLine
 62
7
  6
CONTINUOUS
 10
248.7110221919
 20
172.9583628068
 11
249.2863961919
 21
172.9583628068
  0
LINE
  5
2B5
100
AcDbEntity
  8
0
100
AcDbLine
 62
7
  6
CONTINUOUS
 10
240.6630031919
 20
172.9655118068
 11
241.1164551338
 21
172.9655118068
  0
LINE
  5
2B6
100
AcDbEntity
  8
0
100
AcDbLine
 62
7
  6
CONTINUOUS
 10
253.7615001919
 20
173.1619778068
 11
253.4914791919
 21
173.1619778068
  0
LINE
  5
2B7
100
AcDbEntity
  8
0
100
AcDbLine
 62
7
  6
CONTINUOUS
 10
252.5160251919
 20
173.1619778068
 11
252.2484791919
 21
173.1619778068
  0
LINE
  5
2B8
100
AcDbEntity
  8
0
100
AcDbLine
 62
7
  6
CONTINUOUS
 10
251.3084951919
 20
173.1619778068
 11
251.0787581919
 21
173.1619778068
  0
LINE
  5
2B9
100
AcDbEntity
  8
0
100
AcDbLine
 62
7
  6
CONTINUOUS
 10
250.2524331919
 20
173.1619778068
 11
249.9920231919
 21
173.1619778068
  0
LINE
  5
2BA
100
AcDbEntity
  8
0
100
AcDbLine
 62
7
  6
CONTINUOUS
 10
249.2863961919
 20
173.1619778068
 11
247.9060071919
 21
173.1619778068
  0
LINE
  5
2BB
100
AcDbEntity
  8
0
100
AcDbLine
 62
7
  6
CONTINUOUS
 10
247.6597581919
 20
173.1619778068
 11
247.4300341919
 21
173.1619778068
  0
LINE
  5
2BC
100
AcDbEntity
  8
0
100
AcDbLine
 62
7
  6
CONTINUOUS
 10
246.3764331919
 20
173.1619778068
 11
246.1538861919
 21
173.1619778068
  0
LINE
  5
2BD
100
AcDbEntity
  8
0
100
AcDbLine
 62
7
  6
CONTINUOUS
 10
245.2990741919
 20
173.1619778068
 11
245.0267311919
 21
173.1619778068
  0
LINE
  5
2BE
100
AcDbEntity
  8
0
100
AcDbLine
 62
7
  6
CONTINUOUS
 10
244.6337441919
 20
173.1619778068
 11
244.4040891919
 21
173.1619778068
  0
LINE
  5
2BF
100
AcDbEntity
  8
0
100
AcDbLine
 62
7
  6
CONTINUOUS
 10
243.3930121919
 20
173.1619778068
 11
242.1546451919
 21
173.1619778068
  0
LINE
  5
2C0
100
AcDbEntity
  8
0
100
AcDbLine
 62
7
  6
CONTINUOUS
 10
241.1295269258
 20
173.1619778068
 11
240.4332661919
 21
173.1619778068
  0
LINE
  5
2C1
100
AcDbEntity
  8
0
100
AcDbLine
 62
7
  6
CONTINUOUS
 10
239.5951451919
 20
173.1619778068
 11
239.3346521919
 21
173.1619778068
  0
LINE
  5
2C2
100
AcDbEntity
  8
0
100
AcDbLine
 62
7
  6
CONTINUOUS
 10
238.4917741919
 20
173.1619778068
 11
238.1649861919
 21
173.1619778068
  0
LINE
  5
2C3
100
AcDbEntity
  8
0
100
AcDbLine
 62
7
  6
CONTINUOUS
 10
237.1918571919
 20
173.1619778068
 11
236.8627341919
 21
173.1619778068
  0
LINE
  5
2C4
100
AcDbEntity
  8
RACCORDO
100
AcDbLine
 62
7
  6
CONTINUOUS
 10
243.6121171919
 20
164.3737631495
 11
243.4695547462
 21
164.6404644018
  0
LINE
  5
2C5
100
AcDbEntity
  8
0
100
AcDbLine
 62
7
  6
CONTINUOUS
 10
237.6795911919
 20
171.7177968068
 11
237.1918571919
 21
173.1619778068
  0
LINE
  5
2C6
100
AcDbEntity
  8
0
100
AcDbLine
 62
7
  6
CONTINUOUS
 10
237.0852871919
 20
172.8874208068
 11
237.5636011919
 21
171.4619778068
  0
LWPOLYLINE
  5
2C7
100
AcDbEntity
  8
ASSI
100
AcDbPolyline
 62
7
  6
CONTINUOUS
 90
16
 70
0
 10
234.773352534
 20
193.0081078068
 10
234.7771480332
 20
192.9574039933
 10
234.7846304821
 20
192.9094362356
 10
234.7957998809
 20
192.8642045337
 10
234.8108973435
 20
192.8214609119
 10
234.8296817559
 20
192.7814533458
 10
234.8514297758
 20
192.7449257628
 10
234.8761011622
 20
192.712094449
 10
234.903736156
 20
192.6827431182
 10
234.9337321379
 20
192.6569668394
 10
234.9659299226
 20
192.634681029
 10
235.0004886955
 20
192.6159702707
 10
235.0372833929
 20
192.6011833842
 10
235.076272327
 20
192.5904366427
 10
235.1174971858
 20
192.5836137732
 10
235.1609579692
 20
192.5807147754
  0
LWPOLYLINE
  5
2C8
100
AcDbEntity
  8
ASSI
100
AcDbPolyline
 62
7
  6
CONTINUOUS
 90
19
 70
0
 10
235.593805397
 20
193.1024419197
 10
235.5932218011
 20
193.1389480163
 10
235.5901530142
 20
193.1762681059
 10
235.5845990362
 20
193.2144021884
 10
235.5767940124
 20
193.2541549152
 10
235.5665037977
 20
193.294721635
 10
235.5530259566
 20
193.3336883943
 10
235.535815015
 20
193.3708343516
 10
235.5154164471
 20
193.4063803483
 10
235.4927642397
 20
193.4385749555
 10
235.4677223916
 20
193.4668743698
 10
235.4404269041
 20
193.4918223947
 10
235.4122197675
 20
193.5132990113
 10
235.3833025201
 20
193.5311824664
 10
235.3534736237
 20
193.5455945133
 10
235.3234704544
 20
193.5567803932
 10
235.2935388041
 20
193.5648218533
 10
235.2634328809
 20
193.5696371465
 10
235.2331526847
 20
193.5712262727
  0
LINE
  5
2C9
100
AcDbEntity
  8
ASSI
100
AcDbLine
 62
7
  6
CONTINUOUS
 10
235.5469591919
 20
193.8064208068
 11
235.5469591919
 21
194.0477118068
  0
LINE
  5
2CA
100
AcDbEntity
  8
0
100
AcDbLine
 62
7
  6
CONTINUOUS
 10
236.8627341919
 20
173.1619778068
 11
236.8627341919
 21
171.4619778068
  0
LINE
  5
2CB
100
AcDbEntity
  8
0
100
AcDbLine
 62
7
  6
CONTINUOUS
 10
237.0852871919
 20
171.4619778068
 11
237.0852871919
 21
172.8874208068
  0
LWPOLYLINE
  5
2CC
100
AcDbEntity
  8
ASSI
100
AcDbPolyline
 62
7
  6
CONTINUOUS
 90
25
 70
0
 10
235.8171277171
 20
193.3273685668
 10
235.8175050675
 20
193.3836519589
 10
235.8191836086
 20
193.4383100966
 10
235.8221633405
 20
193.49134298
 10
235.826329968
 20
193.542812875
 10
235.8317977863
 20
193.5926575157
 10
235.8389096803
 20
193.6406901043
 10
235.8477004995
 20
193.6869319868
 10
235.8581353944
 20
193.7313618172
 10
235.8704527012
 20
193.7737287592
 10
235.8846936701
 20
193.8141422284
 10
235.9008170508
 20
193.8524928092
 10
235.9189374285
 20
193.8882014188
 10
235.9392203995
 20
193.9213690772
 10
235.9615003673
 20
193.9518947644
 10
235.9853951282
 20
193.9788963378
 10
236.011154583
 20
194.0021260722
 10
236.0385288308
 20
194.0218316927
 10
236.0663859656
 20
194.0378742325
 10
236.0947799802
 20
194.0496336215
 10
236.1236568818
 20
194.0577299299
 10
236.1517227855
 20
194.0638844007
 10
236.1785463964
 20
194.0686707818
 10
236.2045590095
 20
194.0715153253
 10
236.2297606246
 20
194.0724180313
  0
LWPOLYLINE
  5
2CD
100
AcDbEntity
  8
ASSI
100
AcDbPolyline
 62
7
  6
CONTINUOUS
 90
22
 70
0
 10
236.4011027495
 20
193.3273685668
 10
236.4008497809
 20
193.291788745
 10
236.400342516
 20
193.2570802009
 10
236.3995809546
 20
193.2232429346
 10
236.3986354232
 20
193.1902890959
 10
236.3974355954
 20
193.158206535
 10
236.3957704921
 20
193.1269588022
 10
236.393656619
 20
193.0965076102
 10
236.3910774704
 20
193.0668912462
 10
236.3877725492
 20
193.0381881224
 10
236.3837616704
 20
193.0103777577
 10
236.379025019
 20
192.9834806331
 10
236.3732426533
 20
192.9576366035
 10
236.3667909593
 20
192.9326992913
 10
236.3592935511
 20
192.9088150742
 10
236.3493013285
 20
192.8865629397
 10
236.3364904461
 20
192.8653458528
 10
236.3211847494
 20
192.8457608484
 10
236.3029066752
 20
192.8301780191
 10
236.2814970358
 20
192.8193873954
 10
236.257115019
 20
192.8125989466
 10
236.2297606246
 20
192.8098126727
  0
LWPOLYLINE
  5
2CE
100
AcDbEntity
  8
ASSI
100
AcDbPolyline
 62
7
  6
CONTINUOUS
 90
21
 70
0
 10
236.0586673513
 20
193.3633559365
 10
236.058978922
 20
193.3985057972
 10
236.0596740773
 20
193.4328181491
 10
236.0607294511
 20
193.4662856009
 10
236.0621684095
 20
193.4989155439
 10
236.06406105
 20
193.530730151
 10
236.0663416689
 20
193.5617656638
 10
236.0690759698
 20
193.5919858407
 10
236.072531161
 20
193.6213041302
 10
236.0765472699
 20
193.6497881985
 10
236.0812842691
 20
193.6773703794
 10
236.087489285
 20
193.7037611222
 10
236.0951268799
 20
193.7291753559
 10
236.1042324915
 20
193.7533981515
 10
236.1156595598
 20
193.7754951707
 10
236.1298747427
 20
193.7958307886
 10
236.1464113822
 20
193.8140406302
 10
236.1647229436
 20
193.8280972319
 10
236.1846272487
 20
193.8373247724
 10
236.2063064757
 20
193.8423990731
 10
236.2297606246
 20
193.8433201339
  0
LWPOLYLINE
  5
2CF
100
AcDbEntity
  8
ASSI
100
AcDbPolyline
 62
7
  6
CONTINUOUS
 90
19
 70
0
 10
236.6427143976
 20
193.3273685668
 10
236.6418439457
 20
193.2593309718
 10
236.6390153517
 20
193.1935276844
 10
236.6342286155
 20
193.1299587047
 10
236.6276774409
 20
193.0685370238
 10
236.619168124
 20
193.0093496505
 10
236.608119554
 20
192.9526576118
 10
236.5946580822
 20
192.8980477994
 10
236.5786573571
 20
192.8459333216
 10
236.5591572134
 20
192.7978145295
 10
236.5358094632
 20
192.7538194199
 10
236.5089622942
 20
192.713819996
 10
236.4787001043
 20
192.6789326189
 10
236.4448961999
 20
192.6494730859
 10
236.4076772745
 20
192.6251255997
 10
236.3675078064
 20
192.6060591287
 10
236.3245426218
 20
192.5923299958
 10
236.2786268946
 20
192.583881878
 10
236.2297606246
 20
192.5807147754
  0
LINE
  5
2D0
100
AcDbEntity
  8
DRAFT
100
AcDbLine
 62
7
  6
CONTINUOUS
 10
243.4741452707
 20
198.7619778068
 11
243.6121171919
 21
199.0325313132
  0
LWPOLYLINE
  5
2D1
100
AcDbEntity
  8
0
100
AcDbPolyline
 62
7
  6
CONTINUOUS
 90
3
 70
0
 10
243.2777989773
 20
194.5145898812
 10
243.3044803801
 20
194.5585997463
 10
243.3321520945
 20
194.6024733095
  0
LWPOLYLINE
  5
2D2
100
AcDbEntity
  8
RACCORDO
100
AcDbPolyline
 62
250
  6
CONTINUOUS
 90
6
 70
0
 10
244.8723925187
 20
199.0325313132
 10
244.8653537
 20
199.0211868874
 10
244.8422147589
 20
198.971171679
 10
244.8255408712
 20
198.9191619977
 10
244.8154772448
 20
198.8658454768
 10
244.8121171919
 20
198.8119752724
  0
LWPOLYLINE
  5
2D3
100
AcDbEntity
  8
0
100
AcDbPolyline
 62
7
  6
CONTINUOUS
 90
4
 70
0
 10
243.3321520945
 20
194.6024733095
 10
243.3607871073
 20
194.6461686892
 10
243.3903726227
 20
194.6896692467
 10
243.4046698774
 20
194.7099467369
  0
LWPOLYLINE
  5
2D4
100
AcDbEntity
  8
0
100
AcDbPolyline
 62
7
  6
CONTINUOUS
 90
7
 70
0
 10
244.042906883
 20
194.3986258138
 10
244.0646179601
 20
194.4276173454
 10
244.0852922724
 20
194.4569429452
 10
244.1049526134
 20
194.4865554089
 10
244.1236225927
 20
194.5164113928
 10
244.1413263045
 20
194.5464712318
 10
244.1776730412
 20
194.6121942121
  0
LINE
  5
2D5
100
AcDbEntity
  8
0
100
AcDbLine
 62
7
  6
CONTINUOUS
 10
246.5813275009
 20
194.3986258138
 11
247.0759101925
 21
194.8347986353
  0
LINE
  5
2D6
100
AcDbEntity
  8
0
100
AcDbLine
 62
7
  6
CONTINUOUS
 10
247.2776070756
 20
194.4085640182
 11
246.7866753076
 21
194.0868765634
  0
LINE
  5
2D7
100
AcDbEntity
  8
0
100
AcDbLine
 62
7
  6
CONTINUOUS
 10
243.3507713678
 20
190.9181070276
 11
243.8376130187
 21
191.2371143965
  0
LINE
  5
2D8
100
AcDbEntity
  8
0
100
AcDbLine
 62
7
  6
CONTINUOUS
 10
247.2776070756
 20
194.4085640182
 11
247.422064455
 21
194.5008342909
  0
LINE
  5
2D9
100
AcDbEntity
  8
0
100
AcDbLine
 62
7
  6
CONTINUOUS
 10
243.3507713678
 20
190.9181070276
 11
243.2019814356
 21
190.8233295874
  0
LINE
  5
2DA
100
AcDbEntity
  8
0
100
AcDbLine
 62
250
  6
CONTINUOUS
 10
246.4661463568
 20
194.5766987395
 11
246.9864941141
 21
194.9044563024
  0
LINE
  5
2DB
100
AcDbEntity
  8
DRAFT
100
AcDbLine
 62
7
  6
CONTINUOUS
 10
243.4741452707
 20
166.5619778068
 11
243.6121171919
 21
166.2914243004
  0
LINE
  5
2DC
100
AcDbEntity
  8
0
100
AcDbLine
 62
7
  6
CONTINUOUS
 10
240.2107191919
 20
171.4619778068
 11
239.5951451919
 21
173.1619778068
  0
LINE
  5
2DD
100
AcDbEntity
  8
0
100
AcDbLine
 62
7
  6
CONTINUOUS
 10
239.7916241919
 20
171.9567858068
 11
239.9597131919
 21
171.4619778068
  0
LINE
  5
2DE
100
AcDbEntity
  8
0
100
AcDbLine
 62
7
  6
CONTINUOUS
 10
239.4555431919
 20
172.9153948068
 11
239.7088171919
 21
172.1604008068
  0
LINE
  5
2DF
100
AcDbEntity
  8
ASSI
100
AcDbLine
 62
7
  6
CONTINUOUS
 10
238.2121171919
 20
182.1695349167
 11
238.2121171919
 21
183.1544206969
  0
LINE
  5
2E0
100
AcDbEntity
  8
0
100
AcDbLine
 62
7
  6
CONTINUOUS
 10
238.2691311919
 20
172.8897578068
 11
238.2691311919
 21
171.4619778068
  0
LINE
  5
2E1
100
AcDbEntity
  8
0
100
AcDbLine
 62
7
  6
CONTINUOUS
 10
238.4917741919
 20
171.4619778068
 11
238.4917741919
 21
173.1619778068
  0
LWPOLYLINE
  5
2E2
100
AcDbEntity
  8
0
100
AcDbPolyline
 62
7
  6
CONTINUOUS
 90
11
 70
0
 10
244.1776730412
 20
194.6121942121
 10
244.1913772488
 20
194.6376606651
 10
244.2075159321
 20
194.6690138866
 10
244.225384065
 20
194.7059822452
 10
244.2438053817
 20
194.7472439454
 10
244.2624665787
 20
194.7932609684
 10
244.2807329728
 20
194.8439071286
 10
244.2973085117
 20
194.8967652102
 10
244.3117205303
 20
194.9509642406
 10
244.3239719127
 20
195.007317356
 10
244.3337676204
 20
195.0657725399
  0
LWPOLYLINE
  5
2E3
100
AcDbEntity
  8
0
100
AcDbPolyline
 62
7
  6
CONTINUOUS
 90
10
 70
0
 10
243.8374045672
 20
194.0869778068
 10
243.8567130343
 20
194.1215016023
 10
243.8769029783
 20
194.1560735041
 10
243.8979741695
 20
194.1906789491
 10
243.9199176705
 20
194.2252953551
 10
243.9427368572
 20
194.2599204446
 10
243.9664489819
 20
194.2945714166
 10
243.9910564105
 20
194.3292481441
 10
244.0165451255
 20
194.3639344619
 10
244.042906883
 20
194.3986258138
  0
LINE
  5
2E4
100
AcDbEntity
  8
0
100
AcDbLine
 62
7
  6
CONTINUOUS
 10
243.2521225227
 20
194.4704747077
 11
243.2777989773
 21
194.5145898812
  0
LINE
  5
2E5
100
AcDbEntity
  8
0
100
AcDbLine
 62
250
  6
CONTINUOUS
 10
244.1886914636
 20
190.747256874
 11
243.7876917751
 21
190.3147536693
  0
LINE
  5
2E6
100
AcDbEntity
  8
0
100
AcDbLine
 62
7
  6
CONTINUOUS
 10
241.9288361919
 20
188.2478148068
 11
241.8544021919
 21
188.1733798068
  0
LWPOLYLINE
  5
2E7
100
AcDbEntity
  8
0
100
AcDbPolyline
 62
7
  6
CONTINUOUS
 90
13
 70
0
 10
246.0398743484
 20
190.4335558053
 10
246.0908120482
 20
190.4672266319
 10
246.1387217999
 20
190.5003928088
 10
246.1836730344
 20
190.5329108387
 10
246.2260262763
 20
190.564864007
 10
246.2655541744
 20
190.5959158618
 10
246.3014796022
 20
190.6252597839
 10
246.334000653
 20
190.6528310914
 10
246.3631174999
 20
190.6784069494
 10
246.3878248949
 20
190.7008730111
 10
246.4078802763
 20
190.7197496514
 10
246.4237573882
 20
190.7352427606
 10
246.4355429202
 20
190.747256874
  0
LWPOLYLINE
  5
2E8
100
AcDbEntity
  8
RACCORDO
100
AcDbPolyline
 62
250
  6
CONTINUOUS
 90
10
 70
0
 10
226.9193906318
 20
180.8348812437
 10
226.936434436
 20
180.8434050448
 10
226.9515490092
 20
180.8518341271
 10
226.9647106176
 20
180.8601552569
 10
226.975898594
 20
180.8683553699
 10
226.9850953702
 20
180.876421592
 10
226.9922865049
 20
180.8843412591
 10
226.997460706
 20
180.8921019375
 10
227.0006098485
 20
180.8996914428
 10
227.0017289874
 20
180.9070978595
  0
LINE
  5
2E9
100
AcDbEntity
  8
0
100
AcDbLine
 62
7
  6
CONTINUOUS
 10
246.8839911919
 20
176.5794658068
 11
248.3725271919
 21
176.5794658068
  0
LWPOLYLINE
  5
2EA
100
AcDbEntity
  8
RACCORDO
100
AcDbPolyline
 62
250
  6
CONTINUOUS
 90
13
 70
0
 10
266.1537079542
 20
174.0103323534
 10
266.1886880751
 20
174.0064591661
 10
266.2218072863
 20
174.0033265026
 10
266.2530692718
 20
174.0009737825
 10
266.2825136711
 20
173.999483411
 10
266.3101170244
 20
173.9988448088
 10
266.3357897494
 20
173.9989557724
 10
266.3595465377
 20
173.9998498062
 10
266.3813983559
 20
174.001555064
 10
266.4012496228
 20
174.0039602882
 10
266.4190803193
 20
174.0070458403
 10
266.4349476289
 20
174.010882747
 10
266.4488737919
 20
174.0154936777
  0
LWPOLYLINE
  5
2EB
100
AcDbEntity
  8
RACCORDO
100
AcDbPolyline
 62
250
  6
CONTINUOUS
 90
10
 70
0
 10
226.9193795477
 20
184.4891036252
 10
226.9364244976
 20
184.4805765326
 10
226.9515402437
 20
184.4721440933
 10
226.9647030505
 20
184.463819549
 10
226.9758922495
 20
184.4556159724
 10
226.9850902712
 20
184.4475462458
 10
226.9922826724
 20
184.4396230418
 10
226.9974581597
 20
184.4318588025
 10
227.0006086062
 20
184.4242657207
 10
227.0017290651
 20
184.4168557202
  0
LWPOLYLINE
  5
2EC
100
AcDbEntity
  8
RACCORDO
100
AcDbPolyline
 62
250
  6
CONTINUOUS
 90
25
 70
0
 10
224.1335483042
 20
190.6717931239
 10
224.383321671
 20
190.4913982678
 10
224.6164793617
 20
190.2966615036
 10
224.8338382111
 20
190.0882312514
 10
225.0365603596
 20
189.865809588
 10
225.2250218661
 20
189.630893877
 10
225.3989632276
 20
189.3868719785
 10
225.5590536996
 20
189.1346698357
 10
225.7063290669
 20
188.8745573079
 10
225.8412155864
 20
188.6089891148
 10
225.9643729433
 20
188.3388366049
 10
226.076731094
 20
188.0642140174
 10
226.179082636
 20
187.786393516
 10
226.272049641
 20
187.5059686378
 10
226.3563146546
 20
187.2230684312
 10
226.4326336579
 20
186.9381919609
 10
226.5016056377
 20
186.6512690094
 10
226.5636215884
 20
186.3628691087
 10
226.6190501778
 20
186.0743994201
 10
226.6682955275
 20
185.786206038
 10
226.7117991807
 20
185.4983037865
 10
226.7499535388
 20
185.2115705538
 10
226.7831032544
 20
184.9263776962
 10
226.811545994
 20
184.6425943164
 10
226.8355555173
 20
184.3603188864
  0
LWPOLYLINE
  5
2ED
100
AcDbEntity
  8
RACCORDO
100
AcDbPolyline
 62
250
  6
CONTINUOUS
 90
28
 70
0
 10
224.4705900367
 20
191.3136996611
 10
224.6602618291
 20
191.1579577346
 10
224.8399239863
 20
190.9932136764
 10
225.0098456891
 20
190.8197398827
 10
225.1703415098
 20
190.6372169322
 10
225.3216732585
 20
190.446439071
 10
225.4639995196
 20
190.2492664715
 10
225.5974345661
 20
190.0458023897
 10
225.7223816982
 20
189.8361743318
 10
225.8393409536
 20
189.6221635461
 10
225.948415004
 20
189.4038751236
 10
226.0499273238
 20
189.181234457
 10
226.1446084595
 20
188.9556659561
 10
226.232578947
 20
188.7272169686
 10
226.3140536133
 20
188.4957291651
 10
226.3898144201
 20
188.2622666883
 10
226.4599928592
 20
188.0267758683
 10
226.5247195655
 20
187.7891091152
 10
226.5846970801
 20
187.5501629694
 10
226.6400455037
 20
187.3097692195
 10
226.6908449662
 20
187.0678349563
 10
226.7376587976
 20
186.825352343
 10
226.7805405864
 20
186.5820755905
 10
226.8195676782
 20
186.3379407774
 10
226.8552436528
 20
186.0941978101
 10
226.8877243602
 20
185.8511466555
 10
226.9168804334
 20
185.6081409061
 10
226.9427377094
 20
185.3650019458
  0
LINE
  5
2EE
100
AcDbEntity
  8
0
100
AcDbLine
 62
7
  6
CONTINUOUS
 10
240.4332661919
 20
173.1619778068
 11
240.4332661919
 21
171.4619778068
  0
LINE
  5
2EF
100
AcDbEntity
  8
0
100
AcDbLine
 62
7
  6
CONTINUOUS
 10
240.6630031919
 20
171.6584438068
 11
240.6630031919
 21
172.9655118068
  0
LWPOLYLINE
  5
2F0
100
AcDbEntity
  8
RACCORDO
100
AcDbPolyline
 62
7
  6
CONTINUOUS
 90
7
 70
0
 10
243.4695547462
 20
200.6834912118
 10
243.468795288
 20
200.6785801101
 10
243.4680472314
 20
200.6663040324
 10
243.4673105764
 20
200.6466629787
 10
243.466576905
 20
200.6193055316
 10
243.4658546353
 20
200.5845831084
 10
243.4645250721
 20
200.496200157
  0
LINE
  5
2F1
100
AcDbEntity
  8
0
100
AcDbLine
 62
7
  6
CONTINUOUS
 10
244.5843600354
 20
190.4335558053
 11
244.3325839915
 21
190.0405875262
  0
LWPOLYLINE
  5
2F2
100
AcDbEntity
  8
0
100
AcDbPolyline
 62
7
  6
CONTINUOUS
 90
10
 70
0
 10
246.4355429202
 20
190.747256874
 10
246.4834179169
 20
190.7993466832
 10
246.5290660795
 20
190.85214133
 10
246.572470654
 20
190.9055687946
 10
246.6135609476
 20
190.9594865558
 10
246.6523933641
 20
191.0138796133
 10
246.6891323832
 20
191.0688755057
 10
246.7238179172
 20
191.1244739947
 10
246.7563847127
 20
191.1805332641
 10
246.7868298166
 20
191.2369778068
  0
LINE
  5
2F3
100
AcDbEntity
  8
0
100
AcDbLine
 62
250
  6
CONTINUOUS
 10
244.8060274523
 20
190.2581830737
 11
244.5314316978
 21
189.97475799
  0
LWPOLYLINE
  5
2F4
100
AcDbEntity
  8
0
100
AcDbPolyline
 62
7
  6
CONTINUOUS
 90
7
 70
0
 10
245.8182069316
 20
190.2581830737
 10
245.8515927572
 20
190.2894693446
 10
245.8864248573
 20
190.3199863361
 10
245.9226846298
 20
190.3496914048
 10
245.960355146
 20
190.3785452336
 10
245.9994220351
 20
190.4065114051
 10
246.0398743484
 20
190.4335558053
  0
LINE
  5
2F5
100
AcDbEntity
  8
RACCORDO
100
AcDbLine
 62
7
  6
CONTINUOUS
 10
229.1121171919
 20
174.0403783877
 11
229.2955351481
 21
174.1978731377
  0
LINE
  5
2F6
100
AcDbEntity
  8
RACCORDO
100
AcDbLine
 62
7
  6
CONTINUOUS
 10
229.2955351481
 20
180.6536833626
 11
229.1121171919
 21
180.5619778068
  0
LINE
  5
2F7
100
AcDbEntity
  8
RACCORDO
100
AcDbLine
 62
7
  6
CONTINUOUS
 10
227.3083170143
 20
180.653704684
 11
227.0813197178
 21
180.5619778068
  0
LINE
  5
2F8
100
AcDbEntity
  8
RACCORDO
100
AcDbLine
 62
7
  6
CONTINUOUS
 10
229.3025435467
 20
174.1998082713
 11
229.2955351481
 21
174.1978731311
  0
LINE
  5
2F9
100
AcDbEntity
  8
RACCORDO
100
AcDbLine
 62
7
  6
CONTINUOUS
 10
230.2954605178
 20
174.4495906939
 11
230.1937610263
 21
174.4232064861
  0
LINE
  5
2FA
100
AcDbEntity
  8
RACCORDO
100
AcDbLine
 62
7
  6
CONTINUOUS
 10
230.1937610263
 20
174.4232064861
 11
229.5632083824
 21
174.264485759
  0
LINE
  5
2FB
100
AcDbEntity
  8
RACCORDO
100
AcDbLine
 62
7
  6
CONTINUOUS
 10
229.5632083824
 20
174.264485759
 11
229.3498026889
 21
174.211354176
  0
LINE
  5
2FC
100
AcDbEntity
  8
RACCORDO
100
AcDbLine
 62
7
  6
CONTINUOUS
 10
229.3498026889
 20
174.211354176
 11
229.3025435467
 21
174.1998082713
  0
LINE
  5
2FD
100
AcDbEntity
  8
0
100
AcDbLine
 62
7
  6
CONTINUOUS
 10
248.3725271919
 20
177.3444658068
 11
246.8839907205
 21
177.3444658068
  0
LWPOLYLINE
  5
2FE
100
AcDbEntity
  8
RACCORDO
100
AcDbPolyline
 62
7
  6
CONTINUOUS
 90
3
 70
0
 10
261.2746692089
 20
174.2112951835
 10
261.3217342584
 20
174.1997815276
 10
261.3286992358
 20
174.1978731311
  0
LINE
  5
2FF
100
AcDbEntity
  8
RACCORDO
100
AcDbLine
 62
7
  6
CONTINUOUS
 10
260.8178409166
 20
174.3254665991
 11
261.2746692089
 21
174.2112951835
  0
LINE
  5
300
100
AcDbEntity
  8
RACCORDO
100
AcDbLine
 62
7
  6
CONTINUOUS
 10
260.4301188792
 20
174.4232939848
 11
260.8178409166
 21
174.3254665991
  0
LINE
  5
301
100
AcDbEntity
  8
RACCORDO
100
AcDbLine
 62
7
  6
CONTINUOUS
 10
260.3287738661
 20
174.4495906939
 11
260.4301188792
 21
174.4232939848
  0
LINE
  5
302
100
AcDbEntity
  8
RACCORDO
100
AcDbLine
 62
7
  6
CONTINUOUS
 10
227.0813197178
 20
184.7619778068
 11
227.3083170143
 21
184.6702509296
  0
LINE
  5
303
100
AcDbEntity
  8
RACCORDO
100
AcDbLine
 62
7
  6
CONTINUOUS
 10
229.2955351481
 20
184.670272251
 11
229.1121171919
 21
184.7619778068
  0
LINE
  5
304
100
AcDbEntity
  8
RACCORDO
100
AcDbLine
 62
7
  6
CONTINUOUS
 10
229.2955351481
 20
191.1260824759
 11
229.1121171919
 21
191.2835772259
  0
LINE
  5
305
100
AcDbEntity
  8
0
100
AcDbLine
 62
7
  6
CONTINUOUS
 10
245.2493871919
 20
172.8425808068
 11
246.1183601919
 21
171.4619778068
  0
LINE
  5
306
100
AcDbEntity
  8
0
100
AcDbLine
 62
7
  6
CONTINUOUS
 10
246.1538861919
 20
171.7810948068
 11
245.2990741919
 21
173.1619778068
  0
LINE
  5
307
100
AcDbEntity
  8
ASSI
100
AcDbLine
 62
7
  6
CONTINUOUS
 10
236.8304841919
 20
194.0887818068
 11
237.2366661919
 21
192.6193108068
  0
LINE
  5
308
100
AcDbEntity
  8
ASSI
100
AcDbLine
 62
7
  6
CONTINUOUS
 10
237.3608041919
 20
192.9686598068
 11
237.1005831919
 21
194.0887818068
  0
LWPOLYLINE
  5
309
100
AcDbEntity
  8
RACCORDO
100
AcDbPolyline
 62
7
  6
CONTINUOUS
 90
5
 70
0
 10
243.466576905
 20
164.704650082
 10
243.4673105764
 20
164.6772926349
 10
243.4680472314
 20
164.6576515812
 10
243.468795288
 20
164.6453755035
 10
243.4695547462
 20
164.6404644018
  0
LWPOLYLINE
  5
30A
100
AcDbEntity
  8
0
100
AcDbPolyline
 62
7
  6
CONTINUOUS
 90
16
 70
0
 10
241.6002445042
 20
172.3119778068
 10
241.5984660331
 20
172.387233586
 10
241.5923565697
 20
172.4587995863
 10
241.5819161142
 20
172.5266758079
 10
241.5673120978
 20
172.5913134588
 10
241.5483770893
 20
172.6522613308
 10
241.5246087946
 20
172.7081657996
 10
241.4956188629
 20
172.7587071118
 10
241.4617956451
 20
172.8042050208
 10
241.4238018994
 20
172.8442651617
 10
241.3816040539
 20
172.8789091296
 10
241.3352356807
 20
172.9081153295
 10
241.2854602545
 20
172.9314246121
 10
241.2325322671
 20
172.9486839277
 10
241.1761972269
 20
172.9600463259
 10
241.1164551338
 20
172.9655118068
  0
LWPOLYLINE
  5
30B
100
AcDbEntity
  8
0
100
AcDbPolyline
 62
7
  6
CONTINUOUS
 90
16
 70
0
 10
241.8365553547
 20
172.3119778068
 10
241.8345164295
 20
172.4105809136
 10
241.8254631485
 20
172.5041432853
 10
241.8093955116
 20
172.5926649219
 10
241.7863555214
 20
172.6763880791
 10
241.7563011754
 20
172.7550705012
 10
241.7191064663
 20
172.8279854207
 10
241.6740763946
 20
172.8955766529
 10
241.6219059599
 20
172.9574003827
 10
241.5645541534
 20
173.0113983968
 10
241.5021564003
 20
173.0570680399
 10
241.4345772753
 20
173.0949119675
 10
241.3633694938
 20
173.1243799326
 10
241.2890506276
 20
173.1452885197
 10
241.2111031049
 20
173.1578211445
 10
241.1295269258
 20
173.1619778068
  0
LWPOLYLINE
  5
30C
100
AcDbEntity
  8
RACCORDO
100
AcDbPolyline
 62
7
  6
CONTINUOUS
 90
3
 70
0
 10
243.4645250721
 20
164.8277554565
 10
243.4651690212
 20
164.780405652
 10
243.466576905
 20
164.704650082
  0
LINE
  5
30D
100
AcDbEntity
  8
0
100
AcDbLine
 62
7
  6
CONTINUOUS
 10
241.8115701919
 20
186.2785928068
 11
241.8115701919
 21
185.5680478068
  0
LINE
  5
30E
100
AcDbEntity
  8
0
100
AcDbLine
 62
7
  6
CONTINUOUS
 10
241.8642031919
 20
185.6206808068
 11
241.8642031919
 21
186.2259598068
  0
LINE
  5
30F
100
AcDbEntity
  8
0
100
AcDbLine
 62
7
  6
CONTINUOUS
 10
241.8905191919
 20
185.0154018068
 11
241.8905191919
 21
184.7522368068
  0
LINE
  5
310
100
AcDbEntity
  8
0
100
AcDbLine
 62
7
  6
CONTINUOUS
 10
241.9431531919
 20
184.8048698068
 11
241.9431531919
 21
184.9627688068
  0
LINE
  5
311
100
AcDbEntity
  8
0
100
AcDbLine
 62
7
  6
CONTINUOUS
 10
242.0747351919
 20
186.2259598068
 11
242.0747351919
 21
185.6206808068
  0
LINE
  5
312
100
AcDbEntity
  8
0
100
AcDbLine
 62
7
  6
CONTINUOUS
 10
242.1273671919
 20
185.5680478068
 11
242.1273671919
 21
186.2785928068
  0
LINE
  5
313
100
AcDbEntity
  8
0
100
AcDbLine
 62
7
  6
CONTINUOUS
 10
242.1546451919
 20
173.1619778068
 11
242.1546451919
 21
171.4619778068
  0
LINE
  5
314
100
AcDbEntity
  8
0
100
AcDbLine
 62
7
  6
CONTINUOUS
 10
242.2852661919
 20
184.9627688068
 11
242.2852661919
 21
184.8048698068
  0
LINE
  5
315
100
AcDbEntity
  8
0
100
AcDbLine
 62
7
  6
CONTINUOUS
 10
242.3379001919
 20
186.758211945
 11
242.3379001919
 21
185.0154018068
  0
LINE
  5
316
100
AcDbEntity
  8
0
100
AcDbLine
 62
7
  6
CONTINUOUS
 10
242.3379001919
 20
184.7522368068
 11
242.3379001919
 21
184.6665568068
  0
LINE
  5
317
100
AcDbEntity
  8
0
100
AcDbLine
 62
7
  6
CONTINUOUS
 10
242.3379001919
 20
184.6137218068
 11
242.3379001919
 21
184.1995908068
  0
LINE
  5
318
100
AcDbEntity
  8
0
100
AcDbLine
 62
7
  6
CONTINUOUS
 10
242.3843681919
 20
171.6655928068
 11
242.3843681919
 21
172.2338178068
  0
LINE
  5
319
100
AcDbEntity
  8
0
100
AcDbLine
 62
7
  6
CONTINUOUS
 10
242.3843681919
 20
172.4374328068
 11
242.3843681919
 21
172.9583628068
  0
LINE
  5
31A
100
AcDbEntity
  8
0
100
AcDbLine
 62
7
  6
CONTINUOUS
 10
242.5484321919
 20
184.1995908068
 11
242.5484321919
 21
184.6321408068
  0
LINE
  5
31B
100
AcDbEntity
  8
0
100
AcDbLine
 62
7
  6
CONTINUOUS
 10
242.5484320899
 20
184.6849756156
 11
242.5484320899
 21
186.902912032
  0
LINE
  5
31C
100
AcDbEntity
  8
0
100
AcDbLine
 62
7
  6
CONTINUOUS
 10
242.5484321919
 20
186.9557458068
 11
242.5484321919
 21
187.1207198068
  0
LINE
  5
31D
100
AcDbEntity
  8
0
100
AcDbLine
 62
7
  6
CONTINUOUS
 10
242.7589631919
 20
187.2688188068
 11
242.7589631919
 21
186.9373258068
  0
LINE
  5
31E
100
AcDbEntity
  8
0
100
AcDbLine
 62
7
  6
CONTINUOUS
 10
242.7589636834
 20
186.8844920575
 11
242.7589636834
 21
186.7259729923
  0
LINE
  5
31F
100
AcDbEntity
  8
0
100
AcDbLine
 62
7
  6
CONTINUOUS
 10
242.8115971098
 20
186.7786064187
 11
242.8115971098
 21
186.8798874159
  0
LINE
  5
320
100
AcDbEntity
  8
0
100
AcDbLine
 62
7
  6
CONTINUOUS
 10
242.8115971098
 20
186.9327221765
 11
242.8115971098
 21
187.2161853521
  0
LWPOLYLINE
  5
321
100
AcDbEntity
  8
0
100
AcDbPolyline
 62
7
  6
CONTINUOUS
 90
10
 70
0
 10
242.8412963776
 20
192.6619778068
 10
242.8474872719
 20
192.8662326701
 10
242.8661240385
 20
193.0697742582
 10
242.8973028171
 20
193.2718603798
 10
242.9410939012
 20
193.4717327792
 10
242.9974641997
 20
193.6685689443
 10
243.0663547752
 20
193.8615302986
 10
243.1476721912
 20
194.0497702762
 10
243.2411850135
 20
194.2324103537
 10
243.3466273083
 20
194.4085640182
  0
LWPOLYLINE
  5
322
100
AcDbEntity
  8
0
100
AcDbPolyline
 62
250
  6
CONTINUOUS
 90
10
 70
0
 10
243.1198331461
 20
192.6619778068
 10
243.1255545801
 20
192.8482841086
 10
243.1427551983
 20
193.033915003
 10
243.1714894854
 20
193.2181744612
 10
243.2117882041
 20
193.4003557226
 10
243.2635872287
 20
193.5797090977
 10
243.3267987112
 20
193.755474165
 10
243.4013051176
 20
193.926886579
 10
243.4868701683
 20
194.0931662977
 10
243.5832278974
 20
194.253529355
  0
LWPOLYLINE
  5
323
100
AcDbEntity
  8
0
100
AcDbPolyline
 62
7
  6
CONTINUOUS
 90
5
 70
0
 10
244.3337676204
 20
195.0657725399
 10
244.340641088
 20
195.1247182864
 10
244.3445188713
 20
195.1845129925
 10
244.3452712931
 20
195.2450014133
 10
244.3435365591
 20
195.2873419629
  0
LINE
  5
324
100
AcDbEntity
  8
0
100
AcDbLine
 62
7
  6
CONTINUOUS
 10
237.7909091919
 20
171.4619778068
 11
238.2691311919
 21
172.8897578068
  0
LINE
  5
325
100
AcDbEntity
  8
0
100
AcDbLine
 62
7
  6
CONTINUOUS
 10
238.1649861919
 20
173.1619778068
 11
237.6795911919
 21
171.7177968068
  0
LINE
  5
326
100
AcDbEntity
  8
0
100
AcDbLine
 62
7
  6
CONTINUOUS
 10
238.9321521919
 20
171.4619778068
 11
239.1097541919
 21
171.9567858068
  0
LINE
  5
327
100
AcDbEntity
  8
0
100
AcDbLine
 62
7
  6
CONTINUOUS
 10
239.1808071919
 20
172.1604008068
 11
239.4555431919
 21
172.9153948068
  0
LINE
  5
328
100
AcDbEntity
  8
0
100
AcDbLine
 62
7
  6
CONTINUOUS
 10
239.3346521919
 20
173.1619778068
 11
238.6954031919
 21
171.4619778068
  0
LWPOLYLINE
  5
329
100
AcDbEntity
  8
RACCORDO
100
AcDbPolyline
 62
250
  6
CONTINUOUS
 90
10
 70
0
 10
249.1552987893
 20
200.7412922039
 10
249.1489396825
 20
200.7244159615
 10
249.1429449316
 20
200.709439204
 10
249.137323971
 20
200.6963855026
 10
249.132085645
 20
200.6852754056
 10
249.1272381988
 20
200.6761263921
 10
249.1227892667
 20
200.6689528512
 10
249.1187458532
 20
200.6637660755
 10
249.1151143209
 20
200.6605742365
 10
249.1119003857
 20
200.6593823621
  0
LWPOLYLINE
  5
32A
100
AcDbEntity
  8
0
100
AcDbPolyline
 62
7
  6
CONTINUOUS
 90
11
 70
0
 10
245.5493340295
 20
189.8734381173
 10
245.5643484503
 20
189.9071431454
 10
245.5863855741
 20
189.9512675251
 10
245.6101557387
 20
189.994130779
 10
245.6355765448
 20
190.0357308755
 10
245.6625262092
 20
190.0760015008
 10
245.6909206038
 20
190.114940537
 10
245.7207563382
 20
190.1526406076
 10
245.7519839344
 20
190.1891124876
 10
245.7844931753
 20
190.2242974601
 10
245.8182069316
 20
190.2581830737
  0
LINE
  5
32B
100
AcDbEntity
  8
0
100
AcDbLine
 62
7
  6
CONTINUOUS
 10
247.3310169546
 20
190.7814976912
 11
247.3703522424
 21
190.8505793661
  0
LWPOLYLINE
  5
32C
100
AcDbEntity
  8
0
100
AcDbPolyline
 62
7
  6
CONTINUOUS
 90
10
 70
0
 10
247.2734630161
 20
190.9181070276
 10
247.3787721567
 20
191.0939738659
 10
247.4724808927
 20
191.2761666384
 10
247.5542642952
 20
191.4638971279
 10
247.6238248747
 20
191.6563745935
 10
247.6809748991
 20
191.8527981997
 10
247.7255540752
 20
192.052364587
 10
247.7574270887
 20
192.2542737653
 10
247.7765585395
 20
192.4577392203
 10
247.7829380063
 20
192.6619778068
  0
LWPOLYLINE
  5
32D
100
AcDbEntity
  8
0
100
AcDbPolyline
 62
250
  6
CONTINUOUS
 90
10
 70
0
 10
247.0379868183
 20
191.0724049233
 10
247.134248413
 20
191.2325584924
 10
247.2199571345
 20
191.3985119076
 10
247.2948037576
 20
191.5695529137
 10
247.358503658
 20
191.7449654827
 10
247.4108706165
 20
191.924018496
 10
247.4517430146
 20
192.1059770619
 10
247.4809823665
 20
192.2901077945
 10
247.4985427156
 20
192.4756833292
 10
247.5044012378
 20
192.6619778068
  0
LINE
  5
32E
100
AcDbEntity
  8
0
100
AcDbLine
 62
7
  6
CONTINUOUS
 10
247.2874142076
 20
190.7100554456
 11
247.3310169546
 21
190.7814976912
  0
LWPOLYLINE
  5
32F
100
AcDbEntity
  8
0
100
AcDbPolyline
 62
7
  6
CONTINUOUS
 90
3
 70
0
 10
247.2318632091
 20
190.6258369347
 10
247.241279373
 20
190.6393621448
 10
247.2874142076
 20
190.7100554456
  0
LINE
  5
330
100
AcDbEntity
  8
0
100
AcDbLine
 62
7
  6
CONTINUOUS
 10
243.0982321919
 20
184.6802428068
 11
241.8544021919
 21
183.4364128068
  0
LINE
  5
331
100
AcDbEntity
  8
0
100
AcDbLine
 62
7
  6
CONTINUOUS
 10
245.0978555389
 20
186.6798653309
 11
244.2973201806
 21
185.8793299725
  0
LINE
  5
332
100
AcDbEntity
  8
0
100
AcDbLine
 62
7
  6
CONTINUOUS
 10
244.222886335
 20
185.8048961269
 11
243.1561321522
 21
184.7381419442
  0
LINE
  5
333
100
AcDbEntity
  8
0
100
AcDbLine
 62
7
  6
CONTINUOUS
 10
246.6658041919
 20
188.2478148068
 11
245.1464401919
 21
186.7284498068
  0
LINE
  5
334
100
AcDbEntity
  8
0
100
AcDbLine
 62
7
  6
CONTINUOUS
 10
241.9288361919
 20
183.3619778068
 11
243.2613731919
 21
184.6945158068
  0
LINE
  5
335
100
AcDbEntity
  8
0
100
AcDbLine
 62
7
  6
CONTINUOUS
 10
244.3717541919
 20
185.8048958068
 11
245.2347481919
 21
186.6678898068
  0
LINE
  5
336
100
AcDbEntity
  8
0
100
AcDbLine
 62
7
  6
CONTINUOUS
 10
245.2833311919
 20
186.7164728068
 11
246.7402381919
 21
188.1733798068
  0
LINE
  5
337
100
AcDbEntity
  8
0
100
AcDbLine
 62
7
  6
CONTINUOUS
 10
243.3192734582
 20
184.7524148549
 11
244.2973201806
 21
185.7304622813
  0
LINE
  5
338
100
AcDbEntity
  8
0
100
AcDbLine
 62
7
  6
CONTINUOUS
 10
245.0705092256
 20
180.8182836779
 11
244.8506711579
 21
180.7889718023
  0
LWPOLYLINE
  5
339
100
AcDbEntity
  8
0
100
AcDbPolyline
 62
7
  6
CONTINUOUS
 90
40
 70
0
 10
246.8315659338
 20
180.465841195
 10
246.8750608178
 20
180.4684216058
 10
246.9161718571
 20
180.4759396933
 10
246.9548990516
 20
180.4883954574
 10
246.9913860607
 20
180.5060360022
 10
247.0254892252
 20
180.5286142236
 10
247.0567775666
 20
180.5553888096
 10
247.0853538353
 20
180.5865676716
 10
247.1111152811
 20
180.6219428982
 10
247.1333226746
 20
180.6601494428
 10
247.1512785706
 20
180.7008817415
 10
247.1656804142
 20
180.7444453583
 10
247.1778813114
 20
180.7903919391
 10
247.1881150794
 20
180.8387213136
 10
247.1961479009
 20
180.8894336521
 10
247.2026314305
 20
180.9420811112
 10
247.207694676
 20
180.9966789406
 10
247.2112086295
 20
181.0532118906
 10
247.213437922
 20
181.1111863678
 10
247.2145442934
 20
181.1715477031
 10
247.2143660037
 20
181.2333505658
 10
247.2126824647
 20
181.2932653698
 10
247.2094212795
 20
181.3503444308
 10
247.2046548449
 20
181.4055354332
 10
247.1983797629
 20
181.458351845
 10
247.1906078784
 20
181.5085850411
 10
247.1813273464
 20
181.5564436465
 10
247.1704992336
 20
181.6020670041
 10
247.1584681167
 20
181.6458459739
 10
247.1448894191
 20
181.6873896959
 10
247.1286904777
 20
181.7256649337
 10
247.1095910051
 20
181.7606282551
 10
247.0878712887
 20
181.7923230923
 10
247.0632995283
 20
181.8198465054
 10
247.0358830073
 20
181.8428555825
 10
247.0056144423
 20
181.8616932356
 10
246.9722401835
 20
181.8764852612
 10
246.9356756811
 20
181.8872735917
 10
246.896005485
 20
181.8940162947
 10
246.8532295951
 20
181.8967133704
  0
LWPOLYLINE
  5
33A
100
AcDbEntity
  8
0
100
AcDbPolyline
 62
7
  6
CONTINUOUS
 90
40
 70
0
 10
244.1454629926
 20
180.465841195
 10
244.1889578766
 20
180.4684216058
 10
244.2300689159
 20
180.4759396933
 10
244.2687961104
 20
180.4883954574
 10
244.3052831195
 20
180.5060360022
 10
244.3393862839
 20
180.5286142236
 10
244.3706746253
 20
180.5553888096
 10
244.3992508941
 20
180.5865676716
 10
244.4250123399
 20
180.6219428981
 10
244.4472197334
 20
180.6601494428
 10
244.4651756294
 20
180.7008817415
 10
244.479577473
 20
180.7444453583
 10
244.4917783703
 20
180.7903919391
 10
244.5020121382
 20
180.8387213137
 10
244.5100449598
 20
180.8894336523
 10
244.5165284894
 20
180.9420811114
 10
244.5215917348
 20
180.9966789409
 10
244.5251056883
 20
181.0532118908
 10
244.5273349808
 20
181.1111863681
 10
244.5284413522
 20
181.1715477035
 10
244.5282630625
 20
181.2333505662
 10
244.5265795235
 20
181.2932653703
 10
244.5233183383
 20
181.3503444312
 10
244.5185519037
 20
181.4055354336
 10
244.5122768217
 20
181.4583518452
 10
244.5045049371
 20
181.5085850413
 10
244.4952244051
 20
181.5564436467
 10
244.4843962924
 20
181.6020670043
 10
244.4723651755
 20
181.645845974
 10
244.4587864779
 20
181.687389696
 10
244.4425875365
 20
181.7256649338
 10
244.4234880638
 20
181.7606282551
 10
244.4017683475
 20
181.7923230923
 10
244.3771965871
 20
181.8198465055
 10
244.3497800661
 20
181.8428555825
 10
244.3195115011
 20
181.8616932356
 10
244.2861372423
 20
181.8764852612
 10
244.2495727399
 20
181.8872735917
 10
244.2099025438
 20
181.8940162947
 10
244.167126654
 20
181.8967133704
  0
LWPOLYLINE
  5
33B
100
AcDbEntity
  8
0
100
AcDbPolyline
 62
7
  6
CONTINUOUS
 90
40
 70
0
 10
242.7812392993
 20
180.465841195
 10
242.8247341833
 20
180.4684216058
 10
242.8658452226
 20
180.4759396933
 10
242.9045724171
 20
180.4883954574
 10
242.9410594262
 20
180.5060360022
 10
242.9751625906
 20
180.5286142236
 10
243.006450932
 20
180.5553888096
 10
243.0350272008
 20
180.5865676716
 10
243.0607886466
 20
180.6219428981
 10
243.0829960401
 20
180.6601494428
 10
243.1009519361
 20
180.7008817415
 10
243.1153537798
 20
180.7444453583
 10
243.127554677
 20
180.7903919391
 10
243.137788445
 20
180.8387213137
 10
243.1458212665
 20
180.8894336523
 10
243.1523047961
 20
180.9420811114
 10
243.1573680415
 20
180.9966789409
 10
243.160881995
 20
181.053211891
 10
243.1631112876
 20
181.1111863682
 10
243.1642176589
 20
181.1715477032
 10
243.1640393693
 20
181.2333505655
 10
243.1623558303
 20
181.2932653693
 10
243.1590946451
 20
181.3503444304
 10
243.1543282105
 20
181.405535433
 10
243.1480531284
 20
181.458351845
 10
243.1402812439
 20
181.5085850412
 10
243.1310007119
 20
181.5564436466
 10
243.1201725991
 20
181.6020670043
 10
243.1081414822
 20
181.6458459741
 10
243.0945627846
 20
181.6873896961
 10
243.0783638432
 20
181.7256649338
 10
243.0592643705
 20
181.7606282552
 10
243.0375446541
 20
181.7923230923
 10
243.0129728938
 20
181.8198465055
 10
242.9855563728
 20
181.8428555825
 10
242.9552878078
 20
181.8616932356
 10
242.921913549
 20
181.8764852612
 10
242.8853490466
 20
181.8872735917
 10
242.8456788505
 20
181.8940162947
 10
242.8029029607
 20
181.8967133704
  0
LINE
  5
33C
100
AcDbEntity
  8
RACCORDO
100
AcDbLine
 62
7
  6
CONTINUOUS
 10
227.447543633
 20
180.6567138109
 11
227.3720022773
 21
180.6557478058
  0
LINE
  5
33D
100
AcDbEntity
  8
RACCORDO
100
AcDbLine
 62
7
  6
CONTINUOUS
 10
227.6713100505
 20
180.6583092162
 11
227.447543633
 21
180.6567138109
  0
LINE
  5
33E
100
AcDbEntity
  8
RACCORDO
100
AcDbLine
 62
7
  6
CONTINUOUS
 10
228.2275820373
 20
180.6596958633
 11
227.6713100505
 21
180.6583092162
  0
LINE
  5
33F
100
AcDbEntity
  8
DRAFT
100
AcDbLine
 62
7
  6
CONTINUOUS
 10
235.3464231168
 20
180.2619778068
 11
236.304560082
 21
180.2619778068
  0
LINE
  5
340
100
AcDbEntity
  8
DRAFT
100
AcDbLine
 62
7
  6
CONTINUOUS
 10
254.3196743018
 20
180.2619778068
 11
255.277811267
 21
180.2619778068
  0
LINE
  5
341
100
AcDbEntity
  8
0
100
AcDbLine
 62
7
  6
CONTINUOUS
 10
248.0109931919
 20
180.2844398068
 11
248.2308311919
 21
180.2844398068
  0
LINE
  5
342
100
AcDbEntity
  8
DRAFT
100
AcDbLine
 62
7
  6
CONTINUOUS
 10
263.5429146661
 20
180.5619778068
 11
261.5121171919
 21
180.5619778068
  0
LINE
  5
343
100
AcDbEntity
  8
DRAFT
100
AcDbLine
 62
7
  6
CONTINUOUS
 10
229.1121171919
 20
180.5619778068
 11
227.0813197178
 21
180.5619778068
  0
LINE
  5
344
100
AcDbEntity
  8
RACCORDO
100
AcDbLine
 62
7
  6
CONTINUOUS
 10
228.2275820373
 20
180.6596958633
 11
230.2954605178
 21
180.6597174606
  0
LINE
  5
345
100
AcDbEntity
  8
RACCORDO
100
AcDbLine
 62
7
  6
CONTINUOUS
 10
262.8835783674
 20
180.6586292963
 11
260.3287738661
 21
180.6597174606
  0
LINE
  5
346
100
AcDbEntity
  8
RACCORDO
100
AcDbLine
 62
7
  6
CONTINUOUS
 10
263.1294314215
 20
180.6571556762
 11
262.8835783674
 21
180.6586292963
  0
LWPOLYLINE
  5
347
100
AcDbEntity
  8
0
100
AcDbPolyline
 62
7
  6
CONTINUOUS
 90
37
 70
0
 10
244.1587268847
 20
180.260978336
 10
244.0920464653
 20
180.2633603389
 10
244.0294322784
 20
180.271512071
 10
243.970884324
 20
180.2854335323
 10
243.9167286925
 20
180.3049760597
 10
243.8666392936
 20
180.3302883164
 10
243.8196378562
 20
180.3618162911
 10
243.7752126425
 20
180.3997769838
 10
243.7338753903
 20
180.4439533945
 10
243.6961830421
 20
180.4941405133
 10
243.6621356259
 20
180.5506980771
 10
243.6317331137
 20
180.6132663488
 10
243.6055323639
 20
180.6805611075
 10
243.5837715549
 20
180.7524661576
 10
243.5662125084
 20
180.8290976945
 10
243.5526975472
 20
180.9095200838
 10
243.5432517224
 20
180.9945571849
 10
243.5378499829
 20
181.0833851383
 10
243.5362594988
 20
181.1725967316
 10
243.5383815662
 20
181.2625656315
 10
243.5443148888
 20
181.3529181712
 10
243.5541227486
 20
181.4391261378
 10
243.5678138656
 20
181.5198151465
 10
243.5853795197
 20
181.5963595819
 10
243.606856833
 20
181.6683543851
 10
243.6323472883
 20
181.7360996519
 10
243.6617494028
 20
181.7992952864
 10
243.6947958499
 20
181.8566359421
 10
243.7316008885
 20
181.9078191232
 10
243.7720502597
 20
181.9531473254
 10
243.8155338606
 20
181.99222269
 10
243.8614900765
 20
182.0247412908
 10
243.910480522
 20
182.0510070538
 10
243.9635799382
 20
182.0715338992
 10
244.021146572
 20
182.0864931336
 10
244.0828221766
 20
182.0957134503
 10
244.1486067518
 20
182.0991948493
  0
LWPOLYLINE
  5
348
100
AcDbEntity
  8
0
100
AcDbPolyline
 62
7
  6
CONTINUOUS
 90
37
 70
0
 10
246.8448298259
 20
180.260978336
 10
246.7781494064
 20
180.2633603389
 10
246.7155352195
 20
180.271512071
 10
246.6569872651
 20
180.2854335323
 10
246.6028316337
 20
180.3049760598
 10
246.5527422347
 20
180.3302883164
 10
246.5057407973
 20
180.3618162912
 10
246.4613155836
 20
180.3997769838
 10
246.4199783314
 20
180.4439533946
 10
246.3822859832
 20
180.4941405134
 10
246.348238567
 20
180.5506980771
 10
246.3178360548
 20
180.6132663488
 10
246.2916353051
 20
180.6805611074
 10
246.2698744961
 20
180.7524661574
 10
246.2523154496
 20
180.8290976943
 10
246.2388004884
 20
180.9095200835
 10
246.2293546636
 20
180.9945571844
 10
246.2239529241
 20
181.0833851377
 10
246.22236244
 20
181.1725967309
 10
246.2244845073
 20
181.2625656308
 10
246.23041783
 20
181.3529181707
 10
246.2402256898
 20
181.4391261374
 10
246.2539168067
 20
181.5198151461
 10
246.2714824608
 20
181.5963595817
 10
246.2929597741
 20
181.668354385
 10
246.3184502294
 20
181.7360996518
 10
246.3478523439
 20
181.7992952863
 10
246.380898791
 20
181.856635942
 10
246.4177038296
 20
181.9078191231
 10
246.4581532008
 20
181.9531473254
 10
246.5016368017
 20
181.99222269
 10
246.5475930176
 20
182.0247412907
 10
246.5965834631
 20
182.0510070538
 10
246.6496828793
 20
182.0715338992
 10
246.7072495132
 20
182.0864931336
 10
246.7689251177
 20
182.0957134503
 10
246.834709693
 20
182.0991948493
  0
LWPOLYLINE
  5
349
100
AcDbEntity
  8
0
100
AcDbPolyline
 62
7
  6
CONTINUOUS
 90
37
 70
0
 10
242.7843830585
 20
180.2608919753
 10
242.7182063752
 20
180.2642352214
 10
242.6561391616
 20
180.2732986327
 10
242.5981814178
 20
180.2880822094
 10
242.5446853652
 20
180.3084238764
 10
242.4952987824
 20
180.3344857088
 10
242.4489650044
 20
180.3667539314
 10
242.4051260327
 20
180.4054964671
 10
242.3643398659
 20
180.450445393
 10
242.3272238348
 20
180.5012831656
 10
242.2938169196
 20
180.5583265919
 10
242.2640801401
 20
180.6212588648
 10
242.2385138876
 20
180.68881202
 10
242.2173454909
 20
180.7608657777
 10
242.2003476211
 20
180.8375404177
 10
242.1873386821
 20
180.9179288145
 10
242.1783311787
 20
181.0028999005
 10
242.173312606
 20
181.0915847434
 10
242.1720638534
 20
181.1804694212
 10
242.1744908045
 20
181.2698238947
 10
242.1806875757
 20
181.3593782031
 10
242.1907174057
 20
181.444808543
 10
242.2045873047
 20
181.5248014296
 10
242.2222902624
 20
181.6006703475
 10
242.2438684867
 20
181.6720319478
 10
242.2694234571
 20
181.7391904877
 10
242.2988536941
 20
181.80184171
 10
242.3318969666
 20
181.8586894939
 10
242.3686632066
 20
181.9094317403
 10
242.409042482
 20
181.9543705484
 10
242.4524427652
 20
181.9931160947
 10
242.4983229547
 20
182.0253738596
 10
242.5472241519
 20
182.0514383628
 10
242.6001776333
 20
182.0718033398
 10
242.6575271575
 20
182.0866333691
 10
242.718928966
 20
182.0957638723
 10
242.7843830585
 20
182.0991948493
  0
LWPOLYLINE
  5
34A
100
AcDbEntity
  8
0
100
AcDbPolyline
 62
7
  6
CONTINUOUS
 90
11
 70
0
 10
245.2078950756
 20
180.3184545671
 10
245.1503721705
 20
180.3423320005
 10
245.0965779506
 20
180.3727205758
 10
245.0467210248
 20
180.4092487558
 10
245.0019683101
 20
180.4504155466
 10
244.9624237097
 20
180.4958262958
 10
244.9279833204
 20
180.5458756557
 10
244.8995023498
 20
180.6002465899
 10
244.8772658672
 20
180.6588334197
 10
244.8609888032
 20
180.7217418238
 10
244.8506711579
 20
180.7889718023
  0
LWPOLYLINE
  5
34B
100
AcDbEntity
  8
RACCORDO
100
AcDbPolyline
 62
250
  6
CONTINUOUS
 90
10
 70
0
 10
249.1553726612
 20
164.5826089575
 10
249.1490327764
 20
164.5994902697
 10
249.1430571273
 20
164.6144736049
 10
249.1374551247
 20
164.6275353993
 10
249.1322355928
 20
164.6386551111
 10
249.1274067522
 20
164.6478152538
 10
249.1229762071
 20
164.655001423
 10
249.1189509374
 20
164.6602023182
 10
249.1153372872
 20
164.6634097614
 10
249.1121409523
 20
164.6646187101
  0
LWPOLYLINE
  5
34C
100
AcDbEntity
  8
RACCORDO
100
AcDbPolyline
 62
250
  6
CONTINUOUS
 90
6
 70
0
 10
244.8121171926
 20
166.51195413
 10
244.8153410582
 20
166.4592092291
 10
244.825065667
 20
166.4066826977
 10
244.8413134066
 20
166.3551120087
 10
244.8640934422
 20
166.3051205963
 10
244.8724842473
 20
166.2914243004
  0
LINE
  5
34D
100
AcDbEntity
  8
RACCORDO
100
AcDbLine
 62
7
  6
CONTINUOUS
 10
243.4822991923
 20
197.9199905087
 11
243.4874973921
 21
197.5828326184
  0
LINE
  5
34E
100
AcDbEntity
  8
RACCORDO
100
AcDbLine
 62
7
  6
CONTINUOUS
 10
243.46284411
 20
165.0044672186
 11
243.4645250721
 21
164.8277554565
  0
LINE
  5
34F
100
AcDbEntity
  8
RACCORDO
100
AcDbLine
 62
7
  6
CONTINUOUS
 10
243.4610845118
 20
165.3915472338
 11
243.46284411
 21
165.0044672186
  0
LINE
  5
350
100
AcDbEntity
  8
0
100
AcDbLine
 62
7
  6
CONTINUOUS
 10
243.2852930191
 20
187.3049357544
 11
243.2852930191
 21
186.891357134
  0
LINE
  5
351
100
AcDbEntity
  8
0
100
AcDbLine
 62
7
  6
CONTINUOUS
 10
243.3148791919
 20
172.2338178068
 11
243.3148791919
 21
172.4374328068
  0
LINE
  5
352
100
AcDbEntity
  8
0
100
AcDbLine
 62
7
  6
CONTINUOUS
 10
243.3379261919
 20
186.8866738068
 11
243.3379261919
 21
187.3575688068
  0
LINE
  5
353
100
AcDbEntity
  8
0
100
AcDbLine
 62
7
  6
CONTINUOUS
 10
243.3379264454
 20
186.3838588889
 11
243.3379264454
 21
185.4627813195
  0
LINE
  5
354
100
AcDbEntity
  8
0
100
AcDbLine
 62
7
  6
CONTINUOUS
 10
243.3905584639
 20
185.5154147459
 11
243.3905584639
 21
186.3312254626
  0
LINE
  5
355
100
AcDbEntity
  8
0
100
AcDbLine
 62
7
  6
CONTINUOUS
 10
243.3930121919
 20
172.9583628068
 11
243.3930121919
 21
173.1619778068
  0
LINE
  5
356
100
AcDbEntity
  8
0
100
AcDbLine
 62
7
  6
CONTINUOUS
 10
243.4096061919
 20
171.4619778068
 11
243.4096061919
 21
171.6655928068
  0
LINE
  5
357
100
AcDbEntity
  8
RACCORDO
100
AcDbLine
 62
7
  6
CONTINUOUS
 10
243.4610845118
 20
165.3915472338
 11
243.4607931492
 21
168.1619778068
  0
LINE
  5
358
100
AcDbEntity
  8
DRAFT
100
AcDbLine
 62
7
  6
CONTINUOUS
 10
243.4741452707
 20
198.7619778068
 11
243.4741452707
 21
197.9869778068
  0
LINE
  5
359
100
AcDbEntity
  8
DRAFT
100
AcDbLine
 62
7
  6
CONTINUOUS
 10
243.4741452707
 20
166.5619778068
 11
243.4741452707
 21
167.3369778068
  0
LINE
  5
35A
100
AcDbEntity
  8
0
100
AcDbLine
 62
7
  6
CONTINUOUS
 10
243.5484580389
 20
186.3312254626
 11
243.5484580389
 21
185.5154147459
  0
LINE
  5
35B
100
AcDbEntity
  8
0
100
AcDbLine
 62
7
  6
CONTINUOUS
 10
243.6010914653
 20
185.4627813195
 11
243.6010914653
 21
186.3838588889
  0
LINE
  5
35C
100
AcDbEntity
  8
DRAFT
100
AcDbLine
 62
7
  6
CONTINUOUS
 10
243.6121171919
 20
200.950192464
 11
243.6121171919
 21
199.0325313132
  0
LINE
  5
35D
100
AcDbEntity
  8
DRAFT
100
AcDbLine
 62
7
  6
CONTINUOUS
 10
243.6121171919
 20
166.2914243004
 11
243.6121171919
 21
164.3737631495
  0
LINE
  5
35E
100
AcDbEntity
  8
0
100
AcDbLine
 62
7
  6
CONTINUOUS
 10
243.7121171919
 20
168.2119778068
 11
243.7121171919
 21
167.5870196032
  0
LINE
  5
35F
100
AcDbEntity
  8
0
100
AcDbLine
 62
250
  6
CONTINUOUS
 10
243.7121171919
 20
166.6900635352
 11
243.7121171919
 21
166.6619778068
  0
LINE
  5
360
100
AcDbEntity
  8
0
100
AcDbLine
 62
7
  6
CONTINUOUS
 10
243.7121171919
 20
166.6900635352
 11
243.7121171919
 21
167.5870196032
  0
LINE
  5
361
100
AcDbEntity
  8
0
100
AcDbLine
 62
7
  6
CONTINUOUS
 10
243.7121171919
 20
197.1119778068
 11
243.7121171919
 21
197.7369360104
  0
LINE
  5
362
100
AcDbEntity
  8
0
100
AcDbLine
 62
7
  6
CONTINUOUS
 10
243.7121171919
 20
197.7369360104
 11
243.7121171919
 21
198.6338920784
  0
LINE
  5
363
100
AcDbEntity
  8
0
100
AcDbLine
 62
250
  6
CONTINUOUS
 10
243.7121171919
 20
198.6338920784
 11
243.7121171919
 21
198.6619778068
  0
LINE
  5
364
100
AcDbEntity
  8
0
100
AcDbLine
 62
7
  6
CONTINUOUS
 10
244.4040891919
 20
173.1619778068
 11
244.4040891919
 21
171.4619778068
  0
LINE
  5
365
100
AcDbEntity
  8
0
100
AcDbLine
 62
7
  6
CONTINUOUS
 10
244.5475271919
 20
174.4247478068
 11
244.5475271919
 21
175.1952738068
  0
LINE
  5
366
100
AcDbEntity
  8
0
100
AcDbLine
 62
7
  6
CONTINUOUS
 10
244.5475271919
 20
178.7286578068
 11
244.5475271919
 21
179.4991838068
  0
LINE
  5
367
100
AcDbEntity
  8
0
100
AcDbLine
 62
7
  6
CONTINUOUS
 10
244.6337441919
 20
171.4619778068
 11
244.6337441919
 21
173.1619778068
  0
LINE
  5
368
100
AcDbEntity
  8
RACCORDO
100
AcDbLine
 62
7
  6
CONTINUOUS
 10
244.8121171919
 20
166.2914243004
 11
244.8121171919
 21
166.6619778068
  0
LINE
  5
369
100
AcDbEntity
  8
RACCORDO
100
AcDbLine
 62
7
  6
CONTINUOUS
 10
244.8121171919
 20
198.6619778068
 11
244.8121171919
 21
199.0325313132
  0
LINE
  5
36A
100
AcDbEntity
  8
0
100
AcDbLine
 62
7
  6
CONTINUOUS
 10
245.0267311919
 20
173.1619778068
 11
245.0267311919
 21
171.4619778068
  0
LINE
  5
36B
100
AcDbEntity
  8
RACCORDO
100
AcDbLine
 62
7
  6
CONTINUOUS
 10
243.4616138259
 20
200.0983515206
 11
243.4607931492
 21
197.1619778068
  0
LINE
  5
36C
100
AcDbEntity
  8
RACCORDO
100
AcDbLine
 62
7
  6
CONTINUOUS
 10
243.4633573669
 20
200.3836404313
 11
243.4616138259
 21
200.0983515206
  0
LWPOLYLINE
  5
36D
100
AcDbEntity
  8
0
100
AcDbPolyline
 62
7
  6
CONTINUOUS
 90
10
 70
0
 10
243.4127262885
 20
192.6619778068
 10
243.4131050355
 20
192.7063637262
 10
243.4242939688
 20
192.9071585122
 10
243.4509188518
 20
193.1064189387
 10
243.4928437445
 20
193.3029681999
 10
243.5497954523
 20
193.4956333228
 10
243.6214297009
 20
193.6832641555
 10
243.7073334875
 20
193.8647481655
 10
243.806947414
 20
194.03900482
 10
243.8375590762
 20
194.0868765634
  0
LINE
  5
36E
100
AcDbEntity
  8
RACCORDO
100
AcDbLine
 62
7
  6
CONTINUOUS
 10
243.4645250721
 20
200.496200157
 11
243.4633573669
 21
200.3836404313
  0
LINE
  5
36F
100
AcDbEntity
  8
RACCORDO
100
AcDbLine
 62
7
  6
CONTINUOUS
 10
243.4874973921
 20
167.7411229952
 11
243.4822991923
 21
167.4039651049
  0
LWPOLYLINE
  5
370
100
AcDbEntity
  8
0
100
AcDbPolyline
 62
7
  6
CONTINUOUS
 90
29
 70
0
 10
244.8726550883
 20
181.6500048252
 10
244.888449727
 20
181.7181420962
 10
244.9090506529
 20
181.780894515
 10
244.9344578662
 20
181.8382620818
 10
244.9648426171
 20
181.8901788351
 10
245.0000336553
 20
181.9367107362
 10
245.0395172298
 20
181.9780556697
 10
245.0832248771
 20
182.0144696787
 10
245.1312250607
 20
182.04569672
 10
245.1832094201
 20
182.071166548
 10
245.2396556597
 20
182.0909152426
 10
245.3000860752
 20
182.1049067239
 10
245.3627591928
 20
182.1124625064
 10
245.4290692567
 20
182.1132696138
 10
245.4976220227
 20
182.1076410224
 10
245.5624932849
 20
182.0958371761
 10
245.6223151849
 20
182.0772367418
 10
245.678455581
 20
182.0524610526
 10
245.7290938424
 20
182.0236345507
 10
245.7734977743
 20
181.9913280776
 10
245.8123995714
 20
181.9549707918
 10
245.8461751876
 20
181.9149746113
 10
245.8752321855
 20
181.8706674433
 10
245.8991630024
 20
181.8227213806
 10
245.9171209044
 20
181.7735646193
 10
245.9287564762
 20
181.7230042895
 10
245.9344191332
 20
181.6712332612
 10
245.9343103877
 20
181.6212583401
 10
245.9283342728
 20
181.5738629954
  0
LINE
  5
371
100
AcDbEntity
  8
ASSI
100
AcDbLine
 62
7
  6
CONTINUOUS
 10
255.887318719
 20
193.737020251
 11
254.9854601919
 21
192.9770188068
  0
LINE
  5
372
100
AcDbEntity
  8
ASSI
100
AcDbLine
 62
7
  6
CONTINUOUS
 10
254.9854601919
 20
192.5822818068
 11
255.8454733306
 21
193.3070209236
  0
LINE
  5
373
100
AcDbEntity
  8
RACCORDO
100
AcDbLine
 62
250
  6
CONTINUOUS
 10
223.9358424254
 20
174.5809144992
 11
223.8495922131
 21
174.542369244
  0
LINE
  5
374
100
AcDbEntity
  8
RACCORDO
100
AcDbLine
 62
250
  6
CONTINUOUS
 10
224.2404461152
 20
173.9219847222
 11
224.141015423
 21
173.8797914157
  0
LINE
  5
375
100
AcDbEntity
  8
RACCORDO
100
AcDbLine
 62
250
  6
CONTINUOUS
 10
263.6814970692
 20
185.3649985766
 11
263.5093416703
 21
185.3396532172
  0
LINE
  5
376
100
AcDbEntity
  8
RACCORDO
100
AcDbLine
 62
250
  6
CONTINUOUS
 10
226.9427402252
 20
179.9589494508
 11
227.1148942253
 21
179.9842924077
  0
LWPOLYLINE
  5
377
100
AcDbEntity
  8
0
100
AcDbPolyline
 62
7
  6
CONTINUOUS
 90
37
 70
0
 10
246.8532295951
 20
181.8967133704
 10
246.8076217527
 20
181.8945821591
 10
246.7651021834
 20
181.8874957819
 10
246.7256708874
 20
181.8754542388
 10
246.6894416313
 20
181.8585199198
 10
246.6563006483
 20
181.8366304348
 10
246.6259066386
 20
181.8095986137
 10
246.5980827517
 20
181.7769018004
 10
246.573005838
 20
181.7390626509
 10
246.5508651484
 20
181.697461963
 10
246.5319139641
 20
181.6522038957
 10
246.5158990039
 20
181.60318429
 10
246.5022496756
 20
181.5514714673
 10
246.490921071
 20
181.4972936512
 10
246.4819580984
 20
181.440422618
 10
246.4749248896
 20
181.3812420178
 10
246.4697229332
 20
181.3193913892
 10
246.4664507407
 20
181.2552311936
 10
246.4649679786
 20
181.1902264643
 10
246.4651348363
 20
181.1236447784
 10
246.4670911244
 20
181.0562185588
 10
246.4711159415
 20
180.9916101086
 10
246.4771692176
 20
180.9310012989
 10
246.4852910227
 20
180.8732102585
 10
246.4958806653
 20
180.8183536766
 10
246.5089296802
 20
180.7662325013
 10
246.5244465325
 20
180.7170457844
 10
246.542855927
 20
180.67150737
 10
246.5644123774
 20
180.6293892151
 10
246.5888613698
 20
180.5909193626
 10
246.6158640674
 20
180.5574957862
 10
246.6452802822
 20
180.529580065
 10
246.6772502021
 20
180.5067106198
 10
246.7118555545
 20
180.4889006866
 10
246.7491235818
 20
180.4761546774
 10
246.7890270416
 20
180.4684681802
 10
246.8315659338
 20
180.465841195
  0
LWPOLYLINE
  5
378
100
AcDbEntity
  8
0
100
AcDbPolyline
 62
7
  6
CONTINUOUS
 90
37
 70
0
 10
244.167126654
 20
181.8967133704
 10
244.1215188115
 20
181.8945821591
 10
244.0789992423
 20
181.8874957819
 10
244.0395679462
 20
181.8754542388
 10
244.0033386901
 20
181.8585199198
 10
243.9701977072
 20
181.8366304348
 10
243.9398036974
 20
181.8095986137
 10
243.9119798105
 20
181.7769018004
 10
243.8869028968
 20
181.7390626509
 10
243.8647622073
 20
181.697461963
 10
243.8458110229
 20
181.6522038957
 10
243.8297960627
 20
181.60318429
 10
243.8161467344
 20
181.5514714672
 10
243.8048181298
 20
181.4972936512
 10
243.7958551572
 20
181.440422618
 10
243.7888219484
 20
181.3812420177
 10
243.783619992
 20
181.3193913892
 10
243.7803477995
 20
181.2552311935
 10
243.7788650374
 20
181.1902264643
 10
243.7790318951
 20
181.1236447783
 10
243.7809881833
 20
181.0562185588
 10
243.7850130004
 20
180.9916101086
 10
243.7910662764
 20
180.9310012989
 10
243.7991880815
 20
180.8732102585
 10
243.8097777241
 20
180.8183536766
 10
243.822826739
 20
180.7662325013
 10
243.8383435914
 20
180.7170457844
 10
243.8567529858
 20
180.6715073701
 10
243.8783094362
 20
180.6293892151
 10
243.9027584286
 20
180.5909193626
 10
243.9297611262
 20
180.5574957862
 10
243.959177341
 20
180.5295800649
 10
243.9911472609
 20
180.5067106198
 10
244.0257526133
 20
180.4889006866
 10
244.0630206406
 20
180.4761546774
 10
244.1029241004
 20
180.4684681802
 10
244.1454629926
 20
180.465841195
  0
LWPOLYLINE
  5
379
100
AcDbEntity
  8
0
100
AcDbPolyline
 62
7
  6
CONTINUOUS
 90
37
 70
0
 10
242.8029029607
 20
181.8967133704
 10
242.7572951182
 20
181.8945821591
 10
242.714775549
 20
181.8874957819
 10
242.675344253
 20
181.8754542388
 10
242.6391149968
 20
181.8585199198
 10
242.6059740139
 20
181.8366304349
 10
242.5755800042
 20
181.8095986137
 10
242.5477561173
 20
181.7769018004
 10
242.5226792036
 20
181.739062651
 10
242.500538514
 20
181.6974619631
 10
242.4815873297
 20
181.6522038958
 10
242.4655723695
 20
181.6031842902
 10
242.4519230411
 20
181.5514714675
 10
242.4405944366
 20
181.4972936514
 10
242.431631464
 20
181.4404226183
 10
242.4245982552
 20
181.3812420181
 10
242.4193962988
 20
181.3193913896
 10
242.4161241063
 20
181.2552311939
 10
242.4146413442
 20
181.1902264647
 10
242.4148082018
 20
181.1236447787
 10
242.41676449
 20
181.0562185591
 10
242.4207893071
 20
180.9916101088
 10
242.4268425831
 20
180.931001299
 10
242.4349643882
 20
180.8732102586
 10
242.4455540309
 20
180.8183536765
 10
242.4586030457
 20
180.7662325012
 10
242.4741198981
 20
180.7170457843
 10
242.4925292926
 20
180.6715073699
 10
242.514085743
 20
180.6293892149
 10
242.5385347354
 20
180.5909193625
 10
242.565537433
 20
180.5574957861
 10
242.5949536478
 20
180.5295800649
 10
242.6269235677
 20
180.5067106197
 10
242.6615289201
 20
180.4889006866
 10
242.6987969474
 20
180.4761546774
 10
242.7387004071
 20
180.4684681802
 10
242.7812392993
 20
180.465841195
  0
LWPOLYLINE
  5
37A
100
AcDbEntity
  8
RACCORDO
100
AcDbPolyline
 62
7
  6
CONTINUOUS
 90
5
 70
0
 10
227.3720022773
 20
180.6557478058
 10
227.3447627804
 20
180.6552444196
 10
227.3252436265
 20
180.6547389904
 10
227.3130950378
 20
180.6542257452
 10
227.3083170143
 20
180.653704684
  0
LINE
  5
37B
100
AcDbEntity
  8
RACCORDO
100
AcDbLine
 62
250
  6
CONTINUOUS
 10
233.5279574733
 20
181.9282303875
 11
233.4807092245
 21
181.9282303875
  0
LINE
  5
37C
100
AcDbEntity
  8
0
100
AcDbLine
 62
7
  6
CONTINUOUS
 10
248.2308311919
 20
182.0822258068
 11
248.0891576521
 21
182.0822258068
  0
LINE
  5
37D
100
AcDbEntity
  8
ASSI
100
AcDbLine
 62
250
  6
CONTINUOUS
 10
257.2121171919
 20
182.2456182215
 11
257.1742124548
 21
182.2456182215
  0
LWPOLYLINE
  5
37E
100
AcDbEntity
  8
0
100
AcDbPolyline
 62
7
  6
CONTINUOUS
 90
37
 70
0
 10
244.1486067518
 20
182.0991948493
 10
244.217574643
 20
182.0959348949
 10
244.2821604053
 20
182.0870878439
 10
244.3423640387
 20
182.0726536963
 10
244.3979352813
 20
182.0526954758
 10
244.449124395
 20
182.0271501587
 10
244.4966821651
 20
181.9958286736
 10
244.5409011496
 20
181.9587381975
 10
244.5814887904
 20
181.9158715534
 10
244.6183181995
 20
181.8670181387
 10
244.6515074382
 20
181.8116567483
 10
244.6809384451
 20
181.7503085874
 10
244.7061301474
 20
181.6843266687
 10
244.7267866365
 20
181.6138204361
 10
244.743203821
 20
181.5386804457
 10
244.7557883535
 20
181.4599313785
 10
244.7646046971
 20
181.3771238479
 10
244.7695883888
 20
181.2907072406
 10
244.7709526919
 20
181.2030543979
 10
244.76886216
 20
181.1132197318
 10
244.7631522394
 20
181.0221488305
 10
244.7535425325
 20
180.9350512991
 10
244.7399636137
 20
180.8534587807
 10
244.7224849087
 20
180.7758396324
 10
244.7010342961
 20
180.7028085302
 10
244.6754871421
 20
180.6341529816
 10
244.6459680806
 20
180.5700854791
 10
244.6127788922
 20
180.5118581768
 10
244.5757871025
 20
180.459742249
 10
244.5351251858
 20
180.4134665213
 10
244.4914923457
 20
180.3734696244
 10
244.4454911847
 20
180.3400919394
 10
244.3965191002
 20
180.3129930851
 10
244.3434674884
 20
180.2915905489
 10
244.2859668146
 20
180.2756901599
 10
244.2243866133
 20
180.2654860889
 10
244.1587268847
 20
180.260978336
  0
LWPOLYLINE
  5
37F
100
AcDbEntity
  8
0
100
AcDbPolyline
 62
7
  6
CONTINUOUS
 90
37
 70
0
 10
246.834709693
 20
182.0991948493
 10
246.9036775842
 20
182.0959348949
 10
246.9682633465
 20
182.0870878439
 10
247.0284669799
 20
182.0726536963
 10
247.0840382225
 20
182.0526954758
 10
247.1352273362
 20
182.0271501587
 10
247.1827851063
 20
181.9958286736
 10
247.2270040908
 20
181.9587381975
 10
247.2675917317
 20
181.9158715533
 10
247.3044211407
 20
181.8670181386
 10
247.3376103794
 20
181.8116567483
 10
247.3670413863
 20
181.7503085874
 10
247.3922330885
 20
181.6843266688
 10
247.4128895777
 20
181.6138204362
 10
247.4293067621
 20
181.5386804459
 10
247.4418912946
 20
181.4599313788
 10
247.4507076383
 20
181.3771238483
 10
247.45569133
 20
181.290707241
 10
247.4570556331
 20
181.2030543984
 10
247.4549651012
 20
181.1132197323
 10
247.4492551806
 20
181.0221488309
 10
247.4396454737
 20
180.9350512995
 10
247.426066555
 20
180.8534587811
 10
247.4085878499
 20
180.7758396327
 10
247.3871372374
 20
180.7028085304
 10
247.3615900834
 20
180.6341529818
 10
247.3320710219
 20
180.5700854793
 10
247.2988818334
 20
180.5118581769
 10
247.2618900437
 20
180.4597422491
 10
247.221228127
 20
180.4134665214
 10
247.1775952869
 20
180.3734696244
 10
247.1315941259
 20
180.3400919394
 10
247.0826220414
 20
180.3129930851
 10
247.0295704296
 20
180.2915905489
 10
246.9720697557
 20
180.2756901599
 10
246.9104895545
 20
180.2654860889
 10
246.8448298259
 20
180.260978336
  0
LWPOLYLINE
  5
380
100
AcDbEntity
  8
0
100
AcDbPolyline
 62
7
  6
CONTINUOUS
 90
37
 70
0
 10
242.7843830585
 20
182.0991948493
 10
242.8536654994
 20
182.0959120718
 10
242.9185397923
 20
182.0869769661
 10
242.9790059371
 20
182.072389532
 10
243.0348174093
 20
182.0522171325
 10
243.0862207335
 20
182.0263924047
 10
243.1339554836
 20
181.9947132597
 10
243.1783227126
 20
181.9571594593
 10
243.2190213675
 20
181.9137512416
 10
243.2558878628
 20
181.8643472323
 10
243.2890150824
 20
181.8084389929
 10
243.3183101425
 20
181.7465349619
 10
243.3433308068
 20
181.6800190793
 10
243.3637852286
 20
181.6090124611
 10
243.3799652547
 20
181.5333939914
 10
243.3923041884
 20
181.4541842621
 10
243.4008799478
 20
181.3708893268
 10
243.4056146148
 20
181.2840031319
 10
243.406707738
 20
181.1960281086
 10
243.4043186776
 20
181.1060897627
 10
243.3982880734
 20
181.0150625885
 10
243.3883373929
 20
180.9280724999
 10
243.3743987716
 20
180.846632497
 10
243.3565400742
 20
180.7692295797
 10
243.3346863618
 20
180.6964506624
 10
243.3087085595
 20
180.6280665063
 10
243.2787357423
 20
180.5643063501
 10
243.2450801969
 20
180.506444824
 10
243.2076351157
 20
180.4547769879
 10
243.1665073063
 20
180.4090077818
 10
243.1223294787
 20
180.369526656
 10
243.0756864062
 20
180.3366329278
 10
243.0259933156
 20
180.3100272799
 10
242.9721285965
 20
180.2892012108
 10
242.9137183789
 20
180.2739852202
 10
242.8511365329
 20
180.2645488083
 10
242.7843830585
 20
180.2608919753
  0
LWPOLYLINE
  5
381
100
AcDbEntity
  8
0
100
AcDbPolyline
 62
7
  6
CONTINUOUS
 90
14
 70
0
 10
245.4563830004
 20
181.93114317
 10
245.4151790478
 20
181.9333500054
 10
245.3738399793
 20
181.9307064502
 10
245.3323762274
 20
181.9233253787
 10
245.2936451252
 20
181.9112775159
 10
245.2584179191
 20
181.8944296209
 10
245.2259233628
 20
181.8729149346
 10
245.1967050503
 20
181.8472039046
 10
245.1708993801
 20
181.8172619977
 10
245.1483699537
 20
181.7831237471
 10
245.1292511704
 20
181.7453632
 10
245.11358783
 20
181.7041717055
 10
245.1013351326
 20
181.6593579145
 10
245.0924930782
 20
181.610921827
  0
LWPOLYLINE
  5
382
100
AcDbEntity
  8
0
100
AcDbPolyline
 62
7
  6
CONTINUOUS
 90
27
 70
0
 10
245.3086671879
 20
181.3568867752
 10
245.3481283999
 20
181.3547042982
 10
245.3875057952
 20
181.3561426884
 10
245.4267993738
 20
181.3612019459
 10
245.4669719938
 20
181.3702477295
 10
245.5070607972
 20
181.3829143803
 10
245.5441772096
 20
181.3981049225
 10
245.5776892172
 20
181.4154480145
 10
245.6082288339
 20
181.4353149977
 10
245.6348035267
 20
181.4577229209
 10
245.6570738753
 20
181.482549817
 10
245.6753793002
 20
181.5099176529
 10
245.6897455289
 20
181.5402093788
 10
245.7003048313
 20
181.5743947464
 10
245.7069249377
 20
181.6115040039
 10
245.709234767
 20
181.6490108455
 10
245.7071991311
 20
181.6870122589
 10
245.7008532182
 20
181.7254112564
 10
245.6899315116
 20
181.7613905688
 10
245.6740561636
 20
181.7943086494
 10
245.6536050219
 20
181.8248070449
 10
245.629446114
 20
181.8519931255
 10
245.6016164331
 20
181.8759551158
 10
245.5700789858
 20
181.8966047912
 10
245.535590819
 20
181.9127848482
 10
245.4974622694
 20
181.9241988183
 10
245.4563830004
 20
181.93114317
  0
LWPOLYLINE
  5
383
100
AcDbEntity
  8
RACCORDO
100
AcDbPolyline
 62
7
  6
CONTINUOUS
 90
7
 70
0
 10
263.3159173696
 20
180.653704684
 10
263.3111393461
 20
180.6542257452
 10
263.2989907573
 20
180.6547389904
 10
263.2794716035
 20
180.6552444196
 10
263.2522321066
 20
180.6557478058
 10
263.2176220445
 20
180.6562433761
 10
263.1294314215
 20
180.6571556762
  0
LWPOLYLINE
  5
384
100
AcDbEntity
  8
RACCORDO
100
AcDbPolyline
 62
7
  6
CONTINUOUS
 90
5
 70
0
 10
227.3083170143
 20
184.6702509296
 10
227.3130950378
 20
184.6697298683
 10
227.3252436265
 20
184.6692166231
 10
227.3447627804
 20
184.668711194
 10
227.4066123394
 20
184.6677122375
  0
LINE
  5
385
100
AcDbEntity
  8
RACCORDO
100
AcDbLine
 62
250
  6
CONTINUOUS
 10
226.9427372084
 20
185.3649985439
 11
227.1148926796
 21
185.3396529978
  0
LINE
  5
386
100
AcDbEntity
  8
RACCORDO
100
AcDbLine
 62
250
  6
CONTINUOUS
 10
263.681495774
 20
179.9589526314
 11
263.5093409706
 21
179.9842977854
  0
LINE
  5
387
100
AcDbEntity
  8
0
100
AcDbLine
 62
7
  6
CONTINUOUS
 10
244.8726550883
 20
181.6500048252
 11
245.0924930782
 21
181.610921827
  0
LWPOLYLINE
  5
388
100
AcDbEntity
  8
0
100
AcDbPolyline
 62
7
  6
CONTINUOUS
 90
30
 70
0
 10
245.6884986316
 20
181.2860500463
 10
245.7417411524
 20
181.2706292312
 10
245.7904800194
 20
181.250774976
 10
245.8347152325
 20
181.226487281
 10
245.8744555097
 20
181.1976956079
 10
245.909692133
 20
181.164470495
 10
245.9403989492
 20
181.127023556
 10
245.9668233142
 20
181.0852896523
 10
245.9887178722
 20
181.0393339226
 10
246.0053144019
 20
180.9895633973
 10
246.0166278145
 20
180.9350988193
 10
246.0226431989
 20
180.8768194457
 10
246.0225476008
 20
180.8177700779
 10
246.0162362305
 20
180.7578264514
 10
246.0038138777
 20
180.6971128307
 10
245.9847819571
 20
180.639046811
 10
245.9588104032
 20
180.5844770256
 10
245.9262292816
 20
180.5325548413
 10
245.887530204
 20
180.4841519535
 10
245.8421075921
 20
180.4385949117
 10
245.7905670242
 20
180.3965571665
 10
245.7352168473
 20
180.3609307654
 10
245.676586474
 20
180.3326089756
 10
245.6141464916
 20
180.31069853
 10
245.5486170098
 20
180.2954116747
 10
245.4780761642
 20
180.2868516928
 10
245.404445819
 20
180.2849153012
 10
245.3342116768
 20
180.2895048964
 10
245.2693552747
 20
180.3007167383
 10
245.2078950756
 20
180.3184545671
  0
LINE
  5
389
100
AcDbEntity
  8
RACCORDO
100
AcDbLine
 62
250
  6
CONTINUOUS
 10
224.2404461198
 20
191.4019708895
 11
224.1410154233
 21
191.4441641982
  0
LINE
  5
38A
100
AcDbEntity
  8
RACCORDO
100
AcDbLine
 62
250
  6
CONTINUOUS
 10
223.9358423553
 20
190.7430411457
 11
223.8495922131
 21
190.7815863693
  0
LINE
  5
38B
100
AcDbEntity
  8
0
100
AcDbLine
 62
7
  6
CONTINUOUS
 10
241.8544021919
 20
183.4364128068
 11
241.9288361919
 21
183.3619778068
  0
LWPOLYLINE
  5
38C
100
AcDbEntity
  8
0
100
AcDbPolyline
 62
7
  6
CONTINUOUS
 90
27
 70
0
 10
245.0705092256
 20
180.8182836779
 10
245.0818694608
 20
180.7670411386
 10
245.0962292564
 20
180.7193700278
 10
245.1135886122
 20
180.6752703455
 10
245.1337501999
 20
180.6344764459
 10
245.1569113479
 20
180.5972539749
 10
245.1836640417
 20
180.5643998698
 10
245.2143263126
 20
180.535959314
 10
245.2485801294
 20
180.5118871242
 10
245.2860633836
 20
180.4928446879
 10
245.3273450169
 20
180.4788298688
 10
245.3718560877
 20
180.4698448032
 10
245.4175276621
 20
180.4665572879
 10
245.4649013281
 20
180.4691236965
 10
245.5134354977
 20
180.4773876553
 10
245.559436473
 20
180.4915478401
 10
245.6022034961
 20
180.5121425466
 10
245.642437325
 20
180.5386334792
 10
245.6785465358
 20
180.569604426
 10
245.7105783523
 20
180.6051081004
 10
245.7384855509
 20
180.6450917889
 10
245.7605350369
 20
180.68798114
 10
245.7761230248
 20
180.7343524163
 10
245.7858533001
 20
180.7836293551
 10
245.7898041245
 20
180.8325088166
 10
245.7878875166
 20
180.8808264474
 10
245.7801914577
 20
180.928746601
  0
LWPOLYLINE
  5
38D
100
AcDbEntity
  8
RACCORDO
100
AcDbPolyline
 62
250
  6
CONTINUOUS
 90
6
 70
0
 10
245.8121171913
 20
198.8120014836
 10
245.8088933257
 20
198.8647463845
 10
245.7991687169
 20
198.9172729159
 10
245.7829209773
 20
198.9688436049
 10
245.7601409417
 20
199.0188350172
 10
245.7517501365
 20
199.0325313132
  0
LINE
  5
38E
100
AcDbEntity
  8
RACCORDO
100
AcDbLine
 62
7
  6
CONTINUOUS
 10
247.1419351916
 20
167.4039651049
 11
247.1367369918
 21
167.7411229952
  0
LINE
  5
38F
100
AcDbEntity
  8
0
100
AcDbLine
 62
7
  6
CONTINUOUS
 10
245.2493871919
 20
171.4619778068
 11
245.2493871919
 21
172.8425808068
  0
LINE
  5
390
100
AcDbEntity
  8
RACCORDO
100
AcDbLine
 62
7
  6
CONTINUOUS
 10
245.8121171919
 20
199.0325313132
 11
245.8121171919
 21
198.6619778068
  0
LINE
  5
391
100
AcDbEntity
  8
RACCORDO
100
AcDbLine
 62
7
  6
CONTINUOUS
 10
245.8121171919
 20
166.2914243004
 11
245.8121171919
 21
166.6619778068
  0
LINE
  5
392
100
AcDbEntity
  8
0
100
AcDbLine
 62
7
  6
CONTINUOUS
 10
246.0485241919
 20
186.1346048561
 11
246.0485241919
 21
184.9911938068
  0
LINE
  5
393
100
AcDbEntity
  8
0
100
AcDbLine
 62
7
  6
CONTINUOUS
 10
246.1011571919
 20
185.2587618068
 11
246.1011571919
 21
186.1346048068
  0
LINE
  5
394
100
AcDbEntity
  8
0
100
AcDbLine
 62
7
  6
CONTINUOUS
 10
246.1274741069
 20
185.0219141609
 11
246.1274741069
 21
185.179812328
  0
LINE
  5
395
100
AcDbEntity
  8
0
100
AcDbLine
 62
7
  6
CONTINUOUS
 10
246.1538861919
 20
173.1619778068
 11
246.1538861919
 21
171.7810948068
  0
LINE
  5
396
100
AcDbEntity
  8
0
100
AcDbLine
 62
7
  6
CONTINUOUS
 10
246.3764331919
 20
171.4619778068
 11
246.3764331919
 21
173.1619778068
  0
LINE
  5
397
100
AcDbEntity
  8
0
100
AcDbLine
 62
7
  6
CONTINUOUS
 10
246.4432718491
 20
185.179812328
 11
246.4432718491
 21
185.0219141609
  0
LINE
  5
398
100
AcDbEntity
  8
0
100
AcDbLine
 62
7
  6
CONTINUOUS
 10
246.5222211919
 20
184.9429648068
 11
246.5222211919
 21
185.2587618068
  0
LINE
  5
399
100
AcDbEntity
  8
0
100
AcDbLine
 62
7
  6
CONTINUOUS
 10
246.9121171919
 20
168.2119778068
 11
246.9121171919
 21
167.5870196032
  0
LINE
  5
39A
100
AcDbEntity
  8
0
100
AcDbLine
 62
250
  6
CONTINUOUS
 10
246.9121171919
 20
166.6900635352
 11
246.9121171919
 21
166.6619778068
  0
LINE
  5
39B
100
AcDbEntity
  8
0
100
AcDbLine
 62
7
  6
CONTINUOUS
 10
246.9121171919
 20
166.6900635352
 11
246.9121171919
 21
167.5870196032
  0
LINE
  5
39C
100
AcDbEntity
  8
0
100
AcDbLine
 62
7
  6
CONTINUOUS
 10
246.9121171919
 20
197.1119778068
 11
246.9121171919
 21
197.7369360104
  0
LINE
  5
39D
100
AcDbEntity
  8
0
100
AcDbLine
 62
7
  6
CONTINUOUS
 10
246.9121171919
 20
197.7369360104
 11
246.9121171919
 21
198.6338920784
  0
LINE
  5
39E
100
AcDbEntity
  8
0
100
AcDbLine
 62
250
  6
CONTINUOUS
 10
246.9121171919
 20
198.6338920784
 11
246.9121171919
 21
198.6619778068
  0
LINE
  5
39F
100
AcDbEntity
  8
DRAFT
100
AcDbLine
 62
7
  6
CONTINUOUS
 10
247.0121171919
 20
164.3737631495
 11
247.0121171919
 21
166.2914243004
  0
LINE
  5
3A0
100
AcDbEntity
  8
DRAFT
100
AcDbLine
 62
7
  6
CONTINUOUS
 10
247.0121171919
 20
199.0325313132
 11
247.0121171919
 21
200.950192464
  0
LWPOLYLINE
  5
3A1
100
AcDbEntity
  8
0
100
AcDbPolyline
 62
7
  6
CONTINUOUS
 90
10
 70
0
 10
247.2115080289
 20
192.6619778068
 10
247.2108775431
 20
192.604752137
 10
247.1986900142
 20
192.404067371
 10
247.1710676381
 20
192.2049687403
 10
247.1281523891
 20
192.0086397799
 10
247.0702269461
 20
191.816249158
 10
246.9976406548
 20
191.6289490497
 10
246.9108175611
 20
191.4478559259
 10
246.8103109272
 20
191.2740395364
 10
246.7865866056
 20
191.237137173
  0
LINE
  5
3A2
100
AcDbEntity
  8
RACCORDO
100
AcDbLine
 62
7
  6
CONTINUOUS
 10
247.1367369918
 20
197.5828326184
 11
247.1419351916
 21
197.9199905087
  0
LINE
  5
3A3
100
AcDbEntity
  8
0
100
AcDbLine
 62
7
  6
CONTINUOUS
 10
245.3086671879
 20
181.3568867752
 11
245.2842400352
 21
181.1639175687
  0
LWPOLYLINE
  5
3A4
100
AcDbEntity
  8
0
100
AcDbPolyline
 62
7
  6
CONTINUOUS
 90
9
 70
0
 10
245.9283342728
 20
181.5738629954
 10
245.9165867555
 20
181.528263758
 10
245.8995572496
 20
181.4851170263
 10
245.8773695836
 20
181.4443824148
 10
245.8498999289
 20
181.406100309
 10
245.8172662136
 20
181.3710482637
 10
245.779507747
 20
181.339485464
 10
245.7365852196
 20
181.3111527249
 10
245.6884986316
 20
181.2860500463
  0
LINE
  5
3A5
100
AcDbEntity
  8
RACCORDO
100
AcDbLine
 62
250
  6
CONTINUOUS
 10
251.0871010677
 20
200.3082383308
 11
251.0329777186
 21
200.1428445668
  0
LINE
  5
3A6
100
AcDbEntity
  8
RACCORDO
100
AcDbLine
 62
250
  6
CONTINUOUS
 10
239.5372068077
 20
165.0157120855
 11
239.5913369494
 21
165.1810855095
  0
LINE
  5
3A7
100
AcDbEntity
  8
0
100
AcDbLine
 62
7
  6
CONTINUOUS
 10
246.6658041919
 20
183.3619778068
 11
246.7402381919
 21
183.4364128068
  0
LWPOLYLINE
  5
3A8
100
AcDbEntity
  8
0
100
AcDbPolyline
 62
7
  6
CONTINUOUS
 90
13
 70
0
 10
247.5713171919
 20
181.6327796292
 10
247.6327626641
 20
181.6636208184
 10
247.6908832121
 20
181.695914702
 10
247.7456788359
 20
181.7296612801
 10
247.7971015718
 20
181.7650517043
 10
247.8451993835
 20
181.8018948228
 10
247.8901161625
 20
181.8396171808
 10
247.932045994
 20
181.8780662426
 10
247.9707947928
 20
181.9173945438
 10
248.0059241945
 20
181.9574862357
 10
248.0372880775
 20
181.998302702
 10
248.0650325634
 20
182.0398825591
 10
248.0891576521
 20
182.0822258068
  0
LINE
  5
3A9
100
AcDbEntity
  8
RACCORDO
100
AcDbLine
 62
250
  6
CONTINUOUS
 10
266.6883920272
 20
190.7430411451
 11
266.7746421707
 21
190.7815863695
  0
LINE
  5
3AA
100
AcDbEntity
  8
RACCORDO
100
AcDbLine
 62
250
  6
CONTINUOUS
 10
266.3837882614
 20
191.4019708883
 11
266.4832189609
 21
191.4441641978
  0
LINE
  5
3AB
100
AcDbEntity
  8
0
100
AcDbLine
 62
7
  6
CONTINUOUS
 10
242.1555445773
 20
184.597767753
 11
242.3379001919
 21
184.6137218068
  0
LINE
  5
3AC
100
AcDbEntity
  8
0
100
AcDbLine
 62
7
  6
CONTINUOUS
 10
243.2613731919
 20
184.6945158068
 11
245.1665821919
 21
184.8611998068
  0
LINE
  5
3AD
100
AcDbEntity
  8
0
100
AcDbLine
 62
7
  6
CONTINUOUS
 10
245.3034751919
 20
184.8731768068
 11
246.1011571919
 21
184.9429648068
  0
LINE
  5
3AE
100
AcDbEntity
  8
0
100
AcDbLine
 62
7
  6
CONTINUOUS
 10
242.5484321919
 20
184.6321408068
 11
243.0982321919
 21
184.6802428068
  0
LWPOLYLINE
  5
3AF
100
AcDbEntity
  8
RACCORDO
100
AcDbPolyline
 62
7
  6
CONTINUOUS
 90
4
 70
0
 10
263.2794716035
 20
184.668711194
 10
263.2989907573
 20
184.6692166231
 10
263.3111393461
 20
184.6697298683
 10
263.3159173696
 20
184.6702509296
  0
LINE
  5
3B0
100
AcDbEntity
  8
RACCORDO
100
AcDbLine
 62
7
  6
CONTINUOUS
 10
263.2176220445
 20
184.6677122375
 11
263.2794716035
 21
184.668711194
  0
LINE
  5
3B1
100
AcDbEntity
  8
RACCORDO
100
AcDbLine
 62
7
  6
CONTINUOUS
 10
263.0758508605
 20
184.6663832074
 11
263.2176220445
 21
184.6677122375
  0
LINE
  5
3B2
100
AcDbEntity
  8
RACCORDO
100
AcDbLine
 62
7
  6
CONTINUOUS
 10
262.6494569839
 20
184.6645975618
 11
263.0758508605
 21
184.6663832074
  0
LINE
  5
3B3
100
AcDbEntity
  8
ASSI
100
AcDbLine
 62
250
  6
CONTINUOUS
 10
233.4121171919
 20
183.0783373921
 11
233.4500219291
 21
183.0783373921
  0
LINE
  5
3B4
100
AcDbEntity
  8
RACCORDO
100
AcDbLine
 62
250
  6
CONTINUOUS
 10
257.0962769105
 20
183.3957252261
 11
257.1435251594
 21
183.3957252261
  0
LINE
  5
3B5
100
AcDbEntity
  8
0
100
AcDbLine
 62
7
  6
CONTINUOUS
 10
247.7561681834
 20
183.6988131167
 11
248.8121171919
 21
183.6988131167
  0
LINE
  5
3B6
100
AcDbEntity
  8
0
100
AcDbLine
 62
7
  6
CONTINUOUS
 10
242.3379001919
 20
184.1995908068
 11
242.5484321919
 21
184.1995908068
  0
LINE
  5
3B7
100
AcDbEntity
  8
RACCORDO
100
AcDbLine
 62
7
  6
CONTINUOUS
 10
262.6494569839
 20
184.6645975618
 11
260.3287738661
 21
184.6642381529
  0
LINE
  5
3B8
100
AcDbEntity
  8
0
100
AcDbLine
 62
7
  6
CONTINUOUS
 10
242.1523621919
 20
184.7522368068
 11
242.3379001919
 21
184.7522368068
  0
LINE
  5
3B9
100
AcDbEntity
  8
0
100
AcDbLine
 62
7
  6
CONTINUOUS
 10
241.8905191919
 20
184.7522368068
 11
242.0965691919
 21
184.7522368068
  0
LINE
  5
3BA
100
AcDbEntity
  8
DRAFT
100
AcDbLine
 62
7
  6
CONTINUOUS
 10
227.0813197178
 20
184.7619778068
 11
229.1121171919
 21
184.7619778068
  0
LINE
  5
3BB
100
AcDbEntity
  8
DRAFT
100
AcDbLine
 62
7
  6
CONTINUOUS
 10
261.5121171919
 20
184.7619778068
 11
263.5429146661
 21
184.7619778068
  0
LINE
  5
3BC
100
AcDbEntity
  8
0
100
AcDbLine
 62
7
  6
CONTINUOUS
 10
242.2852661919
 20
184.8048698068
 11
242.1342588402
 21
184.8048698068
  0
LINE
  5
3BD
100
AcDbEntity
  8
0
100
AcDbLine
 62
7
  6
CONTINUOUS
 10
242.0788493715
 20
184.8048698068
 11
241.9431531919
 21
184.8048698068
  0
LINE
  5
3BE
100
AcDbEntity
  8
RACCORDO
100
AcDbLine
 62
7
  6
CONTINUOUS
 10
227.7406560165
 20
184.6653263173
 11
230.2954605178
 21
184.6642381529
  0
LINE
  5
3BF
100
AcDbEntity
  8
RACCORDO
100
AcDbLine
 62
7
  6
CONTINUOUS
 10
227.4948029624
 20
184.6667999374
 11
227.7406560165
 21
184.6653263173
  0
LINE
  5
3C0
100
AcDbEntity
  8
RACCORDO
100
AcDbLine
 62
7
  6
CONTINUOUS
 10
227.4066123394
 20
184.6677122375
 11
227.4948029624
 21
184.6667999374
  0
LINE
  5
3C1
100
AcDbEntity
  8
RACCORDO
100
AcDbLine
 62
250
  6
CONTINUOUS
 10
266.3837882697
 20
173.9219847217
 11
266.4832189606
 21
173.8797914153
  0
LINE
  5
3C2
100
AcDbEntity
  8
RACCORDO
100
AcDbLine
 62
250
  6
CONTINUOUS
 10
266.6883919594
 20
174.5809144988
 11
266.7746421708
 21
174.5423692442
  0
LINE
  5
3C3
100
AcDbEntity
  8
0
100
AcDbLine
 62
7
  6
CONTINUOUS
 10
244.2973201806
 20
185.7304622813
 11
245.1179988222
 21
184.9097829357
  0
LINE
  5
3C4
100
AcDbEntity
  8
0
100
AcDbLine
 62
7
  6
CONTINUOUS
 10
241.8544021919
 20
188.1733798068
 11
242.7589631919
 21
187.2688188068
  0
LINE
  5
3C5
100
AcDbEntity
  8
0
100
AcDbLine
 62
7
  6
CONTINUOUS
 10
245.1665821919
 20
184.8611998068
 11
246.6658041919
 21
183.3619778068
  0
LINE
  5
3C6
100
AcDbEntity
  8
0
100
AcDbLine
 62
7
  6
CONTINUOUS
 10
242.8115971098
 20
187.2161853521
 11
243.122238301
 21
186.9055441609
  0
LINE
  5
3C7
100
AcDbEntity
  8
0
100
AcDbLine
 62
7
  6
CONTINUOUS
 10
243.3018087656
 20
186.7259729923
 11
244.222886335
 21
185.8048961269
  0
LINE
  5
3C8
100
AcDbEntity
  8
0
100
AcDbLine
 62
7
  6
CONTINUOUS
 10
243.180137393
 20
186.8476443649
 11
243.2491760432
 21
186.7786064187
  0
LINE
  5
3C9
100
AcDbEntity
  8
0
100
AcDbLine
 62
7
  6
CONTINUOUS
 10
245.2548901919
 20
184.9217598068
 11
244.3717541919
 21
185.8048958068
  0
LINE
  5
3CA
100
AcDbEntity
  8
0
100
AcDbLine
 62
7
  6
CONTINUOUS
 10
244.2973201806
 20
185.8793299725
 11
243.343278699
 21
186.8333714541
  0
LINE
  5
3CB
100
AcDbEntity
  8
0
100
AcDbLine
 62
7
  6
CONTINUOUS
 10
243.2852930191
 20
186.891357134
 11
242.8717143987
 21
187.3049357544
  0
LINE
  5
3CC
100
AcDbEntity
  8
0
100
AcDbLine
 62
7
  6
CONTINUOUS
 10
242.8190821919
 20
187.3575688068
 11
241.9288361919
 21
188.2478148068
  0
LINE
  5
3CD
100
AcDbEntity
  8
0
100
AcDbLine
 62
7
  6
CONTINUOUS
 10
246.7402381919
 20
183.4364128068
 11
245.3034751919
 21
184.8731768068
  0
LINE
  5
3CE
100
AcDbEntity
  8
0
100
AcDbLine
 62
7
  6
CONTINUOUS
 10
252.2484791919
 20
173.1619778068
 11
252.8901211919
 21
172.1462398068
  0
LINE
  5
3CF
100
AcDbEntity
  8
0
100
AcDbLine
 62
7
  6
CONTINUOUS
 10
253.0038211919
 20
172.3450428068
 11
252.5160251919
 21
173.1619778068
  0
LINE
  5
3D0
100
AcDbEntity
  8
0
100
AcDbLine
 62
7
  6
CONTINUOUS
 10
250.8681311919
 20
171.4619778068
 11
250.2524331919
 21
173.1619778068
  0
LINE
  5
3D1
100
AcDbEntity
  8
0
100
AcDbLine
 62
7
  6
CONTINUOUS
 10
250.4489811919
 20
171.9567858068
 11
250.6170841919
 21
171.4619778068
  0
LINE
  5
3D2
100
AcDbEntity
  8
0
100
AcDbLine
 62
7
  6
CONTINUOUS
 10
250.1128041919
 20
172.9153948068
 11
250.3660921919
 21
172.1604008068
  0
LINE
  5
3D3
100
AcDbEntity
  8
RACCORDO
100
AcDbLine
 62
250
  6
CONTINUOUS
 10
251.0870274223
 20
165.0157120615
 11
251.0328974257
 21
165.1810855069
  0
LINE
  5
3D4
100
AcDbEntity
  8
RACCORDO
100
AcDbLine
 62
250
  6
CONTINUOUS
 10
239.5371328892
 20
200.3082383316
 11
239.5912566251
 21
200.1428445572
  0
LWPOLYLINE
  5
3D5
100
AcDbEntity
  8
0
100
AcDbPolyline
 62
7
  6
CONTINUOUS
 90
14
 70
0
 10
245.7801914577
 20
180.928746601
 10
245.7670581534
 20
180.9734591976
 10
245.748241562
 20
181.014300298
 10
245.7239877251
 20
181.0519338414
 10
245.6953769739
 20
181.0855415655
 10
245.6624077917
 20
181.1153206913
 10
245.6250816952
 20
181.141073998
 10
245.5844835644
 20
181.1613915604
 10
245.5406087961
 20
181.1758926217
 10
245.4934619936
 20
181.1849579389
 10
245.4441418473
 20
181.1883198576
 10
245.3930145871
 20
181.1858891598
 10
245.3397139831
 20
181.1777550635
 10
245.2842400352
 20
181.1639175687
  0
LWPOLYLINE
  5
3D6
100
AcDbEntity
  8
0
100
AcDbPolyline
 62
250
  6
CONTINUOUS
 90
10
 70
0
 10
247.5044012378
 20
192.6619778068
 10
247.4986798038
 20
192.8482841086
 10
247.4814791856
 20
193.033915003
 10
247.4527448985
 20
193.2181744612
 10
247.4124461798
 20
193.4003557226
 10
247.3606471552
 20
193.5797090977
 10
247.2974356727
 20
193.755474165
 10
247.2229292663
 20
193.926886579
 10
247.1373642156
 20
194.0931662977
 10
247.0410064864
 20
194.253529355
  0
LWPOLYLINE
  5
3D7
100
AcDbEntity
  8
0
100
AcDbPolyline
 62
7
  6
CONTINUOUS
 90
10
 70
0
 10
247.7829380063
 20
192.6619778068
 10
247.776747112
 20
192.8662326701
 10
247.7581103454
 20
193.0697742582
 10
247.7269315668
 20
193.2718603798
 10
247.6831404827
 20
193.4717327792
 10
247.6267701842
 20
193.6685689443
 10
247.5578796086
 20
193.8615302986
 10
247.4765621926
 20
194.0497702762
 10
247.3830493704
 20
194.2324103537
 10
247.2776070756
 20
194.4085640182
  0
LWPOLYLINE
  5
3D8
100
AcDbEntity
  8
RACCORDO
100
AcDbPolyline
 62
7
  6
CONTINUOUS
 90
5
 70
0
 10
247.1576574788
 20
200.6193055316
 10
247.1569238074
 20
200.6466629787
 10
247.1561871525
 20
200.6663040324
 10
247.1554390959
 20
200.6785801101
 10
247.1546796377
 20
200.6834912118
  0
LINE
  5
3D9
100
AcDbEntity
  8
RACCORDO
100
AcDbLine
 62
7
  6
CONTINUOUS
 10
247.1590653627
 20
200.5435499616
 11
247.1576574788
 21
200.6193055316
  0
LINE
  5
3DA
100
AcDbEntity
  8
RACCORDO
100
AcDbLine
 62
7
  6
CONTINUOUS
 10
247.1608770169
 20
200.3836404313
 11
247.1590653627
 21
200.5435499616
  0
LINE
  5
3DB
100
AcDbEntity
  8
RACCORDO
100
AcDbLine
 62
7
  6
CONTINUOUS
 10
247.1626205579
 20
200.0983515206
 11
247.1608770169
 21
200.3836404313
  0
LINE
  5
3DC
100
AcDbEntity
  8
RACCORDO
100
AcDbLine
 62
7
  6
CONTINUOUS
 10
247.1634412346
 20
199.677143955
 11
247.1626205579
 21
200.0983515206
  0
LINE
  5
3DD
100
AcDbEntity
  8
DRAFT
100
AcDbLine
 62
7
  6
CONTINUOUS
 10
247.1500891132
 20
198.7619778068
 11
247.1500891132
 21
197.9869778068
  0
LINE
  5
3DE
100
AcDbEntity
  8
DRAFT
100
AcDbLine
 62
7
  6
CONTINUOUS
 10
247.1500891132
 20
166.5619778068
 11
247.1500891132
 21
167.3369778068
  0
LINE
  5
3DF
100
AcDbEntity
  8
RACCORDO
100
AcDbLine
 62
7
  6
CONTINUOUS
 10
247.1634412346
 20
199.6771156684
 11
247.1634412346
 21
197.1619778068
  0
LINE
  5
3E0
100
AcDbEntity
  8
0
100
AcDbLine
 62
7
  6
CONTINUOUS
 10
247.4300341919
 20
173.1619778068
 11
247.4300341919
 21
171.4619778068
  0
LINE
  5
3E1
100
AcDbEntity
  8
0
100
AcDbLine
 62
7
  6
CONTINUOUS
 10
247.5713171919
 20
181.6327796292
 11
247.5713171919
 21
181.4202694428
  0
LINE
  5
3E2
100
AcDbEntity
  8
0
100
AcDbLine
 62
7
  6
CONTINUOUS
 10
247.6597581919
 20
171.4619778068
 11
247.6597581919
 21
173.1619778068
  0
LINE
  5
3E3
100
AcDbEntity
  8
0
100
AcDbLine
 62
7
  6
CONTINUOUS
 10
247.7561681834
 20
187.9226091507
 11
247.7561681834
 21
183.6988131167
  0
LINE
  5
3E4
100
AcDbEntity
  8
0
100
AcDbLine
 62
7
  6
CONTINUOUS
 10
247.9060071919
 20
173.1619778068
 11
247.9060071919
 21
172.9583628068
  0
LINE
  5
3E5
100
AcDbEntity
  8
0
100
AcDbLine
 62
7
  6
CONTINUOUS
 10
248.0109931919
 20
181.6852963727
 11
248.0109931919
 21
180.2844398068
  0
LINE
  5
3E6
100
AcDbEntity
  8
0
100
AcDbLine
 62
7
  6
CONTINUOUS
 10
248.2308311919
 20
180.2844398068
 11
248.2308311919
 21
182.0822258068
  0
LINE
  5
3E7
100
AcDbEntity
  8
0
100
AcDbLine
 62
7
  6
CONTINUOUS
 10
248.3725271919
 20
176.5794658068
 11
248.3725271919
 21
177.3444658068
  0
LINE
  5
3E8
100
AcDbEntity
  8
0
100
AcDbLine
 62
7
  6
CONTINUOUS
 10
248.4813811919
 20
172.9583628068
 11
248.4813811919
 21
171.4619778068
  0
LINE
  5
3E9
100
AcDbEntity
  8
0
100
AcDbLine
 62
7
  6
CONTINUOUS
 10
248.7110221919
 20
171.4619778068
 11
248.7110221919
 21
172.9583628068
  0
LINE
  5
3EA
100
AcDbEntity
  8
0
100
AcDbLine
 62
7
  6
CONTINUOUS
 10
248.8121171919
 20
183.6988131167
 11
248.8121171919
 21
187.9226091507
  0
LINE
  5
3EB
100
AcDbEntity
  8
0
100
AcDbLine
 62
7
  6
CONTINUOUS
 10
248.8825271919
 20
174.4247478068
 11
248.8825271919
 21
175.1952742471
  0
LINE
  5
3EC
100
AcDbEntity
  8
0
100
AcDbLine
 62
7
  6
CONTINUOUS
 10
248.8825271919
 20
178.7286578068
 11
248.8825271919
 21
179.4991838068
  0
LINE
  5
3ED
100
AcDbEntity
  8
RACCORDO
100
AcDbLine
 62
7
  6
CONTINUOUS
 10
247.1626205579
 20
165.225604093
 11
247.1634412346
 21
168.1619778068
  0
LINE
  5
3EE
100
AcDbEntity
  8
RACCORDO
100
AcDbLine
 62
7
  6
CONTINUOUS
 10
247.1608770169
 20
164.9403151822
 11
247.1626205579
 21
165.225604093
  0
LINE
  5
3EF
100
AcDbEntity
  8
RACCORDO
100
AcDbLine
 62
7
  6
CONTINUOUS
 10
247.1590653627
 20
164.780405652
 11
247.1608770169
 21
164.9403151822
  0
LWPOLYLINE
  5
3F0
100
AcDbEntity
  8
RACCORDO
100
AcDbPolyline
 62
250
  6
CONTINUOUS
 90
10
 70
0
 10
241.4690890317
 20
164.5826998904
 10
241.4754068432
 20
164.599579745
 10
241.4813594716
 20
164.6145595085
 10
241.4869375555
 20
164.6276155928
 10
241.4921323225
 20
164.6387274385
 10
241.4969356054
 20
164.6478775481
 10
241.5013398549
 20
164.6550515129
 10
241.5053381482
 20
164.6602380348
 10
241.5089242003
 20
164.6634289448
 10
241.5120923761
 20
164.6646192162
  0
LINE
  5
3F1
100
AcDbEntity
  8
ASSI
100
AcDbLine
 62
7
  6
CONTINUOUS
 10
254.0679390948
 20
191.3360916338
 11
254.2158962798
 21
191.5997039633
  0
LWPOLYLINE
  5
3F2
100
AcDbEntity
  8
0
100
AcDbPolyline
 62
7
  6
CONTINUOUS
 90
10
 70
0
 10
248.0109931919
 20
181.6852963727
 10
247.9718989902
 20
181.6511788649
 10
247.9302783202
 20
181.6181937087
 10
247.8861311822
 20
181.5863409043
 10
247.8393418474
 20
181.5555735634
 10
247.7900260445
 20
181.5259385741
 10
247.738530959
 20
181.497576601
 10
247.6849723193
 20
181.4705345322
 10
247.6292343969
 20
181.4447654794
 10
247.5713171919
 20
181.4202694428
  0
LINE
  5
3F3
100
AcDbEntity
  8
RACCORDO
100
AcDbLine
 62
7
  6
CONTINUOUS
 10
261.3216908372
 20
191.1241473423
 11
261.3286992358
 21
191.1260824825
  0
LINE
  5
3F4
100
AcDbEntity
  8
RACCORDO
100
AcDbLine
 62
7
  6
CONTINUOUS
 10
260.3287738661
 20
190.8743649197
 11
260.4304733576
 21
190.9007491275
  0
LINE
  5
3F5
100
AcDbEntity
  8
0
100
AcDbLine
 62
7
  6
CONTINUOUS
 10
243.1561321522
 20
184.7381419442
 11
242.5484320899
 21
184.6849756156
  0
LINE
  5
3F6
100
AcDbEntity
  8
0
100
AcDbLine
 62
7
  6
CONTINUOUS
 10
245.1179988222
 20
184.9097829357
 11
243.3192734582
 21
184.7524148549
  0
LINE
  5
3F7
100
AcDbEntity
  8
0
100
AcDbLine
 62
7
  6
CONTINUOUS
 10
246.0485241919
 20
184.9911938068
 11
245.2548901919
 21
184.9217598068
  0
LINE
  5
3F8
100
AcDbEntity
  8
0
100
AcDbLine
 62
7
  6
CONTINUOUS
 10
242.3379001919
 20
184.6665568068
 11
242.1896092671
 21
184.6535828134
  0
LINE
  5
3F9
100
AcDbEntity
  8
0
100
AcDbLine
 62
7
  6
CONTINUOUS
 10
246.1011571919
 20
184.9429648068
 11
246.5222211919
 21
184.9429648068
  0
LINE
  5
3FA
100
AcDbEntity
  8
0
100
AcDbLine
 62
7
  6
CONTINUOUS
 10
242.0870341919
 20
184.9627688068
 11
242.2852661919
 21
184.9627688068
  0
LINE
  5
3FB
100
AcDbEntity
  8
0
100
AcDbLine
 62
7
  6
CONTINUOUS
 10
241.9431531919
 20
184.9627688068
 11
242.0326031919
 21
184.9627688068
  0
LINE
  5
3FC
100
AcDbEntity
  8
0
100
AcDbLine
 62
7
  6
CONTINUOUS
 10
242.3379001919
 20
185.0154018068
 11
242.0735831697
 21
185.0154018068
  0
LINE
  5
3FD
100
AcDbEntity
  8
0
100
AcDbLine
 62
7
  6
CONTINUOUS
 10
242.0194266584
 20
185.0154018068
 11
241.8905191919
 21
185.0154018068
  0
LINE
  5
3FE
100
AcDbEntity
  8
0
100
AcDbLine
 62
7
  6
CONTINUOUS
 10
246.4432718491
 20
185.0219141609
 11
246.1274741069
 21
185.0219141609
  0
LINE
  5
3FF
100
AcDbEntity
  8
DRAFT
100
AcDbLine
 62
7
  6
CONTINUOUS
 10
255.277811267
 20
185.0619778068
 11
254.3196743018
 21
185.0619778068
  0
LINE
  5
400
100
AcDbEntity
  8
DRAFT
100
AcDbLine
 62
7
  6
CONTINUOUS
 10
236.304560082
 20
185.0619778068
 11
235.3464231168
 21
185.0619778068
  0
LINE
  5
401
100
AcDbEntity
  8
0
100
AcDbLine
 62
7
  6
CONTINUOUS
 10
246.1274741069
 20
185.179812328
 11
246.4432718491
 21
185.179812328
  0
LINE
  5
402
100
AcDbEntity
  8
0
100
AcDbLine
 62
7
  6
CONTINUOUS
 10
246.5222211919
 20
185.2587618068
 11
246.1011571919
 21
185.2587618068
  0
LINE
  5
403
100
AcDbEntity
  8
0
100
AcDbLine
 62
7
  6
CONTINUOUS
 10
243.3379264454
 20
185.4627813195
 11
243.6010914653
 21
185.4627813195
  0
LINE
  5
404
100
AcDbEntity
  8
0
100
AcDbLine
 62
7
  6
CONTINUOUS
 10
243.5484580389
 20
185.5154147459
 11
243.3905584639
 21
185.5154147459
  0
LINE
  5
405
100
AcDbEntity
  8
0
100
AcDbLine
 62
7
  6
CONTINUOUS
 10
241.8115701919
 20
185.5680478068
 11
241.9446881919
 21
185.5680478068
  0
LINE
  5
406
100
AcDbEntity
  8
0
100
AcDbLine
 62
7
  6
CONTINUOUS
 10
241.9973501919
 20
185.5680478068
 11
242.1273671919
 21
185.5680478068
  0
LINE
  5
407
100
AcDbEntity
  8
0
100
AcDbLine
 62
7
  6
CONTINUOUS
 10
242.0747351919
 20
185.6206808068
 11
241.9960736563
 21
185.6206808068
  0
LINE
  5
408
100
AcDbEntity
  8
0
100
AcDbLine
 62
7
  6
CONTINUOUS
 10
241.9434344009
 20
185.6206808068
 11
241.8642031919
 21
185.6206808068
  0
LINE
  5
409
100
AcDbEntity
  8
0
100
AcDbLine
 62
7
  6
CONTINUOUS
 10
241.8642031919
 20
186.2259598068
 11
242.0017001919
 21
186.2259598068
  0
LINE
  5
40A
100
AcDbEntity
  8
0
100
AcDbLine
 62
7
  6
CONTINUOUS
 10
242.0554961919
 20
186.2259598068
 11
242.0747351919
 21
186.2259598068
  0
LINE
  5
40B
100
AcDbEntity
  8
0
100
AcDbLine
 62
7
  6
CONTINUOUS
 10
242.1273671919
 20
186.2785928068
 11
242.0672779494
 21
186.2785928068
  0
LINE
  5
40C
100
AcDbEntity
  8
0
100
AcDbLine
 62
7
  6
CONTINUOUS
 10
242.0132476256
 20
186.2785928068
 11
241.8115701919
 21
186.2785928068
  0
LINE
  5
40D
100
AcDbEntity
  8
0
100
AcDbLine
 62
7
  6
CONTINUOUS
 10
243.3905584639
 20
186.3312254626
 11
243.5484580389
 21
186.3312254626
  0
LINE
  5
40E
100
AcDbEntity
  8
0
100
AcDbLine
 62
7
  6
CONTINUOUS
 10
243.6010914653
 20
186.3838588889
 11
243.3379264454
 21
186.3838588889
  0
LINE
  5
40F
100
AcDbEntity
  8
0
100
AcDbLine
 62
7
  6
CONTINUOUS
 10
242.7589636834
 20
186.7259729923
 11
243.3018087656
 21
186.7259729923
  0
LINE
  5
410
100
AcDbEntity
  8
0
100
AcDbLine
 62
7
  6
CONTINUOUS
 10
243.2491760432
 20
186.7786064187
 11
242.8115971098
 21
186.7786064187
  0
LINE
  5
411
100
AcDbEntity
  8
0
100
AcDbLine
 62
7
  6
CONTINUOUS
 10
242.5484320899
 20
186.902912032
 11
242.7589636834
 21
186.8844920575
  0
LINE
  5
412
100
AcDbEntity
  8
0
100
AcDbLine
 62
7
  6
CONTINUOUS
 10
243.343278699
 20
186.8333714541
 11
245.0978555389
 21
186.6798653309
  0
LINE
  5
413
100
AcDbEntity
  8
0
100
AcDbLine
 62
7
  6
CONTINUOUS
 10
242.8115971098
 20
186.8798874159
 11
243.180137393
 21
186.8476443649
  0
LINE
  5
414
100
AcDbEntity
  8
0
100
AcDbLine
 62
7
  6
CONTINUOUS
 10
245.2347481919
 20
186.6678898068
 11
245.6160541919
 21
186.6345288068
  0
LINE
  5
415
100
AcDbEntity
  8
0
100
AcDbLine
 62
7
  6
CONTINUOUS
 10
242.7589631919
 20
186.9373258068
 11
242.5484321919
 21
186.9557458068
  0
LINE
  5
416
100
AcDbEntity
  8
0
100
AcDbLine
 62
7
  6
CONTINUOUS
 10
243.122238301
 20
186.9055441609
 11
242.8115971098
 21
186.9327221765
  0
LINE
  5
417
100
AcDbEntity
  8
0
100
AcDbLine
 62
7
  6
CONTINUOUS
 10
245.6236475475
 20
186.6866998632
 11
245.2833311919
 21
186.7164728068
  0
LINE
  5
418
100
AcDbEntity
  8
0
100
AcDbLine
 62
7
  6
CONTINUOUS
 10
245.1464401919
 20
186.7284498068
 11
243.3379261919
 21
186.8866738068
  0
LWPOLYLINE
  5
419
100
AcDbEntity
  8
0
100
AcDbPolyline
 62
7
  6
CONTINUOUS
 90
3
 70
0
 10
243.3923489699
 20
190.6258688295
 10
243.3829550109
 20
190.6393621448
 10
243.3368201763
 20
190.7100554456
  0
LWPOLYLINE
  5
41A
100
AcDbEntity
  8
0
100
AcDbPolyline
 62
7
  6
CONTINUOUS
 90
10
 70
0
 10
243.8376477783
 20
191.237137173
 10
243.8139234566
 20
191.2740395364
 10
243.7134168228
 20
191.4478559259
 10
243.6265937291
 20
191.6289490497
 10
243.5540074377
 20
191.816249158
 10
243.4960819947
 20
192.0086397799
 10
243.4531667458
 20
192.2049687403
 10
243.4255443696
 20
192.404067371
 10
243.4133568408
 20
192.604752137
 10
243.412726355
 20
192.6619778068
  0
LINE
  5
41B
100
AcDbEntity
  8
0
100
AcDbLine
 62
7
  6
CONTINUOUS
 10
243.3368201763
 20
190.7100554456
 11
243.2932174292
 21
190.7814976912
  0
LWPOLYLINE
  5
41C
100
AcDbEntity
  8
0
100
AcDbPolyline
 62
250
  6
CONTINUOUS
 90
10
 70
0
 10
243.5862475656
 20
191.0724049233
 10
243.4899859709
 20
191.2325584924
 10
243.4042772494
 20
191.3985119076
 10
243.3294306263
 20
191.5695529137
 10
243.2657307258
 20
191.7449654827
 10
243.2133637674
 20
191.924018496
 10
243.1724913692
 20
192.1059770619
 10
243.1432520174
 20
192.2901077945
 10
243.1256916683
 20
192.4756833292
 10
243.1198331461
 20
192.6619778068
  0
LWPOLYLINE
  5
41D
100
AcDbEntity
  8
0
100
AcDbPolyline
 62
7
  6
CONTINUOUS
 90
10
 70
0
 10
243.3507713678
 20
190.9181070276
 10
243.2454622271
 20
191.0939738659
 10
243.1517534912
 20
191.2761666384
 10
243.0699700887
 20
191.4638971279
 10
243.0004095092
 20
191.6563745935
 10
242.9432594848
 20
191.8527981997
 10
242.8986803087
 20
192.052364587
 10
242.8668072952
 20
192.2542737653
 10
242.8476758444
 20
192.4577392203
 10
242.8412963776
 20
192.6619778068
  0
LINE
  5
41E
100
AcDbEntity
  8
0
100
AcDbLine
 62
7
  6
CONTINUOUS
 10
243.2932174292
 20
190.7814976912
 11
243.2521716874
 21
190.8535833108
  0
LWPOLYLINE
  5
41F
100
AcDbEntity
  8
0
100
AcDbPolyline
 62
7
  6
CONTINUOUS
 90
11
 70
0
 10
245.0749047029
 20
189.8734283555
 10
245.0598859336
 20
189.9071431454
 10
245.0378488098
 20
189.9512675251
 10
245.0140786452
 20
189.994130779
 10
244.9886578391
 20
190.0357308755
 10
244.9617081747
 20
190.0760015008
 10
244.93331378
 20
190.114940537
 10
244.9034780457
 20
190.1526406076
 10
244.8722504495
 20
190.1891124876
 10
244.8397412086
 20
190.2242974601
 10
244.8060274523
 20
190.2581830737
  0
LWPOLYLINE
  5
420
100
AcDbEntity
  8
0
100
AcDbPolyline
 62
7
  6
CONTINUOUS
 90
5
 70
0
 10
246.2904667634
 20
195.0657725399
 10
246.2835932959
 20
195.1247182864
 10
246.2797155126
 20
195.1845129925
 10
246.2789630908
 20
195.2450014133
 10
246.280697988
 20
195.2873459477
  0
LINE
  5
421
100
AcDbEntity
  8
0
100
AcDbLine
 62
7
  6
CONTINUOUS
 10
249.2863961919
 20
172.9583628068
 11
249.2863961919
 21
173.1619778068
  0
LWPOLYLINE
  5
422
100
AcDbEntity
  8
RACCORDO
100
AcDbPolyline
 62
7
  6
CONTINUOUS
 90
6
 70
0
 10
247.1546796377
 20
164.6404644018
 10
247.1554390959
 20
164.6453755035
 10
247.1561871525
 20
164.6576515812
 10
247.1569238074
 20
164.6772926349
 10
247.1576574788
 20
164.704650082
 10
247.1590653627
 20
164.780405652
  0
LINE
  5
423
100
AcDbEntity
  8
ASSI
100
AcDbLine
 62
7
  6
CONTINUOUS
 10
255.9761501919
 20
190.1710218068
 11
256.1438801919
 21
190.4088048068
  0
LINE
  5
424
100
AcDbEntity
  8
RACCORDO
100
AcDbLine
 62
7
  6
CONTINUOUS
 10
261.5121171919
 20
191.2835772259
 11
261.3286992358
 21
191.1260824759
  0
LINE
  5
425
100
AcDbEntity
  8
RACCORDO
100
AcDbLine
 62
7
  6
CONTINUOUS
 10
261.3286992358
 20
184.670272251
 11
261.5121171919
 21
184.7619778068
  0
LINE
  5
426
100
AcDbEntity
  8
RACCORDO
100
AcDbLine
 62
7
  6
CONTINUOUS
 10
263.3159173696
 20
184.6702509296
 11
263.5429146661
 21
184.7619778068
  0
LINE
  5
427
100
AcDbEntity
  8
RACCORDO
100
AcDbLine
 62
7
  6
CONTINUOUS
 10
260.4304733576
 20
190.9007491275
 11
261.0610260015
 21
191.0594698546
  0
LWPOLYLINE
  5
428
100
AcDbEntity
  8
RACCORDO
100
AcDbPolyline
 62
7
  6
CONTINUOUS
 90
3
 70
0
 10
261.0610260015
 20
191.0594698546
 10
261.2744316949
 20
191.1126014376
 10
261.3216908372
 20
191.1241473423
  0
LINE
  5
429
100
AcDbEntity
  8
0
100
AcDbLine
 62
7
  6
CONTINUOUS
 10
242.5484321919
 20
187.1207198068
 11
242.4822011919
 21
187.1207198068
  0
LINE
  5
42A
100
AcDbEntity
  8
0
100
AcDbLine
 62
7
  6
CONTINUOUS
 10
242.8717143987
 20
187.3049357544
 11
243.2852930191
 21
187.3049357544
  0
LINE
  5
42B
100
AcDbEntity
  8
0
100
AcDbLine
 62
7
  6
CONTINUOUS
 10
243.3379261919
 20
187.3575688068
 11
242.8190821919
 21
187.3575688068
  0
LINE
  5
42C
100
AcDbEntity
  8
0
100
AcDbLine
 62
7
  6
CONTINUOUS
 10
248.8121171919
 20
187.9226091507
 11
247.7561681834
 21
187.9226091507
  0
LWPOLYLINE
  5
42D
100
AcDbEntity
  8
RACCORDO
100
AcDbPolyline
 62
7
  6
CONTINUOUS
 90
3
 70
0
 10
229.349565175
 20
191.1126604301
 10
229.3025001254
 20
191.1241740859
 10
229.2955351481
 20
191.1260824825
  0
LINE
  5
42E
100
AcDbEntity
  8
RACCORDO
100
AcDbLine
 62
7
  6
CONTINUOUS
 10
229.8985659263
 20
190.9750870009
 11
229.349565175
 21
191.1126604301
  0
LWPOLYLINE
  5
42F
100
AcDbEntity
  8
RACCORDO
100
AcDbPolyline
 62
7
  6
CONTINUOUS
 90
3
 70
0
 10
230.2954605178
 20
190.8743649197
 10
230.1941155047
 20
190.9006616288
 10
229.8985659263
 20
190.9750870009
  0
LINE
  5
430
100
AcDbEntity
  8
RACCORDO
100
AcDbLine
 62
7
  6
CONTINUOUS
 10
263.5429146661
 20
180.5619778068
 11
263.3159173696
 21
180.653704684
  0
LINE
  5
431
100
AcDbEntity
  8
RACCORDO
100
AcDbLine
 62
7
  6
CONTINUOUS
 10
261.3286992358
 20
180.6536833626
 11
261.5121171919
 21
180.5619778068
  0
LINE
  5
432
100
AcDbEntity
  8
RACCORDO
100
AcDbLine
 62
7
  6
CONTINUOUS
 10
261.3286992358
 20
174.1978731377
 11
261.5121171919
 21
174.0403783877
  0
LWPOLYLINE
  5
433
100
AcDbEntity
  8
0
100
AcDbPolyline
 62
7
  6
CONTINUOUS
 90
7
 70
0
 10
244.8060274523
 20
190.2581830737
 10
244.7726416266
 20
190.2894693446
 10
244.7378095266
 20
190.3199863361
 10
244.701549754
 20
190.3496914048
 10
244.6638792379
 20
190.3785452336
 10
244.6248123488
 20
190.4065114051
 10
244.5843600354
 20
190.4335558053
  0
LINE
  5
434
100
AcDbEntity
  8
0
100
AcDbLine
 62
7
  6
CONTINUOUS
 10
246.7402381919
 20
188.1733798068
 11
246.6658041919
 21
188.2478148068
  0
LINE
  5
435
100
AcDbEntity
  8
0
100
AcDbLine
 62
250
  6
CONTINUOUS
 10
245.8182069316
 20
190.2581830737
 11
246.0928003282
 21
189.9747604238
  0
LWPOLYLINE
  5
436
100
AcDbEntity
  8
0
100
AcDbPolyline
 62
7
  6
CONTINUOUS
 90
10
 70
0
 10
244.1886914636
 20
190.747256874
 10
244.140816467
 20
190.7993466832
 10
244.0951683043
 20
190.85214133
 10
244.0517637299
 20
190.9055687946
 10
244.0106734362
 20
190.9594865558
 10
243.9718410198
 20
191.0138796133
 10
243.9351020007
 20
191.0688755057
 10
243.9004164667
 20
191.1244739947
 10
243.8678496711
 20
191.1805332641
 10
243.8374045672
 20
191.2369778068
  0
LINE
  5
437
100
AcDbEntity
  8
0
100
AcDbLine
 62
7
  6
CONTINUOUS
 10
246.0398743484
 20
190.4335558053
 11
246.2916466944
 21
190.040593298
  0
LINE
  5
438
100
AcDbEntity
  8
0
100
AcDbLine
 62
7
  6
CONTINUOUS
 10
251.0787581919
 20
173.1619778068
 11
251.0787581919
 21
171.4619778068
  0
LINE
  5
439
100
AcDbEntity
  8
0
100
AcDbLine
 62
7
  6
CONTINUOUS
 10
251.3084951919
 20
171.6655928068
 11
251.3084951919
 21
173.1619778068
  0
LINE
  5
43A
100
AcDbEntity
  8
0
100
AcDbLine
 62
7
  6
CONTINUOUS
 10
252.1703881919
 20
171.4619778068
 11
252.1703881919
 21
171.6655928068
  0
LINE
  5
43B
100
AcDbEntity
  8
ASSI
100
AcDbLine
 62
7
  6
CONTINUOUS
 10
252.4121171919
 20
183.1544206969
 11
252.4121171919
 21
182.1695349167
  0
LINE
  5
43C
100
AcDbEntity
  8
0
100
AcDbLine
 62
7
  6
CONTINUOUS
 10
252.8901211919
 20
172.1462398068
 11
252.8901211919
 21
171.4619778068
  0
LWPOLYLINE
  5
43D
100
AcDbEntity
  8
RACCORDO
100
AcDbPolyline
 62
250
  6
CONTINUOUS
 90
10
 70
0
 10
263.7048441788
 20
184.4890770621
 10
263.68780036
 20
184.4805527358
 10
263.6726857689
 20
184.4721231203
 10
263.6595241394
 20
184.4638014503
 10
263.6483361386
 20
184.455600791
 10
263.6391393345
 20
184.4475340178
 10
263.6319481687
 20
184.4396137956
 10
263.6267739332
 20
184.4318525593
 10
263.6236247529
 20
184.4242624943
 10
263.6225055731
 20
184.4168555171
  0
LWPOLYLINE
  5
43E
100
AcDbEntity
  8
RACCORDO
100
AcDbPolyline
 62
250
  6
CONTINUOUS
 90
13
 70
0
 10
224.4705483933
 20
191.3136469197
 10
224.4355544324
 20
191.3175275552
 10
224.4024258485
 20
191.3206647918
 10
224.3711583329
 20
191.3230194568
 10
224.3417120193
 20
191.3245089201
 10
224.3141092269
 20
191.3251446419
 10
224.2884379646
 20
191.3250305436
 10
224.2646829552
 20
191.3241335612
 10
224.2428334987
 20
191.3224252973
 10
224.2229852987
 20
191.3200174827
 10
224.2051582653
 20
191.3169300232
 10
224.1892948903
 20
191.3130919442
 10
224.1753727256
 20
191.3084807448
  0
LWPOLYLINE
  5
43F
100
AcDbEntity
  8
RACCORDO
100
AcDbPolyline
 62
250
  6
CONTINUOUS
 90
10
 70
0
 10
263.7048550087
 20
180.8348508968
 10
263.6878100359
 20
180.8433778715
 10
263.6726942626
 20
180.8518101935
 10
263.6595314242
 20
180.8601346211
 10
263.6483421893
 20
180.8683380817
 10
263.6391441274
 20
180.8764076928
 10
263.6319516815
 20
180.8843307821
 10
263.6267761453
 20
180.8920949072
 10
263.6236256456
 20
180.8996878755
 10
263.6225051292
 20
180.9070977631
  0
LWPOLYLINE
  5
440
100
AcDbEntity
  8
0
100
AcDbPolyline
 62
7
  6
CONTINUOUS
 90
13
 70
0
 10
244.5843600354
 20
190.4335558053
 10
244.5334223357
 20
190.4672266319
 10
244.485512584
 20
190.5003928088
 10
244.4405613495
 20
190.5329108387
 10
244.3982081076
 20
190.564864007
 10
244.3586802094
 20
190.5959158618
 10
244.3227547816
 20
190.6252597839
 10
244.2902337309
 20
190.6528310914
 10
244.2611168839
 20
190.6784069494
 10
244.236409489
 20
190.7008730111
 10
244.2163541075
 20
190.7197496514
 10
244.2004769957
 20
190.7352427606
 10
244.1886914636
 20
190.747256874
  0
LWPOLYLINE
  5
441
100
AcDbEntity
  8
RACCORDO
100
AcDbPolyline
 62
250
  6
CONTINUOUS
 90
25
 70
0
 10
266.4912065514
 20
174.6517718754
 10
266.2322061138
 20
174.8397808377
 10
265.9924360582
 20
175.0414772381
 10
265.7707893445
 20
175.2560207316
 10
265.5661988871
 20
175.4832469064
 10
265.3775974694
 20
175.7217765397
 10
265.2039784235
 20
175.969020924
 10
265.0443013377
 20
176.2243797216
 10
264.8978072091
 20
176.4872087902
 10
264.7639778614
 20
176.7549047336
 10
264.6419868761
 20
177.0268984764
 10
264.5309882883
 20
177.3027437475
 10
264.4304325688
 20
177.5800564371
 10
264.3397580994
 20
177.8577698918
 10
264.2580220722
 20
178.1361748944
 10
264.1842245447
 20
178.415000144
 10
264.1178781652
 20
178.6934883108
 10
264.0583838352
 20
178.9718930073
 10
264.0048218413
 20
179.2515556101
 10
263.956795404
 20
179.5323739814
 10
263.9140424865
 20
179.814143525
 10
263.876060844
 20
180.0981167266
 10
263.8425830198
 20
180.3846489276
 10
263.8135067793
 20
180.673184432
 10
263.7886788666
 20
180.9636367271
  0
LWPOLYLINE
  5
442
100
AcDbEntity
  8
RACCORDO
100
AcDbPolyline
 62
250
  6
CONTINUOUS
 90
28
 70
0
 10
266.1536460703
 20
174.0102561614
 10
265.9579238417
 20
174.1717300444
 10
265.7733440767
 20
174.3418044433
 10
265.5996310331
 20
174.5202087226
 10
265.4366918056
 20
174.7072199605
 10
265.2840343131
 20
174.9021051386
 10
265.1408174101
 20
175.1031599239
 10
265.0067651401
 20
175.3103582468
 10
264.8816318463
 20
175.5235132914
 10
264.7647182648
 20
175.7407884216
 10
264.6558702223
 20
175.9622235624
 10
264.5548198712
 20
176.1877706721
 10
264.4608190356
 20
176.4155582367
 10
264.3738130094
 20
176.6455870205
 10
264.2935630265
 20
176.8780137295
 10
264.2191717841
 20
177.1112689147
 10
264.1506057787
 20
177.3452616887
 10
264.0877246513
 20
177.5803444106
 10
264.0295693519
 20
177.8156363362
 10
263.9760600211
 20
178.0510190466
 10
263.92717008
 20
178.286909139
 10
263.8820656721
 20
178.5232125873
 10
263.8406075231
 20
178.7599227056
 10
263.8028288244
 20
178.9973381043
 10
263.7681526964
 20
179.235791247
 10
263.7363358484
 20
179.4754785344
 10
263.7074759891
 20
179.7164817978
 10
263.681495224
 20
179.9589488966
  0
LINE
  5
443
100
AcDbEntity
  8
0
100
AcDbLine
 62
250
  6
CONTINUOUS
 10
246.4355429202
 20
190.747256874
 11
246.836532759
 21
190.3147642929
  0
LWPOLYLINE
  5
444
100
AcDbEntity
  8
0
100
AcDbPolyline
 62
7
  6
CONTINUOUS
 90
10
 70
0
 10
246.7866753076
 20
194.0868765634
 10
246.8172869699
 20
194.03900482
 10
246.9169008963
 20
193.8647481655
 10
247.002804683
 20
193.6832641555
 10
247.0744389316
 20
193.4956333228
 10
247.1313906393
 20
193.3029681999
 10
247.1733155321
 20
193.1064189387
 10
247.1999404151
 20
192.9071585122
 10
247.2111293484
 20
192.7063637262
 10
247.2115080954
 20
192.6619778068
  0
LWPOLYLINE
  5
445
100
AcDbEntity
  8
0
100
AcDbPolyline
 62
7
  6
CONTINUOUS
 90
10
 70
0
 10
246.7868298166
 20
194.0869778068
 10
246.7675213496
 20
194.1215016023
 10
246.7473314055
 20
194.1560735041
 10
246.7262602144
 20
194.1906789491
 10
246.7043167134
 20
194.2252953551
 10
246.6814975267
 20
194.2599204446
 10
246.657785402
 20
194.2945714166
 10
246.6331779734
 20
194.3292481441
 10
246.6076892584
 20
194.3639344619
 10
246.5813275009
 20
194.3986258138
  0
LINE
  5
446
100
AcDbEntity
  8
0
100
AcDbLine
 62
7
  6
CONTINUOUS
 10
246.4829080794
 20
194.5464712318
 11
246.4465613427
 21
194.6121942121
  0
LWPOLYLINE
  5
447
100
AcDbEntity
  8
0
100
AcDbPolyline
 62
7
  6
CONTINUOUS
 90
11
 70
0
 10
246.4465613427
 20
194.6121942121
 10
246.4328571351
 20
194.6376606651
 10
246.4167184518
 20
194.6690138866
 10
246.3988503189
 20
194.7059822452
 10
246.3804290022
 20
194.7472439454
 10
246.3617678052
 20
194.7932609684
 10
246.3435014111
 20
194.8439071286
 10
246.3269258722
 20
194.8967652102
 10
246.3125138536
 20
194.9509642406
 10
246.3002624711
 20
195.007317356
 10
246.2904667634
 20
195.0657725399
  0
LINE
  5
448
100
AcDbEntity
  8
0
100
AcDbLine
 62
7
  6
CONTINUOUS
 10
253.1197201919
 20
171.4619778068
 11
253.1197201919
 21
172.1462398068
  0
LINE
  5
449
100
AcDbEntity
  8
ASSI
100
AcDbLine
 62
7
  6
CONTINUOUS
 10
254.3581851919
 20
191.5129718068
 11
254.3581851919
 21
191.1915448068
  0
LINE
  5
44A
100
AcDbEntity
  8
ASSI
100
AcDbLine
 62
7
  6
CONTINUOUS
 10
254.3686821919
 20
194.1197488068
 11
254.3686821919
 21
193.7965538068
  0
LINE
  5
44B
100
AcDbEntity
  8
ASSI
100
AcDbLine
 62
7
  6
CONTINUOUS
 10
254.6430391919
 20
193.7965538068
 11
254.6430391919
 21
192.9770188068
  0
LINE
  5
44C
100
AcDbEntity
  8
ASSI
100
AcDbLine
 62
7
  6
CONTINUOUS
 10
254.6430391919
 20
192.5786878068
 11
254.6430391919
 21
191.5129718068
  0
LINE
  5
44D
100
AcDbEntity
  8
0
100
AcDbLine
 62
7
  6
CONTINUOUS
 10
249.5894261919
 20
171.4619778068
 11
249.7670431919
 21
171.9567858068
  0
LINE
  5
44E
100
AcDbEntity
  8
0
100
AcDbLine
 62
7
  6
CONTINUOUS
 10
249.8380811919
 20
172.1604008068
 11
250.1128041919
 21
172.9153948068
  0
LINE
  5
44F
100
AcDbEntity
  8
0
100
AcDbLine
 62
7
  6
CONTINUOUS
 10
249.9920231919
 20
173.1619778068
 11
249.3526911919
 21
171.4619778068
  0
LINE
  5
450
100
AcDbEntity
  8
DRAFT
100
AcDbLine
 62
7
  6
CONTINUOUS
 10
247.1500891132
 20
166.5619778068
 11
247.0121171919
 21
166.2914243004
  0
LWPOLYLINE
  5
451
100
AcDbEntity
  8
RACCORDO
100
AcDbPolyline
 62
250
  6
CONTINUOUS
 90
6
 70
0
 10
245.7518418652
 20
166.2914243004
 10
245.7588806839
 20
166.3027687262
 10
245.7820196249
 20
166.3527839346
 10
245.7986935127
 20
166.4047936159
 10
245.808757139
 20
166.4581101368
 10
245.8121171919
 20
166.5119803412
  0
LINE
  5
452
100
AcDbEntity
  8
ASSI
100
AcDbLine
 62
7
  6
CONTINUOUS
 10
254.3581851919
 20
191.1915448068
 11
255.2702041919
 21
191.1915448068
  0
LINE
  5
453
100
AcDbEntity
  8
ASSI
100
AcDbLine
 62
7
  6
CONTINUOUS
 10
237.6060031919
 20
191.2873108068
 11
237.3470031919
 21
191.2873108068
  0
LINE
  5
454
100
AcDbEntity
  8
ASSI
100
AcDbLine
 62
7
  6
CONTINUOUS
 10
234.6830031919
 20
191.2873108068
 11
234.9420031919
 21
191.2873108068
  0
LINE
  5
455
100
AcDbEntity
  8
ASSI
100
AcDbLine
 62
7
  6
CONTINUOUS
 10
255.2702041919
 20
191.5129718068
 11
254.9854601919
 21
191.5129718068
  0
LINE
  5
456
100
AcDbEntity
  8
ASSI
100
AcDbLine
 62
7
  6
CONTINUOUS
 10
254.6430391919
 20
191.5129718068
 11
254.3581851919
 21
191.5129718068
  0
LINE
  5
457
100
AcDbEntity
  8
ASSI
100
AcDbLine
 62
7
  6
CONTINUOUS
 10
237.2366661919
 20
192.6193108068
 11
237.4765031919
 21
192.6193108068
  0
LINE
  5
458
100
AcDbEntity
  8
ASSI
100
AcDbLine
 62
7
  6
CONTINUOUS
 10
233.7363155992
 20
192.6195398068
 11
234.5500301919
 21
192.6195398068
  0
LWPOLYLINE
  5
459
100
AcDbEntity
  8
ASSI
100
AcDbPolyline
 62
7
  6
CONTINUOUS
 90
19
 70
0
 10
236.2297606246
 20
192.5807147754
 10
236.181433232
 20
192.5833281783
 10
236.1358320448
 20
192.5914465619
 10
236.092957063
 20
192.6050699262
 10
236.0525194576
 20
192.6243519412
 10
236.0148080577
 20
192.6491389369
 10
235.9806893502
 20
192.6789699032
 10
235.9505088881
 20
192.7140415198
 10
235.9239211185
 20
192.754157107
 10
235.9007558698
 20
192.7982656151
 10
235.8812451925
 20
192.846530884
 10
235.8651570361
 20
192.8987890738
 10
235.8516250783
 20
192.9534976155
 10
235.8405551057
 20
193.010244266
 10
235.8320413316
 20
193.0694412684
 10
235.8255000739
 20
193.1307827837
 10
235.8207367719
 20
193.1941668653
 10
235.8179459863
 20
193.2596954597
 10
235.8171277171
 20
193.3273685668
  0
LWPOLYLINE
  5
45A
100
AcDbEntity
  8
ASSI
100
AcDbPolyline
 62
7
  6
CONTINUOUS
 90
13
 70
0
 10
235.1744343161
 20
192.8098126727
 10
235.1504963721
 20
192.8114629486
 10
235.1282204308
 20
192.8161144678
 10
235.107606492
 20
192.8237672301
 10
235.0884784336
 20
192.8345546127
 10
235.0710123778
 20
192.8483432385
 10
235.0557366915
 20
192.8647329765
 10
235.0429353142
 20
192.883915883
 10
235.0323243065
 20
192.9056999018
 10
235.0235802166
 20
192.9291087335
 10
235.0165952273
 20
192.953816945
 10
235.0114771558
 20
192.9801499694
 10
235.0082260022
 20
193.0081078068
  0
LWPOLYLINE
  5
45B
100
AcDbEntity
  8
ASSI
100
AcDbPolyline
 62
7
  6
CONTINUOUS
 90
22
 70
0
 10
236.2297606246
 20
192.8098126727
 10
236.2014788238
 20
192.8130619282
 10
236.1765389028
 20
192.820251326
 10
236.1549408617
 20
192.831380866
 10
236.1370447352
 20
192.8472938905
 10
236.1224904887
 20
192.8671470573
 10
236.1101980177
 20
192.8884103397
 10
236.1001904564
 20
192.9103396205
 10
236.0924446706
 20
192.933679017
 10
236.085811154
 20
192.9581308545
 10
236.0800307889
 20
192.9836253131
 10
236.0753626931
 20
193.0102322127
 10
236.0714347134
 20
193.0378633379
 10
236.0682306651
 20
193.0665623942
 10
236.0657667331
 20
193.096285676
 10
236.0637193188
 20
193.1268138519
 10
236.0620100059
 20
193.15803968
 10
236.0607172108
 20
193.190070402
 10
236.0597525841
 20
193.2230084123
 10
236.059086676
 20
193.2568878423
 10
236.0587489364
 20
193.2916745604
 10
236.0586673513
 20
193.3633559365
  0
LINE
  5
45C
100
AcDbEntity
  8
0
100
AcDbLine
 62
250
  6
CONTINUOUS
 10
244.158088027
 20
194.5766987395
 11
243.637750441
 21
194.9044498957
  0
LINE
  5
45D
100
AcDbEntity
  8
0
100
AcDbLine
 62
7
  6
CONTINUOUS
 10
247.2734630161
 20
190.9181070276
 11
247.4219433195
 21
190.8230064628
  0
LINE
  5
45E
100
AcDbEntity
  8
0
100
AcDbLine
 62
7
  6
CONTINUOUS
 10
243.3466273083
 20
194.4085640182
 11
243.2024435794
 21
194.5011177502
  0
LINE
  5
45F
100
AcDbEntity
  8
0
100
AcDbLine
 62
7
  6
CONTINUOUS
 10
247.2734630161
 20
190.9181070276
 11
246.7865866056
 21
191.237137173
  0
LINE
  5
460
100
AcDbEntity
  8
0
100
AcDbLine
 62
7
  6
CONTINUOUS
 10
243.3466273083
 20
194.4085640182
 11
243.8375590762
 21
194.0868765634
  0
LINE
  5
461
100
AcDbEntity
  8
0
100
AcDbLine
 62
7
  6
CONTINUOUS
 10
244.042906883
 20
194.3986258138
 11
243.5483158826
 21
194.8348059628
  0
LWPOLYLINE
  5
462
100
AcDbEntity
  8
0
100
AcDbPolyline
 62
7
  6
CONTINUOUS
 90
6
 70
0
 10
246.5813275009
 20
194.3986258138
 10
246.5596164238
 20
194.4276173454
 10
246.5389421115
 20
194.4569429452
 10
246.5192817705
 20
194.4865554089
 10
246.5006117912
 20
194.5164113928
 10
246.4829080794
 20
194.5464712318
  0
LWPOLYLINE
  5
463
100
AcDbEntity
  8
0
100
AcDbPolyline
 62
7
  6
CONTINUOUS
 90
4
 70
0
 10
247.2920822894
 20
194.6024733095
 10
247.2634472765
 20
194.6461686892
 10
247.2338617611
 20
194.6896692467
 10
247.2196013192
 20
194.7098945263
  0
LWPOLYLINE
  5
464
100
AcDbEntity
  8
0
100
AcDbPolyline
 62
7
  6
CONTINUOUS
 90
3
 70
0
 10
247.3464354066
 20
194.5145898812
 10
247.3197540038
 20
194.5585997463
 10
247.2920822894
 20
194.6024733095
  0
LINE
  5
465
100
AcDbEntity
  8
0
100
AcDbLine
 62
7
  6
CONTINUOUS
 10
247.3721118612
 20
194.4704747077
 11
247.3464354066
 21
194.5145898812
  0
LINE
  5
466
100
AcDbEntity
  8
DRAFT
100
AcDbLine
 62
7
  6
CONTINUOUS
 10
247.1500891132
 20
198.7619778068
 11
247.0121171919
 21
199.0325313132
  0
LINE
  5
467
100
AcDbEntity
  8
ASSI
100
AcDbLine
 62
7
  6
CONTINUOUS
 10
254.9854601919
 20
191.5129718068
 11
254.9854601919
 21
192.5822818068
  0
LINE
  5
468
100
AcDbEntity
  8
ASSI
100
AcDbLine
 62
7
  6
CONTINUOUS
 10
254.9854601919
 20
192.9770188068
 11
254.9854601919
 21
193.7965538068
  0
LINE
  5
469
100
AcDbEntity
  8
ASSI
100
AcDbLine
 62
7
  6
CONTINUOUS
 10
255.2597071919
 20
193.7965538068
 11
255.2597071919
 21
194.1197488068
  0
LINE
  5
46A
100
AcDbEntity
  8
ASSI
100
AcDbLine
 62
7
  6
CONTINUOUS
 10
255.2702041919
 20
191.1915448068
 11
255.2702041919
 21
191.5129718068
  0
LINE
  5
46B
100
AcDbEntity
  8
RACCORDO
100
AcDbLine
 62
7
  6
CONTINUOUS
 10
247.1546796377
 20
164.6404644018
 11
247.0121171919
 21
164.3737631495
  0
LWPOLYLINE
  5
46C
100
AcDbEntity
  8
ASSI
100
AcDbPolyline
 62
7
  6
CONTINUOUS
 90
16
 70
0
 10
234.1489484899
 20
193.8311272486
 10
234.1253273663
 20
193.8299711187
 10
234.1031485976
 20
193.8258278215
 10
234.0824121838
 20
193.8186973571
 10
234.062808498
 20
193.8084179565
 10
234.0446471671
 20
193.7951513887
 10
234.0288570718
 20
193.7793829602
 10
234.0158948225
 20
193.7609364028
 10
234.0053038087
 20
193.7399879847
 10
233.9966430799
 20
193.717551818
 10
233.9900147793
 20
193.6937810328
 10
233.9853167638
 20
193.6685224989
 10
233.9818016536
 20
193.6423309372
 10
233.979220322
 20
193.6153912548
 10
233.9778218957
 20
193.5875185447
 10
233.9776063747
 20
193.5587128068
  0
LWPOLYLINE
  5
46D
100
AcDbEntity
  8
ASSI
100
AcDbPolyline
 62
7
  6
CONTINUOUS
 90
16
 70
0
 10
235.1609579692
 20
192.5807147754
 10
235.2064049122
 20
192.5818834208
 10
235.2501445715
 20
192.5876572438
 10
235.292176947
 20
192.5980362443
 10
235.3325567729
 20
192.6127890881
 10
235.371229315
 20
192.6321471095
 10
235.4080303715
 20
192.6568043112
 10
235.4436241864
 20
192.6870159008
 10
235.4773465157
 20
192.7225266706
 10
235.5070404255
 20
192.7632650007
 10
235.5320790786
 20
192.8097584468
 10
235.5530893122
 20
192.8614794533
 10
235.5697947032
 20
192.9167737325
 10
235.5821031104
 20
192.9750898554
 10
235.5901066751
 20
193.0369792512
 10
235.593805397
 20
193.1024419197
  0
LWPOLYLINE
  5
46E
100
AcDbEntity
  8
ASSI
100
AcDbPolyline
 62
7
  6
CONTINUOUS
 90
10
 70
0
 10
235.2331526847
 20
193.5712262727
 10
235.2061803138
 20
193.5706207028
 10
235.1800998116
 20
193.5680095643
 10
235.1549111782
 20
193.5633928573
 10
235.1307155776
 20
193.556853726
 10
235.1074118457
 20
193.5483090261
 10
235.0846964902
 20
193.5375093253
 10
235.0624683468
 20
193.5243714794
 10
235.0408285797
 20
193.5089786326
 10
235.019777189
 20
193.4913307849
  0
LINE
  5
46F
100
AcDbEntity
  8
0
100
AcDbLine
 62
250
  6
CONTINUOUS
 10
242.5121171919
 20
192.6619778115
 11
243.412726355
 21
192.6619778068
  0
LINE
  5
470
100
AcDbEntity
  8
0
100
AcDbLine
 62
250
  6
CONTINUOUS
 10
247.2115080289
 20
192.6619778068
 11
248.1121171919
 21
192.6619778115
  0
LINE
  5
471
100
AcDbEntity
  8
ASSI
100
AcDbLine
 62
7
  6
CONTINUOUS
 10
234.5500301919
 20
192.8733438068
 11
234.0310636217
 21
192.8733438068
  0
LINE
  5
472
100
AcDbEntity
  8
ASSI
100
AcDbLine
 62
7
  6
CONTINUOUS
 10
235.0082260022
 20
193.0081078068
 11
234.773352534
 21
193.0081078068
  0
LINE
  5
473
100
AcDbEntity
  8
ASSI
100
AcDbLine
 62
7
  6
CONTINUOUS
 10
233.749471079
 20
193.5587128068
 11
233.9776063747
 21
193.5587128068
  0
LINE
  5
474
100
AcDbEntity
  8
ASSI
100
AcDbLine
 62
7
  6
CONTINUOUS
 10
254.3686821919
 20
193.7965538068
 11
254.6430391919
 21
193.7965538068
  0
LINE
  5
475
100
AcDbEntity
  8
ASSI
100
AcDbLine
 62
7
  6
CONTINUOUS
 10
254.9854601919
 20
193.7965538068
 11
255.2597071919
 21
193.7965538068
  0
LINE
  5
476
100
AcDbEntity
  8
ASSI
100
AcDbLine
 62
7
  6
CONTINUOUS
 10
235.0618101919
 20
193.8064208068
 11
235.5469591919
 21
193.8064208068
  0
LINE
  5
477
100
AcDbEntity
  8
ASSI
100
AcDbLine
 62
7
  6
CONTINUOUS
 10
235.5469591919
 20
194.0477118068
 11
234.8923931919
 21
194.0477118068
  0
LINE
  5
478
100
AcDbEntity
  8
ASSI
100
AcDbLine
 62
7
  6
CONTINUOUS
 10
237.8860681919
 20
194.0887818068
 11
237.6242391919
 21
194.0887818068
  0
LINE
  5
479
100
AcDbEntity
  8
ASSI
100
AcDbLine
 62
7
  6
CONTINUOUS
 10
237.1005831919
 20
194.0887818068
 11
236.8304841919
 21
194.0887818068
  0
LINE
  5
47A
100
AcDbEntity
  8
ASSI
100
AcDbLine
 62
7
  6
CONTINUOUS
 10
255.2597071919
 20
194.1197488068
 11
254.3686821919
 21
194.1197488068
  0
LWPOLYLINE
  5
47B
100
AcDbEntity
  8
ASSI
100
AcDbPolyline
 62
7
  6
CONTINUOUS
 90
16
 70
0
 10
235.1731508545
 20
193.34180751
 10
235.195857397
 20
193.3405298618
 10
235.2171628681
 20
193.3364641204
 10
235.2370672678
 20
193.329610286
 10
235.2556802062
 20
193.3197796629
 10
235.2728920732
 20
193.3071609467
 10
235.2883740383
 20
193.2923202239
 10
235.3019933966
 20
193.2752323428
 10
235.313882853
 20
193.2559224552
 10
235.3241116924
 20
193.2350321031
 10
235.3326495499
 20
193.2126224224
 10
235.3395267904
 20
193.1886322772
 10
235.3449037927
 20
193.1635198024
 10
235.3488340163
 20
193.1374377093
 10
235.3512640018
 20
193.1102332865
 10
235.352193749
 20
193.081906534
  0
LINE
  5
47C
100
AcDbEntity
  8
ASSI
100
AcDbLine
 62
7
  6
CONTINUOUS
 10
234.8102521919
 20
193.2497188068
 11
235.0197769661
 21
193.2375258199
  0
LWPOLYLINE
  5
47D
100
AcDbEntity
  8
ASSI
100
AcDbPolyline
 62
7
  6
CONTINUOUS
 90
16
 70
0
 10
234.1390016625
 20
194.0724180313
 10
234.1866322418
 20
194.0696063727
 10
234.2315747817
 20
194.0626622628
 10
234.273829282
 20
194.0515857018
 10
234.3134225714
 20
194.0363101046
 10
234.3503278213
 20
194.0169020561
 10
234.3844645457
 20
193.9935613113
 10
234.4159262743
 20
193.9663562363
 10
234.4446194773
 20
193.935218465
 10
234.4701830798
 20
193.9001426534
 10
234.4928187613
 20
193.8608587246
 10
234.5123248422
 20
193.8176367557
 10
234.5277352094
 20
193.7712816337
 10
234.5387278252
 20
193.7220616543
 10
234.5456247274
 20
193.669708522
 10
234.548425916
 20
193.6142222366
  0
LWPOLYLINE
  5
47E
100
AcDbEntity
  8
ASSI
100
AcDbPolyline
 62
7
  6
CONTINUOUS
 90
22
 70
0
 10
236.2297606246
 20
193.8433201339
 10
236.2546837328
 20
193.8417134555
 10
236.2774076272
 20
193.8360530141
 10
236.2979323079
 20
193.8263388097
 10
236.3163425934
 20
193.8118641449
 10
236.3325536652
 20
193.7933357171
 10
236.346311067
 20
193.7728736183
 10
236.3571492102
 20
193.7509312679
 10
236.3655336834
 20
193.7270552465
 10
236.3726067963
 20
193.7020053889
 10
236.3785500273
 20
193.6759590071
 10
236.383181898
 20
193.6487387892
 10
236.3871002832
 20
193.6205726334
 10
236.3904015601
 20
193.5915018245
 10
236.3929893514
 20
193.5614850778
 10
236.3951724001
 20
193.5306264375
 10
236.39702717
 20
193.4989840794
 10
236.3984771974
 20
193.4664998278
 10
236.3996018338
 20
193.433103199
 10
236.40042753
 20
193.3987706987
 10
236.4009278352
 20
193.3635258213
 10
236.4011027495
 20
193.3273685668
  0
LWPOLYLINE
  5
47F
100
AcDbEntity
  8
ASSI
100
AcDbPolyline
 62
7
  6
CONTINUOUS
 90
19
 70
0
 10
236.2297606246
 20
194.0724180313
 10
236.2784390307
 20
194.0692777159
 10
236.3242097572
 20
194.060911056
 10
236.3670728042
 20
194.0473180517
 10
236.4071811259
 20
194.0284681249
 10
236.444381768
 20
194.0043918537
 10
236.4782158681
 20
193.9751809719
 10
236.5085558343
 20
193.9404900633
 10
236.5355292584
 20
193.9006645442
 10
236.5590600542
 20
193.8568323972
 10
236.5788805812
 20
193.8088920039
 10
236.5952584798
 20
193.7569449827
 10
236.6089205844
 20
193.7024241716
 10
236.6198351292
 20
193.6456866954
 10
236.6280338801
 20
193.5863754293
 10
236.6343389691
 20
193.524851837
 10
236.6390244404
 20
193.4612364065
 10
236.6418162499
 20
193.3954086497
 10
236.6427143976
 20
193.3273685668
  0
LINE
  5
480
100
AcDbEntity
  8
RACCORDO
100
AcDbLine
 62
7
  6
CONTINUOUS
 10
247.0121171919
 20
200.950192464
 11
247.1546796377
 21
200.6834912118
  0
LINE
  5
481
100
AcDbEntity
  8
DRAFT
100
AcDbLine
 62
7
  6
CONTINUOUS
 10
257.2121171919
 20
182.1962837317
 11
257.2121171919
 21
183.1276718819
  0
LINE
  5
482
100
AcDbEntity
  8
0
100
AcDbLine
 62
7
  6
CONTINUOUS
 10
253.4914791919
 20
173.1619778068
 11
253.0038211919
 21
172.3450428068
  0
LINE
  5
483
100
AcDbEntity
  8
0
100
AcDbLine
 62
7
  6
CONTINUOUS
 10
253.1197201919
 20
172.1462398068
 11
253.7615001919
 21
173.1619778068
  0
LWPOLYLINE
  5
484
100
AcDbEntity
  8
RACCORDO
100
AcDbPolyline
 62
250
  6
CONTINUOUS
 90
10
 70
0
 10
224.0760292574
 20
190.8241159594
 10
224.0499243979
 20
190.8180165459
 10
224.0263486798
 20
190.8113348847
 10
224.0053446338
 20
190.8039521124
 10
223.9868901557
 20
190.7955985559
 10
223.9710888975
 20
190.786300185
 10
223.9581101947
 20
190.776417315
 10
223.9479626895
 20
190.76603653
 10
223.940554575
 20
190.7549323548
 10
223.9358423608
 20
190.7430403485
  0
LINE
  5
485
100
AcDbEntity
  8
0
100
AcDbLine
 62
250
  6
CONTINUOUS
 10
246.2904667634
 20
195.0657725399
 11
246.6543987586
 21
195.1175968355
  0
LINE
  5
486
100
AcDbEntity
  8
0
100
AcDbLine
 62
250
  6
CONTINUOUS
 10
244.3337676204
 20
195.0657725399
 11
243.9698516094
 21
195.1175945594
  0
LINE
  5
487
100
AcDbEntity
  8
ASSI
100
AcDbLine
 62
7
  6
CONTINUOUS
 10
253.7787611919
 20
193.3070208068
 11
254.6430391919
 21
192.5786878068
  0
LINE
  5
488
100
AcDbEntity
  8
ASSI
100
AcDbLine
 62
7
  6
CONTINUOUS
 10
255.4083381919
 20
191.5997038068
 11
255.5562951919
 21
191.3360918068
  0
LINE
  5
489
100
AcDbEntity
  8
RACCORDO
100
AcDbLine
 62
250
  6
CONTINUOUS
 10
260.3287738661
 20
174.4503923268
 11
260.3287738661
 21
180.6597174606
  0
LINE
  5
48A
100
AcDbEntity
  8
RACCORDO
100
AcDbLine
 62
250
  6
CONTINUOUS
 10
260.3287738661
 20
184.6642381529
 11
260.3287738661
 21
190.8735874373
  0
LWPOLYLINE
  5
48B
100
AcDbEntity
  8
RACCORDO
100
AcDbPolyline
 62
250
  6
CONTINUOUS
 90
7
 70
0
 10
263.704853015
 20
180.8348639455
 10
263.7280141087
 20
180.856313894
 10
263.7475648724
 20
180.87785271
 10
263.7634480438
 20
180.8994174072
 10
263.7756170829
 20
180.920944921
 10
263.7840363092
 20
180.9423722929
 10
263.7886810063
 20
180.9636368543
  0
LINE
  5
48C
100
AcDbEntity
  8
0
100
AcDbLine
 62
7
  6
CONTINUOUS
 10
247.1458653522
 20
197.9507645123
 11
247.2054237924
 21
197.9537483253
  0
LINE
  5
48D
100
AcDbEntity
  8
0
100
AcDbLine
 62
7
  6
CONTINUOUS
 10
247.0867766903
 20
197.9481237845
 11
247.1458653522
 21
197.9507645123
  0
LWPOLYLINE
  5
48E
100
AcDbEntity
  8
0
100
AcDbPolyline
 62
7
  6
CONTINUOUS
 90
3
 70
0
 10
246.9698847755
 20
197.9451646648
 10
247.028102545
 20
197.94615237
 10
247.0867766903
 20
197.9481237845
  0
LINE
  5
48F
100
AcDbEntity
  8
0
100
AcDbLine
 62
7
  6
CONTINUOUS
 10
243.7121171919
 20
197.9454567901
 11
243.6325563133
 21
197.9451668902
  0
LINE
  5
490
100
AcDbEntity
  8
0
100
AcDbLine
 62
7
  6
CONTINUOUS
 10
243.7121171919
 20
197.1119778068
 11
246.9121171919
 21
197.1119778068
  0
LINE
  5
491
100
AcDbEntity
  8
DRAFT
100
AcDbLine
 62
7
  6
CONTINUOUS
 10
243.4607931492
 20
197.1619778068
 11
247.1634412346
 21
197.1619778068
  0
LINE
  5
492
100
AcDbEntity
  8
0
100
AcDbLine
 62
7
  6
CONTINUOUS
 10
243.7121171919
 20
197.7369360104
 11
246.9121171919
 21
197.7369360104
  0
LINE
  5
493
100
AcDbEntity
  8
RACCORDO
100
AcDbLine
 62
7
  6
CONTINUOUS
 10
247.1461904227
 20
197.9869778068
 11
247.1500891132
 21
197.9869778068
  0
LINE
  5
494
100
AcDbEntity
  8
0
100
AcDbLine
 62
7
  6
CONTINUOUS
 10
246.9121171919
 20
197.9454567901
 11
246.9698847755
 21
197.9451646648
  0
LINE
  5
495
100
AcDbEntity
  8
0
100
AcDbLine
 62
7
  6
CONTINUOUS
 10
243.6325563133
 20
197.9451668902
 11
243.5524373226
 21
197.9461650525
  0
LINE
  5
496
100
AcDbEntity
  8
0
100
AcDbLine
 62
7
  6
CONTINUOUS
 10
243.5524373226
 20
197.9461650525
 11
243.4717555787
 21
197.9481486069
  0
LWPOLYLINE
  5
497
100
AcDbEntity
  8
RACCORDO
100
AcDbPolyline
 62
250
  6
CONTINUOUS
 90
13
 70
0
 10
266.4488686724
 20
191.308470298
 10
266.4349415344
 20
191.313084362
 10
266.4190740614
 20
191.3169241804
 10
266.4012441036
 20
191.3200124762
 10
266.3813948997
 20
191.3224202892
 10
266.3595462789
 20
191.3241280965
 10
266.3357927599
 20
191.3250246928
 10
266.3101236584
 20
191.3251385104
 10
266.2825237998
 20
191.3245026267
 10
266.2530796649
 20
191.323013327
 10
266.2218128519
 20
191.3206591005
 10
266.1886838336
 20
191.3175224122
 10
266.1536881368
 20
191.3136423533
  0
LINE
  5
498
100
AcDbEntity
  8
ASSI
100
AcDbLine
 62
7
  6
CONTINUOUS
 10
254.6430391919
 20
192.9770188068
 11
253.7388681919
 21
193.7389698068
  0
LWPOLYLINE
  5
499
100
AcDbEntity
  8
RACCORDO
100
AcDbPolyline
 62
250
  6
CONTINUOUS
 90
7
 70
0
 10
263.7048445237
 20
184.4890898991
 10
263.7280062287
 20
184.467640516
 10
263.7475578987
 20
184.4461021763
 10
263.7634422222
 20
184.424537855
 10
263.7756126081
 20
184.4030106069
 10
263.7840333222
 20
184.3815833823
 10
263.7886795938
 20
184.3603188432
  0
LINE
  5
49A
100
AcDbEntity
  8
RACCORDO
100
AcDbLine
 62
250
  6
CONTINUOUS
 10
261.3286992358
 20
174.1978731377
 11
261.3286992358
 21
180.6536833626
  0
LINE
  5
49B
100
AcDbEntity
  8
RACCORDO
100
AcDbLine
 62
250
  6
CONTINUOUS
 10
261.3286992358
 20
184.670272251
 11
261.3286992358
 21
191.1260824759
  0
LINE
  5
49C
100
AcDbEntity
  8
DRAFT
100
AcDbLine
 62
7
  6
CONTINUOUS
 10
261.5121171919
 20
191.2835772259
 11
261.5121171919
 21
184.7619778068
  0
LINE
  5
49D
100
AcDbEntity
  8
DRAFT
100
AcDbLine
 62
7
  6
CONTINUOUS
 10
261.5121171919
 20
180.5619778068
 11
261.5121171919
 21
174.0403783877
  0
LWPOLYLINE
  5
49E
100
AcDbEntity
  8
RACCORDO
100
AcDbPolyline
 62
250
  6
CONTINUOUS
 90
7
 70
0
 10
266.4912246549
 20
190.67217465
 10
266.5021379633
 20
190.6973271014
 10
266.5124838001
 20
190.722562028
 10
266.5222623966
 20
190.7478690014
 10
266.5314743053
 20
190.7732376879
 10
266.5401203939
 20
190.7986578539
 10
266.5482018377
 20
190.8241193705
  0
LWPOLYLINE
  5
49F
100
AcDbEntity
  8
0
100
AcDbPolyline
 62
7
  6
CONTINUOUS
 90
5
 70
0
 10
246.9121171919
 20
198.6338920784
 10
246.9749570722
 20
198.6361674319
 10
247.0369915822
 20
198.6395555503
 10
247.0982298946
 20
198.643626708
 10
247.1500891132
 20
198.6473621639
  0
LINE
  5
4A0
100
AcDbEntity
  8
0
100
AcDbLine
 62
250
  6
CONTINUOUS
 10
243.7121171919
 20
198.4797334441
 11
246.9121171919
 21
198.4797334441
  0
LINE
  5
4A1
100
AcDbEntity
  8
0
100
AcDbLine
 62
7
  6
CONTINUOUS
 10
243.4674264008
 20
198.6619778068
 11
247.1471991719
 21
198.6619778068
  0
LINE
  5
4A2
100
AcDbEntity
  8
DRAFT
100
AcDbLine
 62
7
  6
CONTINUOUS
 10
247.0121171919
 20
199.0325313132
 11
243.6121171919
 21
199.0325313132
  0
LWPOLYLINE
  5
4A3
100
AcDbEntity
  8
0
100
AcDbPolyline
 62
7
  6
CONTINUOUS
 90
4
 70
0
 10
243.7121171919
 20
198.6338920784
 10
243.6264783473
 20
198.6361483831
 10
243.5417819039
 20
198.6395120064
 10
243.4741452707
 20
198.6427838106
  0
LWPOLYLINE
  5
4A4
100
AcDbEntity
  8
RACCORDO
100
AcDbPolyline
 62
250
  6
CONTINUOUS
 90
7
 70
0
 10
263.6225053851
 20
184.4168554991
 10
263.6067126158
 20
184.5712110348
 10
263.5896886565
 20
184.7253564153
 10
263.5714364987
 20
184.8792824532
 10
263.5519591955
 20
185.0329799998
 10
263.5312598611
 20
185.1864399452
 10
263.5093416701
 20
185.3396532189
  0
LWPOLYLINE
  5
4A5
100
AcDbEntity
  8
RACCORDO
100
AcDbPolyline
 62
250
  6
CONTINUOUS
 90
10
 70
0
 10
263.7886788666
 20
180.9636367271
 10
263.7754555194
 20
181.1402579249
 10
263.763263518
 20
181.3189028292
 10
263.7521513694
 20
181.4995668402
 10
263.7421660806
 20
181.6821642602
 10
263.7333593097
 20
181.8667693576
 10
263.725790072
 20
182.0536161917
 10
263.7195152438
 20
182.2427771735
 10
263.7145868346
 20
182.434163177
 10
263.7110600322
 20
182.6277645019
  0
LINE
  5
4A6
100
AcDbEntity
  8
RACCORDO
100
AcDbLine
 62
250
  6
CONTINUOUS
 10
263.6907928448
 20
185.0783946541
 11
263.6814965738
 21
185.3650145515
  0
LINE
  5
4A7
100
AcDbEntity
  8
RACCORDO
100
AcDbLine
 62
250
  6
CONTINUOUS
 10
263.6985121894
 20
184.7861601649
 11
263.6907928448
 21
185.0783946541
  0
LINE
  5
4A8
100
AcDbEntity
  8
RACCORDO
100
AcDbLine
 62
250
  6
CONTINUOUS
 10
263.7048445237
 20
184.4890898991
 11
263.6985121894
 21
184.7861601649
  0
LINE
  5
4A9
100
AcDbEntity
  8
RACCORDO
100
AcDbLine
 62
250
  6
CONTINUOUS
 10
263.7095829503
 20
183.9809756671
 11
263.7048527968
 21
184.4890916212
  0
LWPOLYLINE
  5
4AA
100
AcDbEntity
  8
RACCORDO
100
AcDbPolyline
 62
250
  6
CONTINUOUS
 90
13
 70
0
 10
263.7103150466
 20
182.6924761793
 10
263.7094455314
 20
182.8139047511
 10
263.7077024804
 20
182.9394393221
 10
263.7050017339
 20
183.0690726526
 10
263.7012562609
 20
183.2028068586
 10
263.696376549
 20
183.3406215144
 10
263.6902714174
 20
183.4824735707
 10
263.6828467212
 20
183.6283625405
 10
263.6740056849
 20
183.778261721
 10
263.6636517249
 20
183.9320863512
 10
263.6516859677
 20
184.0897956497
 10
263.6380054139
 20
184.2513926557
 10
263.6225053851
 20
184.4168554991
  0
LINE
  5
4AB
100
AcDbEntity
  8
RACCORDO
100
AcDbLine
 62
250
  6
CONTINUOUS
 10
263.7122485004
 20
183.3661872168
 11
263.7095829503
 21
183.9809756671
  0
LINE
  5
4AC
100
AcDbEntity
  8
RACCORDO
100
AcDbLine
 62
250
  6
CONTINUOUS
 10
263.7123638927
 20
182.1028344321
 11
263.7110600424
 21
182.6961881751
  0
LINE
  5
4AD
100
AcDbEntity
  8
RACCORDO
100
AcDbLine
 62
250
  6
CONTINUOUS
 10
263.7114003495
 20
181.6619183877
 11
263.7123638927
 21
182.1028344321
  0
LWPOLYLINE
  5
4AE
100
AcDbEntity
  8
RACCORDO
100
AcDbPolyline
 62
250
  6
CONTINUOUS
 90
3
 70
0
 10
263.7110606968
 20
182.6961937699
 10
263.7116143775
 20
182.8215251207
 10
263.7122485004
 20
183.3661872168
  0
LINE
  5
4AF
100
AcDbEntity
  8
RACCORDO
100
AcDbLine
 62
250
  6
CONTINUOUS
 10
263.7083038128
 20
181.1795883762
 11
263.7114003495
 21
181.6619183877
  0
LINE
  5
4B0
100
AcDbEntity
  8
RACCORDO
100
AcDbLine
 62
250
  6
CONTINUOUS
 10
263.704853015
 20
180.8348639455
 11
263.7083038128
 21
181.1795883762
  0
LWPOLYLINE
  5
4B1
100
AcDbEntity
  8
RACCORDO
100
AcDbPolyline
 62
250
  6
CONTINUOUS
 90
10
 70
0
 10
263.7110600424
 20
182.6961881751
 10
263.7145867291
 20
182.8897858724
 10
263.7195151712
 20
183.0811752469
 10
263.7257903395
 20
183.2703465919
 10
263.7333607298
 20
183.4572187775
 10
263.7421693821
 20
183.6418561919
 10
263.7521560259
 20
183.8244688881
 10
263.7632681094
 20
184.0051231641
 10
263.7754586751
 20
184.1837413525
 10
263.7886788666
 20
184.3603188864
  0
LINE
  5
4B2
100
AcDbEntity
  8
RACCORDO
100
AcDbLine
 62
250
  6
CONTINUOUS
 10
263.6985121942
 20
180.5377714111
 11
263.70484417
 21
180.8348660202
  0
LINE
  5
4B3
100
AcDbEntity
  8
RACCORDO
100
AcDbLine
 62
250
  6
CONTINUOUS
 10
263.690793055
 20
180.2455315198
 11
263.6985121942
 21
180.5377714111
  0
LINE
  5
4B4
100
AcDbEntity
  8
RACCORDO
100
AcDbLine
 62
250
  6
CONTINUOUS
 10
263.6814963625
 20
179.958936412
 11
263.690793055
 21
180.2455315198
  0
LWPOLYLINE
  5
4B5
100
AcDbEntity
  8
RACCORDO
100
AcDbPolyline
 62
250
  6
CONTINUOUS
 90
25
 70
0
 10
263.7886788666
 20
184.3603188864
 10
263.812888743
 20
184.6445597862
 10
263.8414588244
 20
184.929264489
 10
263.8746252341
 20
185.2143386636
 10
263.9125708669
 20
185.4993783381
 10
263.955658606
 20
185.7845624509
 10
264.0045030401
 20
186.0706366874
 10
264.0596350668
 20
186.3580530996
 10
264.1214209187
 20
186.6459916625
 10
264.1903457744
 20
186.9332403126
 10
264.2670080022
 20
187.2197411673
 10
264.3519152612
 20
187.5050197985
 10
264.4454345518
 20
187.787203101
 10
264.5480968335
 20
188.0657487836
 10
264.6605960794
 20
188.3404995139
 10
264.7835625943
 20
188.6101194404
 10
264.9176642896
 20
188.8741866989
 10
265.0636681878
 20
189.1322041272
 10
265.2224428944
 20
189.382655817
 10
265.3949364129
 20
189.6253031886
 10
265.5819115992
 20
189.8591943877
 10
265.7840482187
 20
190.0816866096
 10
266.0022090376
 20
190.2914391547
 10
266.2374291063
 20
190.4883964157
 10
266.4906959932
 20
190.6718013735
  0
LWPOLYLINE
  5
4B6
100
AcDbEntity
  8
RACCORDO
100
AcDbPolyline
 62
250
  6
CONTINUOUS
 90
13
 70
0
 10
263.6225051755
 20
180.9070977586
 10
263.638077174
 20
181.0733683953
 10
263.6518036453
 20
181.2356278793
 10
263.6637935783
 20
181.393853814
 10
263.6741540806
 20
181.5480494844
 10
263.6829879636
 20
181.698173092
 10
263.6903956346
 20
181.8441375883
 10
263.6964775587
 20
181.9859144191
 10
263.7013312136
 20
182.1235046367
 10
263.7050507536
 20
182.2568680846
 10
263.7077285405
 20
182.3859852996
 10
263.7094544047
 20
182.5108574285
 10
263.7103150384
 20
182.631477284
  0
LWPOLYLINE
  5
4B7
100
AcDbEntity
  8
RACCORDO
100
AcDbPolyline
 62
250
  6
CONTINUOUS
 90
28
 70
0
 10
263.6814965604
 20
185.3650020319
 10
263.7071607718
 20
185.6065739095
 10
263.7361225916
 20
185.8481662016
 10
263.768401381
 20
186.0899573303
 10
263.8038085039
 20
186.3324582718
 10
263.8425498271
 20
186.5755023037
 10
263.8852702586
 20
186.8182533543
 10
263.9320540102
 20
187.0610412562
 10
263.982895971
 20
187.3038724876
 10
264.0383998628
 20
187.545418531
 10
264.0987021672
 20
187.7858372943
 10
264.1638470984
 20
188.0252512468
 10
264.2344126616
 20
188.2622447879
 10
264.3105705017
 20
188.4968445686
 10
264.3924348319
 20
188.7292148114
 10
264.4806015408
 20
188.9580978128
 10
264.5752535854
 20
189.183480659
 10
264.6765786836
 20
189.4054571788
 10
264.7852658332
 20
189.622874937
 10
264.9015308459
 20
189.8357334654
 10
265.0255949891
 20
190.043985451
 10
265.1582314119
 20
190.2463424173
 10
265.2997322475
 20
190.4427724547
 10
265.4503022859
 20
190.633095336
 10
265.6106576329
 20
190.8157108245
 10
265.7812369412
 20
190.9899267973
 10
265.9621560213
 20
191.1559955363
 10
266.1536761393
 20
191.3136581971
  0
LWPOLYLINE
  5
4B8
100
AcDbEntity
  8
RACCORDO
100
AcDbPolyline
 62
250
  6
CONTINUOUS
 90
7
 70
0
 10
263.5093409703
 20
179.9842977837
 10
263.5312579332
 20
180.1375018835
 10
263.5519566922
 20
180.2909564577
 10
263.5714339762
 20
180.4446524497
 10
263.5896865745
 20
180.5985807624
 10
263.6067113371
 20
180.752732258
 10
263.6225051755
 20
180.9070977586
  0
LWPOLYLINE
  5
4B9
100
AcDbEntity
  8
RACCORDO
100
AcDbPolyline
 62
250
  6
CONTINUOUS
 90
10
 70
0
 10
266.514368323
 20
190.8786268065
 10
266.524605564
 20
190.9293532314
 10
266.5304488838
 20
190.9802624981
 10
266.5318518247
 20
191.0309507261
 10
266.5288031921
 20
191.081015768
 10
266.5213271448
 20
191.1300603849
 10
266.5094830085
 20
191.1776953988
 10
266.4933648017
 20
191.2235428015
 10
266.4731004848
 20
191.2672387532
 10
266.4488509475
 20
191.3084364559
  0
LWPOLYLINE
  5
4BA
100
AcDbEntity
  8
RACCORDO
100
AcDbPolyline
 62
250
  6
CONTINUOUS
 90
10
 70
0
 10
266.5483484144
 20
190.8244036237
 10
266.5596504244
 20
190.8732726525
 10
266.5665492508
 20
190.922711287
 10
266.5690159087
 20
190.9722931258
 10
266.5670864833
 20
191.0215426366
 10
266.5607777275
 20
191.0700896066
 10
266.5500779923
 20
191.117670448
 10
266.5350657318
 20
191.1639249855
 10
266.5159170573
 20
191.2084022761
 10
266.492815418
 20
191.2507135092
  0
LWPOLYLINE
  5
4BB
100
AcDbEntity
  8
RACCORDO
100
AcDbPolyline
 62
250
  6
CONTINUOUS
 90
7
 70
0
 10
266.491220999
 20
190.6721757816
 10
266.4982741052
 20
190.699839652
 10
266.5048087139
 20
190.7276461475
 10
266.5108240552
 20
190.7555837922
 10
266.5163195875
 20
190.7836410599
 10
266.521294997
 20
190.8118063802
 10
266.5257501972
 20
190.8400681431
  0
LWPOLYLINE
  5
4BC
100
AcDbEntity
  8
RACCORDO
100
AcDbPolyline
 62
250
  6
CONTINUOUS
 90
10
 70
0
 10
266.514368323
 20
190.8786268065
 10
266.5273417449
 20
190.9262842185
 10
266.5359877346
 20
190.9740475916
 10
266.5401884207
 20
191.021589751
 10
266.5398265949
 20
191.0686339492
 10
266.5349074289
 20
191.114807388
 10
266.5255512332
 20
191.1596411605
 10
266.5118301776
 20
191.2027783149
 10
266.4937761891
 20
191.2439780582
 10
266.4714970731
 20
191.282967742
  0
LWPOLYLINE
  5
4BD
100
AcDbEntity
  8
RACCORDO
100
AcDbPolyline
 62
250
  6
CONTINUOUS
 90
10
 70
0
 10
263.7110729967
 20
182.6961938217
 10
263.7109582121
 20
182.6957807404
 10
263.7108510689
 20
182.6953676558
 10
263.7107515677
 20
182.6949545703
 10
263.7106597091
 20
182.6945414866
 10
263.7105754935
 20
182.694128407
 10
263.7104989216
 20
182.693715334
 10
263.7104299937
 20
182.69330227
 10
263.7103687103
 20
182.6928892176
 10
263.7103150716
 20
182.6924761793
  0
LWPOLYLINE
  5
4BE
100
AcDbEntity
  8
RACCORDO
100
AcDbPolyline
 62
250
  6
CONTINUOUS
 90
10
 70
0
 10
266.5256337024
 20
190.8397267978
 10
266.5400568975
 20
190.8874121977
 10
266.5500210308
 20
190.935478986
 10
266.5554463871
 20
190.9835426658
 10
266.5562895631
 20
191.0312188089
 10
266.5525438094
 20
191.0781259805
 10
266.5442391322
 20
191.1238888
 10
266.5314420373
 20
191.1681411463
 10
266.5142549491
 20
191.2105290755
 10
266.492815418
 20
191.2507135092
  0
LWPOLYLINE
  5
4BF
100
AcDbEntity
  8
RACCORDO
100
AcDbPolyline
 62
250
  6
CONTINUOUS
 90
10
 70
0
 10
266.5256247478
 20
174.4841917886
 10
266.5285793249
 20
174.485976662
 10
266.5314268588
 20
174.4877426855
 10
266.534167055
 20
174.4894894717
 10
266.5367998227
 20
174.4912165551
 10
266.5393246242
 20
174.4929236204
 10
266.5417405492
 20
174.4946104814
 10
266.5440471475
 20
174.4962767862
 10
266.5462443561
 20
174.4979220373
 10
266.5483319004
 20
174.4995458061
  0
LWPOLYLINE
  5
4C0
100
AcDbEntity
  8
RACCORDO
100
AcDbPolyline
 62
250
  6
CONTINUOUS
 90
10
 70
0
 10
249.1105336321
 20
164.485304251
 10
249.1167596302
 20
164.4881420792
 10
249.12269104
 20
164.4930063251
 10
249.1283185106
 20
164.4998893151
 10
249.133633591
 20
164.508780997
 10
249.1386274305
 20
164.5196668615
 10
249.1432910572
 20
164.5325263442
 10
249.1476170285
 20
164.5473364326
 10
249.1515991763
 20
164.5640733259
 10
249.1552314885
 20
164.582709249
  0
LWPOLYLINE
  5
4C1
100
AcDbEntity
  8
RACCORDO
100
AcDbPolyline
 62
250
  6
CONTINUOUS
 90
7
 70
0
 10
241.5123336945
 20
200.659381999
 10
241.1728546188
 20
200.5840305324
 10
240.8410700746
 20
200.5038931315
 10
240.5170073439
 20
200.4193436711
 10
240.2006823662
 20
200.3307483029
 10
239.8921003918
 20
200.2384652374
 10
239.5912566252
 20
200.1428445565
  0
LWPOLYLINE
  5
4C2
100
AcDbEntity
  8
RACCORDO
100
AcDbPolyline
 62
250
  6
CONTINUOUS
 90
7
 70
0
 10
241.4689327072
 20
200.7413066258
 10
241.1276949945
 20
200.677837364
 10
240.794083855
 20
200.6104795729
 10
240.4681737653
 20
200.5395371743
 10
240.1500194578
 20
200.4653135023
 10
239.8396645725
 20
200.3881054368
 10
239.5371422232
 20
200.3082030666
  0
LWPOLYLINE
  5
4C3
100
AcDbEntity
  8
RACCORDO
100
AcDbPolyline
 62
250
  6
CONTINUOUS
 90
10
 70
0
 10
241.5116651693
 20
200.8383866831
 10
242.3560270328
 20
200.9418123023
 10
243.2013986664
 20
201.0192087926
 10
244.0469890456
 20
201.0706669175
 10
244.8908679859
 20
201.0962830667
 10
245.7334085976
 20
201.09628243
 10
246.5772878897
 20
201.0706649829
 10
247.4228789694
 20
201.019205496
 10
248.2682516472
 20
200.9418075491
 10
249.1126148914
 20
200.8383803441
  0
LWPOLYLINE
  5
4C4
100
AcDbEntity
  8
RACCORDO
100
AcDbPolyline
 62
250
  6
CONTINUOUS
 90
25
 70
0
 10
249.1126148914
 20
200.8383803441
 10
249.8389832059
 20
200.7282876979
 10
250.5691554438
 20
200.5976879075
 10
251.3025191864
 20
200.4461056152
 10
252.0378984508
 20
200.2732105857
 10
252.7751651595
 20
200.0784550003
 10
253.5152010094
 20
199.8609263161
 10
254.257334665
 20
199.6200462135
 10
255.0006588708
 20
199.3553157243
 10
255.7455728232
 20
199.065727493
 10
256.4913569462
 20
198.7506011167
 10
257.2368241661
 20
198.4094498688
 10
257.9815419677
 20
198.0414328237
 10
258.7246427549
 20
197.6458712931
 10
259.4647521648
 20
197.2223504787
 10
260.2005834437
 20
196.7704333141
 10
260.9311398466
 20
196.2895287169
 10
261.6548910874
 20
195.7793920719
 10
262.3697351308
 20
195.2402608414
 10
263.0745578723
 20
194.6717603799
 10
263.7677920593
 20
194.0738847282
 10
264.4467617849
 20
193.4477178077
 10
265.1097487959
 20
192.7937588993
 10
265.755871589
 20
192.1117746843
 10
266.3837882614
 20
191.4019708883
  0
LWPOLYLINE
  5
4C5
100
AcDbEntity
  8
RACCORDO
100
AcDbPolyline
 62
250
  6
CONTINUOUS
 90
16
 70
0
 10
249.1553015379
 20
200.7413065804
 10
248.5858147655
 20
200.8352096753
 10
248.0332075182
 20
200.9110733836
 10
247.4981123445
 20
200.9707243092
 10
246.984672008
 20
201.0159609032
 10
246.4895212262
 20
201.0483650875
 10
246.0016463654
 20
201.0689869746
 10
245.5219016196
 20
201.0785322982
 10
245.0492057735
 20
201.077953008
 10
244.5694078747
 20
201.0672481729
 10
244.079432707
 20
201.0453248961
 10
243.5821556134
 20
201.0114880444
 10
243.0726043759
 20
200.9653087889
 10
242.549414436
 20
200.9058662731
 10
242.0146759791
 20
200.8316455189
 10
241.4689327047
 20
200.7413066255
  0
LWPOLYLINE
  5
4C6
100
AcDbEntity
  8
RACCORDO
100
AcDbPolyline
 62
250
  6
CONTINUOUS
 90
16
 70
0
 10
249.1119003304
 20
200.6593821003
 10
248.5465529371
 20
200.7702379224
 10
247.9983009995
 20
200.8603253578
 10
247.4679494308
 20
200.9313958202
 10
246.9603378745
 20
200.9848493942
 10
246.4719140131
 20
201.0228918763
 10
245.9906718569
 20
201.0474185949
 10
245.5182301455
 20
201.0589682817
 10
245.0536967087
 20
201.0582917454
 10
244.581186569
 20
201.0453684029
 10
244.0977680418
 20
201.0193039193
 10
243.6071122168
 20
200.979579625
 10
243.1033171048
 20
200.9249937476
 10
242.5847947347
 20
200.8541443661
 10
242.0542457653
 20
200.7659996451
 10
241.5123336945
 20
200.659381999
  0
LWPOLYLINE
  5
4C7
100
AcDbEntity
  8
RACCORDO
100
AcDbPolyline
 62
250
  6
CONTINUOUS
 90
25
 70
0
 10
251.0870873995
 20
200.3082428035
 10
251.735005143
 20
200.1597505456
 10
252.3843116836
 20
199.994375705
 10
253.0348825221
 20
199.811643667
 10
253.6866024516
 20
199.6109485431
 10
254.3392211171
 20
199.3918719692
 10
254.9923849001
 20
199.1542028915
 10
255.6459519539
 20
198.8973721789
 10
256.299517567
 20
198.6208308322
 10
256.9523330077
 20
198.3244402686
 10
257.6041683243
 20
198.007651306
 10
258.2545000918
 20
197.6699138204
 10
258.902141444
 20
197.311220812
 10
259.5467651906
 20
196.9311070159
 10
260.1877405974
 20
196.5290932707
 10
260.8234387693
 20
196.1053885828
 10
261.453457227
 20
195.6596798664
 10
262.0770753082
 20
195.1916387587
 10
262.692226978
 20
194.7018001854
 10
263.298428838
 20
194.1901107704
 10
263.8949650772
 20
193.6564409879
 10
264.4795004293
 20
193.1016564394
 10
265.0508975594
 20
192.5262728297
 10
265.6091505106
 20
191.9302021326
 10
266.1536761393
 20
191.3136581971
  0
LWPOLYLINE
  5
4C8
100
AcDbEntity
  8
RACCORDO
100
AcDbPolyline
 62
250
  6
CONTINUOUS
 90
7
 70
0
 10
251.0870921731
 20
200.3082031112
 10
250.7897631945
 20
200.3867105083
 10
250.4825587161
 20
200.4632011656
 10
250.1654833497
 20
200.5372996744
 10
249.8385555836
 20
200.6086179619
 10
249.5018088915
 20
200.6767556627
 10
249.1553014943
 20
200.7413064157
  0
LWPOLYLINE
  5
4C9
100
AcDbEntity
  8
RACCORDO
100
AcDbPolyline
 62
250
  6
CONTINUOUS
 90
7
 70
0
 10
251.0329777185
 20
200.1428445661
 10
250.7373459539
 20
200.2368517773
 10
250.4319349018
 20
200.3283124317
 10
250.1167051785
 20
200.4167718893
 10
249.791629625
 20
200.5017611329
 10
249.4566944381
 20
200.5827969391
 10
249.1119003304
 20
200.6593821003
  0
LWPOLYLINE
  5
4CA
100
AcDbEntity
  8
RACCORDO
100
AcDbPolyline
 62
250
  6
CONTINUOUS
 90
10
 70
0
 10
266.5256337024
 20
190.8397267978
 10
266.5285891567
 20
190.8379459857
 10
266.5314375567
 20
190.8361832444
 10
266.5341786013
 20
190.8344393517
 10
266.5368122113
 20
190.8327155592
 10
266.5393378636
 20
190.8310121838
 10
266.5417546252
 20
190.8293286244
 10
266.5440620292
 20
190.8276652309
 10
266.5462600406
 20
190.8260232893
 10
266.5483484144
 20
190.8244036237
  0
LWPOLYLINE
  5
4CB
100
AcDbEntity
  8
RACCORDO
100
AcDbPolyline
 62
250
  6
CONTINUOUS
 90
7
 70
0
 10
266.5481922129
 20
174.4998344208
 10
266.540112636
 20
174.5252828232
 10
266.5314684541
 20
174.5506950523
 10
266.5222583429
 20
174.5760609387
 10
266.5124812874
 20
174.6013702034
 10
266.502136589
 20
174.6266124623
 10
266.4912238718
 20
174.6517772322
  0
LWPOLYLINE
  5
4CC
100
AcDbEntity
  8
RACCORDO
100
AcDbPolyline
 62
250
  6
CONTINUOUS
 90
10
 70
0
 10
266.5256247478
 20
174.4841917886
 10
266.5399683018
 20
174.4364156026
 10
266.5499484927
 20
174.38836858
 10
266.5554328062
 20
174.3403789916
 10
266.5562894161
 20
174.2927221165
 10
266.5525143067
 20
174.2457784705
 10
266.5442221787
 20
174.2000341143
 10
266.5314767102
 20
174.1558562305
 10
266.5143005019
 20
174.1134886294
 10
266.4927954558
 20
174.0732116378
  0
LWPOLYLINE
  5
4CD
100
AcDbEntity
  8
RACCORDO
100
AcDbPolyline
 62
250
  6
CONTINUOUS
 90
10
 70
0
 10
263.711060424
 20
182.627765154
 10
263.7109469479
 20
182.6281776238
 10
263.7108411186
 20
182.6285900964
 10
263.7107429366
 20
182.6290025696
 10
263.7106524025
 20
182.6294150408
 10
263.7105695168
 20
182.6298275076
 10
263.71049428
 20
182.6302399678
 10
263.7104266925
 20
182.6306524191
 10
263.7103667548
 20
182.6310648589
 10
263.7103144672
 20
182.6314772849
  0
LWPOLYLINE
  5
4CE
100
AcDbEntity
  8
RACCORDO
100
AcDbPolyline
 62
250
  6
CONTINUOUS
 90
10
 70
0
 10
266.5143721159
 20
174.4453388661
 10
266.5273457569
 20
174.397681532
 10
266.5359919633
 20
174.3499181817
 10
266.5401928558
 20
174.3023759826
 10
266.5398312166
 20
174.2553316719
 10
266.5349122163
 20
174.2091580464
 10
266.5255561706
 20
174.1643240213
 10
266.5118352479
 20
174.1211865498
 10
266.4937813697
 20
174.0799864201
 10
266.4715023398
 20
174.0409962807
  0
LWPOLYLINE
  5
4CF
100
AcDbEntity
  8
RACCORDO
100
AcDbPolyline
 62
250
  6
CONTINUOUS
 90
10
 70
0
 10
266.5483319004
 20
174.4995458061
 10
266.5595920284
 20
174.4505881452
 10
266.5664998291
 20
174.4011647251
 10
266.5690031845
 20
174.35164835
 10
266.5670832071
 20
174.3024125235
 10
266.5607543827
 20
174.2538286585
 10
266.5500644698
 20
174.2062632742
 10
266.5350941335
 20
174.1600751943
 10
266.5159563291
 20
174.1156128421
 10
266.4927954558
 20
174.0732116378
  0
LWPOLYLINE
  5
4D0
100
AcDbEntity
  8
RACCORDO
100
AcDbPolyline
 62
250
  6
CONTINUOUS
 90
10
 70
0
 10
266.5143721159
 20
174.4453388661
 10
266.5246091419
 20
174.394612862
 10
266.5304523669
 20
174.3437039719
 10
266.5318553348
 20
174.2930160613
 10
266.5288068508
 20
174.2429512623
 10
266.5213310719
 20
174.1939068004
 10
266.5094873199
 20
174.1462718415
 10
266.4933696081
 20
174.1004243823
 10
266.4731058897
 20
174.0567282522
 10
266.4488570454
 20
174.0155302408
  0
LWPOLYLINE
  5
4D1
100
AcDbEntity
  8
RACCORDO
100
AcDbPolyline
 62
250
  6
CONTINUOUS
 90
25
 70
0
 10
266.1536460703
 20
174.0102561614
 10
265.6099637375
 20
173.3946200994
 10
265.0527847839
 20
172.7996164588
 10
264.4827083547
 20
172.2254294867
 10
263.8999758126
 20
171.6721515958
 10
263.3055261872
 20
171.1400355272
 10
262.7010056304
 20
170.6293476538
 10
262.0867492951
 20
170.1397807875
 10
261.4635381667
 20
169.6716234679
 10
260.8337367403
 20
169.2256461699
 10
260.1980827985
 20
168.8015457274
 10
259.5569425208
 20
168.3990331788
 10
258.9121910985
 20
168.0184766857
 10
258.2646027857
 20
167.6594621943
 10
257.614371286
 20
167.3214340558
 10
256.9625182101
 20
167.0042993282
 10
256.309572971
 20
166.7075367148
 10
255.6557545316
 20
166.4305948639
 10
255.0016073206
 20
166.1732472474
 10
254.3473928488
 20
165.9349343747
 10
253.693380356
 20
165.715182149
 10
253.0401217739
 20
165.5138501306
 10
252.387933919
 20
165.3305419255
 10
251.7368643081
 20
165.1646508185
 10
251.0870374108
 20
165.0157153303
  0
LWPOLYLINE
  5
4D2
100
AcDbEntity
  8
RACCORDO
100
AcDbPolyline
 62
250
  6
CONTINUOUS
 90
10
 70
0
 10
266.1536246499
 20
174.0102819841
 10
266.2083100684
 20
174.0552362805
 10
266.2594321399
 20
174.1014898227
 10
266.3069581704
 20
174.1488292751
 10
266.3508654752
 20
174.1969004529
 10
266.3911605368
 20
174.2456358213
 10
266.4278165046
 20
174.2952605047
 10
266.4607749222
 20
174.3457149846
 10
266.4900080382
 20
174.3966503139
 10
266.5154949446
 20
174.4478592903
  0
LWPOLYLINE
  5
4D3
100
AcDbEntity
  8
RACCORDO
100
AcDbPolyline
 62
250
  6
CONTINUOUS
 90
7
 70
0
 10
266.5257565274
 20
174.4838152102
 10
266.5213011058
 20
174.512070293
 10
266.5163260624
 20
174.540236435
 10
266.5108309995
 20
174.5683019225
 10
266.5048157477
 20
174.5962550598
 10
266.4982803674
 20
174.6240841746
 10
266.4912251496
 20
174.6517776236
  0
LWPOLYLINE
  5
4D4
100
AcDbEntity
  8
RACCORDO
100
AcDbPolyline
 62
7
  6
CONTINUOUS
 90
3
 70
0
 10
266.7746421792
 20
174.5423692821
 10
266.7613926939
 20
174.4619249224
 10
266.7432163211
 20
174.3828574004
  0
LWPOLYLINE
  5
4D5
100
AcDbEntity
  8
RACCORDO
100
AcDbPolyline
 62
250
  6
CONTINUOUS
 90
5
 70
0
 10
266.5154949446
 20
174.4478592903
 10
266.5169367077
 20
174.4533141906
 10
266.5184928232
 20
174.4589849439
 10
266.5201582519
 20
174.4648710351
 10
266.5219277209
 20
174.4709718869
  0
LINE
  5
4D6
100
AcDbEntity
  8
RACCORDO
100
AcDbLine
 62
7
  6
CONTINUOUS
 10
266.7200773349
 20
174.3050588248
 11
266.7431785034
 21
174.3827506284
  0
LINE
  5
4D7
100
AcDbEntity
  8
RACCORDO
100
AcDbLine
 62
250
  6
CONTINUOUS
 10
266.5219277209
 20
174.4709718869
 11
266.5257565274
 21
174.4838152102
  0
LINE
  5
4D8
100
AcDbEntity
  8
RACCORDO
100
AcDbLine
 62
7
  6
CONTINUOUS
 10
266.6918810798
 20
174.2283624575
 11
266.7200773349
 21
174.3050588248
  0
LWPOLYLINE
  5
4D9
100
AcDbEntity
  8
RACCORDO
100
AcDbPolyline
 62
7
  6
CONTINUOUS
 90
3
 70
0
 10
266.691890686
 20
174.2284137859
 10
266.6587414238
 20
174.1530376933
 10
266.6212668959
 20
174.0804040298
  0
LWPOLYLINE
  5
4DA
100
AcDbEntity
  8
RACCORDO
100
AcDbPolyline
 62
250
  6
CONTINUOUS
 90
7
 70
0
 10
266.4488737919
 20
174.0154936777
 10
266.4389939825
 20
173.9992900724
 10
266.4287281771
 20
173.9833254045
 10
266.4180753718
 20
173.967606175
 10
266.4070347218
 20
173.9521388617
 10
266.3956055449
 20
173.9369299158
 10
266.3837873248
 20
173.9219857574
  0
LWPOLYLINE
  5
4DB
100
AcDbEntity
  8
RACCORDO
100
AcDbPolyline
 62
250
  6
CONTINUOUS
 90
13
 70
0
 10
266.4929433167
 20
174.0734220318
 10
266.517238685
 20
174.1121366874
 10
266.5402124689
 20
174.151749339
 10
266.5618261295
 20
174.1922167794
 10
266.5820698681
 20
174.2335487219
 10
266.6008764049
 20
174.2756455674
 10
266.6181410308
 20
174.318290104
 10
266.633844319
 20
174.361412507
 10
266.6479798524
 20
174.4049693999
 10
266.6604976905
 20
174.4487711309
 10
266.6713923493
 20
174.4927130091
 10
266.6806869567
 20
174.5367800704
 10
266.6883919319
 20
174.5809145111
  0
LWPOLYLINE
  5
4DC
100
AcDbEntity
  8
RACCORDO
100
AcDbPolyline
 62
250
  6
CONTINUOUS
 90
7
 70
0
 10
266.4709972816
 20
174.0402254773
 10
266.4575837702
 20
174.0201115254
 10
266.4437230264
 20
174.0001452947
 10
266.4294138794
 20
173.9803380261
 10
266.4146554198
 20
173.9607011167
 10
266.3994470065
 20
173.9412461158
 10
266.3837882745
 20
173.9219847196
  0
LWPOLYLINE
  5
4DD
100
AcDbEntity
  8
RACCORDO
100
AcDbPolyline
 62
250
  6
CONTINUOUS
 90
6
 70
0
 10
266.4709972816
 20
174.0402254773
 10
266.4748716153
 20
174.0459473932
 10
266.4786574912
 20
174.0515950854
 10
266.4823562646
 20
174.0571674523
 10
266.4859692771
 20
174.0626634224
 10
266.4929433167
 20
174.0734220318
  0
LWPOLYLINE
  5
4DE
100
AcDbEntity
  8
RACCORDO
100
AcDbPolyline
 62
250
  6
CONTINUOUS
 90
10
 70
0
 10
266.4715023398
 20
174.0409962807
 10
266.4692954652
 20
174.0379524098
 10
266.4670106617
 20
174.0349614397
 10
266.4646481314
 20
174.0320235852
 10
266.4622078899
 20
174.0291388334
 10
266.4596903035
 20
174.0263076374
 10
266.457096138
 20
174.0235309008
 10
266.4544258186
 20
174.0208090599
 10
266.4516793814
 20
174.0181421006
 10
266.4488570454
 20
174.0155302408
  0
LWPOLYLINE
  5
4DF
100
AcDbEntity
  8
RACCORDO
100
AcDbPolyline
 62
7
  6
CONTINUOUS
 90
4
 70
0
 10
266.4832189559
 20
173.8797914097
 10
266.5336111001
 20
173.9440183789
 10
266.5796369452
 20
174.0109057214
 10
266.6212668959
 20
174.0804040298
  0
LWPOLYLINE
  5
4E0
100
AcDbEntity
  8
RACCORDO
100
AcDbPolyline
 62
250
  6
CONTINUOUS
 90
25
 70
0
 10
266.3837882697
 20
173.9219847217
 10
265.7566559379
 20
173.21303678
 10
265.1116428791
 20
172.5321285305
 10
264.4501146484
 20
171.8794356467
 10
263.7732863427
 20
171.2549723558
 10
263.0826007906
 20
170.6589060157
 10
262.3797591666
 20
170.0915158715
 10
261.665714428
 20
169.5524579039
 10
260.942054342
 20
169.0418648444
 10
260.2115093529
 20
168.5604731295
 10
259.4757948115
 20
168.1081554726
 10
258.7357242115
 20
167.6842044275
 10
257.9927117611
 20
167.2882558534
 10
257.248326733
 20
166.9199805652
 10
256.5032542025
 20
166.578591356
 10
255.7574759146
 20
166.2630570725
 10
255.0119797044
 20
165.9728565599
 10
254.267656068
 20
165.707423027
 10
253.5241983683
 20
165.4658122594
 10
252.7824136294
 20
165.2475233237
 10
252.0430652517
 20
165.0520351305
 10
251.3056658863
 20
164.8785456298
 10
250.5704828587
 20
164.7265238454
 10
249.8385670241
 20
164.5955988601
 10
249.110536072
 20
164.4852868533
  0
LWPOLYLINE
  5
4E1
100
AcDbEntity
  8
RACCORDO
100
AcDbPolyline
 62
250
  6
CONTINUOUS
 90
7
 70
0
 10
266.3837882745
 20
191.4019708939
 10
266.3994397193
 20
191.3827186956
 10
266.414647743
 20
191.3632646138
 10
266.429412228
 20
191.3436199621
 10
266.4437333237
 20
191.3237959289
 10
266.4576114398
 20
191.3038035731
 10
266.4710472398
 20
191.2836538194
  0
LWPOLYLINE
  5
4E2
100
AcDbEntity
  8
RACCORDO
100
AcDbPolyline
 62
250
  6
CONTINUOUS
 90
7
 70
0
 10
266.3837867296
 20
191.4019687631
 10
266.3956036928
 20
191.3870264079
 10
266.4070318563
 20
191.3718192119
 10
266.4180717049
 20
191.3563535665
 10
266.428723889
 20
191.3406358946
 10
266.438989221
 20
191.3246726469
 10
266.4488686724
 20
191.308470298
  0
LWPOLYLINE
  5
4E3
100
AcDbEntity
  8
RACCORDO
100
AcDbPolyline
 62
7
  6
CONTINUOUS
 90
3
 70
0
 10
266.4832189113
 20
191.4441642687
 10
266.5335546972
 20
191.3800389739
 10
266.5795470543
 20
191.3132116537
  0
LWPOLYLINE
  5
4E4
100
AcDbEntity
  8
RACCORDO
100
AcDbPolyline
 62
250
  6
CONTINUOUS
 90
10
 70
0
 10
266.4714970731
 20
191.282967742
 10
266.4692900332
 20
191.2860118676
 10
266.4670050828
 20
191.2890031027
 10
266.4646424241
 20
191.2919412328
 10
266.4622020725
 20
191.2948262706
 10
266.4596843944
 20
191.297657763
 10
266.457090155
 20
191.3004348072
 10
266.4544197795
 20
191.3031569666
 10
266.4516733041
 20
191.3058242554
 10
266.4488509475
 20
191.3084364559
  0
LWPOLYLINE
  5
4E5
100
AcDbEntity
  8
RACCORDO
100
AcDbPolyline
 62
250
  6
CONTINUOUS
 90
4
 70
0
 10
266.4823666229
 20
191.2667732615
 10
266.4786933638
 20
191.2723072478
 10
266.4749207805
 20
191.2779345271
 10
266.4710472398
 20
191.2836538194
  0
LWPOLYLINE
  5
4E6
100
AcDbEntity
  8
RACCORDO
100
AcDbPolyline
 62
250
  6
CONTINUOUS
 90
3
 70
0
 10
266.4928064555
 20
191.2507432746
 10
266.4894215915
 20
191.2559900916
 10
266.4823666229
 20
191.2667732615
  0
LINE
  5
4E7
100
AcDbEntity
  8
RACCORDO
100
AcDbLine
 62
7
  6
CONTINUOUS
 10
266.6212194502
 20
191.2436368304
 11
266.5795969043
 21
191.3131171733
  0
LINE
  5
4E8
100
AcDbEntity
  8
RACCORDO
100
AcDbLine
 62
7
  6
CONTINUOUS
 10
266.6587227343
 20
191.1709794966
 11
266.6212473356
 21
191.2435902815
  0
LWPOLYLINE
  5
4E9
100
AcDbEntity
  8
RACCORDO
100
AcDbPolyline
 62
250
  6
CONTINUOUS
 90
10
 70
0
 10
266.5154578499
 20
190.8761833393
 10
266.4899824371
 20
190.9273625556
 10
266.4607614566
 20
190.9782751511
 10
266.427814451
 20
191.0287142039
 10
266.3911663135
 20
191.0783348106
 10
266.3508752006
 20
191.1270734241
 10
266.3069724342
 20
191.1751434343
 10
266.2594543246
 20
191.2224737078
 10
266.2083424634
 20
191.268714231
 10
266.1536700603
 20
191.3136519148
  0
LINE
  5
4EA
100
AcDbEntity
  8
RACCORDO
100
AcDbLine
 62
7
  6
CONTINUOUS
 10
266.6586953844
 20
191.1710130597
 11
266.6918513576
 21
191.0956417857
  0
LWPOLYLINE
  5
4EB
100
AcDbEntity
  8
RACCORDO
100
AcDbPolyline
 62
250
  6
CONTINUOUS
 90
10
 70
0
 10
266.6883920213
 20
190.7430403459
 10
266.6836736665
 20
190.7549443276
 10
266.6762550158
 20
190.7660572854
 10
266.6660933515
 20
190.7764442548
 10
266.6530948911
 20
190.7863331879
 10
266.6372708401
 20
190.7956357316
 10
266.6188027823
 20
190.803987344
 10
266.5978040661
 20
190.8113622853
 10
266.5742545442
 20
190.8180331147
 10
266.5482018377
 20
190.8241193705
  0
LINE
  5
4EC
100
AcDbEntity
  8
RACCORDO
100
AcDbLine
 62
7
  6
CONTINUOUS
 10
266.7200444255
 20
191.0189961463
 11
266.691839099
 21
191.0956998017
  0
LINE
  5
4ED
100
AcDbEntity
  8
RACCORDO
100
AcDbLine
 62
7
  6
CONTINUOUS
 10
266.7431547123
 20
190.9412835136
 11
266.7200620384
 21
191.0189369197
  0
LWPOLYLINE
  5
4EE
100
AcDbEntity
  8
RACCORDO
100
AcDbPolyline
 62
250
  6
CONTINUOUS
 90
6
 70
0
 10
266.5257501972
 20
190.8400681431
 10
266.5219394579
 20
190.8529496994
 10
266.5201685853
 20
190.8590752454
 10
266.5184946238
 20
190.8649897445
 10
266.5169227327
 20
190.8706926155
 10
266.5154578499
 20
190.8761833393
  0
LINE
  5
4EF
100
AcDbEntity
  8
RACCORDO
100
AcDbLine
 62
7
  6
CONTINUOUS
 10
266.7431939874
 20
190.9411719392
 11
266.7613806441
 21
190.8620733665
  0
LWPOLYLINE
  5
4F0
100
AcDbEntity
  8
RACCORDO
100
AcDbPolyline
 62
250
  6
CONTINUOUS
 90
13
 70
0
 10
266.6883920073
 20
190.7430411362
 10
266.6806798661
 20
190.7872130378
 10
266.6713757345
 20
190.8313158149
 10
266.6604693359
 20
190.8752915524
 10
266.6479365845
 20
190.9191287663
 10
266.6337839678
 20
190.9627190114
 10
266.6180656764
 20
191.0058620311
 10
266.6007935058
 20
191.0485052329
 10
266.5819847582
 20
191.0905890628
 10
266.5617363002
 20
191.1319146043
 10
266.5401114745
 20
191.1723877601
 10
266.5171222246
 20
191.212011859
 10
266.4928064555
 20
191.2507432746
  0
LINE
  5
4F1
100
AcDbEntity
  8
RACCORDO
100
AcDbLine
 62
7
  6
CONTINUOUS
 10
266.7746421711
 20
190.7815863666
 11
266.7613539608
 21
190.8621469203
  0
LWPOLYLINE
  5
4F2
100
AcDbEntity
  8
RACCORDO
100
AcDbPolyline
 62
250
  6
CONTINUOUS
 90
43
 70
0
 10
266.4906959932
 20
190.6718013735
 10
266.5415685523
 20
190.3429610982
 10
266.5917123092
 20
190.0051091933
 10
266.6406662233
 20
189.6585494466
 10
266.6878464008
 20
189.3024697852
 10
266.7330994646
 20
188.9381334154
 10
266.7765250648
 20
188.5688553648
 10
266.8175811298
 20
188.1951074635
 10
266.8559973884
 20
187.8164967343
 10
266.8921281316
 20
187.4349404461
 10
266.9256481911
 20
187.0507304733
 10
266.9562403449
 20
186.6633675347
 10
266.9842575368
 20
186.2735305197
 10
267.0095893325
 20
185.8809936896
 10
267.0319730396
 20
185.485582719
 10
267.0515455198
 20
185.0880229498
 10
267.0682571429
 20
184.6877317866
 10
267.0819958661
 20
184.2847369403
 10
267.092743119
 20
183.8806422694
 10
267.1004252319
 20
183.4749184661
 10
267.105057994
 20
183.0674184924
 10
267.1066177665
 20
182.6602896983
 10
267.1050329102
 20
182.2531759686
 10
267.1003742277
 20
181.8457106107
 10
267.0926667397
 20
181.4400252189
 10
267.0818967094
 20
181.0359759911
 10
267.068135769
 20
180.6330308325
 10
267.051399765
 20
180.2327686646
 10
267.0318023143
 20
179.8352032075
 10
267.009394618
 20
179.4397657877
 10
266.9840376524
 20
179.047198455
 10
266.9559905541
 20
178.6573151879
 10
266.9253691824
 20
178.2699019774
 10
266.8918280947
 20
177.8856904261
 10
266.8556808816
 20
177.5042050438
 10
266.8172504898
 20
177.1257159325
 10
266.7761893496
 20
176.7521255765
 10
266.7327290672
 20
176.3830044934
 10
266.6874487279
 20
176.0188620338
 10
266.6403538186
 20
175.663111966
 10
266.5916125934
 20
175.3170521278
 10
266.5417505237
 20
174.979838036
 10
266.4912065514
 20
174.6517718754
  0
LWPOLYLINE
  5
4F3
100
AcDbEntity
  8
RACCORDO
100
AcDbPolyline
 62
250
  6
CONTINUOUS
 90
40
 70
0
 10
266.6883920272
 20
190.7430411451
 10
266.7427685636
 20
190.3732205349
 10
266.7953646295
 20
189.9959991182
 10
266.8460473285
 20
189.6113802415
 10
266.894791756
 20
189.2183016169
 10
266.9413355917
 20
188.8178356229
 10
266.9852488803
 20
188.4131972394
 10
267.0263858333
 20
188.00510735
 10
267.0647441016
 20
187.5928806287
 10
267.1001928336
 20
187.1776329182
 10
267.1326546571
 20
186.7597168777
 10
267.1620958691
 20
186.3388232977
 10
267.1884750122
 20
185.9150776272
 10
267.2117476613
 20
185.4883569208
 10
267.2318437932
 20
185.0588314191
 10
267.2486967704
 20
184.6270676728
 10
267.2622703064
 20
184.1928322539
 10
267.2725067925
 20
183.7564112981
 10
267.2793470201
 20
183.3191527694
 10
267.2827744195
 20
182.881008554
 10
267.2827710426
 20
182.4420838391
 10
267.2793371393
 20
182.0039575839
 10
267.2724912606
 20
181.5667446982
 10
267.2622502738
 20
181.1303873211
 10
267.248672803
 20
180.696204216
 10
267.2318161616
 20
180.2644784922
 10
267.2117164031
 20
179.8349797494
 10
267.1884386324
 20
179.4082544644
 10
267.1620505173
 20
178.9844476052
 10
267.1325971965
 20
178.5634616161
 10
267.1001239387
 20
178.1454778161
 10
267.0646655116
 20
177.7301952065
 10
267.0262993477
 20
177.3179581559
 10
266.9851603654
 20
176.9099134563
 10
266.9412558988
 20
176.5054099813
 10
266.8947293791
 20
176.1051340753
 10
266.8460029679
 20
175.7122286469
 10
266.7953355033
 20
175.3277421474
 10
266.7427543182
 20
174.9506363054
 10
266.6883919594
 20
174.5809144988
  0
ARC
  5
4F4
100
AcDbEntity
  8
0
100
AcDbCircle
 62
7
  6
CONTINUOUS
 10
244.2925271919
 20
176.9619658068
 40
2.5500000352
100
AcDbArc
 50
84.2608296022
 51
275.7391703978
  0
ARC
  5
4F5
100
AcDbEntity
  8
0
100
AcDbCircle
 62
7
  6
CONTINUOUS
 10
244.2925271919
 20
176.9619658068
 40
1.7850001745
100
AcDbArc
 50
81.7867901066
 51
278.2132098934
  0
ARC
  5
4F6
100
AcDbEntity
  8
RACCORDO
100
AcDbCircle
 62
7
  6
CONTINUOUS
 10
205.7121171919
 20
182.6619778068
 40
61.6
100
AcDbArc
 50
352.4256965854
 51
7.5743034814
  0
ARC
  5
4F7
100
AcDbEntity
  8
0
100
AcDbCircle
 62
7
  6
CONTINUOUS
 10
244.7063871919
 20
185.6601548068
 40
2.7632347531
100
AcDbArc
 50
156.1507639694
 51
167.0671216335
  0
ARC
  5
4F8
100
AcDbEntity
  8
0
100
AcDbCircle
 62
7
  6
CONTINUOUS
 10
244.7063831919
 20
185.6601558068
 40
2.7632314626
100
AcDbArc
 50
194.6184497817
 51
198.0305369397
  0
ARC
  5
4F9
100
AcDbEntity
  8
0
100
AcDbCircle
 62
7
  6
CONTINUOUS
 10
244.7063831919
 20
185.6601558068
 40
2.7632310843
100
AcDbArc
 50
199.1820946666
 51
202.6110343171
  0
ARC
  5
4FA
100
AcDbEntity
  8
0
100
AcDbCircle
 62
7
  6
CONTINUOUS
 10
244.7063831919
 20
185.6601558068
 40
2.7632307716
100
AcDbArc
 50
168.184446852
 51
180.8185446753
  0
ARC
  5
4FB
100
AcDbEntity
  8
0
100
AcDbCircle
 62
7
  6
CONTINUOUS
 10
244.7063831919
 20
185.6601558068
 40
2.7632305652
100
AcDbArc
 50
181.9102196963
 51
193.4934031379
  0
ARC
  5
4FC
100
AcDbEntity
  8
0
100
AcDbCircle
 62
7
  6
CONTINUOUS
 10
244.7063841919
 20
185.6601558068
 40
2.7105988403
100
AcDbArc
 50
156.0805617868
 51
166.8115198439
  0
ARC
  5
4FD
100
AcDbEntity
  8
0
100
AcDbCircle
 62
7
  6
CONTINUOUS
 10
244.7063831919
 20
185.6601558068
 40
2.7105983986
100
AcDbArc
 50
181.9473249207
 51
193.7605109741
  0
ARC
  5
4FE
100
AcDbEntity
  8
0
100
AcDbCircle
 62
7
  6
CONTINUOUS
 10
244.7063831919
 20
185.6601558068
 40
2.7105977531
100
AcDbArc
 50
199.569593574
 51
201.7987290558
  0
ARC
  5
4FF
100
AcDbEntity
  8
0
100
AcDbCircle
 62
7
  6
CONTINUOUS
 10
244.7063831919
 20
185.6601558068
 40
2.7105973164
100
AcDbArc
 50
194.9088268946
 51
198.3930624805
  0
ARC
  5
500
100
AcDbEntity
  8
0
100
AcDbCircle
 62
7
  6
CONTINUOUS
 10
244.7063831919
 20
185.6601558068
 40
2.710596992
100
AcDbArc
 50
167.951606784
 51
180.8344401098
  0
ARC
  5
501
100
AcDbEntity
  8
ASSI
100
AcDbCircle
 62
7
  6
CONTINUOUS
 10
235.8121171919
 20
182.6619778068
 40
2.45
100
AcDbArc
 50
11.5952726591
 51
78.4047273409
  0
ARC
  5
502
100
AcDbEntity
  8
ASSI
100
AcDbCircle
 62
7
  6
CONTINUOUS
 10
235.8121171919
 20
182.6619778068
 40
2.45
100
AcDbArc
 50
281.5952726591
 51
348.4047273409
  0
ARC
  5
503
100
AcDbEntity
  8
DRAFT
100
AcDbCircle
 62
7
  6
CONTINUOUS
 10
235.8121171919
 20
182.6619778068
 40
2.444763991
100
AcDbArc
 50
100.9811661342
 51
169.0188338658
  0
ARC
  5
504
100
AcDbEntity
  8
DRAFT
100
AcDbCircle
 62
7
  6
CONTINUOUS
 10
235.8121171919
 20
182.6619778068
 40
2.444763991
100
AcDbArc
 50
190.9811661342
 51
259.0188338658
  0
CIRCLE
  5
505
100
AcDbEntity
  8
0
100
AcDbCircle
 62
7
  6
CONTINUOUS
 10
235.8121171919
 20
182.6619778068
 40
2.4
  0
ARC
  5
506
100
AcDbEntity
  8
ASSI
100
AcDbCircle
 62
7
  6
CONTINUOUS
 10
232.3121171919
 20
182.6619778068
 40
1.45
100
AcDbArc
 50
31.921598044
 51
34.3522644756
  0
ARC
  5
507
100
AcDbEntity
  8
ASSI
100
AcDbCircle
 62
7
  6
CONTINUOUS
 10
232.3121171919
 20
182.6619778068
 40
1.45
100
AcDbArc
 50
325.6477355244
 51
328.078401956
  0
ARC
  5
508
100
AcDbEntity
  8
ASSI
100
AcDbCircle
 62
7
  6
CONTINUOUS
 10
232.5621171919
 20
183.6619778068
 40
1.0
100
AcDbArc
 50
329.3343078703
 51
338.5302769905
  0
ARC
  5
509
100
AcDbEntity
  8
ASSI
100
AcDbCircle
 62
7
  6
CONTINUOUS
 10
235.4785031919
 20
191.2873108068
 40
0.7955
100
AcDbArc
 50
0.0
 51
180.0
  0
ARC
  5
50A
100
AcDbEntity
  8
ASSI
100
AcDbCircle
 62
7
  6
CONTINUOUS
 10
236.8105031919
 20
191.2873108068
 40
0.7955
100
AcDbArc
 50
180.0
 51
360.0
  0
ARC
  5
50B
100
AcDbEntity
  8
ASSI
100
AcDbCircle
 62
7
  6
CONTINUOUS
 10
235.4785031919
 20
191.2873108068
 40
0.5365
100
AcDbArc
 50
0.0
 51
180.0
  0
ARC
  5
50C
100
AcDbEntity
  8
ASSI
100
AcDbCircle
 62
7
  6
CONTINUOUS
 10
236.8105031919
 20
191.2873108068
 40
0.5365
100
AcDbArc
 50
180.0
 51
360.0
  0
ARC
  5
50D
100
AcDbEntity
  8
0
100
AcDbCircle
 62
7
  6
CONTINUOUS
 10
242.2852661919
 20
186.9891378068
 40
0.2368485105
100
AcDbArc
 50
33.748841422
 51
243.3683157105
  0
ARC
  5
50E
100
AcDbEntity
  8
0
100
AcDbCircle
 62
7
  6
CONTINUOUS
 10
242.2852661919
 20
186.9891378068
 40
0.2368482435
100
AcDbArc
 50
256.1529728172
 51
282.8398505307
  0
ARC
  5
50F
100
AcDbEntity
  8
RACCORDO
100
AcDbCircle
 62
7
  6
CONTINUOUS
 10
245.3121171919
 20
173.7369778068
 40
27.6
100
AcDbArc
 50
39.9085964273
 51
140.0914037354
  0
ARC
  5
510
100
AcDbEntity
  8
0
100
AcDbCircle
 62
7
  6
CONTINUOUS
 10
248.6275271919
 20
176.9619658068
 40
2.5500000352
100
AcDbArc
 50
84.2608296022
 51
275.7391703978
  0
ARC
  5
511
100
AcDbEntity
  8
0
100
AcDbCircle
 62
7
  6
CONTINUOUS
 10
248.6275271919
 20
176.9619658068
 40
1.7850001745
100
AcDbArc
 50
81.7867901066
 51
167.6263762198
  0
ARC
  5
512
100
AcDbEntity
  8
0
100
AcDbCircle
 62
7
  6
CONTINUOUS
 10
248.6275271919
 20
176.9619658068
 40
1.7849997292
100
AcDbArc
 50
192.373627023
 51
278.2132119123
  0
ARC
  5
513
100
AcDbEntity
  8
ASSI
100
AcDbCircle
 62
7
  6
CONTINUOUS
 10
258.0621171919
 20
181.6619778068
 40
1.0
100
AcDbArc
 50
149.3343078703
 51
158.5302769905
  0
ARC
  5
514
100
AcDbEntity
  8
RACCORDO
100
AcDbCircle
 62
7
  6
CONTINUOUS
 10
245.3121171919
 20
166.5119778068
 40
0.5
100
AcDbArc
 50
180.0
 51
206.178905884
  0
ARC
  5
515
100
AcDbEntity
  8
RACCORDO
100
AcDbCircle
 62
7
  6
CONTINUOUS
 10
245.3121171919
 20
166.5119778068
 40
0.5
100
AcDbArc
 50
333.8173251866
 51
359.9969573645
  0
ARC
  5
516
100
AcDbEntity
  8
RACCORDO
100
AcDbCircle
 62
250
  6
CONTINUOUS
 10
245.3121171919
 20
182.6619778068
 40
18.5671815621
100
AcDbArc
 50
188.3709311643
 51
251.878785024
  0
ARC
  5
517
100
AcDbEntity
  8
RACCORDO
100
AcDbCircle
 62
250
  6
CONTINUOUS
 10
245.3121171919
 20
182.6619778068
 40
18.5671815621
100
AcDbArc
 50
8.3709080652
 51
71.8786414477
  0
ARC
  5
518
100
AcDbEntity
  8
RACCORDO
100
AcDbCircle
 62
250
  6
CONTINUOUS
 10
245.3121171919
 20
182.6619778068
 40
18.5671815356
100
AcDbArc
 50
288.1212143643
 51
351.6290770309
  0
ARC
  5
519
100
AcDbEntity
  8
RACCORDO
100
AcDbCircle
 62
250
  6
CONTINUOUS
 10
245.3121171919
 20
182.6619778068
 40
18.5671815356
100
AcDbArc
 50
108.1213781877
 51
171.6290922489
  0
ARC
  5
51A
100
AcDbEntity
  8
RACCORDO
100
AcDbCircle
 62
250
  6
CONTINUOUS
 10
245.3121171919
 20
182.6619778068
 40
18.3931759897
100
AcDbArc
 50
108.1214150728
 51
171.6291434821
  0
ARC
  5
51B
100
AcDbEntity
  8
RACCORDO
100
AcDbCircle
 62
250
  6
CONTINUOUS
 10
245.3121171919
 20
182.6619778068
 40
18.3931759898
100
AcDbArc
 50
8.3708572095
 51
71.8785850555
  0
ARC
  5
51C
100
AcDbEntity
  8
RACCORDO
100
AcDbCircle
 62
250
  6
CONTINUOUS
 10
245.3121171919
 20
182.6619778068
 40
18.3931759897
100
AcDbArc
 50
288.1211524884
 51
351.6291282626
  0
ARC
  5
51D
100
AcDbEntity
  8
RACCORDO
100
AcDbCircle
 62
250
  6
CONTINUOUS
 10
245.3121171919
 20
182.6619778068
 40
18.3931759898
100
AcDbArc
 50
188.370888679
 51
251.878847483
  0
ARC
  5
51E
100
AcDbEntity
  8
DRAFT
100
AcDbCircle
 62
7
  6
CONTINUOUS
 10
245.3121171919
 20
182.6619778068
 40
18.3670573405
100
AcDbArc
 50
264.6892725376
 51
275.3107274624
  0
ARC
  5
51F
100
AcDbEntity
  8
DRAFT
100
AcDbCircle
 62
7
  6
CONTINUOUS
 10
245.3121171919
 20
182.6619778068
 40
18.3670573405
100
AcDbArc
 50
84.6892725376
 51
95.3107274624
  0
ARC
  5
520
100
AcDbEntity
  8
DRAFT
100
AcDbCircle
 62
7
  6
CONTINUOUS
 10
245.3121171919
 20
182.6619778068
 40
18.3513480852
100
AcDbArc
 50
6.5709230276
 51
28.0217962009
  0
ARC
  5
521
100
AcDbEntity
  8
DRAFT
100
AcDbCircle
 62
7
  6
CONTINUOUS
 10
245.3121171919
 20
182.6619778068
 40
18.3513480852
100
AcDbArc
 50
186.5709230276
 51
208.0217962009
  0
ARC
  5
522
100
AcDbEntity
  8
DRAFT
100
AcDbCircle
 62
7
  6
CONTINUOUS
 10
245.3121171919
 20
182.6619778068
 40
18.3513480852
100
AcDbArc
 50
331.9782037991
 51
353.4290769724
  0
ARC
  5
523
100
AcDbEntity
  8
DRAFT
100
AcDbCircle
 62
7
  6
CONTINUOUS
 10
245.3121171919
 20
182.6619778068
 40
18.3513480852
100
AcDbArc
 50
151.9782037991
 51
173.4290769724
  0
ARC
  5
524
100
AcDbEntity
  8
RACCORDO
100
AcDbCircle
 62
250
  6
CONTINUOUS
 10
245.3121171919
 20
182.6619778068
 40
18.1154625051
100
AcDbArc
 50
353.6351292752
 51
6.3648707248
  0
ARC
  5
525
100
AcDbEntity
  8
RACCORDO
100
AcDbCircle
 62
250
  6
CONTINUOUS
 10
245.3121171919
 20
182.6619778068
 40
18.1154625051
100
AcDbArc
 50
207.8545698015
 51
264.1622283901
  0
ARC
  5
526
100
AcDbEntity
  8
RACCORDO
100
AcDbCircle
 62
250
  6
CONTINUOUS
 10
245.3121171919
 20
182.6619778068
 40
18.1154625051
100
AcDbArc
 50
275.8377716099
 51
332.1454301985
  0
ARC
  5
527
100
AcDbEntity
  8
RACCORDO
100
AcDbCircle
 62
250
  6
CONTINUOUS
 10
245.3121171919
 20
182.6619778068
 40
18.1154625051
100
AcDbArc
 50
27.8545698015
 51
84.1622283901
  0
ARC
  5
528
100
AcDbEntity
  8
RACCORDO
100
AcDbCircle
 62
250
  6
CONTINUOUS
 10
245.3121171919
 20
182.6619778068
 40
18.1154625051
100
AcDbArc
 50
95.8377716099
 51
152.1454301985
  0
ARC
  5
529
100
AcDbEntity
  8
RACCORDO
100
AcDbCircle
 62
250
  6
CONTINUOUS
 10
245.3121171919
 20
182.6619778068
 40
18.1154625051
100
AcDbArc
 50
173.6351292752
 51
186.3648707248
  0
ARC
  5
52A
100
AcDbEntity
  8
RACCORDO
100
AcDbCircle
 62
250
  6
CONTINUOUS
 10
245.3121171919
 20
182.6619778068
 40
17.1155858726
100
AcDbArc
 50
276.2096141562
 51
331.3287586501
  0
ARC
  5
52B
100
AcDbEntity
  8
RACCORDO
100
AcDbCircle
 62
250
  6
CONTINUOUS
 10
245.3121171919
 20
182.6619778068
 40
17.1155858726
100
AcDbArc
 50
208.6713122843
 51
263.7903868904
  0
ARC
  5
52C
100
AcDbEntity
  8
RACCORDO
100
AcDbCircle
 62
250
  6
CONTINUOUS
 10
245.3121171919
 20
182.6619778068
 40
17.1155858726
100
AcDbArc
 50
96.2096141562
 51
151.3287586501
  0
ARC
  5
52D
100
AcDbEntity
  8
RACCORDO
100
AcDbCircle
 62
250
  6
CONTINUOUS
 10
245.3121171919
 20
182.6619778068
 40
17.1155858726
100
AcDbArc
 50
28.6713122843
 51
83.7903868904
  0
ARC
  5
52E
100
AcDbEntity
  8
RACCORDO
100
AcDbCircle
 62
250
  6
CONTINUOUS
 10
245.3121171919
 20
182.6619778068
 40
17.1155858726
100
AcDbArc
 50
173.2821521561
 51
186.717848811
  0
ARC
  5
52F
100
AcDbEntity
  8
RACCORDO
100
AcDbCircle
 62
250
  6
CONTINUOUS
 10
245.3121171919
 20
182.6619778068
 40
17.1155858726
100
AcDbArc
 50
353.2821521561
 51
6.717848811
  0
ARC
  5
530
100
AcDbEntity
  8
0
100
AcDbCircle
 62
7
  6
CONTINUOUS
 10
246.0748401919
 20
186.5943908068
 40
0.4605385438
100
AcDbArc
 50
273.2758927354
 51
168.4374739078
  0
ARC
  5
531
100
AcDbEntity
  8
0
100
AcDbCircle
 62
7
  6
CONTINUOUS
 10
246.0748401919
 20
186.5943908068
 40
0.460538438
100
AcDbArc
 50
175.0000711379
 51
266.7242311212
  0
CIRCLE
  5
532
100
AcDbEntity
  8
0
100
AcDbCircle
 62
7
  6
CONTINUOUS
 10
246.0748401919
 20
186.5943908068
 40
0.263165
  0
CIRCLE
  5
533
100
AcDbEntity
  8
0
100
AcDbCircle
 62
7
  6
CONTINUOUS
 10
246.0748401919
 20
186.5943908068
 40
0.157898
  0
ARC
  5
534
100
AcDbEntity
  8
ASSI
100
AcDbCircle
 62
7
  6
CONTINUOUS
 10
254.8121171919
 20
182.6619778068
 40
2.45
100
AcDbArc
 50
191.5952726591
 51
258.4047273409
  0
ARC
  5
535
100
AcDbEntity
  8
ASSI
100
AcDbCircle
 62
7
  6
CONTINUOUS
 10
254.8121171919
 20
182.6619778068
 40
2.45
100
AcDbArc
 50
101.5952726591
 51
168.4047273409
  0
ARC
  5
536
100
AcDbEntity
  8
DRAFT
100
AcDbCircle
 62
7
  6
CONTINUOUS
 10
254.8121171919
 20
182.6619778068
 40
2.444763991
100
AcDbArc
 50
280.9811661342
 51
349.0188338658
  0
ARC
  5
537
100
AcDbEntity
  8
DRAFT
100
AcDbCircle
 62
7
  6
CONTINUOUS
 10
254.8121171919
 20
182.6619778068
 40
2.444763991
100
AcDbArc
 50
10.9811661342
 51
79.0188338658
  0
CIRCLE
  5
538
100
AcDbEntity
  8
0
100
AcDbCircle
 62
7
  6
CONTINUOUS
 10
254.8121171919
 20
182.6619778068
 40
2.4
  0
ARC
  5
539
100
AcDbEntity
  8
ASSI
100
AcDbCircle
 62
7
  6
CONTINUOUS
 10
258.3121171919
 20
182.6619778068
 40
1.45
100
AcDbArc
 50
211.921598044
 51
214.3522644756
  0
ARC
  5
53A
100
AcDbEntity
  8
ASSI
100
AcDbCircle
 62
7
  6
CONTINUOUS
 10
258.3121171919
 20
182.6619778068
 40
1.45
100
AcDbArc
 50
145.6477355244
 51
148.078401956
  0
ARC
  5
53B
100
AcDbEntity
  8
ASSI
100
AcDbCircle
 62
7
  6
CONTINUOUS
 10
254.7508981919
 20
188.8464208068
 40
1.8043863978
100
AcDbArc
 50
47.231266101
 51
84.2010559981
  0
ARC
  5
53C
100
AcDbEntity
  8
ASSI
100
AcDbCircle
 62
7
  6
CONTINUOUS
 10
254.8929031919
 20
189.1386908068
 40
1.7827319001
100
AcDbArc
 50
45.4349102329
 51
67.565881117
  0
ARC
  5
53D
100
AcDbEntity
  8
RACCORDO
100
AcDbCircle
 62
7
  6
CONTINUOUS
 10
245.3121171919
 20
191.5869778068
 40
27.6
100
AcDbArc
 50
219.9085964306
 51
320.0914038802
  0
CIRCLE
  5
53E
100
AcDbEntity
  8
RACCORDO
100
AcDbCircle
 62
250
  6
CONTINUOUS
 10
245.3121171919
 20
192.6619778068
 40
3.2999977916
  0
CIRCLE
  5
53F
100
AcDbEntity
  8
RACCORDO
100
AcDbCircle
 62
7
  6
CONTINUOUS
 10
245.3121171919
 20
192.6619778068
 40
2.8
  0
ARC
  5
540
100
AcDbEntity
  8
ASSI
100
AcDbCircle
 62
7
  6
CONTINUOUS
 10
254.8121171919
 20
192.6619778068
 40
2.0240299518
100
AcDbArc
 50
292.0885283167
 51
273.4299069929
  0
CIRCLE
  5
541
100
AcDbEntity
  8
ASSI
100
AcDbCircle
 62
7
  6
CONTINUOUS
 10
254.8121171919
 20
192.6619778068
 40
1.700044
  0
ARC
  5
542
100
AcDbEntity
  8
ASSI
100
AcDbCircle
 62
7
  6
CONTINUOUS
 10
254.8121171919
 20
192.6619778068
 40
1.5204522959
100
AcDbArc
 50
134.9002633258
 51
240.6958764731
  0
ARC
  5
543
100
AcDbEntity
  8
ASSI
100
AcDbCircle
 62
7
  6
CONTINUOUS
 10
254.8121171919
 20
192.6619778068
 40
1.5204520975
100
AcDbArc
 50
299.3041235269
 51
44.9957610488
  0
ARC
  5
544
100
AcDbEntity
  8
ASSI
100
AcDbCircle
 62
7
  6
CONTINUOUS
 10
254.8121171919
 20
192.6619778068
 40
1.2181566122
100
AcDbArc
 50
299.3041277351
 51
31.9732965665
  0
ARC
  5
545
100
AcDbEntity
  8
ASSI
100
AcDbCircle
 62
7
  6
CONTINUOUS
 10
254.8121171919
 20
192.6619778068
 40
1.2181564327
100
AcDbArc
 50
148.0267046423
 51
240.6958722649
  0
ARC
  5
546
100
AcDbEntity
  8
RACCORDO
100
AcDbCircle
 62
7
  6
CONTINUOUS
 10
245.3121171919
 20
198.8119778068
 40
0.5
100
AcDbArc
 50
0.0
 51
26.178905884
  0
ARC
  5
547
100
AcDbEntity
  8
RACCORDO
100
AcDbCircle
 62
7
  6
CONTINUOUS
 10
245.3121171919
 20
198.8119778068
 40
0.5
100
AcDbArc
 50
153.8173251865
 51
179.9969573645
  0
ARC
  5
548
100
AcDbEntity
  8
RACCORDO
100
AcDbCircle
 62
7
  6
CONTINUOUS
 10
284.9121171919
 20
182.6619778068
 40
61.6
100
AcDbArc
 50
172.4256965869
 51
187.5743034903
  0
ELLIPSE
  5
549
100
AcDbEntity
  8
RACCORDO
100
AcDbEllipse
 62
7
  6
CONTINUOUS
 10
243.4830466849
 20
196.7168072146
 30
0.0
 11
-0.0
 21
1.0
 31
0.0
 40
0.0089014143
 41
-1.1090701776
 42
-0.5235987756
  0
ELLIPSE
  5
54A
100
AcDbEntity
  8
RACCORDO
100
AcDbEllipse
 62
7
  6
CONTINUOUS
 10
243.4800738387
 20
167.8369778068
 30
0.0
 11
0.0
 21
0.5
 31
0.0
 40
0.0089014143
 41
-2.7062250428
 42
-2.617993878
  0
ELLIPSE
  5
54B
100
AcDbEntity
  8
RACCORDO
100
AcDbEllipse
 62
7
  6
CONTINUOUS
 10
243.4830466849
 20
168.607148399
 30
0.0
 11
-0.0
 21
1.0
 31
0.0
 40
0.0089014143
 41
-2.617993878
 42
-2.032522476
  0
ELLIPSE
  5
54C
100
AcDbEntity
  8
RACCORDO
100
AcDbEllipse
 62
7
  6
CONTINUOUS
 10
247.1411876989
 20
168.607148399
 30
0.0
 11
0.0
 21
1.0
 31
0.0
 40
0.0089014143
 41
-4.2506628311
 42
-3.6651914292
  0
ELLIPSE
  5
54D
100
AcDbEntity
  8
RACCORDO
100
AcDbEllipse
 62
7
  6
CONTINUOUS
 10
247.1441605452
 20
167.8369778068
 30
0.0
 11
0.0
 21
0.5
 31
0.0
 40
0.0089014143
 41
-3.6651914292
 42
-3.522829698
  0
ELLIPSE
  5
54E
100
AcDbEntity
  8
RACCORDO
100
AcDbEllipse
 62
7
  6
CONTINUOUS
 10
247.1441605452
 20
197.4869778068
 30
0.0
 11
0.0
 21
0.5
 31
0.0
 40
0.0089014143
 41
0.4353676108
 42
0.5235987756
  0
ELLIPSE
  5
54F
100
AcDbEntity
  8
RACCORDO
100
AcDbEllipse
 62
7
  6
CONTINUOUS
 10
247.1411876989
 20
196.7168072146
 30
0.0
 11
-0.0
 21
1.0
 31
0.0
 40
0.0089014143
 41
0.5235987756
 42
1.1090701776
  0
ENDSEC
  0
SECTION
  2
OBJECTS
  0
DICTIONARY
  5
C
100
AcDbDictionary
280
0
281
1
  3
ACAD_GROUP
350
D
  3
ACAD_MLINESTYLE
350
17
  3
ACAD_LAYOUT
350
1A
  3
ACAD_PLOTSETTINGS
350
19
  3
ACAD_PLOTSTYLENAME
350
E
  0
DICTIONARY
  5
D
102
{ACAD_REACTORS
330
C
102
}
100
AcDbDictionary
280
0
281
1
  0
ACDBDICTIONARYWDFLT
  5
E
102
{ACAD_REACTORS
330
C
102
}
100
AcDbDictionary
281
1
  3
Normal
350
F
100
AcDbDictionaryWithDefault
340
F
  0
DICTIONARY
  5
17
102
{ACAD_REACTORS
330
C
102
}
100
AcDbDictionary
280
0
281
1
  3
Standard
350
18
  0
DICTIONARY
  5
19
102
{ACAD_REACTORS
330
C
102
}
100
AcDbDictionary
281
1
  0
DICTIONARY
  5
1A
102
{ACAD_REACTORS
330
C
102
}
100
AcDbDictionary
281
1
  3
Model
350
550
  3
Layout1
350
551
  0
ACDBPLACEHOLDER
  5
F
102
{ACAD_REACTORS
330
E
102
}
  0
MLINESTYLE
  5
18
102
{ACAD_REACTORS
330
17
102
}
100
AcDbMlineStyle
  2
STANDARD
 70
0
  3

 62
256
 51
90.0
 52
90.0
 71
2
 49
0.5
 62
256
  6
BYLAYER
 49
-0.5
 62
256
  6
BYLAYER
  0
LAYOUT
  5
550
102
{ACAD_REACTORS
330
1A
102
}
100
AcDbPlotSettings
  1

  2
none_device
  4
ANSI_C_(22.00_x_17.00_Inches)
  6

 40
0.0
 41
0.0
 42
0.0
 43
0.0
 44
558.8
 45
431.8
 46
0.0
 47
0.0
 48
0.0
 49
0.0
140
0.0
141
0.0
142
1.0
143
1.0
 70
1024
 72
1
 73
0
 74
0
  7

 75
0
147
1.0
148
0.0
149
0.0
100
AcDbLayout
  1
Model
 70
0
 71
0
 10
0.0
 20
0.0
 11
558.8
 21
431.8
 12
0.0
 22
0.0
 32
0.0
 14
0.0
 24
0.0
 34
0.0
 15
0.0
 25
0.0
 35
0.0
146
0.0
 13
0.0
 23
0.0
 33
0.0
 16
1.0
 26
0.0
 36
0.0
 17
0.0
 27
1.0
 37
0.0
 76
0
330
214
345
0
346
0
  0
LAYOUT
  5
551
102
{ACAD_REACTORS
330
1A
102
}
100
AcDbPlotSettings
  1

  2
none_device
  4
ANSI_C_(22.00_x_17.00_Inches)
  6

 40
0.0
 41
0.0
 42
0.0
 43
0.0
 44
558.8
 45
431.8
 46
0.0
 47
0.0
 48
0.0
 49
0.0
140
0.0
141
0.0
142
1.0
143
1.0
 70
0
 72
1
 73
0
 74
0
  7

 75
0
147
1.0
148
0.0
149
0.0
100
AcDbLayout
  1
Layout1
 70
0
 71
1
 10
0.0
 20
0.0
 11
558.8
 21
431.8
 12
0.0
 22
0.0
 32
0.0
 14
0.0
 24
0.0
 34
0.0
 15
0.0
 25
0.0
 35
0.0
146
0.0
 13
0.0
 23
0.0
 33
0.0
 16
1.0
 26
0.0
 36
0.0
 17
0.0
 27
1.0
 37
0.0
 76
0
330
215
345
0
346
0
  0
ENDSEC
  0
EOF
