  0
SECTION
  2
HEADER
  9
$ACADVER
  1
AC1024
  9
$DWGCODEPAGE
  3
ANSI_1252
  9
$EXTMAX
 10
297.0
 20
210.0
 30
0.0
  9
$EXTMIN
 10
0.0
 20
0.0
 30
0.0
  9
$LIMMIN
 10
0.0
 20
0.0
  9
$LIMMAX
 10
297.0
 20
210.0
  9
$VIEWCTR
 10
148.5
 20
105.0
  9
$VIEWSIZE
 40
210.0
  9
$CLAYER
  8
0
  9
$LTSCALE
 40
16.335
  9
$CELTYPE
  6
BYLAYER
  9
$DIMSCALE
 40
1.0
  9
$DIMASZ
 40
3.0
  9
$DIMEXO
 40
0.5
  9
$DIMDLI
 40
11.286
  9
$DIMEXE
 40
1.5
  9
$DIMCEN
 40
2.673
  9
$DIMLFAC
 40
1.0
  9
$DIMBLK
  1
_FILLED
  9
$DIMALT
 70
0
  9
$DIMALTF
 40
0.0393700787
  9
$DIMTXT
 40
3.0
  9
$DIMTOL
 70
1
  9
$DIMLIM
 70
0
  9
$DIMTFAC
 40
1.0
  9
$DIMTP
 40
0.01
  9
$DIMTM
 40
0.01
  9
$DIMGAP
 40
0.625
  9
$DIMDSEP
 70
44
  9
$AUNITS
 70
0
  9
$PDMODE
 70
3
  9
$PDSIZE
 40
3.0
  9
$HANDSEED
  5
600
  9
$TILEMODE
 70
1
  9
$MEASUREMENT
 70
1
  9
$INSUNITS
 70
4
  0
ENDSEC
  0
SECTION
  2
CLASSES
  0
CLASS
  1
ACDBDICTIONARYWDFLT
  2
AcDbDictionaryWithDefault
  3
AutoCAD 2000
 90
0
 91
1
280
0
281
0
  0
CLASS
  1
ACDBPLACEHOLDER
  2
AcDbPlaceHolder
  3
AutoCAD 2000
 90
0
 91
1
280
0
281
0
  0
CLASS
  1
LAYOUT
  2
AcDbLayout
  3
AutoCAD 2000
 90
0
 91
0
280
0
281
0
  0
ENDSEC
  0
SECTION
  2
TABLES
  0
TABLE
  2
VPORT
  5
8
100
AcDbSymbolTable
 70
2
  0
VPORT
  5
1F4
100
AcDbSymbolTableRecord
100
AcDbViewportTableRecord
  2
*ACTIVE
 70
0
 10
0.0
 20
0.0
 11
1.0
 21
1.0
 12
148.5
 22
105.0
 13
0.0
 23
0.0
 14
1.0
 24
1.0
 15
0.0
 25
0.0
 16
0.0
 26
0.0
 36
1.0
 17
0.0
 27
0.0
 37
0.0
 40
210.0
 41
1.4142857143
 42
50.0
 43
0.0
 44
0.0
 50
0.0
 51
0.0
 71
0
 72
100
 73
1
 74
1
 75
0
 76
0
 77
0
 78
0
  0
ENDTAB
  0
TABLE
  2
LTYPE
  5
5
100
AcDbSymbolTable
 70
6
  0
LTYPE
  5
14
100
AcDbSymbolTableRecord
100
AcDbLinetypeTableRecord
  2
BYBLOCK
 70
0
  3

 72
65
 73
0
 40
0.0
  0
LTYPE
  5
15
100
AcDbSymbolTableRecord
100
AcDbLinetypeTableRecord
  2
BYLAYER
 70
0
  3

 72
65
 73
0
 40
0.0
  0
LTYPE
  5
16
100
AcDbSymbolTableRecord
100
AcDbLinetypeTableRecord
  2
CONTINUOUS
 70
64
  3
Solid line
 72
65
 73
0
 40
0.0
  0
LTYPE
  5
1F5
100
AcDbSymbolTableRecord
100
AcDbLinetypeTableRecord
  2
CENTER
 70
64
  3
____ _ ____ _ ____ _ ____ _ ____ _ ____ _ ____
 72
65
 73
4
 40
0.6
 49
0.375
 74
0
 49
-0.075
 74
0
 49
0.075
 74
0
 49
-0.075
 74
0
  0
LTYPE
  5
1F6
100
AcDbSymbolTableRecord
100
AcDbLinetypeTableRecord
  2
HIDDEN
 70
64
  3
- - - - - - - - - - - - - - - - - - - -
 72
65
 73
2
 40
0.2
 49
0.1
 74
0
 49
-0.1
 74
0
  0
LTYPE
  5
1F7
100
AcDbSymbolTableRecord
100
AcDbLinetypeTableRecord
  2
PHANTOM
 70
64
  3
_____ _ _ _____ _ _ _____ _ _ _____
 72
65
 73
6
 40
0.8
 49
0.45
 74
0
 49
-0.05
 74
0
 49
0.1
 74
0
 49
-0.05
 74
0
 49
0.1
 74
0
 49
-0.05
 74
0
  0
LTYPE
  5
1F8
100
AcDbSymbolTableRecord
100
AcDbLinetypeTableRecord
  2
DOT
 70
64
  3
. . . . . . . . . . . . . . . . . . . .
 72
65
 73
2
 40
0.2
 49
0.1
 74
0
 49
-0.1
 74
0
  0
LTYPE
  5
1F9
100
AcDbSymbolTableRecord
100
AcDbLinetypeTableRecord
  2
DASHED
 70
64
  3
- - - - - - - - - - - - - - - - - - - -
 72
65
 73
2
 40
0.2
 49
0.1
 74
0
 49
-0.1
 74
0
  0
ENDTAB
  0
TABLE
  2
LAYER
  5
2
100
AcDbSymbolTable
 70
36
  0
LAYER
  5
10
100
AcDbSymbolTableRecord
100
AcDbLayerTableRecord
  2
0
 70
0
 62
7
  6
CONTINUOUS
370
-3
390
F
  0
LAYER
  5
1FA
100
AcDbSymbolTableRecord
100
AcDbLayerTableRecord
  2
DEFAULT_1
 70
0
 62
7
  6
CENTER
370
-3
390
F
  0
LAYER
  5
1FB
100
AcDbSymbolTableRecord
100
AcDbLayerTableRecord
  2
DEFAULT_2
 70
0
 62
7
  6
HIDDEN
370
-3
390
F
  0
LAYER
  5
1FC
100
AcDbSymbolTableRecord
100
AcDbLayerTableRecord
  2
DEFAULT_3
 70
0
 62
7
  6
PHANTOM
370
-3
390
F
  0
LAYER
  5
1FD
100
AcDbSymbolTableRecord
100
AcDbLayerTableRecord
  2
ASSI
 70
0
 62
7
  6
CONTINUOUS
370
-3
390
F
  0
LAYER
  5
1FE
100
AcDbSymbolTableRecord
100
AcDbLayerTableRecord
  2
COLOR5
 70
0
 62
7
  6
CONTINUOUS
370
-3
390
F
  0
LAYER
  5
1FF
100
AcDbSymbolTableRecord
100
AcDbLayerTableRecord
  2
COORDINATE
 70
0
 62
7
  6
CONTINUOUS
370
-3
390
F
  0
LAYER
  5
200
100
AcDbSymbolTableRecord
100
AcDbLayerTableRecord
  2
COORD_ORIGINE
 70
0
 62
7
  6
CONTINUOUS
370
-3
390
F
  0
LAYER
  5
201
100
AcDbSymbolTableRecord
100
AcDbLayerTableRecord
  2
COSMETICHE
 70
0
 62
7
  6
CONTINUOUS
370
-3
390
F
  0
LAYER
  5
202
100
AcDbSymbolTableRecord
100
AcDbLayerTableRecord
  2
COSMETICI
 70
0
 62
7
  6
CONTINUOUS
370
-3
390
F
  0
LAYER
  5
203
100
AcDbSymbolTableRecord
100
AcDbLayerTableRecord
  2
CURVE
 70
0
 62
7
  6
CONTINUOUS
370
-3
390
F
  0
LAYER
  5
204
100
AcDbSymbolTableRecord
100
AcDbLayerTableRecord
  2
DRAFT
 70
0
 62
7
  6
CONTINUOUS
370
-3
390
F
  0
LAYER
  5
205
100
AcDbSymbolTableRecord
100
AcDbLayerTableRecord
  2
IGES
 70
0
 62
7
  6
CONTINUOUS
370
-3
390
F
  0
LAYER
  5
206
100
AcDbSymbolTableRecord
100
AcDbLayerTableRecord
  2
INTF_1
 70
0
 62
7
  6
CONTINUOUS
370
-3
390
F
  0
LAYER
  5
207
100
AcDbSymbolTableRecord
100
AcDbLayerTableRecord
  2
INTF_11
 70
0
 62
7
  6
CONTINUOUS
370
-3
390
F
  0
LAYER
  5
208
100
AcDbSymbolTableRecord
100
AcDbLayerTableRecord
  2
INTF_2
 70
0
 62
7
  6
CONTINUOUS
370
-3
390
F
  0
LAYER
  5
209
100
AcDbSymbolTableRecord
100
AcDbLayerTableRecord
  2
INTF_3
 70
0
 62
7
  6
CONTINUOUS
370
-3
390
F
  0
LAYER
  5
20A
100
AcDbSymbolTableRecord
100
AcDbLayerTableRecord
  2
LAYER_2695
 70
0
 62
7
  6
CONTINUOUS
370
-3
390
F
  0
LAYER
  5
20B
100
AcDbSymbolTableRecord
100
AcDbLayerTableRecord
  2
NOTE
 70
0
 62
7
  6
CONTINUOUS
370
-3
390
F
  0
LAYER
  5
20C
100
AcDbSymbolTableRecord
100
AcDbLayerTableRecord
  2
PIANI
 70
0
 62
7
  6
CONTINUOUS
370
-3
390
F
  0
LAYER
  5
20D
100
AcDbSymbolTableRecord
100
AcDbLayerTableRecord
  2
PIANI_ORIGINE
 70
0
 62
7
  6
CONTINUOUS
370
-3
390
F
  0
LAYER
  5
20E
100
AcDbSymbolTableRecord
100
AcDbLayerTableRecord
  2
PUNTI
 70
0
 62
7
  6
CONTINUOUS
370
-3
390
F
  0
LAYER
  5
20F
100
AcDbSymbolTableRecord
100
AcDbLayerTableRecord
  2
RACCORDO
 70
0
 62
7
  6
CONTINUOUS
370
-3
390
F
  0
LAYER
  5
210
100
AcDbSymbolTableRecord
100
AcDbLayerTableRecord
  2
SIMBOLI
 70
0
 62
7
  6
CONTINUOUS
370
-3
390
F
  0
LAYER
  5
211
100
AcDbSymbolTableRecord
100
AcDbLayerTableRecord
  2
SMUSSO
 70
0
 62
7
  6
CONTINUOUS
370
-3
390
F
  0
LAYER
  5
212
100
AcDbSymbolTableRecord
100
AcDbLayerTableRecord
  2
SNAPLINE
 70
0
 62
7
  6
CONTINUOUS
370
-3
390
F
  0
LAYER
  5
213
100
AcDbSymbolTableRecord
100
AcDbLayerTableRecord
  2
SOLIDO
 70
0
 62
7
  6
CONTINUOUS
370
-3
390
F
  0
LAYER
  5
214
100
AcDbSymbolTableRecord
100
AcDbLayerTableRecord
  2
SUPERFICI
 70
0
 62
7
  6
CONTINUOUS
370
-3
390
F
  0
LAYER
  5
215
100
AcDbSymbolTableRecord
100
AcDbLayerTableRecord
  2
TRASH
 70
0
 62
7
  6
CONTINUOUS
370
-3
390
F
  0
LAYER
  5
216
100
AcDbSymbolTableRecord
100
AcDbLayerTableRecord
  2
XSEC_DATUMS
 70
0
 62
7
  6
CONTINUOUS
370
-3
390
F
  0
ENDTAB
  0
TABLE
  2
STYLE
  5
3
100
AcDbSymbolTable
 70
1
  0
STYLE
  5
11
100
AcDbSymbolTableRecord
100
AcDbTextStyleTableRecord
  2
STANDARD
 70
0
 40
0.0
 41
0.8
 50
0.0
 71
0
 42
0.2
  3
txt
  4

  0
STYLE
  5
217
100
AcDbSymbolTableRecord
100
AcDbTextStyleTableRecord
  2
TEXTSTYLE_1
 70
0
 40
0.0
 41
0.8
 50
0.0
 71
0
 42
0.2
  3
gdt
  4

  0
ENDTAB
  0
TABLE
  2
VIEW
  5
6
100
AcDbSymbolTable
 70
0
  0
ENDTAB
  0
TABLE
  2
UCS
  5
7
100
AcDbSymbolTable
 70
0
  0
ENDTAB
  0
TABLE
  2
APPID
  5
9
100
AcDbSymbolTable
 70
1
  0
APPID
  5
218
100
AcDbSymbolTableRecord
100
AcDbRegAppTableRecord
  2
ACAD
 70
0
  0
ENDTAB
  0
TABLE
  2
BLOCK_RECORD
  5
1
100
AcDbSymbolTable
 70
0
  0
BLOCK_RECORD
  5
219
100
AcDbSymbolTableRecord
100
AcDbBlockTableRecord
  2
*Model_Space
  0
BLOCK_RECORD
  5
21A
100
AcDbSymbolTableRecord
100
AcDbBlockTableRecord
  2
*Paper_Space
  0
BLOCK_RECORD
  5
21B
100
AcDbSymbolTableRecord
100
AcDbBlockTableRecord
  2
_FILLED
  0
ENDTAB
  0
TABLE
  2
DIMSTYLE
  5
A
100
AcDbSymbolTable
 70
1
100
AcDbDimStyleTable
 71
0
  0
DIMSTYLE
105
21C
100
AcDbSymbolTableRecord
100
AcDbDimStyleTableRecord
  2
STANDARD
 70
0
  3

  4

 40
1.0
 41
3.0
 42
0.5
 43
0.38
 44
1.5
 45
0.0
 46
0.0
 47
0.01
 48
0.01
140
3.0
141
0.09
142
0.0
143
25.4
144
1.0
145
0.0
146
1.0
147
0.625
 71
1
 72
0
 73
0
 74
0
 75
0
 76
0
 77
1
 78
8
 79
2
170
0
171
1
172
0
173
0
174
0
175
0
176
0
177
0
178
0
270
2
179
2
271
2
272
2
273
2
274
2
275
0
280
0
281
0
282
0
283
1
284
8
285
0
286
0
287
3
288
0
340
11
278
44
341
21B
342
21B
343
21B
344
21B
  0
ENDTAB
  0
ENDSEC
  0
SECTION
  2
BLOCKS
  0
BLOCK
  5
20
100
AcDbEntity
  8
0
100
AcDbBlockBegin
  2
*Model_Space
 70
0
 10
0.0
 20
0.0
 30
0.0
  3
*Model_Space
  1

  0
ENDBLK
  5
21
100
AcDbEntity
  8
0
100
AcDbBlockEnd
  0
BLOCK
  5
1C
100
AcDbEntity
  8
0
100
AcDbBlockBegin
  2
*Paper_Space
 70
0
 10
0.0
 20
0.0
 30
0.0
  3
*Paper_Space
  1

  0
ENDBLK
  5
1D
100
AcDbEntity
  8
0
100
AcDbBlockEnd
  0
BLOCK
  5
21D
100
AcDbEntity
  8
0
100
AcDbBlockBegin
  2
_FILLED
 70
64
 10
0.0
 20
0.0
  3
_FILLED
  1

  0
SOLID
  5
21E
100
AcDbEntity
  8
0
  6
BYBLOCK
 62
0
100
AcDbTrace
 10
0.0
 20
0.0
 11
-1.0
 21
0.3166666667
 12
-1.0
 22
-0.3166666667
 13
-1.0
 23
-0.3166666667
  0
ENDBLK
  5
21F
100
AcDbEntity
  8
0
  6
BYBLOCK
 62
0
100
AcDbBlockEnd
  0
ENDSEC
  0
SECTION
  2
ENTITIES
  0
LINE
  5
220
100
AcDbEntity
  8
0
100
AcDbLine
 62
7
  6
CONTINUOUS
 10
5.3478718197
 20
-21.7447755648
 11
5.3515724378
 21
-21.7439491853
  0
LINE
  5
221
100
AcDbEntity
  8
0
100
AcDbLine
 62
7
  6
CONTINUOUS
 10
5.9136422337
 20
-21.68001845
 11
5.7928472066
 21
-21.6998889473
  0
LINE
  5
222
100
AcDbEntity
  8
0
100
AcDbLine
 62
7
  6
CONTINUOUS
 10
5.5656443365
 20
-21.7260424231
 11
5.7922325769
 21
-21.6999909341
  0
LINE
  5
223
100
AcDbEntity
  8
0
100
AcDbLine
 62
7
  6
CONTINUOUS
 10
5.3395629724
 20
-21.7508914017
 11
5.5656443365
 21
-21.7260424231
  0
LINE
  5
224
100
AcDbEntity
  8
0
100
AcDbLine
 62
7
  6
CONTINUOUS
 10
5.3397617878
 20
-21.7506738132
 11
5.2999981197
 21
-21.7549279632
  0
LINE
  5
225
100
AcDbEntity
  8
IGES
100
AcDbLine
 62
7
  6
CONTINUOUS
 10
-5.3397596627
 20
-21.7506730442
 11
-5.2999959945
 21
-21.7549271942
  0
LINE
  5
226
100
AcDbEntity
  8
IGES
100
AcDbLine
 62
7
  6
CONTINUOUS
 10
-5.3395608496
 20
-21.7508906326
 11
-5.5656422127
 21
-21.7260416542
  0
LWPOLYLINE
  5
227
100
AcDbEntity
  8
IGES
100
AcDbPolyline
 62
7
  6
CONTINUOUS
 90
3
 70
0
 10
-5.5656422127
 20
-21.7260416542
 10
-5.7522183191
 20
-21.7046490907
 10
-5.792230452
 20
-21.6999901652
  0
LINE
  5
228
100
AcDbEntity
  8
IGES
100
AcDbLine
 62
7
  6
CONTINUOUS
 10
-5.9136401085
 20
-21.680017681
 11
-5.7928450814
 21
-21.6998881783
  0
LINE
  5
229
100
AcDbEntity
  8
IGES
100
AcDbLine
 62
7
  6
CONTINUOUS
 10
-5.3478710337
 20
-21.7447745017
 11
-5.3515702839
 21
-21.7439484225
  0
LWPOLYLINE
  5
22A
100
AcDbEntity
  8
IGES
100
AcDbPolyline
 62
7
  6
CONTINUOUS
 90
4
 70
0
 10
-6.2566009477
 20
-21.5543443549
 10
-6.1461510646
 20
-21.6070556521
 10
-6.0316456194
 20
-21.6489972431
 10
-5.9136401085
 20
-21.680017681
  0
LINE
  5
22B
100
AcDbEntity
  8
IGES
100
AcDbLine
 62
7
  6
CONTINUOUS
 10
-5.1528458952
 20
19.9174880945
 11
-5.1791885754
 21
19.9008482121
  0
LINE
  5
22C
100
AcDbEntity
  8
IGES
100
AcDbLine
 62
7
  6
CONTINUOUS
 10
-4.9668361226
 20
20.0173335952
 11
-5.1528458952
 21
19.9174880945
  0
LINE
  5
22D
100
AcDbEntity
  8
IGES
100
AcDbLine
 62
7
  6
CONTINUOUS
 10
-4.7601987887
 20
20.1123742515
 11
-4.9668361226
 21
20.0173335952
  0
LINE
  5
22E
100
AcDbEntity
  8
IGES
100
AcDbLine
 62
250
  6
CONTINUOUS
 10
-5.8597977304
 20
-20.5883233236
 11
-6.354789523
 21
-20.6589710301
  0
LWPOLYLINE
  5
22F
100
AcDbEntity
  8
0
100
AcDbPolyline
 62
250
  6
CONTINUOUS
 90
10
 70
0
 10
5.1510516812
 20
-21.2710738228
 10
5.2138788091
 20
-21.2623440046
 10
5.2740362181
 20
-21.2495902118
 10
5.3315239082
 20
-21.2328124447
 10
5.3858626632
 20
-21.2122549739
 10
5.4375316993
 20
-21.1876735287
 10
5.4879686652
 20
-21.1583352964
 10
5.537652777
 20
-21.1239960063
 10
5.5861048186
 20
-21.0848999291
 10
5.63332479
 20
-21.0410470649
  0
LINE
  5
230
100
AcDbEntity
  8
0
100
AcDbLine
 62
7
  6
CONTINUOUS
 10
4.6319820141
 20
-20.0066925522
 11
5.0516782519
 21
-19.9645209918
  0
LWPOLYLINE
  5
231
100
AcDbEntity
  8
IGES
100
AcDbPolyline
 62
250
  6
CONTINUOUS
 90
6
 70
0
 10
-5.2965901263
 20
-21.7545910833
 10
-5.2970357904
 20
-21.7546244248
 10
-5.2977509064
 20
-21.7548305468
 10
-5.2985630788
 20
-21.7551065927
 10
-5.2992823065
 20
-21.7553146812
 10
-5.2997110497
 20
-21.7553538109
  0
LWPOLYLINE
  5
232
100
AcDbEntity
  8
0
100
AcDbPolyline
 62
250
  6
CONTINUOUS
 90
10
 70
0
 10
0.0000243283
 20
-21.5396869766
 10
0.5748091157
 20
-21.5363225142
 10
1.1489075013
 20
-21.5263381665
 10
1.7223194851
 20
-21.5097339335
 10
2.2949460031
 20
-21.4865104492
 10
2.8668861193
 20
-21.4566670796
 10
3.438437026
 20
-21.4202019224
 10
4.0096977873
 20
-21.3771143435
 10
4.580569339
 20
-21.327404977
 10
5.1510516812
 20
-21.2710738228
  0
LWPOLYLINE
  5
233
100
AcDbEntity
  8
0
100
AcDbPolyline
 62
7
  6
CONTINUOUS
 90
12
 70
0
 10
0.0000097246
 20
-20.2295217513
 10
0.4218466164
 20
-20.2276747227
 10
0.8435720544
 20
-20.2221392091
 10
1.2651860387
 20
-20.2129152106
 10
1.6867170205
 20
-20.2000014297
 10
2.1081365486
 20
-20.1833991638
 10
2.5293592687
 20
-20.163112305
 10
2.9503831614
 20
-20.1391236874
 10
3.3712102462
 20
-20.1114504769
 10
3.7917612272
 20
-20.0801480631
 10
4.2120096725
 20
-20.0452349093
 10
4.6319820141
 20
-20.0066925522
  0
LINE
  5
234
100
AcDbEntity
  8
0
100
AcDbLine
 62
7
  6
CONTINUOUS
 10
4.6518136853
 20
-19.964520185
 11
5.05
 21
-19.964520185
  0
LINE
  5
235
100
AcDbEntity
  8
0
100
AcDbLine
 62
7
  6
CONTINUOUS
 10
-4.6518146392
 20
-19.964520185
 11
-5.05
 21
-19.964520185
  0
LWPOLYLINE
  5
236
100
AcDbEntity
  8
0
100
AcDbPolyline
 62
7
  6
CONTINUOUS
 90
12
 70
0
 10
-0.0000092701
 20
-20.2295209823
 10
-0.421846162
 20
-20.2276739537
 10
-0.8435716
 20
-20.2221384401
 10
-1.2651855842
 20
-20.2129144416
 10
-1.6867165661
 20
-20.2000006607
 10
-2.1081360941
 20
-20.1833983948
 10
-2.5293588143
 20
-20.163111536
 10
-2.950382707
 20
-20.1391229184
 10
-3.3712097917
 20
-20.1114497079
 10
-3.7917607727
 20
-20.0801472941
 10
-4.212009218
 20
-20.0452341403
 10
-4.6319815596
 20
-20.0066917832
  0
LWPOLYLINE
  5
237
100
AcDbEntity
  8
IGES
100
AcDbPolyline
 62
250
  6
CONTINUOUS
 90
10
 70
0
 10
-0.0000238738
 20
-21.5396862076
 10
-0.5748086612
 20
-21.5363217452
 10
-1.1489070468
 20
-21.5263373975
 10
-1.7223190307
 20
-21.5097331645
 10
-2.2949455487
 20
-21.4865096802
 10
-2.8668856649
 20
-21.4566663106
 10
-3.4384365716
 20
-21.4202011534
 10
-4.0096973328
 20
-21.3771135745
 10
-4.5805688845
 20
-21.327404208
 10
-5.1510512267
 20
-21.2710730538
  0
LWPOLYLINE
  5
238
100
AcDbEntity
  8
0
100
AcDbPolyline
 62
250
  6
CONTINUOUS
 90
6
 70
0
 10
5.2965922553
 20
-21.7545918507
 10
5.2970379117
 20
-21.7546251937
 10
5.2977530284
 20
-21.7548313158
 10
5.2985652014
 20
-21.7551073616
 10
5.2992844297
 20
-21.7553154501
 10
5.29971317
 20
-21.7553545804
  0
LINE
  5
239
100
AcDbEntity
  8
0
100
AcDbLine
 62
7
  6
CONTINUOUS
 10
-4.6319815596
 20
-20.0066917832
 11
-5.0516777974
 21
-19.9645202228
  0
LWPOLYLINE
  5
23A
100
AcDbEntity
  8
IGES
100
AcDbPolyline
 62
250
  6
CONTINUOUS
 90
10
 70
0
 10
-5.1510512267
 20
-21.2710730538
 10
-5.2138783546
 20
-21.2623432356
 10
-5.2740357636
 20
-21.2495894429
 10
-5.3315234537
 20
-21.2328116757
 10
-5.3858622087
 20
-21.2122542049
 10
-5.4375312449
 20
-21.1876727597
 10
-5.4879682107
 20
-21.1583345274
 10
-5.5376523226
 20
-21.1239952373
 10
-5.5861043642
 20
-21.0848991601
 10
-5.6333243355
 20
-21.0410462959
  0
LINE
  5
23B
100
AcDbEntity
  8
0
100
AcDbLine
 62
250
  6
CONTINUOUS
 10
5.8597981848
 20
-20.5883240926
 11
6.3547900225
 21
-20.6589717991
  0
LINE
  5
23C
100
AcDbEntity
  8
IGES
100
AcDbLine
 62
250
  6
CONTINUOUS
 10
-7.1321387329
 20
-17.6013923671
 11
-7.6258287103
 21
-17.6805224053
  0
LINE
  5
23D
100
AcDbEntity
  8
IGES
100
AcDbLine
 62
250
  6
CONTINUOUS
 10
-6.2025395455
 20
-17.063000992
 11
-6.701869523
 21
-17.0889910301
  0
LINE
  5
23E
100
AcDbEntity
  8
RACCORDO
100
AcDbLine
 62
250
  6
CONTINUOUS
 10
-3.4354784301
 20
-15.139520185
 11
-3.2854841282
 21
-15.1395202076
  0
LINE
  5
23F
100
AcDbEntity
  8
RACCORDO
100
AcDbLine
 62
250
  6
CONTINUOUS
 10
3.4354778316
 20
-15.139520185
 11
3.285483912
 21
-15.1395202076
  0
LINE
  5
240
100
AcDbEntity
  8
RACCORDO
100
AcDbLine
 62
250
  6
CONTINUOUS
 10
3.1
 20
-15.139520992
 11
3.2500000135
 21
-15.1395210149
  0
LINE
  5
241
100
AcDbEntity
  8
RACCORDO
100
AcDbLine
 62
250
  6
CONTINUOUS
 10
-3.1
 20
-15.139520992
 11
-3.2499999865
 21
-15.1395210145
  0
LINE
  5
242
100
AcDbEntity
  8
0
100
AcDbLine
 62
250
  6
CONTINUOUS
 10
6.20254
 20
-17.063001761
 11
6.7018700225
 21
-17.0889917991
  0
LINE
  5
243
100
AcDbEntity
  8
0
100
AcDbLine
 62
250
  6
CONTINUOUS
 10
7.1321408126
 20
-17.6013931361
 11
7.6258308352
 21
-17.6805231743
  0
LINE
  5
244
100
AcDbEntity
  8
0
100
AcDbLine
 62
250
  6
CONTINUOUS
 10
6.4020308126
 20
-20.6593231361
 11
6.8769308353
 21
-20.8159631744
  0
LWPOLYLINE
  5
245
100
AcDbEntity
  8
IGES
100
AcDbPolyline
 62
250
  6
CONTINUOUS
 90
3
 70
0
 10
-7.7353215597
 20
-18.0156869041
 10
-7.6982181031
 20
-18.0522872526
 10
-7.6633896255
 20
-18.0724605347
  0
LWPOLYLINE
  5
246
100
AcDbEntity
  8
IGES
100
AcDbPolyline
 62
250
  6
CONTINUOUS
 90
3
 70
0
 10
-6.3387883049
 20
-20.8033528829
 10
-6.3277147135
 20
-20.821724417
 10
-6.315230422
 20
-20.8412115415
  0
LWPOLYLINE
  5
247
100
AcDbEntity
  8
IGES
100
AcDbPolyline
 62
250
  6
CONTINUOUS
 90
4
 70
0
 10
-7.8619213607
 20
-17.798719189
 10
-7.8170982633
 20
-17.889364059
 10
-7.7748908674
 20
-17.961725526
 10
-7.7353215597
 20
-18.0156869041
  0
LINE
  5
248
100
AcDbEntity
  8
IGES
100
AcDbLine
 62
7
  6
CONTINUOUS
 10
-6.5910661832
 20
18.503144764
 11
-6.5935371891
 21
18.4952497272
  0
LWPOLYLINE
  5
249
100
AcDbEntity
  8
IGES
100
AcDbPolyline
 62
7
  6
CONTINUOUS
 90
6
 70
0
 10
-6.5910661832
 20
18.503144764
 10
-6.5521529021
 20
18.6239163642
 10
-6.5118657799
 20
18.7427205405
 10
-6.4716432692
 20
18.8558167565
 10
-6.4316143831
 20
18.9634891453
 10
-6.4142398022
 20
19.0088238887
  0
LWPOLYLINE
  5
24A
100
AcDbEntity
  8
IGES
100
AcDbPolyline
 62
7
  6
CONTINUOUS
 90
5
 70
0
 10
-7.152255731
 20
16.7516681046
 10
-6.8930669492
 20
17.554671473
 10
-6.7654190053
 20
17.952398375
 10
-6.6359318881
 20
18.3602881838
 10
-6.5936998665
 20
18.4946195236
  0
LINE
  5
24B
100
AcDbEntity
  8
IGES
100
AcDbLine
 62
250
  6
CONTINUOUS
 10
-6.4529358904
 20
18.8918513302
 11
-6.4146834136
 21
19.0076803031
  0
LWPOLYLINE
  5
24C
100
AcDbEntity
  8
IGES
100
AcDbPolyline
 62
250
  6
CONTINUOUS
 90
3
 70
0
 10
-6.4529358904
 20
18.8918513302
 10
-6.5307832223
 20
18.6840673122
 10
-6.5910661832
 20
18.503144764
  0
LWPOLYLINE
  5
24D
100
AcDbEntity
  8
IGES
100
AcDbPolyline
 62
7
  6
CONTINUOUS
 90
21
 70
0
 10
-6.4146834136
 20
19.0076803031
 10
-6.4003561466
 20
19.04384875
 10
-6.3844827039
 20
19.081694079
 10
-6.3667842639
 20
19.1212019518
 10
-6.3456549838
 20
19.1649398069
 10
-6.3198524275
 20
19.2138997031
 10
-6.2890696878
 20
19.2668980898
 10
-6.2529354368
 20
19.3229303367
 10
-6.2104895443
 20
19.3818328407
 10
-6.1611740089
 20
19.4426855984
 10
-6.1056065548
 20
19.5033306178
 10
-6.0433716592
 20
19.5630873768
 10
-5.9740959147
 20
19.6211766144
 10
-5.8990719233
 20
19.6756323449
 10
-5.8184042656
 20
19.7257617946
 10
-5.7319825931
 20
19.7709969737
 10
-5.6412747334
 20
19.8100809594
 10
-5.5465199695
 20
19.8425819989
 10
-5.447975629
 20
19.8680537429
 10
-5.3474663938
 20
19.8858243043
 10
-5.2737224668
 20
19.8938186977
  0
LWPOLYLINE
  5
24E
100
AcDbEntity
  8
IGES
100
AcDbPolyline
 62
250
  6
CONTINUOUS
 90
16
 70
0
 10
-6.6775138959
 20
17.4378558578
 10
-6.6529806218
 20
17.4984649038
 10
-6.6185968769
 20
17.5561714575
 10
-6.5745077361
 20
17.6106532441
 10
-6.5206658067
 20
17.6617612798
 10
-6.4574411172
 20
17.708917736
 10
-6.3859465914
 20
17.7512938805
 10
-6.3068676146
 20
17.7886177594
 10
-6.2206296726
 20
17.8207548066
 10
-6.1283785057
 20
17.8473427713
 10
-6.0308390547
 20
17.8682642262
 10
-5.9285767728
 20
17.8834433718
 10
-5.822661106
 20
17.892762482
 10
-5.7138913492
 20
17.8962121551
 10
-5.6027269413
 20
17.8938112845
 10
-5.4897424713
 20
17.8855709719
  0
LINE
  5
24F
100
AcDbEntity
  8
IGES
100
AcDbLine
 62
250
  6
CONTINUOUS
 10
-6.4381443213
 20
18.9256513081
 11
-6.4529358904
 21
18.8918513302
  0
LINE
  5
250
100
AcDbEntity
  8
IGES
100
AcDbLine
 62
250
  6
CONTINUOUS
 10
-9.0209664813
 20
6.4202205022
 11
-8.9561399725
 21
6.5555337684
  0
LWPOLYLINE
  5
251
100
AcDbEntity
  8
IGES
100
AcDbPolyline
 62
250
  6
CONTINUOUS
 90
16
 70
0
 10
-6.7799985499
 20
16.8977173233
 10
-6.7566873482
 20
16.9451399041
 10
-6.723255214
 20
16.9897582943
 10
-6.679844364
 20
17.0313155466
 10
-6.6264023775
 20
17.0696869283
 10
-6.5633004108
 20
17.1044165784
 10
-6.491675952
 20
17.1348805936
 10
-6.4122357949
 20
17.1608907924
 10
-6.325422027
 20
17.1823577693
 10
-6.2324201459
 20
17.1990419808
 10
-6.1339828803
 20
17.2108839399
 10
-6.0306941276
 20
17.2178507741
 10
-5.9236573638
 20
17.2199014086
 10
-5.8137008419
 20
17.2170696901
 10
-5.7013033414
 20
17.2093950768
 10
-5.5870608745
 20
17.1969168768
  0
LWPOLYLINE
  5
252
100
AcDbEntity
  8
IGES
100
AcDbPolyline
 62
250
  6
CONTINUOUS
 90
13
 70
0
 10
-6.8079706538
 20
9.977720511
 10
-6.7768095171
 20
10.0321073023
 10
-6.7444445277
 20
10.0834352549
 10
-6.7108756856
 20
10.1317043689
 10
-6.6761082824
 20
10.1772005826
 10
-6.6401370265
 20
10.2196379577
 10
-6.6029460436
 20
10.258158679
 10
-6.5643651656
 20
10.2928468
 10
-6.5245645605
 20
10.3236182672
 10
-6.4840388583
 20
10.3493631043
 10
-6.4429529355
 20
10.3697113192
 10
-6.4011419156
 20
10.3850329041
 10
-6.3586057985
 20
10.3953278589
  0
LINE
  5
253
100
AcDbEntity
  8
IGES
100
AcDbLine
 62
250
  6
CONTINUOUS
 10
-8.9561399725
 20
6.5555337684
 11
-8.8904806772
 21
6.6553537546
  0
LWPOLYLINE
  5
254
100
AcDbEntity
  8
IGES
100
AcDbPolyline
 62
250
  6
CONTINUOUS
 90
10
 70
0
 10
-7.1049110862
 20
10.1423037861
 10
-7.1930558049
 20
10.022569689
 10
-7.2753804619
 20
9.892941149
 10
-7.3515555194
 20
9.7536150786
 10
-7.4211323836
 20
9.6047525915
 10
-7.4840310572
 20
9.4465578844
 10
-7.5403653219
 20
9.2792339409
 10
-7.5898405448
 20
9.1029253412
 10
-7.6319092807
 20
8.9177824585
 10
-7.6661513035
 20
8.7239850758
  0
LWPOLYLINE
  5
255
100
AcDbEntity
  8
IGES
100
AcDbPolyline
 62
250
  6
CONTINUOUS
 90
16
 70
0
 10
-7.2568165994
 20
13.7345998971
 10
-7.2324395042
 20
13.7639918943
 10
-7.1981739156
 20
13.7927129784
 10
-7.1541947664
 20
13.8205473165
 10
-7.100482997
 20
13.8473331323
 10
-7.0374294246
 20
13.8727453248
 10
-6.9661579615
 20
13.8964244727
 10
-6.8873939412
 20
13.9182544663
 10
-6.8015456564
 20
13.9381068087
 10
-6.7096492446
 20
13.9557782891
 10
-6.6123953853
 20
13.9712219731
 10
-6.5103293084
 20
13.9843586677
 10
-6.404388687
 20
13.9950377959
 10
-6.2952949098
 20
14.0032154939
 10
-6.1835007096
 20
14.0089115689
 10
-6.0695426644
 20
14.0121147374
  0
LINE
  5
256
100
AcDbEntity
  8
IGES
100
AcDbLine
 62
250
  6
CONTINUOUS
 10
-8.88326193
 20
6.6639631943
 11
-8.8904806772
 21
6.6553537546
  0
LINE
  5
257
100
AcDbEntity
  8
IGES
100
AcDbLine
 62
250
  6
CONTINUOUS
 10
-8.6985119312
 20
6.4235846125
 11
-8.6895939478
 21
6.4342123446
  0
LINE
  5
258
100
AcDbEntity
  8
0
100
AcDbLine
 62
7
  6
CONTINUOUS
 10
-8.1128426936
 20
-14.51028771
 11
-8.1385078556
 21
-14.51028771
  0
LINE
  5
259
100
AcDbEntity
  8
0
100
AcDbLine
 62
7
  6
CONTINUOUS
 10
-8.1232963067
 20
-14.4360823246
 11
-8.1515964482
 21
-14.4360823246
  0
LINE
  5
25A
100
AcDbEntity
  8
0
100
AcDbLine
 62
7
  6
CONTINUOUS
 10
-6.8347395964
 20
-14.1653017115
 11
-6.8647621462
 21
-14.1653017115
  0
LINE
  5
25B
100
AcDbEntity
  8
0
100
AcDbLine
 62
7
  6
CONTINUOUS
 10
6.8347407213
 20
-14.165302176
 11
6.8647632712
 21
-14.165302176
  0
LINE
  5
25C
100
AcDbEntity
  8
ASSI
100
AcDbLine
 62
7
  6
CONTINUOUS
 10
-6.8686584197
 20
-14.0642267073
 11
-6.8386364019
 21
-14.0642267073
  0
LINE
  5
25D
100
AcDbEntity
  8
0
100
AcDbLine
 62
7
  6
CONTINUOUS
 10
-8.2696876742
 20
-13.4916114265
 11
-8.2475814281
 21
-13.4916114268
  0
LINE
  5
25E
100
AcDbEntity
  8
0
100
AcDbLine
 62
7
  6
CONTINUOUS
 10
6.864310642
 20
-13.365262176
 11
6.8943291546
 21
-13.365262176
  0
LINE
  5
25F
100
AcDbEntity
  8
0
100
AcDbLine
 62
7
  6
CONTINUOUS
 10
-8.300522348
 20
-13.0444262589
 11
-8.3277477471
 21
-13.0444262589
  0
LINE
  5
260
100
AcDbEntity
  8
0
100
AcDbLine
 62
7
  6
CONTINUOUS
 10
-6.8822209932
 20
-12.837481407
 11
-6.912237061
 21
-12.837481407
  0
LINE
  5
261
100
AcDbEntity
  8
DRAFT
100
AcDbLine
 62
7
  6
CONTINUOUS
 10
3.2750003555
 20
-12.7895203905
 11
3.2500000135
 21
-12.7895203905
  0
LINE
  5
262
100
AcDbEntity
  8
DRAFT
100
AcDbLine
 62
7
  6
CONTINUOUS
 10
-3.2499999865
 20
-12.7895203905
 11
-3.2750003555
 21
-12.7895203905
  0
LINE
  5
263
100
AcDbEntity
  8
0
100
AcDbLine
 62
7
  6
CONTINUOUS
 10
-8.3422646826
 20
-12.5471404405
 11
-8.3925847465
 21
-12.5471404405
  0
LINE
  5
264
100
AcDbEntity
  8
0
100
AcDbLine
 62
7
  6
CONTINUOUS
 10
6.893604226
 20
-12.4809423857
 11
6.9236187403
 21
-12.4809423857
  0
LINE
  5
265
100
AcDbEntity
  8
0
100
AcDbLine
 62
7
  6
CONTINUOUS
 10
-8.4146923765
 20
-11.8387873598
 11
-8.4649418319
 21
-11.8387873598
  0
LINE
  5
266
100
AcDbEntity
  8
0
100
AcDbLine
 62
7
  6
CONTINUOUS
 10
6.9193374696
 20
-11.596632176
 11
6.9493484723
 21
-11.596632176
  0
LINE
  5
267
100
AcDbEntity
  8
0
100
AcDbLine
 62
7
  6
CONTINUOUS
 10
-8.4636848011
 20
-11.2878461915
 11
-8.5138884693
 21
-11.2878461915
  0
LINE
  5
268
100
AcDbEntity
  8
0
100
AcDbLine
 62
7
  6
CONTINUOUS
 10
-8.4859268514
 20
-11.0254930141
 11
-8.5361109685
 21
-11.0254930141
  0
LINE
  5
269
100
AcDbEntity
  8
0
100
AcDbLine
 62
7
  6
CONTINUOUS
 10
-6.9355605577
 20
-10.964081407
 11
-6.9655693468
 21
-10.964081407
  0
LINE
  5
26A
100
AcDbEntity
  8
0
100
AcDbLine
 62
7
  6
CONTINUOUS
 10
-8.4942263231
 20
-10.8715004929
 11
-8.5444033473
 21
-10.8715004929
  0
LINE
  5
26B
100
AcDbEntity
  8
0
100
AcDbLine
 62
7
  6
CONTINUOUS
 10
6.9395525631
 20
-10.796592176
 11
6.9695608078
 21
-10.796592176
  0
LWPOLYLINE
  5
26C
100
AcDbEntity
  8
0
100
AcDbPolyline
 62
250
  6
CONTINUOUS
 90
10
 70
0
 10
7.6265773108
 20
-18.0647566315
 10
7.6308727867
 20
-18.0669884667
 10
7.6350461904
 20
-18.0688454754
 10
7.6390971505
 20
-18.0703456225
 10
7.6429307666
 20
-18.0715028287
 10
7.6466401761
 20
-18.0723491254
 10
7.6505097641
 20
-18.0728929895
 10
7.6546372542
 20
-18.0731072846
 10
7.6589305227
 20
-18.0729706742
 10
7.663392371
 20
-18.0724613037
  0
LINE
  5
26D
100
AcDbEntity
  8
0
100
AcDbLine
 62
250
  6
CONTINUOUS
 10
5.63332
 20
-21.041171761
 11
5.9867600225
 21
-21.3948417991
  0
LWPOLYLINE
  5
26E
100
AcDbEntity
  8
0
100
AcDbPolyline
 62
7
  6
CONTINUOUS
 90
7
 70
0
 10
-8.269688242
 20
-13.4916114265
 10
-8.2704185542
 20
-13.4905467444
 10
-8.2721601956
 20
-13.4843208149
 10
-8.2744924258
 20
-13.4726365994
 10
-8.2774693571
 20
-13.4557081493
 10
-8.2810368771
 20
-13.4339221182
 10
-8.2849180337
 20
-13.4079217711
  0
LWPOLYLINE
  5
26F
100
AcDbEntity
  8
IGES
100
AcDbPolyline
 62
250
  6
CONTINUOUS
 90
4
 70
0
 10
-7.7574025293
 20
-17.0552116921
 10
-7.7812618985
 20
-16.9984103438
 10
-7.8055290161
 20
-16.9386250011
 10
-7.8300442796
 20
-16.8759037127
  0
LWPOLYLINE
  5
270
100
AcDbEntity
  8
IGES
100
AcDbPolyline
 62
250
  6
CONTINUOUS
 90
3
 70
0
 10
-7.9282056899
 20
-17.6449564961
 10
-7.9091042542
 20
-17.6905171186
 10
-7.8619213607
 20
-17.798719189
  0
LINE
  5
271
100
AcDbEntity
  8
IGES
100
AcDbLine
 62
7
  6
CONTINUOUS
 10
-7.3832649892
 20
-18.9687449767
 11
-7.5743094963
 21
-18.512307486
  0
LWPOLYLINE
  5
272
100
AcDbEntity
  8
IGES
100
AcDbPolyline
 62
7
  6
CONTINUOUS
 90
5
 70
0
 10
-7.5743094963
 20
-18.512307486
 10
-7.6335479516
 20
-18.3699053476
 10
-7.6960620213
 20
-18.2184537942
 10
-7.762208071
 20
-18.0566779995
 10
-7.8316415096
 20
-17.8850580447
  0
LINE
  5
273
100
AcDbEntity
  8
IGES
100
AcDbLine
 62
7
  6
CONTINUOUS
 10
-7.8316415096
 20
-17.8850580447
 11
-7.873777463
 21
-17.7797432801
  0
LWPOLYLINE
  5
274
100
AcDbEntity
  8
IGES
100
AcDbPolyline
 62
250
  6
CONTINUOUS
 90
8
 70
0
 10
-6.4020160882
 20
-20.6591776157
 10
-6.3896119553
 20
-20.6905449319
 10
-6.3785984827
 20
-20.7178266099
 10
-6.3689756705
 20
-20.7410226496
 10
-6.3616773055
 20
-20.7583993081
 10
-6.3557696009
 20
-20.7716903284
 10
-6.3484511963
 20
-20.786096939
 10
-6.3387883049
 20
-20.8033528829
  0
LWPOLYLINE
  5
275
100
AcDbEntity
  8
IGES
100
AcDbPolyline
 62
7
  6
CONTINUOUS
 90
9
 70
0
 10
-5.3343887131
 20
-21.7476724006
 10
-5.3344731743
 20
-21.7474568479
 10
-5.3347558202
 20
-21.7474525317
 10
-5.3354428467
 20
-21.7478789407
 10
-5.3364668257
 20
-21.7486637183
 10
-5.3376351209
 20
-21.7496013404
 10
-5.3386762847
 20
-21.7504027408
 10
-5.3393778068
 20
-21.750841762
 10
-5.3395496551
 20
-21.7508919117
  0
LWPOLYLINE
  5
276
100
AcDbEntity
  8
IGES
100
AcDbPolyline
 62
7
  6
CONTINUOUS
 90
7
 70
0
 10
-7.9282056899
 20
-17.6449564961
 10
-7.9401637262
 20
-17.6144210908
 10
-7.971091502
 20
-17.532794029
 10
-8.0015023671
 20
-17.4488300573
 10
-8.0316644494
 20
-17.3619746868
 10
-8.0616712842
 20
-17.2720882028
 10
-8.0876112133
 20
-17.1916396772
  0
LWPOLYLINE
  5
277
100
AcDbEntity
  8
IGES
100
AcDbPolyline
 62
7
  6
CONTINUOUS
 90
9
 70
0
 10
-6.8768727169
 20
-20.8159679588
 10
-6.8325235155
 20
-20.9315446014
 10
-6.777634994
 20
-21.0419515344
 10
-6.7126063707
 20
-21.1465302414
 10
-6.6375878114
 20
-21.2449263027
 10
-6.5532521709
 20
-21.3360444118
 10
-6.4610868668
 20
-21.4183349436
 10
-6.3620132831
 20
-21.4912044379
 10
-6.2566009477
 20
-21.5543443549
  0
LINE
  5
278
100
AcDbEntity
  8
IGES
100
AcDbLine
 62
250
  6
CONTINUOUS
 10
-7.8300442796
 20
-16.8759037127
 11
-7.8545563437
 21
-16.8104097101
  0
LINE
  5
279
100
AcDbEntity
  8
IGES
100
AcDbLine
 62
250
  6
CONTINUOUS
 10
-7.8545563437
 20
-16.8104097101
 11
-7.8790002799
 21
-16.7421369319
  0
LWPOLYLINE
  5
27A
100
AcDbEntity
  8
IGES
100
AcDbPolyline
 62
250
  6
CONTINUOUS
 90
5
 70
0
 10
-7.8790002799
 20
-16.7421369319
 10
-7.9035442707
 20
-16.6708571039
 10
-7.9282098851
 20
-16.5965662074
 10
-7.9528134768
 20
-16.5195069326
 10
-7.9772681893
 20
-16.439820879
  0
LWPOLYLINE
  5
27B
100
AcDbEntity
  8
IGES
100
AcDbPolyline
 62
7
  6
CONTINUOUS
 90
4
 70
0
 10
-8.0874623508
 20
-17.1921086134
 10
-8.095351887
 20
-17.1671175774
 10
-8.1081297347
 20
-17.1259555359
 10
-8.1206368719
 20
-17.0848348256
  0
LINE
  5
27C
100
AcDbEntity
  8
IGES
100
AcDbLine
 62
250
  6
CONTINUOUS
 10
-6.5097204065
 20
-20.3170269815
 11
-6.4020160882
 21
-20.6591776157
  0
LWPOLYLINE
  5
27D
100
AcDbEntity
  8
IGES
100
AcDbPolyline
 62
250
  6
CONTINUOUS
 90
3
 70
0
 10
-7.6265746065
 20
-18.0647558625
 10
-7.5466587614
 20
-18.3274647748
 10
-7.4569465975
 20
-18.6177816581
  0
LINE
  5
27E
100
AcDbEntity
  8
IGES
100
AcDbLine
 62
250
  6
CONTINUOUS
 10
-8.094655013
 20
-17.1682571272
 11
-8.0876112133
 21
-17.1916396772
  0
LINE
  5
27F
100
AcDbEntity
  8
IGES
100
AcDbLine
 62
250
  6
CONTINUOUS
 10
-7.9772681893
 20
-16.439820879
 11
-7.9900446787
 21
-16.3971551997
  0
LINE
  5
280
100
AcDbEntity
  8
IGES
100
AcDbLine
 62
7
  6
CONTINUOUS
 10
-8.1206368719
 20
-17.0848348256
 11
-8.1348537063
 21
-17.0370831495
  0
LINE
  5
281
100
AcDbEntity
  8
IGES
100
AcDbLine
 62
250
  6
CONTINUOUS
 10
-7.9900446787
 20
-16.3971551997
 11
-8.0027413086
 21
-16.3538175535
  0
LINE
  5
282
100
AcDbEntity
  8
IGES
100
AcDbLine
 62
250
  6
CONTINUOUS
 10
-8.0027413086
 20
-16.3538175535
 11
-8.0153553291
 21
-16.3098215488
  0
LINE
  5
283
100
AcDbEntity
  8
IGES
100
AcDbLine
 62
250
  6
CONTINUOUS
 10
-7.682260461
 20
-18.0048400016
 11
-7.6632584
 21
-18.0728529303
  0
LWPOLYLINE
  5
284
100
AcDbEntity
  8
IGES
100
AcDbPolyline
 62
7
  6
CONTINUOUS
 90
10
 70
0
 10
-8.1336389004
 20
-17.0417151261
 10
-8.2162438544
 20
-16.7431578118
 10
-8.322882588
 20
-16.294854866
 10
-8.423308435
 20
-15.8048822805
 10
-8.5188285785
 20
-15.2759381512
 10
-8.6104005897
 20
-14.7101759502
 10
-8.6985385362
 20
-14.1108419907
 10
-8.7834607236
 20
-13.4816633903
 10
-8.8652075486
 20
-12.8253344995
 10
-8.9202938826
 20
-12.35232375
  0
LINE
  5
285
100
AcDbEntity
  8
IGES
100
AcDbLine
 62
250
  6
CONTINUOUS
 10
-7.6423839399
 20
-18.0053615024
 11
-7.6265688418
 21
-18.0647739728
  0
LWPOLYLINE
  5
286
100
AcDbEntity
  8
IGES
100
AcDbPolyline
 62
250
  6
CONTINUOUS
 90
4
 70
0
 10
-7.6920369998
 20
-17.3358032989
 10
-7.6811440314
 20
-17.3773160351
 10
-7.6701551671
 20
-17.4170312936
 10
-7.6631941443
 20
-17.4405641505
  0
LWPOLYLINE
  5
287
100
AcDbEntity
  8
IGES
100
AcDbPolyline
 62
250
  6
CONTINUOUS
 90
4
 70
0
 10
-7.7248719676
 20
-17.2019624442
 10
-7.7139318159
 20
-17.2481601645
 10
-7.7029563824
 20
-17.2927324209
 10
-7.6920369998
 20
-17.3358032989
  0
LINE
  5
288
100
AcDbEntity
  8
IGES
100
AcDbLine
 62
250
  6
CONTINUOUS
 10
-7.5855530654
 20
-17.957663556
 11
-7.5759500054
 21
-17.9994357013
  0
LINE
  5
289
100
AcDbEntity
  8
IGES
100
AcDbLine
 62
250
  6
CONTINUOUS
 10
-7.7357596252
 20
-17.1541647562
 11
-7.7248719676
 21
-17.2019624442
  0
LWPOLYLINE
  5
28A
100
AcDbEntity
  8
IGES
100
AcDbPolyline
 62
250
  6
CONTINUOUS
 90
3
 70
0
 10
-7.7576606301
 20
-17.0543800212
 10
-7.7466789801
 20
-17.1049429351
 10
-7.7357596252
 20
-17.1541647562
  0
LINE
  5
28B
100
AcDbEntity
  8
0
100
AcDbLine
 62
7
  6
CONTINUOUS
 10
-8.209673912
 20
-13.926462485
 11
-8.2310917398
 21
-13.7287248795
  0
LINE
  5
28C
100
AcDbEntity
  8
0
100
AcDbLine
 62
7
  6
CONTINUOUS
 10
-8.3925847465
 20
-12.5471404405
 11
-8.4178323169
 21
-12.3097672953
  0
LINE
  5
28D
100
AcDbEntity
  8
0
100
AcDbLine
 62
7
  6
CONTINUOUS
 10
-8.2310917398
 20
-13.7287248795
 11
-8.2514117715
 21
-13.5343118212
  0
LINE
  5
28E
100
AcDbEntity
  8
0
100
AcDbLine
 62
7
  6
CONTINUOUS
 10
-8.4178323169
 20
-12.3097672953
 11
-8.4419513454
 21
-12.0736496017
  0
LWPOLYLINE
  5
28F
100
AcDbEntity
  8
IGES
100
AcDbPolyline
 62
250
  6
CONTINUOUS
 90
4
 70
0
 10
-7.60352934
 20
-17.8304883089
 10
-7.5993505858
 20
-17.8731418841
 10
-7.5933558071
 20
-17.9155478042
 10
-7.5855530654
 20
-17.957663556
  0
LINE
  5
290
100
AcDbEntity
  8
0
100
AcDbLine
 62
7
  6
CONTINUOUS
 10
-8.4419513454
 20
-12.0736496017
 11
-8.4649418319
 21
-11.8387873598
  0
LINE
  5
291
100
AcDbEntity
  8
0
100
AcDbLine
 62
7
  6
CONTINUOUS
 10
-8.567064519
 20
-10.4745518737
 11
-8.5768158298
 21
-10.3725430926
  0
LINE
  5
292
100
AcDbEntity
  8
0
100
AcDbLine
 62
7
  6
CONTINUOUS
 10
-8.4625431028
 20
-11.8387873699
 11
-8.4805227682
 21
-11.6462112085
  0
LWPOLYLINE
  5
293
100
AcDbEntity
  8
0
100
AcDbPolyline
 62
7
  6
CONTINUOUS
 90
6
 70
0
 10
-8.5768158298
 20
-10.3725430926
 10
-8.5893738494
 20
-10.2352975707
 10
-8.6012584328
 20
-10.100833174
 10
-8.6125336456
 20
-9.969017031
 10
-8.6231354222
 20
-9.8399820133
 10
-8.6330637627
 20
-9.7137281209
  0
LINE
  5
294
100
AcDbEntity
  8
0
100
AcDbLine
 62
7
  6
CONTINUOUS
 10
-8.4805227682
 20
-11.6462112085
 11
-8.4969207998
 21
-11.4623536221
  0
LINE
  5
295
100
AcDbEntity
  8
0
100
AcDbLine
 62
7
  6
CONTINUOUS
 10
-8.4969207998
 20
-11.4623536221
 11
-8.5117371978
 21
-11.2878462013
  0
LINE
  5
296
100
AcDbEntity
  8
0
100
AcDbLine
 62
7
  6
CONTINUOUS
 10
-8.5138884693
 20
-11.2878461915
 11
-8.5324964933
 21
-11.0690531954
  0
LINE
  5
297
100
AcDbEntity
  8
0
100
AcDbLine
 62
7
  6
CONTINUOUS
 10
-8.3262660053
 20
-13.0621779547
 11
-8.3277477471
 21
-13.0444262589
  0
LINE
  5
298
100
AcDbEntity
  8
0
100
AcDbLine
 62
7
  6
CONTINUOUS
 10
-8.5324964933
 20
-11.0690531954
 11
-8.5361109685
 21
-11.0254930141
  0
LINE
  5
299
100
AcDbEntity
  8
0
100
AcDbLine
 62
7
  6
CONTINUOUS
 10
-8.5398784615
 20
-10.8874053449
 11
-8.5565168613
 21
-10.6796915961
  0
LWPOLYLINE
  5
29A
100
AcDbEntity
  8
IGES
100
AcDbPolyline
 62
250
  6
CONTINUOUS
 90
4
 70
0
 10
-7.667640678
 20
-17.8229887797
 10
-7.6629441649
 20
-17.8843314585
 10
-7.6545176507
 20
-17.9451579744
 10
-7.6423839399
 20
-18.0053615024
  0
LINE
  5
29B
100
AcDbEntity
  8
0
100
AcDbLine
 62
7
  6
CONTINUOUS
 10
-8.5565168613
 20
-10.6796915961
 11
-8.5723387919
 21
-10.4745518737
  0
LINE
  5
29C
100
AcDbEntity
  8
0
100
AcDbLine
 62
7
  6
CONTINUOUS
 10
-8.5327651416
 20
-11.0254930297
 11
-8.5444033473
 21
-10.8715004929
  0
LINE
  5
29D
100
AcDbEntity
  8
IGES
100
AcDbLine
 62
7
  6
CONTINUOUS
 10
-8.52531877
 20
-10.6430319169
 11
-8.5481338157
 21
-10.332355845
  0
LINE
  5
29E
100
AcDbEntity
  8
IGES
100
AcDbLine
 62
7
  6
CONTINUOUS
 10
-8.5481338157
 20
-10.332355845
 11
-8.5695264699
 21
-10.0255039994
  0
LWPOLYLINE
  5
29F
100
AcDbEntity
  8
IGES
100
AcDbPolyline
 62
7
  6
CONTINUOUS
 90
8
 70
0
 10
-9.2090404999
 20
-9.1789807825
 10
-9.2272614622
 20
-8.9130764332
 10
-9.2432320529
 20
-8.6698211583
 10
-9.2585987294
 20
-8.4256605391
 10
-9.2733548263
 20
-8.1806947634
 10
-9.2874904945
 20
-7.9350873086
 10
-9.3010001291
 20
-7.688942171
 10
-9.3137260681
 20
-7.4453580346
  0
LWPOLYLINE
  5
2A0
100
AcDbEntity
  8
IGES
100
AcDbPolyline
 62
250
  6
CONTINUOUS
 90
10
 70
0
 10
-8.9871155622
 20
-8.9862387406
 10
-8.9635879373
 20
-9.3323878507
 10
-8.9385477935
 20
-9.6759765455
 10
-8.9120323634
 20
-10.0163721688
 10
-8.884123914
 20
-10.3525856369
 10
-8.8548403745
 20
-10.6846390471
 10
-8.8241277112
 20
-11.0134285155
 10
-8.7919866433
 20
-11.3391468037
 10
-8.75847113
 20
-11.6615433015
 10
-8.7235996884
 20
-11.980972767
  0
LINE
  5
2A1
100
AcDbEntity
  8
IGES
100
AcDbLine
 62
7
  6
CONTINUOUS
 10
-8.5695264699
 20
-10.0255039994
 11
-8.5896037038
 21
-9.7226574361
  0
LWPOLYLINE
  5
2A2
100
AcDbEntity
  8
IGES
100
AcDbPolyline
 62
250
  6
CONTINUOUS
 90
10
 70
0
 10
-8.9871155622
 20
-8.9862387406
 10
-8.9984802856
 20
-8.8103776966
 10
-9.0095766774
 20
-8.6327182324
 10
-9.0203962914
 20
-8.4533899581
 10
-9.0309150879
 20
-8.2727662523
 10
-9.0411416042
 20
-8.0908086889
 10
-9.0511140871
 20
-7.9070202476
 10
-9.0608375737
 20
-7.7213719829
 10
-9.070286602
 20
-7.5343228859
 10
-9.0794511686
 20
-7.3461045542
  0
LINE
  5
2A3
100
AcDbEntity
  8
IGES
100
AcDbLine
 62
7
  6
CONTINUOUS
 10
-8.5896037038
 20
-9.7226574361
 11
-8.6084666157
 21
-9.4239379615
  0
LWPOLYLINE
  5
2A4
100
AcDbEntity
  8
IGES
100
AcDbPolyline
 62
250
  6
CONTINUOUS
 90
4
 70
0
 10
-7.7100143688
 20
-17.7960569833
 10
-7.7056537201
 20
-17.8662235436
 10
-7.6963980043
 20
-17.935866654
 10
-7.682260461
 20
-18.0048400016
  0
LINE
  5
2A5
100
AcDbEntity
  8
IGES
100
AcDbLine
 62
7
  6
CONTINUOUS
 10
-8.6084666157
 20
-9.4239379615
 11
-8.6262081443
 21
-9.129529951
  0
LINE
  5
2A6
100
AcDbEntity
  8
IGES
100
AcDbLine
 62
7
  6
CONTINUOUS
 10
-8.6262081443
 20
-9.129529951
 11
-8.6429181391
 21
-8.8396053982
  0
LINE
  5
2A7
100
AcDbEntity
  8
IGES
100
AcDbLine
 62
7
  6
CONTINUOUS
 10
-9.4514213767
 20
-4.1645157734
 11
-9.4514547382
 21
-4.1639252748
  0
LINE
  5
2A8
100
AcDbEntity
  8
IGES
100
AcDbLine
 62
250
  6
CONTINUOUS
 10
-7.6048998004
 20
-17.8055237942
 11
-7.60352934
 21
-17.8304883089
  0
LINE
  5
2A9
100
AcDbEntity
  8
IGES
100
AcDbLine
 62
7
  6
CONTINUOUS
 10
-8.6429181391
 20
-8.8396053982
 11
-8.6586836141
 21
-8.5543051289
  0
LINE
  5
2AA
100
AcDbEntity
  8
IGES
100
AcDbLine
 62
7
  6
CONTINUOUS
 10
-8.6586836141
 20
-8.5543051289
 11
-8.673573154
 21
-8.2738033482
  0
LINE
  5
2AB
100
AcDbEntity
  8
0
100
AcDbLine
 62
7
  6
CONTINUOUS
 10
-8.6330637627
 20
-9.7137281209
 11
-8.6369420356
 21
-9.6395227468
  0
LINE
  5
2AC
100
AcDbEntity
  8
IGES
100
AcDbLine
 62
7
  6
CONTINUOUS
 10
-8.673573154
 20
-8.2738033482
 11
-8.6876144889
 21
-7.9987075089
  0
LWPOLYLINE
  5
2AD
100
AcDbEntity
  8
IGES
100
AcDbPolyline
 62
7
  6
CONTINUOUS
 90
7
 70
0
 10
-9.3139112318
 20
-7.4454724758
 10
-9.3250148321
 20
-7.2226906965
 10
-9.3363025021
 20
-6.9854013207
 10
-9.3474570036
 20
-6.7394498329
 10
-9.358461862
 20
-6.4850271024
 10
-9.369279062
 20
-6.2227749801
 10
-9.3798824514
 20
-5.9526882134
  0
LINE
  5
2AE
100
AcDbEntity
  8
IGES
100
AcDbLine
 62
7
  6
CONTINUOUS
 10
-8.6876144889
 20
-7.9987075089
 11
-8.7008455817
 21
-7.7294169348
  0
LWPOLYLINE
  5
2AF
100
AcDbEntity
  8
IGES
100
AcDbPolyline
 62
250
  6
CONTINUOUS
 90
3
 70
0
 10
-9.0794511686
 20
-7.3461045542
 10
-9.0883668494
 20
-7.1564468085
 10
-9.0970017704
 20
-6.965728367
  0
LINE
  5
2B0
100
AcDbEntity
  8
IGES
100
AcDbLine
 62
7
  6
CONTINUOUS
 10
-8.7008455817
 20
-7.7294169348
 11
-8.713291838
 21
-7.4665878323
  0
LINE
  5
2B1
100
AcDbEntity
  8
IGES
100
AcDbLine
 62
250
  6
CONTINUOUS
 10
-9.1484769969
 20
-5.6394454303
 11
-9.2297303883
 21
-3.9328388643
  0
LINE
  5
2B2
100
AcDbEntity
  8
IGES
100
AcDbLine
 62
7
  6
CONTINUOUS
 10
-8.713291838
 20
-7.4665878323
 11
-8.7305518854
 21
-7.085781037
  0
LINE
  5
2B3
100
AcDbEntity
  8
IGES
100
AcDbLine
 62
250
  6
CONTINUOUS
 10
-9.2297303883
 20
-3.9328388643
 11
-9.2500870883
 21
-3.4782971885
  0
LINE
  5
2B4
100
AcDbEntity
  8
IGES
100
AcDbLine
 62
250
  6
CONTINUOUS
 10
-9.2500870883
 20
-3.4782971885
 11
-9.2629454704
 21
-3.1786459892
  0
LINE
  5
2B5
100
AcDbEntity
  8
IGES
100
AcDbLine
 62
7
  6
CONTINUOUS
 10
-8.7305518854
 20
-7.085781037
 11
-8.7462030238
 21
-6.7226259223
  0
LWPOLYLINE
  5
2B6
100
AcDbEntity
  8
IGES
100
AcDbPolyline
 62
250
  6
CONTINUOUS
 90
3
 70
0
 10
-9.0970017704
 20
-6.965728367
 10
-9.1133805767
 20
-6.5828741486
 10
-9.1210986889
 20
-6.3916238293
  0
LINE
  5
2B7
100
AcDbEntity
  8
IGES
100
AcDbLine
 62
7
  6
CONTINUOUS
 10
-9.3139162309
 20
-7.4453517616
 11
-9.3139112318
 21
-7.4454724758
  0
LINE
  5
2B8
100
AcDbEntity
  8
IGES
100
AcDbLine
 62
250
  6
CONTINUOUS
 10
-9.2629454704
 20
-3.1786459892
 11
-9.2751971456
 21
-2.8818082579
  0
LINE
  5
2B9
100
AcDbEntity
  8
IGES
100
AcDbLine
 62
7
  6
CONTINUOUS
 10
-8.7462030238
 20
-6.7226259223
 11
-8.7603355408
 21
-6.3782395705
  0
LINE
  5
2BA
100
AcDbEntity
  8
IGES
100
AcDbLine
 62
7
  6
CONTINUOUS
 10
-9.3932931128
 20
-5.5916096603
 11
-9.4392856066
 21
-4.4778387571
  0
LWPOLYLINE
  5
2BB
100
AcDbEntity
  8
IGES
100
AcDbPolyline
 62
7
  6
CONTINUOUS
 90
3
 70
0
 10
-9.4392856066
 20
-4.4778387571
 10
-9.4455108759
 20
-4.3210352807
 10
-9.45142247
 20
-4.1645170779
  0
LINE
  5
2BC
100
AcDbEntity
  8
IGES
100
AcDbLine
 62
7
  6
CONTINUOUS
 10
-8.7926601671
 20
-5.539531778
 11
-8.7887773094
 21
-5.6395145869
  0
LINE
  5
2BD
100
AcDbEntity
  8
RACCORDO
100
AcDbLine
 62
7
  6
CONTINUOUS
 10
-8.7879914735
 20
-5.6589276266
 11
-8.7851090648
 21
-5.7331331013
  0
LINE
  5
2BE
100
AcDbEntity
  8
RACCORDO
100
AcDbLine
 62
7
  6
CONTINUOUS
 10
-8.7923610225
 20
-5.5463641061
 11
-8.7887205323
 21
-5.6401525024
  0
LINE
  5
2BF
100
AcDbEntity
  8
IGES
100
AcDbLine
 62
7
  6
CONTINUOUS
 10
-9.4514547382
 20
-4.1639252748
 11
-9.4675965929
 21
-3.7488554073
  0
LINE
  5
2C0
100
AcDbEntity
  8
IGES
100
AcDbLine
 62
7
  6
CONTINUOUS
 10
-8.7603355408
 20
-6.3782395705
 11
-8.7731971878
 21
-6.0499316282
  0
LINE
  5
2C1
100
AcDbEntity
  8
IGES
100
AcDbLine
 62
250
  6
CONTINUOUS
 10
-9.1210986889
 20
-6.3916238293
 11
-9.1354931372
 21
-6.0114949158
  0
LINE
  5
2C2
100
AcDbEntity
  8
IGES
100
AcDbLine
 62
7
  6
CONTINUOUS
 10
-9.4675965929
 20
-3.7488554073
 11
-9.4833878349
 21
-3.3260828817
  0
LINE
  5
2C3
100
AcDbEntity
  8
IGES
100
AcDbLine
 62
7
  6
CONTINUOUS
 10
-8.7731971878
 20
-6.0499316282
 11
-8.7878578264
 21
-5.6589226904
  0
LINE
  5
2C4
100
AcDbEntity
  8
IGES
100
AcDbLine
 62
7
  6
CONTINUOUS
 10
-9.3798824514
 20
-5.9526882134
 11
-9.3932931128
 21
-5.5916096603
  0
LINE
  5
2C5
100
AcDbEntity
  8
IGES
100
AcDbLine
 62
250
  6
CONTINUOUS
 10
-9.1354931372
 20
-6.0114949158
 11
-9.148390111
 21
-5.6394580519
  0
LINE
  5
2C6
100
AcDbEntity
  8
IGES
100
AcDbLine
 62
7
  6
CONTINUOUS
 10
-9.4833878349
 20
-3.3260828817
 11
-9.5042496341
 21
-2.7373834724
  0
LINE
  5
2C7
100
AcDbEntity
  8
IGES
100
AcDbLine
 62
7
  6
CONTINUOUS
 10
-8.8246203693
 20
-4.5172482025
 11
-8.7924225469
 21
-5.5395208945
  0
LWPOLYLINE
  5
2C8
100
AcDbEntity
  8
IGES
100
AcDbPolyline
 62
7
  6
CONTINUOUS
 90
7
 70
0
 10
-9.5042496341
 20
-2.7373834724
 10
-9.5198254127
 20
-2.235578728
 10
-9.5298138786
 20
-1.878009452
 10
-9.5386946716
 20
-1.5241646447
 10
-9.5464072876
 20
-1.1743154253
 10
-9.5528902851
 20
-0.8289515318
 10
-9.55809167
 20
-0.4883164754
  0
LINE
  5
2C9
100
AcDbEntity
  8
RACCORDO
100
AcDbLine
 62
7
  6
CONTINUOUS
 10
-8.8451784922
 20
-3.8153761086
 11
-8.8252350961
 21
-4.4973021776
  0
LWPOLYLINE
  5
2CA
100
AcDbEntity
  8
IGES
100
AcDbPolyline
 62
250
  6
CONTINUOUS
 90
3
 70
0
 10
-8.7885152536
 20
5.4263576788
 10
-8.7841867729
 20
5.2634616916
 10
-8.7829980315
 20
5.229778038
  0
LINE
  5
2CB
100
AcDbEntity
  8
RACCORDO
100
AcDbLine
 62
7
  6
CONTINUOUS
 10
-8.848595047
 20
-3.6884635063
 11
-8.8451784922
 21
-3.8153761086
  0
LINE
  5
2CC
100
AcDbEntity
  8
IGES
100
AcDbLine
 62
250
  6
CONTINUOUS
 10
-8.837222318
 20
-4.0370167894
 11
-8.8246203693
 21
-4.5172482025
  0
LINE
  5
2CD
100
AcDbEntity
  8
IGES
100
AcDbLine
 62
7
  6
CONTINUOUS
 10
-8.8485987292
 20
-3.6883229984
 11
-8.8553200543
 21
-3.4201971124
  0
LWPOLYLINE
  5
2CE
100
AcDbEntity
  8
IGES
100
AcDbPolyline
 62
7
  6
CONTINUOUS
 90
6
 70
0
 10
-8.830539039
 20
6.6234912786
 10
-8.8302040725
 20
6.6095649388
 10
-8.8280064188
 20
6.5583119046
 10
-8.8229127702
 20
6.5092949196
 10
-8.8152093112
 20
6.4627957225
 10
-8.8101135132
 20
6.4373653113
  0
LINE
  5
2CF
100
AcDbEntity
  8
IGES
100
AcDbLine
 62
7
  6
CONTINUOUS
 10
-8.8553200543
 20
-3.4201971124
 11
-8.8608523779
 21
-3.1779165584
  0
LWPOLYLINE
  5
2D0
100
AcDbEntity
  8
IGES
100
AcDbPolyline
 62
250
  6
CONTINUOUS
 90
10
 70
0
 10
-9.3533879371
 20
-0.3150309736
 10
-9.3478255071
 20
-0.5946924568
 10
-9.3414450739
 20
-0.874569383
 10
-9.3342853897
 20
-1.1544218111
 10
-9.3264227729
 20
-1.4318174134
 10
-9.3178672674
 20
-1.7087088434
 10
-9.3085037317
 20
-1.9915760605
 10
-9.2982592705
 20
-2.2825667797
 10
-9.2871621931
 20
-2.5793531862
 10
-9.2751971456
 20
-2.8818082579
  0
LINE
  5
2D1
100
AcDbEntity
  8
IGES
100
AcDbLine
 62
7
  6
CONTINUOUS
 10
-8.8608523779
 20
-3.1779165584
 11
-8.8661529482
 21
-2.9204000955
  0
LINE
  5
2D2
100
AcDbEntity
  8
IGES
100
AcDbLine
 62
250
  6
CONTINUOUS
 10
-8.8632049835
 20
-2.6724339432
 11
-8.837222318
 21
-4.0370167894
  0
LINE
  5
2D3
100
AcDbEntity
  8
IGES
100
AcDbLine
 62
250
  6
CONTINUOUS
 10
-8.7885152536
 20
5.4263576788
 11
-8.7907478876
 21
5.5485524481
  0
LINE
  5
2D4
100
AcDbEntity
  8
IGES
100
AcDbLine
 62
7
  6
CONTINUOUS
 10
-8.8661529482
 20
-2.9204000955
 11
-8.8710887156
 21
-2.6491486254
  0
LINE
  5
2D5
100
AcDbEntity
  8
IGES
100
AcDbLine
 62
250
  6
CONTINUOUS
 10
-7.6685706162
 20
-17.7613687904
 11
-7.667640678
 21
-17.8229887797
  0
LINE
  5
2D6
100
AcDbEntity
  8
IGES
100
AcDbLine
 62
7
  6
CONTINUOUS
 10
-8.8710887156
 20
-2.6491486254
 11
-8.875568816
 21
-2.3644077839
  0
LWPOLYLINE
  5
2D7
100
AcDbEntity
  8
IGES
100
AcDbPolyline
 62
250
  6
CONTINUOUS
 90
10
 70
0
 10
-7.9792006575
 20
-5.6391267587
 10
-7.9579065753
 20
-7.1261251989
 10
-7.9180686285
 20
-8.5728089861
 10
-7.8596868172
 20
-9.9791781202
 10
-7.7823107815
 20
-11.3441002636
 10
-7.6863908813
 20
-12.6687077539
 10
-7.5732781957
 20
-13.9563976043
 10
-7.4434230844
 20
-15.2083021525
 10
-7.2963751877
 20
-16.4232890609
 10
-7.1321345056
 20
-17.6013583294
  0
LINE
  5
2D8
100
AcDbEntity
  8
IGES
100
AcDbLine
 62
7
  6
CONTINUOUS
 10
-8.875568816
 20
-2.3644077839
 11
-8.8795091636
 21
-2.066128318
  0
LWPOLYLINE
  5
2D9
100
AcDbEntity
  8
IGES
100
AcDbPolyline
 62
250
  6
CONTINUOUS
 90
5
 70
0
 10
-8.7907478876
 20
5.5485524481
 10
-8.7922024078
 20
5.6648438237
 10
-8.7926609006
 20
5.7749710088
 10
-8.7917878618
 20
5.8795110949
 10
-8.7894537927
 20
5.9771690742
  0
LINE
  5
2DA
100
AcDbEntity
  8
IGES
100
AcDbLine
 62
7
  6
CONTINUOUS
 10
-8.8795091636
 20
-2.066128318
 11
-8.8812689652
 21
-1.9089710126
  0
LINE
  5
2DB
100
AcDbEntity
  8
IGES
100
AcDbLine
 62
7
  6
CONTINUOUS
 10
-9.55809167
 20
-0.4883164754
 11
-9.5629296103
 21
-0.0442434815
  0
LWPOLYLINE
  5
2DC
100
AcDbEntity
  8
IGES
100
AcDbPolyline
 62
7
  6
CONTINUOUS
 90
7
 70
0
 10
-9.5629023714
 20
-0.0441120748
 10
-9.5651881846
 20
0.297300592
 10
-9.565391522
 20
0.825926746
 10
-9.5613998236
 20
1.3370085494
 10
-9.5531794799
 20
1.8304380394
 10
-9.5406578201
 20
2.3052772028
 10
-9.5238149165
 20
2.7597994751
  0
LINE
  5
2DD
100
AcDbEntity
  8
0
100
AcDbLine
 62
7
  6
CONTINUOUS
 10
-8.9293852621
 20
-1.9088628296
 11
-8.9319167278
 21
-1.5434833649
  0
LINE
  5
2DE
100
AcDbEntity
  8
0
100
AcDbLine
 62
7
  6
CONTINUOUS
 10
-8.8793801344
 20
-1.9088628296
 11
-8.8819204679
 21
-1.5420334841
  0
LINE
  5
2DF
100
AcDbEntity
  8
IGES
100
AcDbLine
 62
250
  6
CONTINUOUS
 10
-7.7584156506
 20
-16.7965513977
 11
-7.757606739
 21
-16.936121253
  0
LINE
  5
2E0
100
AcDbEntity
  8
0
100
AcDbLine
 62
7
  6
CONTINUOUS
 10
-8.9319167278
 20
-1.5434833649
 11
-8.9337438677
 21
-1.1877142824
  0
LINE
  5
2E1
100
AcDbEntity
  8
0
100
AcDbLine
 62
7
  6
CONTINUOUS
 10
-8.8819204679
 20
-1.5420334841
 11
-8.8837482836
 21
-1.1854394792
  0
LINE
  5
2E2
100
AcDbEntity
  8
0
100
AcDbLine
 62
7
  6
CONTINUOUS
 10
-8.9337438677
 20
-1.1877142824
 11
-8.93493072
 21
-0.8406487153
  0
LINE
  5
2E3
100
AcDbEntity
  8
0
100
AcDbLine
 62
7
  6
CONTINUOUS
 10
-8.8837482836
 20
-1.1854394792
 11
-8.8849328978
 21
-0.8380526305
  0
LINE
  5
2E4
100
AcDbEntity
  8
IGES
100
AcDbLine
 62
250
  6
CONTINUOUS
 10
-7.757606739
 20
-16.936121253
 11
-7.7574025293
 21
-17.0552116921
  0
LWPOLYLINE
  5
2E5
100
AcDbEntity
  8
0
100
AcDbPolyline
 62
7
  6
CONTINUOUS
 90
4
 70
0
 10
-8.93493072
 20
-0.8406487153
 10
-8.9353325835
 20
-0.5126965167
 10
-8.9351350357
 20
-0.3570789414
 10
-8.9346123508
 20
-0.2081180977
  0
LWPOLYLINE
  5
2E6
100
AcDbEntity
  8
0
100
AcDbPolyline
 62
7
  6
CONTINUOUS
 90
3
 70
0
 10
-8.8849328978
 20
-0.8380526305
 10
-8.8853288389
 20
-0.5100287325
 10
-8.8851265605
 20
-0.354410136
  0
LINE
  5
2E7
100
AcDbEntity
  8
0
100
AcDbLine
 62
7
  6
CONTINUOUS
 10
-8.8851265605
 20
-0.354410136
 11
-8.8845973435
 21
-0.205432652
  0
LWPOLYLINE
  5
2E8
100
AcDbEntity
  8
IGES
100
AcDbPolyline
 62
250
  6
CONTINUOUS
 90
10
 70
0
 10
-8.4718903549
 20
-5.6395223986
 10
-8.4661320775
 20
-4.2859901195
 10
-8.4460261609
 20
-2.9367432703
 10
-8.4116412988
 20
-1.5912588486
 10
-8.3630016667
 20
-0.2477495106
 10
-8.3001564329
 20
1.0964495314
 10
-8.2232171857
 20
2.4423653014
 10
-8.1322986964
 20
3.7870820153
 10
-8.0272622279
 20
5.1262658165
 10
-7.9071875923
 20
6.4646638744
  0
LINE
  5
2E9
100
AcDbEntity
  8
IGES
100
AcDbLine
 62
250
  6
CONTINUOUS
 10
-7.7094380367
 20
-17.7258130999
 11
-7.7100143688
 21
-17.7960569833
  0
LINE
  5
2EA
100
AcDbEntity
  8
0
100
AcDbLine
 62
7
  6
CONTINUOUS
 10
-8.9346123508
 20
-0.2081180977
 11
-8.9332791154
 21
-0.0144857909
  0
LINE
  5
2EB
100
AcDbEntity
  8
0
100
AcDbLine
 62
7
  6
CONTINUOUS
 10
-8.8845973435
 20
-0.205432652
 11
-8.8831890023
 21
-0.0050200298
  0
LINE
  5
2EC
100
AcDbEntity
  8
0
100
AcDbLine
 62
7
  6
CONTINUOUS
 10
-8.8041774114
 20
4.6015578272
 11
-8.8016072206
 21
4.9199527894
  0
LINE
  5
2ED
100
AcDbEntity
  8
0
100
AcDbLine
 62
7
  6
CONTINUOUS
 10
-8.7541170511
 20
4.6007837523
 11
-8.7515546095
 21
4.9196317005
  0
LINE
  5
2EE
100
AcDbEntity
  8
IGES
100
AcDbLine
 62
7
  6
CONTINUOUS
 10
-8.8831889259
 20
-0.0050119333
 11
-8.880473694
 21
0.2457026266
  0
LWPOLYLINE
  5
2EF
100
AcDbEntity
  8
0
100
AcDbPolyline
 62
7
  6
CONTINUOUS
 90
6
 70
0
 10
-8.8016072206
 20
4.9199527894
 10
-8.7999575938
 20
5.0711612076
 10
-8.7991133815
 20
5.1259420615
 10
-8.7981557159
 20
5.168993151
 10
-8.7971144612
 20
5.2003913099
 10
-8.796920173
 20
5.2048380701
  0
LWPOLYLINE
  5
2F0
100
AcDbEntity
  8
0
100
AcDbPolyline
 62
7
  6
CONTINUOUS
 90
5
 70
0
 10
-8.7515546095
 20
4.9196317005
 10
-8.7499065843
 20
5.0708912973
 10
-8.7490673124
 20
5.1255598643
 10
-8.7481143844
 20
5.168558187
 10
-8.7470780684
 20
5.1999851825
  0
LINE
  5
2F1
100
AcDbEntity
  8
0
100
AcDbLine
 62
7
  6
CONTINUOUS
 10
-8.9332791154
 20
-0.0144857909
 11
-8.9306749371
 21
0.197733341
  0
LINE
  5
2F2
100
AcDbEntity
  8
IGES
100
AcDbLine
 62
7
  6
CONTINUOUS
 10
-8.880473694
 20
0.2457026266
 11
-8.8759826266
 21
0.567450049
  0
LWPOLYLINE
  5
2F3
100
AcDbEntity
  8
0
100
AcDbPolyline
 62
7
  6
CONTINUOUS
 90
4
 70
0
 10
-8.8113184971
 20
4.0776092669
 10
-8.808929713
 20
4.2155671606
 10
-8.8069983493
 20
4.3481389322
 10
-8.8041774114
 20
4.6015578272
  0
LWPOLYLINE
  5
2F4
100
AcDbEntity
  8
0
100
AcDbPolyline
 62
7
  6
CONTINUOUS
 90
4
 70
0
 10
-8.761251256
 20
4.07676841
 10
-8.758864341
 20
4.2146425475
 10
-8.7569350313
 20
4.3471967951
 10
-8.7541170511
 20
4.6007837523
  0
LINE
  5
2F5
100
AcDbEntity
  8
0
100
AcDbLine
 62
7
  6
CONTINUOUS
 10
-8.9306749371
 20
0.197733341
 11
-8.9284842324
 21
0.3178851291
  0
LINE
  5
2F6
100
AcDbEntity
  8
IGES
100
AcDbLine
 62
7
  6
CONTINUOUS
 10
-8.8759826266
 20
0.567450049
 11
-8.8699511417
 21
0.9142848349
  0
LINE
  5
2F7
100
AcDbEntity
  8
IGES
100
AcDbLine
 62
7
  6
CONTINUOUS
 10
-8.8699511417
 20
0.9142848349
 11
-8.8622522247
 21
1.2877025735
  0
LINE
  5
2F8
100
AcDbEntity
  8
0
100
AcDbLine
 62
7
  6
CONTINUOUS
 10
-8.8397964913
 20
3.8581525865
 11
-8.8449766967
 21
3.6312935883
  0
LWPOLYLINE
  5
2F9
100
AcDbEntity
  8
0
100
AcDbPolyline
 62
7
  6
CONTINUOUS
 90
10
 70
0
 10
-8.9284842324
 20
0.3178851291
 10
-8.9258583939
 20
0.4286417517
 10
-8.9228036823
 20
0.5299510997
 10
-8.9193194874
 20
0.6214548551
 10
-8.9154497613
 20
0.7010035951
 10
-8.9111509237
 20
0.7687976075
 10
-8.9063986044
 20
0.8242582355
 10
-8.901293681
 20
0.8640317764
 10
-8.8957597188
 20
0.887580777
 10
-8.8904076756
 20
0.8950352342
  0
LINE
  5
2FA
100
AcDbEntity
  8
IGES
100
AcDbLine
 62
7
  6
CONTINUOUS
 10
-8.8622522247
 20
1.2877025735
 11
-8.8527896355
 21
1.6924417227
  0
LINE
  5
2FB
100
AcDbEntity
  8
IGES
100
AcDbLine
 62
7
  6
CONTINUOUS
 10
-8.8527896355
 20
1.6924417227
 11
-8.8414615867
 21
2.1376387626
  0
LINE
  5
2FC
100
AcDbEntity
  8
0
100
AcDbLine
 62
7
  6
CONTINUOUS
 10
-8.8449766967
 20
3.6312935883
 11
-8.8514408279
 21
3.3813377392
  0
LINE
  5
2FD
100
AcDbEntity
  8
IGES
100
AcDbLine
 62
7
  6
CONTINUOUS
 10
-8.8414615867
 20
2.1376387626
 11
-8.8338586392
 21
2.425027743
  0
LWPOLYLINE
  5
2FE
100
AcDbEntity
  8
0
100
AcDbPolyline
 62
7
  6
CONTINUOUS
 90
3
 70
0
 10
-8.8287116671
 20
4.3772258124
 10
-8.8299667952
 20
4.3304858584
 10
-8.8397964913
 20
3.8581525865
  0
LINE
  5
2FF
100
AcDbEntity
  8
0
100
AcDbLine
 62
7
  6
CONTINUOUS
 10
-8.8514408279
 20
3.3813377392
 11
-8.8590449991
 21
3.1160099944
  0
LINE
  5
300
100
AcDbEntity
  8
0
100
AcDbLine
 62
7
  6
CONTINUOUS
 10
-8.8590449991
 20
3.1160099944
 11
-8.8720237937
 21
2.7028730772
  0
LINE
  5
301
100
AcDbEntity
  8
0
100
AcDbLine
 62
7
  6
CONTINUOUS
 10
-8.8720237937
 20
2.7028730772
 11
-8.8811207989
 21
2.4255488407
  0
LINE
  5
302
100
AcDbEntity
  8
0
100
AcDbLine
 62
7
  6
CONTINUOUS
 10
-8.8287116671
 20
4.3772258124
 11
-8.8252756338
 21
4.4812360053
  0
LWPOLYLINE
  5
303
100
AcDbEntity
  8
0
100
AcDbPolyline
 62
7
  6
CONTINUOUS
 90
10
 70
0
 10
-8.8546077835
 20
2.6152793199
 10
-8.8475829082
 20
2.8001946591
 10
-8.8411528033
 20
2.9798943935
 10
-8.835305395
 20
3.1533193275
 10
-8.8300263209
 20
3.3204759271
 10
-8.8252961173
 20
3.4823838238
 10
-8.8210730095
 20
3.6386177247
 10
-8.8173457081
 20
3.789049899
 10
-8.8141166306
 20
3.9351351449
 10
-8.8113184971
 20
4.0776092669
  0
LWPOLYLINE
  5
304
100
AcDbEntity
  8
0
100
AcDbPolyline
 62
7
  6
CONTINUOUS
 90
10
 70
0
 10
-8.8045128183
 20
2.6156676106
 10
-8.7974752271
 20
2.8008212033
 10
-8.7910385156
 20
2.9806073076
 10
-8.7851935426
 20
3.1539250515
 10
-8.7799240323
 20
3.3208271604
 10
-8.7752033342
 20
3.4824625527
 10
-8.7709878448
 20
3.6384234882
 10
-8.7672685209
 20
3.788570108
 10
-8.7640459286
 20
3.9344344282
 10
-8.761251256
 20
4.07676841
  0
LWPOLYLINE
  5
305
100
AcDbEntity
  8
IGES
100
AcDbPolyline
 62
250
  6
CONTINUOUS
 90
5
 70
0
 10
-8.7894537927
 20
5.9771690742
 10
-8.7859021182
 20
6.0655084109
 10
-8.7812577935
 20
6.1442436512
 10
-8.7753640563
 20
6.2145113339
 10
-8.7682103446
 20
6.2766741893
  0
LINE
  5
306
100
AcDbEntity
  8
0
100
AcDbLine
 62
7
  6
CONTINUOUS
 10
-8.8622092387
 20
2.4257859774
 11
-8.8546077835
 21
2.6152793199
  0
LINE
  5
307
100
AcDbEntity
  8
0
100
AcDbLine
 62
7
  6
CONTINUOUS
 10
-8.8121325361
 20
2.4257859774
 11
-8.8045128183
 21
2.6156676106
  0
LWPOLYLINE
  5
308
100
AcDbEntity
  8
IGES
100
AcDbPolyline
 62
250
  6
CONTINUOUS
 90
10
 70
0
 10
-8.5760450324
 20
6.3256379489
 10
-8.5755620575
 20
6.3373305933
 10
-8.5750110087
 20
6.3490060634
 10
-8.5743918861
 20
6.3606643595
 10
-8.5736586789
 20
6.3723019926
 10
-8.5728573978
 20
6.3839224516
 10
-8.5721260754
 20
6.3955362024
 10
-8.5715107226
 20
6.4071467339
 10
-8.5709653284
 20
6.4187505571
 10
-8.5704898929
 20
6.4303476723
  0
LINE
  5
309
100
AcDbEntity
  8
0
100
AcDbLine
 62
7
  6
CONTINUOUS
 10
-8.7470780684
 20
5.1999851825
 11
-8.7468182075
 21
5.2058902788
  0
LINE
  5
30A
100
AcDbEntity
  8
IGES
100
AcDbLine
 62
250
  6
CONTINUOUS
 10
-8.8252836311
 20
6.6751661534
 11
-8.8233284129
 21
6.7185270914
  0
LINE
  5
30B
100
AcDbEntity
  8
IGES
100
AcDbLine
 62
7
  6
CONTINUOUS
 10
-8.7089219308
 20
5.8961471442
 11
-8.7111052295
 21
5.847675953
  0
LINE
  5
30C
100
AcDbEntity
  8
IGES
100
AcDbLine
 62
7
  6
CONTINUOUS
 10
-9.5238149165
 20
2.7597994751
 11
-9.5140381935
 21
2.9753675844
  0
LWPOLYLINE
  5
30D
100
AcDbEntity
  8
IGES
100
AcDbPolyline
 62
250
  6
CONTINUOUS
 90
8
 70
0
 10
-9.3133407827
 20
3.1313230762
 10
-9.3331051178
 20
2.696762468
 10
-9.3481143544
 20
2.2457430741
 10
-9.3584148993
 20
1.777793991
 10
-9.3642635853
 20
1.287544327
 10
-9.365564826
 20
0.7735222071
 10
-9.3619950323
 20
0.2389543365
 10
-9.3533879371
 20
-0.3150309736
  0
LINE
  5
30E
100
AcDbEntity
  8
IGES
100
AcDbLine
 62
250
  6
CONTINUOUS
 10
-9.5140381935
 20
2.9753675844
 11
-9.5069729483
 21
3.1246027126
  0
LWPOLYLINE
  5
30F
100
AcDbEntity
  8
IGES
100
AcDbPolyline
 62
7
  6
CONTINUOUS
 90
7
 70
0
 10
-9.5165052429
 20
2.9319883152
 10
-9.4862546288
 20
3.5636583047
 10
-9.4604359543
 20
4.0759653179
 10
-9.4348710799
 20
4.5563220749
 10
-9.4094232332
 20
5.0056361366
 10
-9.3837478522
 20
5.4283299136
 10
-9.3576617908
 20
5.8271716467
  0
LINE
  5
310
100
AcDbEntity
  8
IGES
100
AcDbLine
 62
250
  6
CONTINUOUS
 10
-7.6664982294
 20
8.723167416
 11
-7.6540579051
 21
8.9853830615
  0
LWPOLYLINE
  5
311
100
AcDbEntity
  8
IGES
100
AcDbPolyline
 62
7
  6
CONTINUOUS
 90
4
 70
0
 10
-8.7468400974
 20
5.2054148463
 10
-8.7364581417
 20
5.4182056748
 10
-8.7236372375
 20
5.6496486811
 10
-8.710567925
 20
5.8555445419
  0
LINE
  5
312
100
AcDbEntity
  8
IGES
100
AcDbLine
 62
250
  6
CONTINUOUS
 10
-8.8929916209
 20
6.6052550089
 11
-8.8904995308
 21
6.6553553989
  0
LINE
  5
313
100
AcDbEntity
  8
IGES
100
AcDbLine
 62
250
  6
CONTINUOUS
 10
-7.6540579051
 20
8.9853830615
 11
-7.6413743498
 21
9.2341096607
  0
LINE
  5
314
100
AcDbEntity
  8
IGES
100
AcDbLine
 62
250
  6
CONTINUOUS
 10
-7.6413743498
 20
9.2341096607
 11
-7.6281716737
 21
9.476617361
  0
LWPOLYLINE
  5
315
100
AcDbEntity
  8
0
100
AcDbPolyline
 62
7
  6
CONTINUOUS
 90
4
 70
0
 10
-8.796920173
 20
5.2048380701
 10
-8.7960213357
 20
5.2202265458
 10
-8.7948484202
 20
5.2291616209
 10
-8.7944386007
 20
5.2297411276
  0
LWPOLYLINE
  5
316
100
AcDbEntity
  8
IGES
100
AcDbPolyline
 62
250
  6
CONTINUOUS
 90
4
 70
0
 10
-9.5069729483
 20
3.1246027126
 10
-9.4810023389
 20
3.5646395232
 10
-9.4507179945
 20
3.9810902706
 10
-9.4168498277
 20
4.3729111051
  0
LWPOLYLINE
  5
317
100
AcDbEntity
  8
IGES
100
AcDbPolyline
 62
250
  6
CONTINUOUS
 90
3
 70
0
 10
-7.6281716737
 20
9.476617361
 10
-7.6127968954
 20
9.7413162066
 10
-7.6043357867
 20
9.8801151035
  0
LWPOLYLINE
  5
318
100
AcDbEntity
  8
IGES
100
AcDbPolyline
 62
250
  6
CONTINUOUS
 90
3
 70
0
 10
-8.8263598446
 20
6.7164056062
 10
-8.8297303316
 20
6.6622875361
 10
-8.830539039
 20
6.6234912786
  0
LINE
  5
319
100
AcDbEntity
  8
IGES
100
AcDbLine
 62
250
  6
CONTINUOUS
 10
-8.5632833873
 20
6.5416103783
 11
-8.5704898929
 21
6.4303476723
  0
LINE
  5
31A
100
AcDbEntity
  8
IGES
100
AcDbLine
 62
7
  6
CONTINUOUS
 10
-8.5415758701
 20
6.4655196444
 11
-8.5483997929
 21
6.3603964332
  0
LWPOLYLINE
  5
31B
100
AcDbEntity
  8
IGES
100
AcDbPolyline
 62
250
  6
CONTINUOUS
 90
3
 70
0
 10
-9.3298747607
 20
6.2218842159
 10
-9.3579816643
 20
5.8025024836
 10
-9.4168498277
 20
4.3729111051
  0
LINE
  5
31C
100
AcDbEntity
  8
IGES
100
AcDbLine
 62
7
  6
CONTINUOUS
 10
-8.7105758613
 20
5.8554720822
 11
-8.7095249864
 21
5.8702634537
  0
LWPOLYLINE
  5
31D
100
AcDbEntity
  8
IGES
100
AcDbPolyline
 62
250
  6
CONTINUOUS
 90
3
 70
0
 10
-9.2605186353
 20
3.9387044423
 10
-9.2890997997
 20
3.5457956979
 10
-9.3133407827
 20
3.1313230762
  0
LINE
  5
31E
100
AcDbEntity
  8
IGES
100
AcDbLine
 62
7
  6
CONTINUOUS
 10
-9.3260474476
 20
6.2738587294
 11
-9.3576617908
 21
5.8271716467
  0
LWPOLYLINE
  5
31F
100
AcDbEntity
  8
IGES
100
AcDbPolyline
 62
7
  6
CONTINUOUS
 90
19
 70
0
 10
-9.3260468534
 20
6.273859302
 10
-9.3133226937
 20
6.4410502805
 10
-9.24884587
 20
7.1852005269
 10
-9.1723646912
 20
7.9167152856
 10
-9.0837578005
 20
8.6365461281
 10
-8.9834445533
 20
9.3438588079
 10
-8.8724824974
 20
10.0355284713
 10
-8.7514582364
 20
10.712481392
 10
-8.6210623849
 20
11.3748518793
 10
-8.4830796495
 20
12.0180186864
 10
-8.3379953141
 20
12.644037884
 10
-8.1868891682
 20
13.2522489288
 10
-8.0332871567
 20
13.833616566
 10
-7.8791715833
 20
14.3868726306
 10
-7.7253911998
 20
14.9149565696
 10
-7.574422208
 20
15.4149865506
 10
-7.4290194126
 20
15.8833402392
 10
-7.2890105999
 20
16.3253915197
 10
-7.152255731
 20
16.7516681046
  0
LWPOLYLINE
  5
320
100
AcDbEntity
  8
IGES
100
AcDbPolyline
 62
7
  6
CONTINUOUS
 90
3
 70
0
 10
-8.7095249864
 20
5.8702634537
 10
-8.7084314623
 20
5.884705916
 10
-8.7080193423
 20
5.8899249571
  0
LINE
  5
321
100
AcDbEntity
  8
IGES
100
AcDbLine
 62
250
  6
CONTINUOUS
 10
-9.2586581467
 20
3.9623066411
 11
-9.2605181453
 21
3.9387066387
  0
LWPOLYLINE
  5
322
100
AcDbEntity
  8
IGES
100
AcDbPolyline
 62
250
  6
CONTINUOUS
 90
8
 70
0
 10
-8.5496185354
 20
6.3604772987
 10
-8.6488469878
 20
5.1144785936
 10
-8.7220811833
 20
3.8766167222
 10
-8.7829137274
 20
2.485919453
 10
-8.8304540941
 20
1.0916485914
 10
-8.8606459402
 20
-0.1994424347
 10
-8.8713957913
 20
-1.4187100845
 10
-8.8632049835
 20
-2.6724339432
  0
LINE
  5
323
100
AcDbEntity
  8
IGES
100
AcDbLine
 62
250
  6
CONTINUOUS
 10
-8.7080193423
 20
5.8899249571
 11
-8.7061175027
 21
5.9124567983
  0
LWPOLYLINE
  5
324
100
AcDbEntity
  8
IGES
100
AcDbPolyline
 62
250
  6
CONTINUOUS
 90
10
 70
0
 10
-7.4171284539
 20
6.4181231355
 10
-7.534982095
 20
5.0973024068
 10
-7.6389564699
 20
3.7767683394
 10
-7.7290515785
 20
2.4565209336
 10
-7.8052287906
 20
1.1432336392
 10
-7.8675267364
 20
-0.1697669937
 10
-7.9160613069
 20
-1.502501315
 10
-7.9508711324
 20
-2.8616427745
 10
-7.9719175826
 20
-4.2405179224
 10
-7.9792006575
 20
-5.6391267587
  0
LINE
  5
325
100
AcDbEntity
  8
IGES
100
AcDbLine
 62
250
  6
CONTINUOUS
 10
-9.4146081327
 20
4.3967366173
 11
-9.4168481312
 21
4.3729766147
  0
LWPOLYLINE
  5
326
100
AcDbEntity
  8
IGES
100
AcDbPolyline
 62
250
  6
CONTINUOUS
 90
10
 70
0
 10
-8.6055885095
 20
6.2941872548
 10
-8.6038839191
 20
6.3122255234
 10
-8.6025095678
 20
6.3302908113
 10
-8.6014656388
 20
6.3483786815
 10
-8.600752266
 20
6.3664863263
 10
-8.6003697418
 20
6.3846076731
 10
-8.6003182189
 20
6.4027333762
 10
-8.6005975721
 20
6.4208573529
 10
-8.6012076971
 20
6.4389767918
 10
-8.6021485087
 20
6.4570872535
  0
LINE
  5
327
100
AcDbEntity
  8
IGES
100
AcDbLine
 62
250
  6
CONTINUOUS
 10
-7.3048486701
 20
7.5233918385
 11
-7.4171284539
 21
6.4181231355
  0
LINE
  5
328
100
AcDbEntity
  8
IGES
100
AcDbLine
 62
250
  6
CONTINUOUS
 10
-7.2737413319
 20
7.8206812894
 11
-7.3048486701
 21
7.5233918385
  0
LWPOLYLINE
  5
329
100
AcDbEntity
  8
IGES
100
AcDbPolyline
 62
250
  6
CONTINUOUS
 90
8
 70
0
 10
-9.4146131162
 20
4.3967280136
 10
-9.369551564
 20
4.8109928931
 10
-9.318300055
 20
5.1809109737
 10
-9.2631296273
 20
5.507930428
 10
-9.2055611951
 20
5.7933788802
 10
-9.1461106039
 20
6.0396472443
 10
-9.0845224885
 20
6.2484798557
 10
-9.0209664813
 20
6.4202205022
  0
LWPOLYLINE
  5
32A
100
AcDbEntity
  8
IGES
100
AcDbPolyline
 62
250
  6
CONTINUOUS
 90
10
 70
0
 10
-6.0612380094
 20
14.0583465936
 10
-6.0618313995
 20
14.0529458161
 10
-6.0622764714
 20
14.0476404966
 10
-6.0625732254
 20
14.0424306425
 10
-6.0626244531
 20
14.0373526945
 10
-6.062527363
 20
14.0323702267
 10
-6.0625735798
 20
14.0273739401
 10
-6.0628603117
 20
14.0223273995
 10
-6.0632903505
 20
14.0172670393
 10
-6.063863696
 20
14.0121928596
  0
LWPOLYLINE
  5
32B
100
AcDbEntity
  8
IGES
100
AcDbPolyline
 62
250
  6
CONTINUOUS
 90
9
 70
0
 10
-7.3044449136
 20
13.3277964935
 10
-7.3498963011
 20
12.9158422584
 10
-7.3931337195
 20
12.4986912021
 10
-7.4341554452
 20
12.0760326255
 10
-7.472909229
 20
11.6478337984
 10
-7.5093006842
 20
11.2143656572
 10
-7.5433076266
 20
10.7755255231
 10
-7.5749810799
 20
10.3308608839
 10
-7.6043357867
 20
9.8801151035
  0
LINE
  5
32C
100
AcDbEntity
  8
IGES
100
AcDbLine
 62
250
  6
CONTINUOUS
 10
-7.2487353641
 20
8.0489534753
 11
-7.2737413319
 21
7.8206812894
  0
LINE
  5
32D
100
AcDbEntity
  8
IGES
100
AcDbLine
 62
250
  6
CONTINUOUS
 10
-7.2201942225
 20
8.2992318015
 11
-7.2487353641
 21
8.0489534753
  0
LWPOLYLINE
  5
32E
100
AcDbEntity
  8
IGES
100
AcDbPolyline
 62
250
  6
CONTINUOUS
 90
10
 70
0
 10
-7.6664982294
 20
8.723167416
 10
-7.6959750673
 20
8.4685242527
 10
-7.7247550316
 20
8.2148043335
 10
-7.7528386074
 20
7.9620071182
 10
-7.7802245243
 20
7.710127789
 10
-7.8069133312
 20
7.4591698068
 10
-7.8329070438
 20
7.2091450792
 10
-7.8582040793
 20
6.9600570433
 10
-7.8828006171
 20
6.7119005956
 10
-7.906693797
 20
6.4646747548
  0
LINE
  5
32F
100
AcDbEntity
  8
IGES
100
AcDbLine
 62
250
  6
CONTINUOUS
 10
-7.1775632683
 20
8.666686698
 11
-7.2201942225
 21
8.2992318015
  0
LWPOLYLINE
  5
330
100
AcDbEntity
  8
IGES
100
AcDbPolyline
 62
250
  6
CONTINUOUS
 90
6
 70
0
 10
-6.4316247922
 20
18.8062598834
 10
-6.424334373
 20
18.8685835808
 10
-6.4212754472
 20
18.9120768853
 10
-6.422467683
 20
18.936060605
 10
-6.4280382438
 20
18.9404393329
 10
-6.4381443213
 20
18.9256513081
  0
LINE
  5
331
100
AcDbEntity
  8
IGES
100
AcDbLine
 62
250
  6
CONTINUOUS
 10
-7.2512568073
 20
13.7806580334
 11
-7.3044449136
 21
13.3277964935
  0
LWPOLYLINE
  5
332
100
AcDbEntity
  8
IGES
100
AcDbPolyline
 62
250
  6
CONTINUOUS
 90
13
 70
0
 10
-6.0676484685
 20
14.012124141
 10
-6.1054695094
 20
13.7008987325
 10
-6.139986987
 20
13.4044663752
 10
-6.1712966257
 20
13.1229073043
 10
-6.1987688636
 20
12.8626901315
 10
-6.2232237775
 20
12.6175111073
 10
-6.2468435713
 20
12.3682076614
 10
-6.2697075808
 20
12.1143356517
 10
-6.2917311844
 20
11.8563140141
 10
-6.3146996537
 20
11.5761233227
 10
-6.339120853
 20
11.2676604564
 10
-6.3643059496
 20
10.9368208483
 10
-6.3901653379
 20
10.5835006379
  0
LWPOLYLINE
  5
333
100
AcDbEntity
  8
IGES
100
AcDbPolyline
 62
250
  6
CONTINUOUS
 90
10
 70
0
 10
-6.0136357361
 20
14.4616713771
 10
-6.0591836749
 20
14.0984387259
 10
-6.0594681387
 20
14.0953577056
 10
-6.0596578072
 20
14.0921907956
 10
-6.0596910363
 20
14.0889069779
 10
-6.0596294702
 20
14.0855372586
 10
-6.0596580412
 20
14.0821746756
 10
-6.0598383935
 20
14.0788502454
 10
-6.0601088829
 20
14.075532955
 10
-6.0604695093
 20
14.0722228054
  0
LINE
  5
334
100
AcDbEntity
  8
IGES
100
AcDbLine
 62
250
  6
CONTINUOUS
 10
-5.584878979
 20
17.1971364018
 11
-5.5300680456
 21
17.5949672076
  0
LWPOLYLINE
  5
335
100
AcDbEntity
  8
IGES
100
AcDbPolyline
 62
250
  6
CONTINUOUS
 90
3
 70
0
 10
-5.5300680456
 20
17.5949672076
 10
-5.4995109396
 20
17.8152775207
 10
-5.4554517748
 20
18.135778389
  0
LINE
  5
336
100
AcDbEntity
  8
IGES
100
AcDbLine
 62
250
  6
CONTINUOUS
 10
-6.443249168
 20
18.7246013969
 11
-6.4316247922
 21
18.8062598834
  0
LWPOLYLINE
  5
337
100
AcDbEntity
  8
IGES
100
AcDbPolyline
 62
250
  6
CONTINUOUS
 90
11
 70
0
 10
-5.0999982283
 20
20.1275553563
 10
-5.0857348217
 20
20.2261853711
 10
-5.0430277375
 20
20.3242657892
 10
-4.9721190223
 20
20.4212480581
 10
-4.8734116334
 20
20.5165891192
 10
-4.7474589701
 20
20.6097569274
 10
-4.5949539466
 20
20.7002327233
 10
-4.4167343763
 20
20.787513202
 10
-4.213801459
 20
20.871106282
 10
-3.9873077379
 20
20.9505369946
 10
-3.7385371762
 20
21.0253575518
  0
LWPOLYLINE
  5
338
100
AcDbEntity
  8
IGES
100
AcDbPolyline
 62
250
  6
CONTINUOUS
 90
10
 70
0
 10
-6.7799864715
 20
16.8976924589
 10
-6.8392979029
 20
16.5721921239
 10
-6.8967511911
 20
16.2417796805
 10
-6.952349254
 20
15.9066318829
 10
-7.0060672099
 20
15.5671362692
 10
-7.0579653522
 20
15.2233288301
 10
-7.1081654703
 20
14.8748813866
 10
-7.1566906687
 20
14.5218241727
 10
-7.203482963
 20
14.1645363975
 10
-7.251248618
 20
13.7807174386
  0
LWPOLYLINE
  5
339
100
AcDbEntity
  8
IGES
100
AcDbPolyline
 62
250
  6
CONTINUOUS
 90
9
 70
0
 10
-5.5870431508
 20
17.1969163487
 10
-5.6470774676
 20
16.8691669866
 10
-5.7051615709
 20
16.537398691
 10
-5.7612956452
 20
16.2015972621
 10
-5.8154189392
 20
15.8617437295
 10
-5.867592569
 20
15.5178287292
 10
-5.9179994993
 20
15.1698526403
 10
-5.9667008142
 20
14.8178063977
 10
-6.0136357361
 20
14.4616713771
  0
LWPOLYLINE
  5
33A
100
AcDbEntity
  8
IGES
100
AcDbPolyline
 62
250
  6
CONTINUOUS
 90
3
 70
0
 10
-6.6777842664
 20
17.4366754497
 10
-6.6883680288
 20
17.3815562943
 10
-6.7799864715
 20
16.8976924589
  0
LWPOLYLINE
  5
33B
100
AcDbEntity
  8
IGES
100
AcDbPolyline
 62
250
  6
CONTINUOUS
 90
9
 70
0
 10
-6.6775192565
 20
17.4378244169
 10
-6.6352350937
 20
17.6571963013
 10
-6.5966038581
 20
17.8597328255
 10
-6.561650942
 20
18.0456245377
 10
-6.5302637669
 20
18.2156918751
 10
-6.5025394958
 20
18.3695051252
 10
-6.478804913
 20
18.5054356585
 10
-6.4590641897
 20
18.6237513204
 10
-6.443249168
 20
18.7246013969
  0
LWPOLYLINE
  5
33C
100
AcDbEntity
  8
IGES
100
AcDbPolyline
 62
250
  6
CONTINUOUS
 90
10
 70
0
 10
-6.6775192565
 20
17.4378244169
 10
-6.9691278521
 20
16.1379692833
 10
-7.2395829718
 20
14.859904479
 10
-7.4886296595
 20
13.6041661037
 10
-7.715415261
 20
12.3746151266
 10
-7.9204958752
 20
11.1681980162
 10
-8.105448302
 20
9.9749025266
 10
-8.2705628905
 20
8.7914972594
 10
-8.4154612313
 20
7.6216174348
 10
-8.5408110218
 20
6.4654777566
  0
LWPOLYLINE
  5
33D
100
AcDbEntity
  8
IGES
100
AcDbPolyline
 62
250
  6
CONTINUOUS
 90
9
 70
0
 10
-8.7635172168
 20
6.3095734601
 10
-8.7570651345
 20
6.3252124093
 10
-8.7497878093
 20
6.3410912276
 10
-8.7419162286
 20
6.3566199882
 10
-8.733648184
 20
6.37150678
 10
-8.7251092915
 20
6.3856762461
 10
-8.7163522271
 20
6.3991483325
 10
-8.7074517322
 20
6.4118437765
 10
-8.6985119312
 20
6.4235846125
  0
LWPOLYLINE
  5
33E
100
AcDbEntity
  8
IGES
100
AcDbPolyline
 62
250
  6
CONTINUOUS
 90
10
 70
0
 10
-8.8221545634
 20
6.211602828
 10
-8.8806667159
 20
6.0780444562
 10
-8.9391423315
 20
5.9122091666
 10
-8.9963885977
 20
5.7149258429
 10
-9.0504332643
 20
5.4865742807
 10
-9.1001894432
 20
5.2289510438
 10
-9.1463797957
 20
4.9456177607
 10
-9.1890346486
 20
4.6391279037
 10
-9.2267171341
 20
4.3107175955
 10
-9.2586609338
 20
3.9623135221
  0
LWPOLYLINE
  5
33F
100
AcDbEntity
  8
IGES
100
AcDbPolyline
 62
250
  6
CONTINUOUS
 90
10
 70
0
 10
-6.8079706538
 20
9.977720511
 10
-6.8684527645
 20
9.8565999302
 10
-6.9235938041
 20
9.7308737761
 10
-6.9733937725
 20
9.6005420488
 10
-7.01720333
 20
9.4676472647
 10
-7.0556718163
 20
9.3301469073
 10
-7.0907472513
 20
9.1819134269
 10
-7.123078975
 20
9.0209043069
 10
-7.1520176473
 20
8.849162064
 10
-7.1775632683
 20
8.666686698
  0
LWPOLYLINE
  5
340
100
AcDbEntity
  8
IGES
100
AcDbPolyline
 62
250
  6
CONTINUOUS
 90
10
 70
0
 10
-8.8221545634
 20
6.211602828
 10
-8.8168763435
 20
6.2217016877
 10
-8.811584702
 20
6.2315697102
 10
-8.8062809606
 20
6.2412041575
 10
-8.8009666888
 20
6.2505996189
 10
-8.7956428748
 20
6.2597561635
 10
-8.7903098064
 20
6.26867877
 10
-8.7849682256
 20
6.2773667163
 10
-8.7796194447
 20
6.2858141502
 10
-8.7742644344
 20
6.2940178429
  0
LWPOLYLINE
  5
341
100
AcDbEntity
  8
IGES
100
AcDbPolyline
 62
250
  6
CONTINUOUS
 90
10
 70
0
 10
-8.6055937632
 20
6.2941825504
 10
-8.6239204374
 20
6.2659928911
 10
-8.639945861
 20
6.2349342906
 10
-8.6538962266
 20
6.2002407556
 10
-8.6658937752
 20
6.1612671032
 10
-8.6762913533
 20
6.1180083234
 10
-8.6854797761
 20
6.0712465644
 10
-8.693534834
 20
6.0214141726
 10
-8.7004060339
 20
5.9684183456
 10
-8.7061175027
 20
5.9124567983
  0
LWPOLYLINE
  5
342
100
AcDbEntity
  8
0
100
AcDbPolyline
 62
250
  6
CONTINUOUS
 90
16
 70
0
 10
5.2737055975
 20
19.8938194077
 10
5.267132492
 20
19.8850037105
 10
5.263779279
 20
19.8575318198
 10
5.263599244
 20
19.811071732
 10
5.2666417532
 20
19.7457716866
 10
5.2728549135
 20
19.6617019171
 10
5.2819519538
 20
19.5595398457
 10
5.2938777257
 20
19.440009715
 10
5.3086843422
 20
19.3032422478
 10
5.3262458578
 20
19.1493437199
 10
5.3464963956
 20
18.9792531958
 10
5.3694987784
 20
18.7933925963
 10
5.3953198251
 20
18.5907811297
 10
5.4239801436
 20
18.3711895008
 10
5.4554541763
 20
18.13577762
 10
5.4897387473
 20
17.8855738002
  0
LWPOLYLINE
  5
343
100
AcDbEntity
  8
IGES
100
AcDbPolyline
 62
250
  6
CONTINUOUS
 90
6
 70
0
 10
-8.6055937632
 20
6.2941825504
 10
-8.6024931683
 20
6.2978251008
 10
-8.5993448492
 20
6.3013328627
 10
-8.5961479777
 20
6.3047426081
 10
-8.5929130932
 20
6.3080926447
 10
-8.5896286584
 20
6.3114202017
  0
LWPOLYLINE
  5
344
100
AcDbEntity
  8
IGES
100
AcDbPolyline
 62
250
  6
CONTINUOUS
 90
10
 70
0
 10
-8.6895935915
 20
6.4342120131
 10
-8.6806846452
 20
6.4441477278
 10
-8.6714556734
 20
6.4524518931
 10
-8.6619667791
 20
6.4590404715
 10
-8.6522916536
 20
6.4641244138
 10
-8.6424416642
 20
6.4673622474
 10
-8.6324324101
 20
6.4680544952
 10
-8.6223452564
 20
6.4662078192
 10
-8.6122508094
 20
6.4623815693
 10
-8.6021506143
 20
6.4570830989
  0
LWPOLYLINE
  5
345
100
AcDbEntity
  8
IGES
100
AcDbPolyline
 62
250
  6
CONTINUOUS
 90
4
 70
0
 10
-8.5896286584
 20
6.3114202017
 10
-8.5827903559
 20
6.3182163823
 10
-8.5792318173
 20
6.321805276
 10
-8.5755815836
 20
6.3256056744
  0
LWPOLYLINE
  5
346
100
AcDbEntity
  8
IGES
100
AcDbPolyline
 62
7
  6
CONTINUOUS
 90
10
 70
0
 10
-8.5760450324
 20
6.3256379489
 10
-8.5729302108
 20
6.3285633264
 10
-8.5698263817
 20
6.3317150783
 10
-8.5667335451
 20
6.3350932045
 10
-8.5636519817
 20
6.3386873121
 10
-8.5605814108
 20
6.3425077942
 10
-8.5575209907
 20
6.3465858294
 10
-8.5544704407
 20
6.3509318108
 10
-8.5514300414
 20
6.3555353454
 10
-8.5483997929
 20
6.3603964332
  0
LWPOLYLINE
  5
347
100
AcDbEntity
  8
IGES
100
AcDbPolyline
 62
250
  6
CONTINUOUS
 90
9
 70
0
 10
-8.8263272761
 20
6.7164812201
 10
-8.8333543294
 20
6.7115115117
 10
-8.8404087805
 20
6.7060913879
 10
-8.8474899473
 20
6.7002159212
 10
-8.8545977898
 20
6.6938716835
 10
-8.8617309191
 20
6.68706227
 10
-8.8688866612
 20
6.6798082196
 10
-8.8760636832
 20
6.6721130214
 10
-8.88326193
 20
6.6639631943
  0
LINE
  5
348
100
AcDbEntity
  8
IGES
100
AcDbLine
 62
250
  6
CONTINUOUS
 10
-8.8233384208
 20
6.7184307371
 11
-8.8263272761
 21
6.7164812201
  0
LINE
  5
349
100
AcDbEntity
  8
0
100
AcDbLine
 62
7
  6
CONTINUOUS
 10
-4.0014416134
 20
-8.5648532538
 11
-3.8525054609
 21
-8.5321870856
  0
LINE
  5
34A
100
AcDbEntity
  8
0
100
AcDbLine
 62
7
  6
CONTINUOUS
 10
-3.8525054609
 20
-8.3688532538
 11
-4.0312288439
 21
-8.4015201697
  0
LINE
  5
34B
100
AcDbEntity
  8
0
100
AcDbLine
 62
7
  6
CONTINUOUS
 10
-8.5221842644
 20
-10.4745518737
 11
-8.5723387919
 21
-10.4745518737
  0
LINE
  5
34C
100
AcDbEntity
  8
0
100
AcDbLine
 62
7
  6
CONTINUOUS
 10
-6.9478255508
 20
-10.4307317115
 11
-6.9778326668
 21
-10.4307317115
  0
LINE
  5
34D
100
AcDbEntity
  8
0
100
AcDbLine
 62
7
  6
CONTINUOUS
 10
6.9514113754
 20
-10.263242176
 11
6.9814180023
 21
-10.263242176
  0
LINE
  5
34E
100
AcDbEntity
  8
0
100
AcDbLine
 62
7
  6
CONTINUOUS
 10
-8.5829507709
 20
-9.7137281209
 11
-8.6330637627
 21
-9.7137281209
  0
LINE
  5
34F
100
AcDbEntity
  8
0
100
AcDbLine
 62
7
  6
CONTINUOUS
 10
-8.5868313376
 20
-9.6395227468
 11
-8.6369420356
 21
-9.6395227468
  0
LINE
  5
350
100
AcDbEntity
  8
0
100
AcDbLine
 62
7
  6
CONTINUOUS
 10
6.9667737351
 20
-9.463212176
 11
6.9967782667
 21
-9.463212176
  0
LINE
  5
351
100
AcDbEntity
  8
0
100
AcDbLine
 62
7
  6
CONTINUOUS
 10
-6.9720517012
 20
-9.146401407
 11
-7.0020555128
 21
-9.146401407
  0
LINE
  5
352
100
AcDbEntity
  8
0
100
AcDbLine
 62
7
  6
CONTINUOUS
 10
6.9792250451
 20
-8.663212176
 11
7.0092278786
 21
-8.663212176
  0
LINE
  5
353
100
AcDbEntity
  8
0
100
AcDbLine
 62
7
  6
CONTINUOUS
 10
-4.2695266878
 20
-8.5648532538
 11
-4.0014416134
 21
-8.5648532538
  0
LINE
  5
354
100
AcDbEntity
  8
0
100
AcDbLine
 62
7
  6
CONTINUOUS
 10
-4.0312288439
 20
-8.4015201697
 11
-4.2397394573
 21
-8.4015201697
  0
LINE
  5
355
100
AcDbEntity
  8
DRAFT
100
AcDbLine
 62
7
  6
CONTINUOUS
 10
-3.2750003555
 20
-8.3895203905
 11
-3.2499999865
 21
-8.3895203905
  0
LINE
  5
356
100
AcDbEntity
  8
DRAFT
100
AcDbLine
 62
7
  6
CONTINUOUS
 10
3.2500000135
 20
-8.3895203905
 11
3.2750003555
 21
-8.3895203905
  0
LINE
  5
357
100
AcDbEntity
  8
0
100
AcDbLine
 62
7
  6
CONTINUOUS
 10
-6.9833514532
 20
-8.346331407
 11
-7.0133537238
 21
-8.346331407
  0
LINE
  5
358
100
AcDbEntity
  8
0
100
AcDbLine
 62
7
  6
CONTINUOUS
 10
-4.2397394573
 20
-7.5521867118
 11
-4.0312288439
 21
-7.5521867118
  0
LINE
  5
359
100
AcDbEntity
  8
0
100
AcDbLine
 62
7
  6
CONTINUOUS
 10
6.9925239942
 20
-7.453782176
 11
7.0225250142
 21
-7.453782176
  0
LINE
  5
35A
100
AcDbEntity
  8
0
100
AcDbLine
 62
7
  6
CONTINUOUS
 10
-4.0014416134
 20
-7.3888536277
 11
-4.2695266878
 21
-7.3888536277
  0
LINE
  5
35B
100
AcDbEntity
  8
0
100
AcDbLine
 62
7
  6
CONTINUOUS
 10
8.7179723536
 20
-7.3651110268
 11
8.7750122776
 21
-7.3651110268
  0
LINE
  5
35C
100
AcDbEntity
  8
0
100
AcDbLine
 62
7
  6
CONTINUOUS
 10
8.727792569
 20
-7.1477803099
 11
8.8055539655
 21
-7.1477803099
  0
LINE
  5
35D
100
AcDbEntity
  8
0
100
AcDbLine
 62
7
  6
CONTINUOUS
 10
-4.4482501125
 20
-7.1275201697
 11
-4.3291011905
 21
-7.1275201697
  0
LINE
  5
35E
100
AcDbEntity
  8
0
100
AcDbLine
 62
7
  6
CONTINUOUS
 10
-3.5844203031
 20
-7.0621867118
 11
-3.4354841506
 21
-7.0621867118
  0
LINE
  5
35F
100
AcDbEntity
  8
0
100
AcDbLine
 62
7
  6
CONTINUOUS
 10
-6.9954048417
 20
-7.0620217115
 11
-7.0254054688
 21
-7.0620217115
  0
LINE
  5
360
100
AcDbEntity
  8
0
100
AcDbLine
 62
7
  6
CONTINUOUS
 10
-4.2397394573
 20
-8.4015201697
 11
-4.418462882
 21
-8.3688532538
  0
LINE
  5
361
100
AcDbEntity
  8
0
100
AcDbLine
 62
7
  6
CONTINUOUS
 10
-4.0312288439
 20
-7.5521867118
 11
-3.8525054609
 21
-7.5848536277
  0
LINE
  5
362
100
AcDbEntity
  8
0
100
AcDbLine
 62
7
  6
CONTINUOUS
 10
-4.418462882
 20
-8.5321870856
 11
-4.2695266878
 21
-8.5648532538
  0
LINE
  5
363
100
AcDbEntity
  8
0
100
AcDbLine
 62
7
  6
CONTINUOUS
 10
-3.8525054609
 20
-7.4215201697
 11
-4.0014416134
 21
-7.3888536277
  0
LINE
  5
364
100
AcDbEntity
  8
0
100
AcDbLine
 62
7
  6
CONTINUOUS
 10
-4.5078245735
 20
-8.4995201697
 11
-4.418462882
 21
-8.5321870856
  0
LINE
  5
365
100
AcDbEntity
  8
0
100
AcDbLine
 62
7
  6
CONTINUOUS
 10
-3.763143686
 20
-7.4541867118
 11
-3.8525054609
 21
-7.4215201697
  0
LINE
  5
366
100
AcDbEntity
  8
0
100
AcDbLine
 62
7
  6
CONTINUOUS
 10
-4.418462882
 20
-6.9641867118
 11
-4.5078245735
 21
-6.9315201697
  0
LINE
  5
367
100
AcDbEntity
  8
0
100
AcDbLine
 62
7
  6
CONTINUOUS
 10
-4.56
 20
-7.0784991266
 11
-4.4482501125
 21
-7.1275201697
  0
LINE
  5
368
100
AcDbEntity
  8
0
100
AcDbLine
 62
7
  6
CONTINUOUS
 10
-4.56
 20
-8.4709107549
 11
-4.5078245735
 21
-8.4995201697
  0
LINE
  5
369
100
AcDbEntity
  8
0
100
AcDbLine
 62
7
  6
CONTINUOUS
 10
-3.6439947641
 20
-7.5195201697
 11
-3.763143686
 21
-7.4541867118
  0
LINE
  5
36A
100
AcDbEntity
  8
0
100
AcDbLine
 62
7
  6
CONTINUOUS
 10
-4.418462882
 20
-8.3688532538
 11
-4.56
 21
-8.2653742887
  0
LINE
  5
36B
100
AcDbEntity
  8
0
100
AcDbLine
 62
7
  6
CONTINUOUS
 10
-3.8525054609
 20
-7.5848536277
 11
-3.6737819945
 21
-7.7155201697
  0
LINE
  5
36C
100
AcDbEntity
  8
0
100
AcDbLine
 62
7
  6
CONTINUOUS
 10
-4.5078245735
 20
-6.9315201697
 11
-4.56
 21
-6.8933740673
  0
LINE
  5
36D
100
AcDbEntity
  8
0
100
AcDbLine
 62
7
  6
CONTINUOUS
 10
-3.5546330726
 20
-7.6175201697
 11
-3.6439947641
 21
-7.5195201697
  0
LINE
  5
36E
100
AcDbEntity
  8
0
100
AcDbLine
 62
7
  6
CONTINUOUS
 10
-4.1801649963
 20
-8.8588532538
 11
-4.1205905354
 21
-8.9568532538
  0
LINE
  5
36F
100
AcDbEntity
  8
0
100
AcDbLine
 62
7
  6
CONTINUOUS
 10
-3.6737819945
 20
-7.7155201697
 11
-3.6142075336
 21
-7.8135201697
  0
LINE
  5
370
100
AcDbEntity
  8
0
100
AcDbLine
 62
7
  6
CONTINUOUS
 10
-4.1205905354
 20
-9.3488532538
 11
-4.1801649963
 21
-9.2181870856
  0
LINE
  5
371
100
AcDbEntity
  8
0
100
AcDbLine
 62
7
  6
CONTINUOUS
 10
-4.0610160744
 20
-8.9568532538
 11
-4.1205905354
 21
-8.8261870856
  0
LINE
  5
372
100
AcDbEntity
  8
0
100
AcDbLine
 62
7
  6
CONTINUOUS
 10
-4.2397394573
 20
-9.2181870856
 11
-4.1801649963
 21
-9.3815201697
  0
LWPOLYLINE
  5
373
100
AcDbEntity
  8
IGES
100
AcDbPolyline
 62
250
  6
CONTINUOUS
 90
5
 70
0
 10
-8.8101135132
 20
6.4373653113
 10
-8.8058260726
 20
6.4183124618
 10
-8.795854236
 20
6.3752116176
 10
-8.7857216874
 20
6.3334274588
 10
-8.7742694573
 20
6.2940192134
  0
LWPOLYLINE
  5
374
100
AcDbEntity
  8
IGES
100
AcDbPolyline
 62
250
  6
CONTINUOUS
 90
10
 70
0
 10
-8.6895939478
 20
6.4342123446
 10
-8.6954623152
 20
6.4670122266
 10
-8.7002332273
 20
6.4999334984
 10
-8.7039141378
 20
6.5329943044
 10
-8.7065036497
 20
6.5661684268
 10
-8.7079960398
 20
6.5994081556
 10
-8.7083889195
 20
6.6326799616
 10
-8.7076832025
 20
6.6659636256
 10
-8.7058796522
 20
6.6992358219
 10
-8.7029784636
 20
6.7324671772
  0
LINE
  5
375
100
AcDbEntity
  8
0
100
AcDbLine
 62
7
  6
CONTINUOUS
 10
-8.1385078556
 20
-14.51028771
 11
-8.1515964482
 21
-14.4360823246
  0
LWPOLYLINE
  5
376
100
AcDbEntity
  8
IGES
100
AcDbPolyline
 62
250
  6
CONTINUOUS
 90
10
 70
0
 10
-5.8597859152
 20
-20.5883156552
 10
-5.849857908
 20
-20.6450763975
 10
-5.83587996
 20
-20.7006296471
 10
-5.8178520713
 20
-20.7549754039
 10
-5.7954524509
 20
-20.8086561235
 10
-5.7690028899
 20
-20.8611293504
 10
-5.7394687605
 20
-20.9107677178
 10
-5.7071718538
 20
-20.9570287701
 10
-5.6717903788
 20
-21.0004549628
 10
-5.6333243355
 20
-21.0410462959
  0
LWPOLYLINE
  5
377
100
AcDbEntity
  8
IGES
100
AcDbPolyline
 62
250
  6
CONTINUOUS
 90
9
 70
0
 10
-7.1321345056
 20
-17.6013583294
 10
-7.0638210623
 20
-18.0038553548
 10
-6.9940260658
 20
-18.3825260157
 10
-6.922749516
 20
-18.737370312
 10
-6.8522862836
 20
-19.0575328666
 10
-6.7803414979
 20
-19.3538690567
 10
-6.7000305468
 20
-19.6589450135
 10
-6.6090585594
 20
-19.9836161142
 10
-6.5097204065
 20
-20.3170269815
  0
LWPOLYLINE
  5
378
100
AcDbEntity
  8
IGES
100
AcDbPolyline
 62
7
  6
CONTINUOUS
 90
10
 70
0
 10
-7.6258322885
 20
-17.6805224053
 10
-7.5625247199
 20
-18.0585727337
 10
-7.4959083779
 20
-18.4227804546
 10
-7.4253904013
 20
-18.7757183894
 10
-7.3497552843
 20
-19.1222927677
 10
-7.2682114549
 20
-19.4648305945
 10
-7.1810342704
 20
-19.8020973147
 10
-7.0876295064
 20
-20.1364839872
 10
-6.9865644757
 20
-20.4734028284
 10
-6.8769926762
 20
-20.8159355762
  0
LWPOLYLINE
  5
379
100
AcDbEntity
  8
IGES
100
AcDbPolyline
 62
250
  6
CONTINUOUS
 90
13
 70
0
 10
-8.3980678045
 20
-14.451399706
 10
-8.3685952364
 20
-14.6346563559
 10
-8.3384363599
 20
-14.8151489647
 10
-8.3078421563
 20
-14.9906755855
 10
-8.2771545989
 20
-15.1597768956
 10
-8.2461737408
 20
-15.3231210859
 10
-8.2144022724
 20
-15.4815827571
 10
-8.1819918604
 20
-15.6338796932
 10
-8.1491783387
 20
-15.7799199118
 10
-8.115684918
 20
-15.9216951515
 10
-8.0817004022
 20
-16.0587474834
 10
-8.047993238
 20
-16.1886404527
 10
-8.0153040151
 20
-16.3098219792
  0
LWPOLYLINE
  5
37A
100
AcDbEntity
  8
IGES
100
AcDbPolyline
 62
7
  6
CONTINUOUS
 90
31
 70
0
 10
-7.9089087066
 20
-15.849180001
 10
-7.9606466579
 20
-15.5237112673
 10
-7.9872277512
 20
-15.3537574627
 10
-8.0137336518
 20
-15.1818790167
 10
-8.0402606566
 20
-15.0070370638
 10
-8.0663407594
 20
-14.8319582482
 10
-8.0918334756
 20
-14.6573416903
 10
-8.1168257652
 20
-14.4824082083
 10
-8.1412261715
 20
-14.3077133423
 10
-8.1650165347
 20
-14.1333521145
 10
-8.1882124142
 20
-13.9591815628
 10
-8.2107812556
 20
-13.7854333313
 10
-8.232729114
 20
-13.6120681269
 10
-8.254055869
 20
-13.4391017794
 10
-8.2747243972
 20
-13.2668696262
 10
-8.2947374091
 20
-13.0954053936
 10
-8.3141122895
 20
-12.924666403
 10
-8.3328409551
 20
-12.754883443
 10
-8.35094132
 20
-12.586068559
 10
-8.3684341692
 20
-12.4182046785
 10
-8.3853190331
 20
-12.2514826058
 10
-8.4016088237
 20
-12.0859740862
 10
-8.4173305664
 20
-11.9216050181
 10
-8.4325056737
 20
-11.7583488809
 10
-8.4471456248
 20
-11.5962835681
 10
-8.4612772881
 20
-11.4353298187
 10
-8.4749429164
 20
-11.275225853
 10
-8.4881689744
 20
-11.115867426
 10
-8.5009640946
 20
-10.9573577643
 10
-8.5133416008
 20
-10.7997466836
 10
-8.52531877
 20
-10.6430319169
  0
LINE
  5
37B
100
AcDbEntity
  8
IGES
100
AcDbLine
 62
7
  6
CONTINUOUS
 10
-7.793866857
 20
-16.5661803736
 11
-7.9089087066
 21
-15.849180001
  0
LWPOLYLINE
  5
37C
100
AcDbEntity
  8
IGES
100
AcDbPolyline
 62
7
  6
CONTINUOUS
 90
3
 70
0
 10
-7.6258268616
 20
-17.6805393838
 10
-7.6798946716
 20
-17.333312227
 10
-7.7264190497
 20
-17.0179675456
  0
LINE
  5
37D
100
AcDbEntity
  8
IGES
100
AcDbLine
 62
7
  6
CONTINUOUS
 10
-7.7622063801
 20
-16.7712703195
 11
-7.793866857
 21
-16.5661803736
  0
LINE
  5
37E
100
AcDbEntity
  8
IGES
100
AcDbLine
 62
7
  6
CONTINUOUS
 10
-7.7384606827
 20
-16.9317825664
 11
-7.7622063801
 21
-16.7712703195
  0
LINE
  5
37F
100
AcDbEntity
  8
IGES
100
AcDbLine
 62
7
  6
CONTINUOUS
 10
-7.7260099043
 20
-17.0185853375
 11
-7.7384606827
 21
-16.9317825664
  0
LINE
  5
380
100
AcDbEntity
  8
IGES
100
AcDbLine
 62
7
  6
CONTINUOUS
 10
-7.7264190497
 20
-17.0179675456
 11
-7.7347396267
 21
-16.9595588141
  0
LWPOLYLINE
  5
381
100
AcDbEntity
  8
0
100
AcDbPolyline
 62
7
  6
CONTINUOUS
 90
3
 70
0
 10
-8.2849180337
 20
-13.4079217711
 10
-8.293663654
 20
-13.3459965924
 10
-8.2981663704
 20
-13.3117714942
  0
LINE
  5
382
100
AcDbEntity
  8
IGES
100
AcDbLine
 62
250
  6
CONTINUOUS
 10
-5.8597859152
 20
-20.5883156552
 11
-5.9099739864
 21
-20.2270289575
  0
LWPOLYLINE
  5
383
100
AcDbEntity
  8
IGES
100
AcDbPolyline
 62
250
  6
CONTINUOUS
 90
29
 70
0
 10
-7.7347396267
 20
-16.9595588141
 10
-7.7791219409
 20
-16.6334368379
 10
-7.8241943975
 20
-16.2864129587
 10
-7.8669547283
 20
-15.9391503972
 10
-7.9091688397
 20
-15.5780818318
 10
-7.9516374641
 20
-15.1952966988
 10
-7.993287238
 20
-14.7994275988
 10
-8.0329984982
 20
-14.4015904223
 10
-8.069955446
 20
-14.0119240743
 10
-8.1050422152
 20
-13.6230321296
 10
-8.1396172636
 20
-13.2199808478
 10
-8.1741517585
 20
-12.7954827858
 10
-8.2077019695
 20
-12.3592228744
 10
-8.2394324962
 20
-11.9216383414
 10
-8.2690164396
 20
-11.4879453745
 10
-8.296685389
 20
-11.0554440559
 10
-8.3225514895
 20
-10.6222811884
 10
-8.3465614346
 20
-10.188718661
 10
-8.3686195039
 20
-9.7559477256
 10
-8.3887315967
 20
-9.3233267688
 10
-8.4069838946
 20
-8.8871624004
 10
-8.4231031248
 20
-8.4516712664
 10
-8.4367267593
 20
-8.0272417787
 10
-8.4477604522
 20
-7.6224440083
 10
-8.4566176823
 20
-7.2286408832
 10
-8.4636280862
 20
-6.8310382798
 10
-8.4687371407
 20
-6.4272061611
 10
-8.4718261669
 20
-6.0277957497
 10
-8.4729106485
 20
-5.6395229302
  0
LINE
  5
384
100
AcDbEntity
  8
0
100
AcDbLine
 62
7
  6
CONTINUOUS
 10
-8.2514117715
 20
-13.5343118212
 11
-8.2569716888
 21
-13.4916114265
  0
LINE
  5
385
100
AcDbEntity
  8
IGES
100
AcDbLine
 62
250
  6
CONTINUOUS
 10
-5.9099739864
 20
-20.2270289575
 11
-5.9572909517
 21
-19.8582544386
  0
LWPOLYLINE
  5
386
100
AcDbEntity
  8
IGES
100
AcDbPolyline
 62
250
  6
CONTINUOUS
 90
9
 70
0
 10
-8.6187050802
 20
-12.868111478
 10
-8.5916768089
 20
-13.0817147677
 10
-8.5645146728
 20
-13.2905772828
 10
-8.5372797096
 20
-13.4943637736
 10
-8.5098764606
 20
-13.6939549262
 10
-8.4822712059
 20
-13.8895167629
 10
-8.4545780373
 20
-14.0803335968
 10
-8.4266528757
 20
-14.2669784019
 10
-8.3980678045
 20
-14.451399706
  0
LINE
  5
387
100
AcDbEntity
  8
0
100
AcDbLine
 62
7
  6
CONTINUOUS
 10
-8.3277477471
 20
-13.0444262589
 11
-8.3484789115
 21
-12.8815612883
  0
LWPOLYLINE
  5
388
100
AcDbEntity
  8
0
100
AcDbPolyline
 62
7
  6
CONTINUOUS
 90
3
 70
0
 10
-8.2981663704
 20
-13.3117714942
 10
-8.307024839
 20
-13.2414903398
 10
-8.3111724989
 20
-13.2064796585
  0
LINE
  5
389
100
AcDbEntity
  8
0
100
AcDbLine
 62
7
  6
CONTINUOUS
 10
-8.3484789115
 20
-12.8815612883
 11
-8.368684452
 21
-12.7155609681
  0
LWPOLYLINE
  5
38A
100
AcDbEntity
  8
IGES
100
AcDbPolyline
 62
250
  6
CONTINUOUS
 90
8
 70
0
 10
-5.9572909517
 20
-19.8582544386
 10
-6.0017368109
 20
-19.4819920984
 10
-6.0435170672
 20
-19.0983921478
 10
-6.0824262176
 20
-18.707304376
 10
-6.1178477525
 20
-18.3082781507
 10
-6.1495761688
 20
-17.9011632614
 10
-6.1778169697
 20
-17.4861099186
 10
-6.2025701552
 20
-17.0631181224
  0
LINE
  5
38B
100
AcDbEntity
  8
0
100
AcDbLine
 62
7
  6
CONTINUOUS
 10
-8.368684452
 20
-12.7155609681
 11
-8.3883643686
 21
-12.5471404558
  0
LINE
  5
38C
100
AcDbEntity
  8
0
100
AcDbLine
 62
7
  6
CONTINUOUS
 10
-8.1515964482
 20
-14.4360823246
 11
-8.1755691142
 21
-14.229519865
  0
LWPOLYLINE
  5
38D
100
AcDbEntity
  8
IGES
100
AcDbPolyline
 62
250
  6
CONTINUOUS
 90
5
 70
0
 10
-8.7235996884
 20
-11.980972767
 10
-8.697794507
 20
-12.208292186
 10
-8.6717357342
 20
-12.4316367604
 10
-8.645405809
 20
-12.6512914891
 10
-8.6187050802
 20
-12.868111478
  0
LWPOLYLINE
  5
38E
100
AcDbEntity
  8
0
100
AcDbPolyline
 62
7
  6
CONTINUOUS
 90
3
 70
0
 10
-8.1755691142
 20
-14.229519865
 10
-8.1985523568
 20
-14.0265753731
 10
-8.209673912
 20
-13.926462485
  0
LWPOLYLINE
  5
38F
100
AcDbEntity
  8
IGES
100
AcDbPolyline
 62
7
  6
CONTINUOUS
 90
10
 70
0
 10
-8.920256335
 20
-12.3525691036
 10
-8.9417131351
 20
-12.1611304954
 10
-8.9835550943
 20
-11.7724612171
 10
-9.0236875563
 20
-11.3785697065
 10
-9.0620743852
 20
-10.9797948193
 10
-9.0986552732
 20
-10.576730855
 10
-9.1333472193
 20
-10.1702956366
 10
-9.166098692
 20
-9.7611430373
 10
-9.1968876804
 20
-9.3495957336
 10
-9.2090309681
 20
-9.1789264877
  0
LWPOLYLINE
  5
390
100
AcDbEntity
  8
0
100
AcDbPolyline
 62
7
  6
CONTINUOUS
 90
5
 70
0
 10
-8.3111724989
 20
-13.2064796585
 10
-8.3186654605
 20
-13.1398416115
 10
-8.3217655623
 20
-13.1102837965
 10
-8.3242719437
 20
-13.0842623989
 10
-8.3262660053
 20
-13.0621779547
  0
LINE
  5
391
100
AcDbEntity
  8
IGES
100
AcDbLine
 62
250
  6
CONTINUOUS
 10
-5.1510495455
 20
9.991909008
 11
-5.203059523
 21
10.4891889699
  0
LWPOLYLINE
  5
392
100
AcDbEntity
  8
IGES
100
AcDbPolyline
 62
250
  6
CONTINUOUS
 90
10
 70
0
 10
-6.2025701552
 20
-17.0631181224
 10
-6.3193594304
 20
-14.5826875222
 10
-6.4069179486
 20
-12.0719413299
 10
-6.4652457096
 20
-9.5308795454
 10
-6.4942983539
 20
-6.9384636943
 10
-6.494120241
 20
-4.3157322511
 10
-6.4648444502
 20
-1.7258006392
 10
-6.4065153411
 20
0.8102926669
 10
-6.3190885541
 20
3.3135861417
 10
-6.202564089
 20
5.7840797852
  0
LINE
  5
393
100
AcDbEntity
  8
IGES
100
AcDbLine
 62
250
  6
CONTINUOUS
 10
-5.3000038694
 20
10.7522511946
 11
-5.2999971493
 21
10.5594706724
  0
LINE
  5
394
100
AcDbEntity
  8
IGES
100
AcDbLine
 62
7
  6
CONTINUOUS
 10
-5.1000020765
 20
20.1275362926
 11
-5.1000003315
 21
19.9458543018
  0
LINE
  5
395
100
AcDbEntity
  8
0
100
AcDbLine
 62
7
  6
CONTINUOUS
 10
-5.0516777974
 20
8.6854797772
 11
-5.0516777974
 21
-19.9645202228
  0
LINE
  5
396
100
AcDbEntity
  8
0
100
AcDbLine
 62
7
  6
CONTINUOUS
 10
-5.05
 20
-19.964520185
 11
-5.05
 21
8.685479815
  0
LINE
  5
397
100
AcDbEntity
  8
0
100
AcDbLine
 62
7
  6
CONTINUOUS
 10
-4.56
 20
-8.4709107549
 11
-4.56
 21
-8.2653742887
  0
LINE
  5
398
100
AcDbEntity
  8
0
100
AcDbLine
 62
7
  6
CONTINUOUS
 10
-4.56
 20
-7.6883328889
 11
-4.56
 21
-7.4827962903
  0
LINE
  5
399
100
AcDbEntity
  8
0
100
AcDbLine
 62
7
  6
CONTINUOUS
 10
-4.56
 20
-7.0784991266
 11
-4.56
 21
-6.8933740673
  0
LINE
  5
39A
100
AcDbEntity
  8
0
100
AcDbLine
 62
7
  6
CONTINUOUS
 10
-4.56
 20
-6.1924631099
 11
-4.56
 21
-5.9964631099
  0
LINE
  5
39B
100
AcDbEntity
  8
0
100
AcDbLine
 62
7
  6
CONTINUOUS
 10
-4.56
 20
-4.9332257726
 11
-4.56
 21
-4.669621577
  0
LINE
  5
39C
100
AcDbEntity
  8
0
100
AcDbLine
 62
7
  6
CONTINUOUS
 10
-4.56
 20
-3.3749106731
 11
-4.56
 21
-3.1693741056
  0
LINE
  5
39D
100
AcDbEntity
  8
0
100
AcDbLine
 62
7
  6
CONTINUOUS
 10
-4.56
 20
-2.5923328694
 11
-4.56
 21
-2.3867963691
  0
LINE
  5
39E
100
AcDbEntity
  8
0
100
AcDbLine
 62
7
  6
CONTINUOUS
 10
-4.56
 20
-2.0315201697
 11
-4.56
 21
-1.8355201697
  0
LINE
  5
39F
100
AcDbEntity
  8
0
100
AcDbLine
 62
7
  6
CONTINUOUS
 10
-4.478037343
 20
-6.1475201697
 11
-4.478037343
 21
-5.9515201697
  0
LINE
  5
3A0
100
AcDbEntity
  8
0
100
AcDbLine
 62
7
  6
CONTINUOUS
 10
-4.2099522268
 20
-5.9515201697
 11
-4.2099522268
 21
-6.1801867118
  0
LINE
  5
3A1
100
AcDbEntity
  8
0
100
AcDbLine
 62
7
  6
CONTINUOUS
 10
-4.0908033049
 20
-6.4415201697
 11
-4.0908033049
 21
-6.6375201697
  0
LINE
  5
3A2
100
AcDbEntity
  8
0
100
AcDbLine
 62
7
  6
CONTINUOUS
 10
-3.9418671524
 20
-6.6375201697
 11
-3.9418671524
 21
-6.4415201697
  0
LINE
  5
3A3
100
AcDbEntity
  8
0
100
AcDbLine
 62
7
  6
CONTINUOUS
 10
-3.763143686
 20
-4.5468534408
 11
-3.763143686
 21
-4.7101868987
  0
LINE
  5
3A4
100
AcDbEntity
  8
0
100
AcDbLine
 62
7
  6
CONTINUOUS
 10
-3.5844203031
 20
-5.0368536277
 11
-3.5844203031
 21
-5.1675201697
  0
LINE
  5
3A5
100
AcDbEntity
  8
0
100
AcDbLine
 62
7
  6
CONTINUOUS
 10
-3.5844203031
 20
-6.1148536277
 11
-3.5844203031
 21
-7.0621867118
  0
LINE
  5
3A6
100
AcDbEntity
  8
0
100
AcDbLine
 62
7
  6
CONTINUOUS
 10
-3.4354841506
 20
-7.0621867118
 11
-3.4354841506
 21
-5.9515201697
  0
LINE
  5
3A7
100
AcDbEntity
  8
0
100
AcDbLine
 62
7
  6
CONTINUOUS
 10
-3.4354841506
 20
-5.2001867118
 11
-3.4354841506
 21
-5.0695201697
  0
LINE
  5
3A8
100
AcDbEntity
  8
0
100
AcDbLine
 62
7
  6
CONTINUOUS
 10
-3.4354841506
 20
-2.0315201697
 11
-3.4354841506
 21
-1.8355201697
  0
LINE
  5
3A9
100
AcDbEntity
  8
0
100
AcDbLine
 62
250
  6
CONTINUOUS
 10
-3.4354812858
 20
-1.8355228694
 11
-3.4354784301
 21
3.860479815
  0
LINE
  5
3AA
100
AcDbEntity
  8
0
100
AcDbLine
 62
250
  6
CONTINUOUS
 10
-3.4354784301
 20
-15.139520185
 11
-3.4354812858
 21
-7.062186727
  0
LINE
  5
3AB
100
AcDbEntity
  8
0
100
AcDbLine
 62
250
  6
CONTINUOUS
 10
-3.4354784301
 20
-5.0368536429
 11
-3.4354812858
 21
-2.031520185
  0
LINE
  5
3AC
100
AcDbEntity
  8
0
100
AcDbLine
 62
250
  6
CONTINUOUS
 10
-3.4354812858
 20
-5.951520185
 11
-3.4354784301
 21
-5.2001491451
  0
LINE
  5
3AD
100
AcDbEntity
  8
RACCORDO
100
AcDbLine
 62
7
  6
CONTINUOUS
 10
-3.2854841282
 20
-15.1395202076
 11
-3.2854841282
 21
3.8604797924
  0
LWPOLYLINE
  5
3AE
100
AcDbEntity
  8
IGES
100
AcDbPolyline
 62
250
  6
CONTINUOUS
 90
10
 70
0
 10
-6.2336922278
 20
10.609967737
 10
-6.2167628212
 20
10.9911146423
 10
-6.1993496086
 20
11.3715026888
 10
-6.181452575
 20
11.7511244537
 10
-6.1630733915
 20
12.1299783783
 10
-6.1442103557
 20
12.5080511932
 10
-6.1248583912
 20
12.8853180372
 10
-6.1050157945
 20
13.2617658365
 10
-6.0846842352
 20
13.6373931864
 10
-6.063863696
 20
14.0121928596
  0
LINE
  5
3AF
100
AcDbEntity
  8
IGES
100
AcDbLine
 62
250
  6
CONTINUOUS
 10
-6.0612380094
 20
14.0583465936
 11
-6.0604695093
 21
14.0722228054
  0
LWPOLYLINE
  5
3B0
100
AcDbEntity
  8
IGES
100
AcDbPolyline
 62
250
  6
CONTINUOUS
 90
8
 70
0
 10
-6.202564089
 20
5.7840797852
 10
-6.1778175805
 20
6.2070165999
 10
-6.1495710218
 20
6.6221080679
 10
-6.1178244129
 20
7.0293541889
 10
-6.0823580957
 20
7.4287141168
 10
-6.0433917283
 20
7.8202286978
 10
-6.0015842853
 20
8.2040204711
 10
-5.957155425
 20
8.5801302831
  0
LWPOLYLINE
  5
3B1
100
AcDbEntity
  8
IGES
100
AcDbPolyline
 62
250
  6
CONTINUOUS
 90
3
 70
0
 10
-5.957155425
 20
8.5801302831
 10
-5.9098854891
 20
8.9485172875
 10
-5.8597744777
 20
9.3091814841
  0
LWPOLYLINE
  5
3B2
100
AcDbEntity
  8
IGES
100
AcDbPolyline
 62
250
  6
CONTINUOUS
 90
3
 70
0
 10
-7.6936768107
 20
-17.5877537759
 10
-7.7039579156
 20
-17.6562334941
 10
-7.7094380367
 20
-17.7258130999
  0
LWPOLYLINE
  5
3B3
100
AcDbEntity
  8
IGES
100
AcDbPolyline
 62
250
  6
CONTINUOUS
 90
4
 70
0
 10
-7.6487579668
 20
-17.5779046667
 10
-7.6591159261
 20
-17.6386499364
 10
-7.6657229314
 20
-17.6998420806
 10
-7.6685706162
 20
-17.7613687904
  0
LINE
  5
3B4
100
AcDbEntity
  8
IGES
100
AcDbLine
 62
250
  6
CONTINUOUS
 10
-7.6786633649
 20
-17.5205080277
 11
-7.6936768107
 21
-17.5877537759
  0
LINE
  5
3B5
100
AcDbEntity
  8
IGES
100
AcDbLine
 62
250
  6
CONTINUOUS
 10
-7.6445814994
 20
-17.5600958229
 11
-7.6487579668
 21
-17.5779046667
  0
LINE
  5
3B6
100
AcDbEntity
  8
0
100
AcDbLine
 62
250
  6
CONTINUOUS
 10
6.8079708126
 20
9.9776368639
 11
7.1049108186
 21
10.1422968538
  0
LINE
  5
3B7
100
AcDbEntity
  8
0
100
AcDbLine
 62
7
  6
CONTINUOUS
 10
-3.763143686
 20
-5.6901867118
 11
-3.6439947641
 21
-5.6575201697
  0
LWPOLYLINE
  5
3B8
100
AcDbEntity
  8
IGES
100
AcDbPolyline
 62
250
  6
CONTINUOUS
 90
8
 70
0
 10
-9.0808779364
 20
-7.3465037149
 10
-9.1436438564
 20
-7.3608993857
 10
-9.1970456999
 20
-7.3755695736
 10
-9.2407978928
 20
-7.3903979311
 10
-9.2746973051
 20
-7.4053105951
 10
-9.2982978895
 20
-7.4201396863
 10
-9.3112294522
 20
-7.4346292784
 10
-9.3139162309
 20
-7.4453517616
  0
LINE
  5
3B9
100
AcDbEntity
  8
0
100
AcDbLine
 62
7
  6
CONTINUOUS
 10
-4.2695266878
 20
-7.3888536277
 11
-4.418462882
 21
-7.4215201697
  0
LINE
  5
3BA
100
AcDbEntity
  8
0
100
AcDbLine
 62
7
  6
CONTINUOUS
 10
-4.418462882
 20
-7.5848536277
 11
-4.2397394573
 21
-7.5521867118
  0
LWPOLYLINE
  5
3BB
100
AcDbEntity
  8
0
100
AcDbPolyline
 62
250
  6
CONTINUOUS
 90
8
 70
0
 10
9.214331609
 20
-4.2393044835
 10
9.2773448859
 20
-4.2308841975
 10
9.3311172482
 20
-4.2213627513
 10
9.3753634891
 20
-4.2108284713
 10
9.4098803159
 20
-4.1993367954
 10
9.4342282344
 20
-4.1870101159
 10
9.4480333154
 20
-4.174059563
 10
9.4514251069
 20
-4.1645165307
  0
LINE
  5
3BC
100
AcDbEntity
  8
0
100
AcDbLine
 62
250
  6
CONTINUOUS
 10
9.1484916136
 20
-5.6394544913
 11
9.2674109735
 21
-5.6375883305
  0
LWPOLYLINE
  5
3BD
100
AcDbEntity
  8
0
100
AcDbPolyline
 62
250
  6
CONTINUOUS
 90
5
 70
0
 10
9.2674109735
 20
-5.6375883305
 10
9.3485292113
 20
-5.6367482745
 10
9.3736766159
 20
-5.6367296329
 10
9.3880035865
 20
-5.6369816481
 10
9.3916030404
 20
-5.6373842337
  0
LINE
  5
3BE
100
AcDbEntity
  8
0
100
AcDbLine
 62
7
  6
CONTINUOUS
 10
9.1483937926
 20
-5.6394588209
 11
8.8258073418
 21
-5.6397928659
  0
LINE
  5
3BF
100
AcDbEntity
  8
0
100
AcDbLine
 62
7
  6
CONTINUOUS
 10
-4.358888421
 20
-6.9641867118
 11
-4.418462882
 21
-6.9641867118
  0
LINE
  5
3C0
100
AcDbEntity
  8
0
100
AcDbLine
 62
7
  6
CONTINUOUS
 10
6.9974162098
 20
-6.7067923743
 11
7.0274165628
 21
-6.7067923743
  0
LINE
  5
3C1
100
AcDbEntity
  8
0
100
AcDbLine
 62
7
  6
CONTINUOUS
 10
-6.99820715
 20
-6.528671407
 11
-7.0282073949
 21
-6.528671407
  0
LINE
  5
3C2
100
AcDbEntity
  8
0
100
AcDbLine
 62
7
  6
CONTINUOUS
 10
-4.0610160744
 20
-6.1148536277
 11
-3.5844203031
 21
-6.1148536277
  0
LINE
  5
3C3
100
AcDbEntity
  8
0
100
AcDbLine
 62
7
  6
CONTINUOUS
 10
6.9997717576
 20
-5.959802176
 11
7.0297717894
 21
-5.959802176
  0
LINE
  5
3C4
100
AcDbEntity
  8
0
100
AcDbLine
 62
7
  6
CONTINUOUS
 10
-3.4354841506
 20
-5.9515201697
 11
-4.2099522268
 21
-5.9515201697
  0
LINE
  5
3C5
100
AcDbEntity
  8
0
100
AcDbLine
 62
7
  6
CONTINUOUS
 10
8.7796815097
 20
-5.7964168214
 11
8.8195555502
 21
-5.7964168214
  0
LINE
  5
3C6
100
AcDbEntity
  8
0
100
AcDbLine
 62
7
  6
CONTINUOUS
 10
-3.8227182304
 20
-5.6901867118
 11
-3.763143686
 21
-5.6901867118
  0
LINE
  5
3C7
100
AcDbEntity
  8
0
100
AcDbLine
 62
7
  6
CONTINUOUS
 10
-3.763143686
 20
-5.4941867118
 11
-3.8227182304
 21
-5.4941867118
  0
LINE
  5
3C8
100
AcDbEntity
  8
0
100
AcDbLine
 62
7
  6
CONTINUOUS
 10
-6.9997708127
 20
-5.319241407
 11
-7.0297708445
 21
-5.319241407
  0
LINE
  5
3C9
100
AcDbEntity
  8
0
100
AcDbLine
 62
7
  6
CONTINUOUS
 10
6.9982080949
 20
-4.750372176
 11
7.0282083399
 21
-4.750372176
  0
LINE
  5
3CA
100
AcDbEntity
  8
0
100
AcDbLine
 62
7
  6
CONTINUOUS
 10
-6.9974150305
 20
-4.5722516053
 11
-7.0274153834
 21
-4.5722516053
  0
LINE
  5
3CB
100
AcDbEntity
  8
0
100
AcDbLine
 62
7
  6
CONTINUOUS
 10
6.9954061466
 20
-4.2170224805
 11
7.0254067737
 21
-4.2170224805
  0
LINE
  5
3CC
100
AcDbEntity
  8
0
100
AcDbLine
 62
7
  6
CONTINUOUS
 10
-6.9925230493
 20
-3.825261407
 11
-7.0225240693
 21
-3.825261407
  0
LINE
  5
3CD
100
AcDbEntity
  8
0
100
AcDbLine
 62
7
  6
CONTINUOUS
 10
-4.2695266878
 20
-3.4688534408
 11
-4.0014416134
 21
-3.4688534408
  0
LINE
  5
3CE
100
AcDbEntity
  8
0
100
AcDbLine
 62
7
  6
CONTINUOUS
 10
-4.0312288439
 20
-3.3055201697
 11
-4.2397394573
 21
-3.3055201697
  0
LINE
  5
3CF
100
AcDbEntity
  8
IGES
100
AcDbLine
 62
250
  6
CONTINUOUS
 10
-8.788575962
 20
-5.6394760142
 11
-7.9792006575
 21
-5.6391267587
  0
LWPOLYLINE
  5
3D0
100
AcDbEntity
  8
IGES
100
AcDbPolyline
 62
250
  6
CONTINUOUS
 90
4
 70
0
 10
-9.348525497
 20
-5.6367475055
 10
-9.3736728925
 20
-5.636728864
 10
-9.3879998538
 20
-5.6369808791
 10
-9.3915993001
 20
-5.6373834642
  0
LINE
  5
3D1
100
AcDbEntity
  8
0
100
AcDbLine
 62
250
  6
CONTINUOUS
 10
7.9792027372
 20
-5.6391275277
 11
8.7885784368
 21
-5.6394767832
  0
LINE
  5
3D2
100
AcDbEntity
  8
IGES
100
AcDbLine
 62
7
  6
CONTINUOUS
 10
-9.148390111
 20
-5.6394580519
 11
-8.7887331592
 21
-5.6398272842
  0
LINE
  5
3D3
100
AcDbEntity
  8
IGES
100
AcDbLine
 62
250
  6
CONTINUOUS
 10
-9.2674072766
 20
-5.6375875615
 11
-9.348525497
 21
-5.6367475055
  0
LINE
  5
3D4
100
AcDbEntity
  8
IGES
100
AcDbLine
 62
250
  6
CONTINUOUS
 10
-9.148487932
 20
-5.6394537223
 11
-9.2674072766
 21
-5.6375875615
  0
LWPOLYLINE
  5
3D5
100
AcDbEntity
  8
IGES
100
AcDbPolyline
 62
250
  6
CONTINUOUS
 90
8
 70
0
 10
-9.2143279366
 20
-4.2393037145
 10
-9.2773412061
 20
-4.2308834285
 10
-9.3311135605
 20
-4.2213619823
 10
-9.375359793
 20
-4.2108277024
 10
-9.4098766112
 20
-4.1993360264
 10
-9.4342245207
 20
-4.1870093469
 10
-9.4480295926
 20
-4.1740587941
 10
-9.4514213767
 20
-4.1645157734
  0
LINE
  5
3D6
100
AcDbEntity
  8
0
100
AcDbLine
 62
7
  6
CONTINUOUS
 10
-4.2397394573
 20
-3.3055201697
 11
-4.418462882
 21
-3.2728534408
  0
LINE
  5
3D7
100
AcDbEntity
  8
0
100
AcDbLine
 62
7
  6
CONTINUOUS
 10
-4.418462882
 20
-3.4361868987
 11
-4.2695266878
 21
-3.4688534408
  0
LWPOLYLINE
  5
3D8
100
AcDbEntity
  8
0
100
AcDbPolyline
 62
250
  6
CONTINUOUS
 90
8
 70
0
 10
9.0808816092
 20
-7.3465044839
 10
9.1436475367
 20
-7.3609001547
 10
9.197049388
 20
-7.3755703426
 10
9.2408015893
 20
-7.3903987001
 10
9.2747010103
 20
-7.4053113641
 10
9.2983016038
 20
-7.4201404553
 10
9.3112331756
 20
-7.4346300474
 10
9.3139199608
 20
-7.4453525426
  0
LINE
  5
3D9
100
AcDbEntity
  8
0
100
AcDbLine
 62
7
  6
CONTINUOUS
 10
-3.9418671524
 20
-5.6575201697
 11
-3.8227182304
 21
-5.6901867118
  0
LINE
  5
3DA
100
AcDbEntity
  8
0
100
AcDbLine
 62
7
  6
CONTINUOUS
 10
-3.6439947641
 20
-4.5795201697
 11
-3.763143686
 21
-4.5468534408
  0
LWPOLYLINE
  5
3DB
100
AcDbEntity
  8
IGES
100
AcDbPolyline
 62
250
  6
CONTINUOUS
 90
8
 70
0
 10
-9.2747525466
 20
-2.8818959769
 10
-9.3344705033
 20
-2.8644718732
 10
-9.3859098092
 20
-2.8454709003
 10
-9.4284572659
 20
-2.8251202509
 10
-9.4618546708
 20
-2.803527923
 10
-9.4857945243
 20
-2.7809163496
 10
-9.4999562186
 20
-2.7576541082
 10
-9.5042357405
 20
-2.7377651735
  0
LINE
  5
3DC
100
AcDbEntity
  8
0
100
AcDbLine
 62
7
  6
CONTINUOUS
 10
-4.5078245735
 20
-3.4035201697
 11
-4.418462882
 21
-3.4361868987
  0
LINE
  5
3DD
100
AcDbEntity
  8
0
100
AcDbLine
 62
7
  6
CONTINUOUS
 10
-3.763143686
 20
-2.358186852
 11
-3.8525054609
 21
-2.3255201697
  0
LWPOLYLINE
  5
3DE
100
AcDbEntity
  8
0
100
AcDbPolyline
 62
250
  6
CONTINUOUS
 90
8
 70
0
 10
8.987371594
 20
-8.9862144582
 10
9.0489599852
 20
-9.0136240621
 10
9.1009808768
 20
-9.0419105835
 10
9.1431598584
 20
-9.0708405407
 10
9.1753000588
 20
-9.1002648566
 10
9.1969737918
 20
-9.1298510703
 10
9.207843699
 20
-9.1590850309
 10
9.2090484372
 20
-9.1789207432
  0
LINE
  5
3DF
100
AcDbEntity
  8
0
100
AcDbLine
 62
7
  6
CONTINUOUS
 10
-3.8227182304
 20
-5.4941867118
 11
-3.9418671524
 21
-5.4288536277
  0
LINE
  5
3E0
100
AcDbEntity
  8
0
100
AcDbLine
 62
7
  6
CONTINUOUS
 10
-4.56
 20
-3.3749106731
 11
-4.5078245735
 21
-3.4035201697
  0
LINE
  5
3E1
100
AcDbEntity
  8
0
100
AcDbLine
 62
7
  6
CONTINUOUS
 10
-3.6439947641
 20
-2.4235201697
 11
-3.763143686
 21
-2.358186852
  0
LINE
  5
3E2
100
AcDbEntity
  8
0
100
AcDbLine
 62
7
  6
CONTINUOUS
 10
-4.537611804
 20
-3.8281868987
 11
-3.792931
 21
-4.2528534408
  0
LINE
  5
3E3
100
AcDbEntity
  8
0
100
AcDbLine
 62
7
  6
CONTINUOUS
 10
-3.7333564555
 20
-4.1548534408
 11
-4.478037343
 21
-3.7301868987
  0
LWPOLYLINE
  5
3E4
100
AcDbEntity
  8
IGES
100
AcDbPolyline
 62
250
  6
CONTINUOUS
 90
9
 70
0
 10
-9.3533879371
 20
-0.3150309736
 10
-9.4045817382
 20
-0.2829173275
 10
-9.4490445782
 20
-0.248974299
 10
-9.4865467412
 20
-0.213412008
 10
-9.5168968312
 20
-0.1763791453
 10
-9.5397411524
 20
-0.1382008862
 10
-9.5548101597
 20
-0.0993769067
 10
-9.5621248319
 20
-0.0602324532
 10
-9.5629012346
 20
-0.0442452854
  0
LINE
  5
3E5
100
AcDbEntity
  8
0
100
AcDbLine
 62
7
  6
CONTINUOUS
 10
-4.0312288439
 20
-5.5921867118
 11
-3.9418671524
 21
-5.6575201697
  0
LINE
  5
3E6
100
AcDbEntity
  8
0
100
AcDbLine
 62
7
  6
CONTINUOUS
 10
-3.763143686
 20
-4.7101868987
 11
-3.6737819945
 21
-4.7755201697
  0
LINE
  5
3E7
100
AcDbEntity
  8
0
100
AcDbLine
 62
7
  6
CONTINUOUS
 10
-4.418462882
 20
-3.2728534408
 11
-4.56
 21
-3.1693741056
  0
LINE
  5
3E8
100
AcDbEntity
  8
0
100
AcDbLine
 62
7
  6
CONTINUOUS
 10
-3.8525054609
 20
-2.4888535342
 11
-3.6737819945
 21
-2.6195201697
  0
LINE
  5
3E9
100
AcDbEntity
  8
0
100
AcDbLine
 62
7
  6
CONTINUOUS
 10
-3.8822926914
 20
-1.6395201697
 11
-3.6737819945
 21
-1.8355201697
  0
LINE
  5
3EA
100
AcDbEntity
  8
0
100
AcDbLine
 62
7
  6
CONTINUOUS
 10
-3.4354841506
 20
-1.8355201697
 11
-3.6439947641
 21
-1.6395201697
  0
LINE
  5
3EB
100
AcDbEntity
  8
0
100
AcDbLine
 62
7
  6
CONTINUOUS
 10
-3.5248458421
 20
-4.7101868987
 11
-3.6439947641
 21
-4.5795201697
  0
LINE
  5
3EC
100
AcDbEntity
  8
0
100
AcDbLine
 62
7
  6
CONTINUOUS
 10
-3.5546330726
 20
-2.5215201697
 11
-3.6439947641
 21
-2.4235201697
  0
LINE
  5
3ED
100
AcDbEntity
  8
0
100
AcDbLine
 62
7
  6
CONTINUOUS
 10
-3.9418671524
 20
-5.4288536277
 11
-4.56
 21
-4.669621577
  0
LINE
  5
3EE
100
AcDbEntity
  8
0
100
AcDbLine
 62
7
  6
CONTINUOUS
 10
-4.56
 20
-4.9332257726
 11
-4.0312288439
 21
-5.5921867118
  0
LWPOLYLINE
  5
3EF
100
AcDbEntity
  8
IGES
100
AcDbPolyline
 62
250
  6
CONTINUOUS
 90
10
 70
0
 10
-9.2605183903
 20
3.9387055405
 10
-9.292674658
 20
3.983174148
 10
-9.3212885508
 20
4.0289628105
 10
-9.346294664
 20
4.0759304115
 10
-9.3676491532
 20
4.1239895246
 10
-9.3852551152
 20
4.1729437271
 10
-9.3990054882
 20
4.222479587
 10
-9.4088635758
 20
4.2723906519
 10
-9.4148201727
 20
4.3225854863
 10
-9.4168489794
 20
4.3729188599
  0
LWPOLYLINE
  5
3F0
100
AcDbEntity
  8
IGES
100
AcDbPolyline
 62
250
  6
CONTINUOUS
 90
10
 70
0
 10
-9.2586581467
 20
3.9623066411
 10
-9.2906459563
 20
4.0067303412
 10
-9.3191750477
 20
4.052558839
 10
-9.3441352393
 20
4.0996103745
 10
-9.365433424
 20
4.1477057491
 10
-9.3829841857
 20
4.1966477609
 10
-9.3967156849
 20
4.2462208352
 10
-9.4065804209
 20
4.2962212443
 10
-9.412549755
 20
4.3464590157
 10
-9.4146081327
 20
4.3967366173
  0
LINE
  5
3F1
100
AcDbEntity
  8
0
100
AcDbLine
 62
7
  6
CONTINUOUS
 10
-4.2099522268
 20
-6.1801867118
 11
-4.1205905354
 21
-6.3108536277
  0
LINE
  5
3F2
100
AcDbEntity
  8
0
100
AcDbLine
 62
7
  6
CONTINUOUS
 10
-3.6737819945
 20
-4.7755201697
 11
-3.6142075336
 21
-4.8735201697
  0
LINE
  5
3F3
100
AcDbEntity
  8
0
100
AcDbLine
 62
7
  6
CONTINUOUS
 10
-3.6737819945
 20
-2.6195201697
 11
-3.6142075336
 21
-2.7175201697
  0
LINE
  5
3F4
100
AcDbEntity
  8
0
100
AcDbLine
 62
7
  6
CONTINUOUS
 10
-3.4652713811
 20
-7.7808536277
 11
-3.5546330726
 21
-7.6175201697
  0
LINE
  5
3F5
100
AcDbEntity
  8
0
100
AcDbLine
 62
7
  6
CONTINUOUS
 10
-3.9716543829
 20
-6.2781867118
 11
-4.0610160744
 21
-6.1148536277
  0
LINE
  5
3F6
100
AcDbEntity
  8
0
100
AcDbLine
 62
7
  6
CONTINUOUS
 10
-3.4652713811
 20
-2.6848535342
 11
-3.5546330726
 21
-2.5215201697
  0
LINE
  5
3F7
100
AcDbEntity
  8
0
100
AcDbLine
 62
7
  6
CONTINUOUS
 10
-3.4652713811
 20
-4.8408536277
 11
-3.5248458421
 21
-4.7101868987
  0
LINE
  5
3F8
100
AcDbEntity
  8
IGES
100
AcDbLine
 62
250
  6
CONTINUOUS
 10
-8.770640264
 20
5.3857523321
 11
-8.7885167843
 21
5.4263673023
  0
LINE
  5
3F9
100
AcDbEntity
  8
IGES
100
AcDbLine
 62
250
  6
CONTINUOUS
 10
-8.7550832429
 20
5.3444253657
 11
-8.770640264
 21
5.3857523321
  0
LWPOLYLINE
  5
3FA
100
AcDbEntity
  8
IGES
100
AcDbPolyline
 62
250
  6
CONTINUOUS
 90
3
 70
0
 10
-8.822171475
 20
6.2116149375
 10
-8.8396992936
 20
6.2590145177
 10
-8.8547925877
 20
6.3071398994
  0
LINE
  5
3FB
100
AcDbEntity
  8
IGES
100
AcDbLine
 62
250
  6
CONTINUOUS
 10
-8.7742644344
 20
6.2940178429
 11
-8.7682103446
 21
6.2766741893
  0
LWPOLYLINE
  5
3FC
100
AcDbEntity
  8
IGES
100
AcDbPolyline
 62
7
  6
CONTINUOUS
 90
10
 70
0
 10
-8.5632833873
 20
6.5416103783
 10
-8.5607238821
 20
6.5339485963
 10
-8.5582003252
 20
6.526094779
 10
-8.5557127165
 20
6.5180489263
 10
-8.5532598011
 20
6.5098192393
 10
-8.5508428339
 20
6.501397517
 10
-8.5484655806
 20
6.4927591566
 10
-8.5461292965
 20
6.4838959572
 10
-8.5438327263
 20
6.4748161199
 10
-8.5415758701
 20
6.4655196444
  0
LWPOLYLINE
  5
3FD
100
AcDbEntity
  8
IGES
100
AcDbPolyline
 62
250
  6
CONTINUOUS
 90
9
 70
0
 10
-8.7492691771
 20
6.2665765325
 10
-8.7787919734
 20
6.3562318816
 10
-8.7924111633
 20
6.4026480205
 10
-8.8036293154
 20
6.4489591282
 10
-8.8123618476
 20
6.4951224632
 10
-8.8187495136
 20
6.5409880236
 10
-8.8229444169
 20
6.5863647278
 10
-8.8251109837
 20
6.6311081279
 10
-8.8252836311
 20
6.6751661534
  0
LWPOLYLINE
  5
3FE
100
AcDbEntity
  8
IGES
100
AcDbPolyline
 62
7
  6
CONTINUOUS
 90
9
 70
0
 10
-8.7682260954
 20
6.2767169259
 10
-8.7535109694
 20
6.2309848088
 10
-8.7408381223
 20
6.1845646738
 10
-8.7302280793
 20
6.1375227662
 10
-8.7216974198
 20
6.0898894567
 10
-8.7152787309
 20
6.0417734132
 10
-8.711003411
 20
5.9933799827
 10
-8.7088797901
 20
5.9448569635
 10
-8.7089219308
 20
5.8961471442
  0
LINE
  5
3FF
100
AcDbEntity
  8
IGES
100
AcDbLine
 62
250
  6
CONTINUOUS
 10
-8.7420737534
 20
5.3031068725
 11
-8.7550832429
 21
5.3444253657
  0
LWPOLYLINE
  5
400
100
AcDbEntity
  8
IGES
100
AcDbPolyline
 62
250
  6
CONTINUOUS
 90
9
 70
0
 10
-8.7492691771
 20
6.2665765325
 10
-8.7367460028
 20
6.2231928503
 10
-8.7260774337
 20
6.1794583813
 10
-8.7173924933
 20
6.1354089061
 10
-8.7108164949
 20
6.0910811685
 10
-8.7064081116
 20
6.04653709
 10
-8.7041613627
 20
6.0018630114
 10
-8.7040675991
 20
5.9571458434
 10
-8.7061181918
 20
5.9124720291
  0
LWPOLYLINE
  5
401
100
AcDbEntity
  8
IGES
100
AcDbPolyline
 62
250
  6
CONTINUOUS
 90
7
 70
0
 10
-8.8547925877
 20
6.3071398994
 10
-8.867428547
 20
6.3558962734
 10
-8.877590768
 20
6.4052244762
 10
-8.8852462025
 20
6.4549932323
 10
-8.8903657085
 20
6.5049974205
 10
-8.892946503
 20
6.555104253
 10
-8.8929916209
 20
6.6052550089
  0
LINE
  5
402
100
AcDbEntity
  8
0
100
AcDbLine
 62
7
  6
CONTINUOUS
 10
-4.1205905354
 20
-6.3108536277
 11
-4.0908033049
 21
-6.4415201697
  0
LINE
  5
403
100
AcDbEntity
  8
0
100
AcDbLine
 62
7
  6
CONTINUOUS
 10
-3.9418671524
 20
-6.4415201697
 11
-3.9716543829
 21
-6.2781867118
  0
LINE
  5
404
100
AcDbEntity
  8
0
100
AcDbLine
 62
7
  6
CONTINUOUS
 10
-3.6142075336
 20
-7.8135201697
 11
-3.5844203031
 21
-7.9768532538
  0
LINE
  5
405
100
AcDbEntity
  8
0
100
AcDbLine
 62
7
  6
CONTINUOUS
 10
-3.6142075336
 20
-4.8735201697
 11
-3.5844203031
 21
-5.0368536277
  0
LINE
  5
406
100
AcDbEntity
  8
0
100
AcDbLine
 62
7
  6
CONTINUOUS
 10
-3.6142075336
 20
-2.7175201697
 11
-3.5844203031
 21
-2.8808535342
  0
LINE
  5
407
100
AcDbEntity
  8
IGES
100
AcDbLine
 62
250
  6
CONTINUOUS
 10
-6.2017687329
 20
10.4218076329
 11
-6.2336587312
 21
10.60999763
  0
LINE
  5
408
100
AcDbEntity
  8
IGES
100
AcDbLine
 62
250
  6
CONTINUOUS
 10
-6.3585887329
 20
10.3953776329
 11
-6.3901687312
 21
10.58349763
  0
LINE
  5
409
100
AcDbEntity
  8
0
100
AcDbLine
 62
7
  6
CONTINUOUS
 10
-3.4354841506
 20
-7.9768532538
 11
-3.4652713811
 21
-7.7808536277
  0
LINE
  5
40A
100
AcDbEntity
  8
0
100
AcDbLine
 62
7
  6
CONTINUOUS
 10
-3.4354841506
 20
-2.8808535342
 11
-3.4652713811
 21
-2.6848535342
  0
LINE
  5
40B
100
AcDbEntity
  8
0
100
AcDbLine
 62
7
  6
CONTINUOUS
 10
-3.4354841506
 20
-5.0695201697
 11
-3.4652713811
 21
-4.8408536277
  0
LINE
  5
40C
100
AcDbEntity
  8
IGES
100
AcDbLine
 62
7
  6
CONTINUOUS
 10
-0.0000070485
 20
-22.0396791662
 11
-0.0000094782
 21
-22.0393886425
  0
LINE
  5
40D
100
AcDbEntity
  8
RACCORDO
100
AcDbLine
 62
7
  6
CONTINUOUS
 10
-3.2499999865
 20
3.8604789851
 11
-3.2499999865
 21
-15.1395210149
  0
LINE
  5
40E
100
AcDbEntity
  8
RACCORDO
100
AcDbLine
 62
250
  6
CONTINUOUS
 10
-3.1
 20
3.860479008
 11
-3.1
 21
-15.139520992
  0
LINE
  5
40F
100
AcDbEntity
  8
DRAFT
100
AcDbLine
 62
7
  6
CONTINUOUS
 10
-1.0000085886
 20
-20.2191472289
 11
-1.000008582
 21
-20.1763704961
  0
LINE
  5
410
100
AcDbEntity
  8
DRAFT
100
AcDbLine
 62
7
  6
CONTINUOUS
 10
-1.0000041548
 20
8.8973302213
 11
-1.0000041453
 21
8.9601048018
  0
LINE
  5
411
100
AcDbEntity
  8
DRAFT
100
AcDbLine
 62
7
  6
CONTINUOUS
 10
-0.49999536
 20
8.9674545265
 11
-0.4999953579
 21
8.9076827901
  0
LINE
  5
412
100
AcDbEntity
  8
IGES
100
AcDbLine
 62
7
  6
CONTINUOUS
 10
-0.0000094782
 20
-22.0393886425
 11
-0.0000094696
 21
-21.5395786924
  0
LINE
  5
413
100
AcDbEntity
  8
IGES
100
AcDbLine
 62
7
  6
CONTINUOUS
 10
-0.0000046272
 20
10.2605159528
 11
0.0000013646
 21
20.1016328295
  0
LINE
  5
414
100
AcDbEntity
  8
IGES
100
AcDbLine
 62
7
  6
CONTINUOUS
 10
0.0000008461
 20
20.102143826
 11
0.00000142
 21
22.0401332658
  0
LINE
  5
415
100
AcDbEntity
  8
DRAFT
100
AcDbLine
 62
7
  6
CONTINUOUS
 10
0.0000040408
 20
8.9704782487
 11
0.0000040398
 21
8.9076827953
  0
LINE
  5
416
100
AcDbEntity
  8
0
100
AcDbLine
 62
7
  6
CONTINUOUS
 10
0.0000022582
 20
20.102143826
 11
0.0000018701
 21
22.0401324968
  0
LINE
  5
417
100
AcDbEntity
  8
0
100
AcDbLine
 62
7
  6
CONTINUOUS
 10
-0.0000048237
 20
8.9704790177
 11
0.0000013646
 21
20.1016328295
  0
LINE
  5
418
100
AcDbEntity
  8
0
100
AcDbLine
 62
7
  6
CONTINUOUS
 10
0.0000099777
 20
-22.0393894115
 11
-0.0000065132
 21
-20.1867231653
  0
LINE
  5
419
100
AcDbEntity
  8
IGES
100
AcDbLine
 62
250
  6
CONTINUOUS
 10
-5.1510495455
 20
-21.270950992
 11
-5.203069523
 21
-21.7682310301
  0
LINE
  5
41A
100
AcDbEntity
  8
IGES
100
AcDbLine
 62
7
  6
CONTINUOUS
 10
-5.7771487258
 20
-21.564732379
 11
-5.792852611
 21
-21.6999175309
  0
LINE
  5
41B
100
AcDbEntity
  8
0
100
AcDbLine
 62
7
  6
CONTINUOUS
 10
-3.4652713811
 20
-3.0768535342
 11
-3.4354841506
 21
-2.8808535342
  0
LINE
  5
41C
100
AcDbEntity
  8
0
100
AcDbLine
 62
7
  6
CONTINUOUS
 10
-3.4652713811
 20
-5.3961867118
 11
-3.4354841506
 21
-5.2001867118
  0
LINE
  5
41D
100
AcDbEntity
  8
0
100
AcDbLine
 62
7
  6
CONTINUOUS
 10
-3.4652713811
 20
-8.1728532538
 11
-3.4354841506
 21
-7.9768532538
  0
LINE
  5
41E
100
AcDbEntity
  8
0
100
AcDbLine
 62
7
  6
CONTINUOUS
 10
-3.5844203031
 20
-2.8808535342
 11
-3.6142075336
 21
-3.0441868052
  0
LINE
  5
41F
100
AcDbEntity
  8
0
100
AcDbLine
 62
7
  6
CONTINUOUS
 10
-3.9716543829
 20
-6.8008536277
 11
-3.9418671524
 21
-6.6375201697
  0
LINE
  5
420
100
AcDbEntity
  8
0
100
AcDbLine
 62
7
  6
CONTINUOUS
 10
-3.5844203031
 20
-5.1675201697
 11
-3.6142075336
 21
-5.3308536277
  0
LINE
  5
421
100
AcDbEntity
  8
0
100
AcDbLine
 62
7
  6
CONTINUOUS
 10
-3.5844203031
 20
-7.9768532538
 11
-3.6142075336
 21
-8.1401870856
  0
LINE
  5
422
100
AcDbEntity
  8
0
100
AcDbLine
 62
7
  6
CONTINUOUS
 10
-4.0908033049
 20
-6.6375201697
 11
-4.1205905354
 21
-6.7681867118
  0
LINE
  5
423
100
AcDbEntity
  8
IGES
100
AcDbLine
 62
250
  6
CONTINUOUS
 10
-7.6589920607
 20
-17.4547699698
 11
-7.6786633649
 21
-17.5205080277
  0
LWPOLYLINE
  5
424
100
AcDbEntity
  8
IGES
100
AcDbPolyline
 62
250
  6
CONTINUOUS
 90
6
 70
0
 10
-7.8895237336
 20
-15.9697979588
 10
-7.9036454636
 20
-16.0100499991
 10
-7.9304650056
 20
-16.0845967489
 10
-7.9580255999
 20
-16.1594055955
 10
-7.9863110929
 20
-16.2344802112
 10
-8.0153040151
 20
-16.3098219792
  0
LINE
  5
425
100
AcDbEntity
  8
0
100
AcDbLine
 62
7
  6
CONTINUOUS
 10
-3.5248458421
 20
-5.5268536277
 11
-3.4652713811
 21
-5.3961867118
  0
LINE
  5
426
100
AcDbEntity
  8
0
100
AcDbLine
 62
7
  6
CONTINUOUS
 10
-4.1205905354
 20
-8.9568532538
 11
-4.2397394573
 21
-9.2181870856
  0
LINE
  5
427
100
AcDbEntity
  8
0
100
AcDbLine
 62
7
  6
CONTINUOUS
 10
-4.1801649963
 20
-9.2181870856
 11
-4.0610160744
 21
-8.9568532538
  0
LINE
  5
428
100
AcDbEntity
  8
0
100
AcDbLine
 62
7
  6
CONTINUOUS
 10
-3.5546330726
 20
-3.2401868987
 11
-3.4652713811
 21
-3.0768535342
  0
LINE
  5
429
100
AcDbEntity
  8
0
100
AcDbLine
 62
7
  6
CONTINUOUS
 10
-4.0610160744
 20
-6.9641867118
 11
-3.9716543829
 21
-6.8008536277
  0
LINE
  5
42A
100
AcDbEntity
  8
0
100
AcDbLine
 62
7
  6
CONTINUOUS
 10
-4.478037343
 20
-3.7301868987
 11
-4.537611804
 21
-3.8281868987
  0
LINE
  5
42B
100
AcDbEntity
  8
0
100
AcDbLine
 62
7
  6
CONTINUOUS
 10
-3.6142075336
 20
-3.0441868052
 11
-3.6737819945
 21
-3.1421868052
  0
LINE
  5
42C
100
AcDbEntity
  8
0
100
AcDbLine
 62
7
  6
CONTINUOUS
 10
-3.792931
 20
-4.2528534408
 11
-3.7333564555
 21
-4.1548534408
  0
LINE
  5
42D
100
AcDbEntity
  8
0
100
AcDbLine
 62
7
  6
CONTINUOUS
 10
-3.6142075336
 20
-5.3308536277
 11
-3.6737819945
 21
-5.4288536277
  0
LINE
  5
42E
100
AcDbEntity
  8
0
100
AcDbLine
 62
7
  6
CONTINUOUS
 10
-4.1205905354
 20
-6.7681867118
 11
-4.1801649963
 21
-6.8661867118
  0
LINE
  5
42F
100
AcDbEntity
  8
0
100
AcDbLine
 62
7
  6
CONTINUOUS
 10
-3.6439947641
 20
-3.3381868987
 11
-3.5546330726
 21
-3.2401868987
  0
LWPOLYLINE
  5
430
100
AcDbEntity
  8
0
100
AcDbPolyline
 62
250
  6
CONTINUOUS
 90
10
 70
0
 10
8.5700970099
 20
6.4302843889
 10
8.5734882226
 20
6.4329712207
 10
8.5769020378
 20
6.4359962269
 10
8.580349632
 20
6.4392070054
 10
8.5838331159
 20
6.4423867531
 10
8.5873615467
 20
6.4454537843
 10
8.5909542747
 20
6.4485138346
 10
8.5946199456
 20
6.4515658017
 10
8.598353102
 20
6.4544501638
 10
8.6021531425
 20
6.4570823299
  0
LINE
  5
431
100
AcDbEntity
  8
0
100
AcDbLine
 62
7
  6
CONTINUOUS
 10
-4.56
 20
-2.5923328694
 11
-4.418462882
 21
-2.4888535342
  0
LINE
  5
432
100
AcDbEntity
  8
0
100
AcDbLine
 62
7
  6
CONTINUOUS
 10
-3.6737819945
 20
-3.1421868052
 11
-3.8525054609
 21
-3.2728534408
  0
LINE
  5
433
100
AcDbEntity
  8
0
100
AcDbLine
 62
7
  6
CONTINUOUS
 10
-4.5078245735
 20
-2.358186852
 11
-4.56
 21
-2.3867963691
  0
LWPOLYLINE
  5
434
100
AcDbEntity
  8
0
100
AcDbPolyline
 62
250
  6
CONTINUOUS
 90
10
 70
0
 10
8.7029033162
 20
6.7324133636
 10
8.6852788347
 20
6.7229809822
 10
8.6683176336
 20
6.7105545183
 10
8.6520322018
 20
6.6953430557
 10
8.6366157887
 20
6.677998401
 10
8.6218932573
 20
6.658317641
 10
8.6073207561
 20
6.6350088743
 10
8.5927190577
 20
6.6075356922
 10
8.5782740178
 20
6.5763514497
 10
8.5639867047
 20
6.5414397955
  0
LWPOLYLINE
  5
435
100
AcDbEntity
  8
0
100
AcDbPolyline
 62
250
  6
CONTINUOUS
 90
10
 70
0
 10
8.7029033162
 20
6.7324133636
 10
8.7157092862
 20
6.7373854572
 10
8.7286738627
 20
6.7407949592
 10
8.7417918111
 20
6.7426049411
 10
8.7550589016
 20
6.7427544511
 10
8.7684675398
 20
6.7412304731
 10
8.7820069909
 20
6.7380669507
 10
8.7956691003
 20
6.7332492932
 10
8.809448826
 20
6.7267158644
 10
8.8233411406
 20
6.7184299681
  0
LINE
  5
436
100
AcDbEntity
  8
0
100
AcDbLine
 62
7
  6
CONTINUOUS
 10
-4.0014416134
 20
-3.4688534408
 11
-3.8525054609
 21
-3.4361868987
  0
LINE
  5
437
100
AcDbEntity
  8
0
100
AcDbLine
 62
7
  6
CONTINUOUS
 10
-4.2695266878
 20
-2.2928534875
 11
-4.418462882
 21
-2.3255201697
  0
LINE
  5
438
100
AcDbEntity
  8
0
100
AcDbLine
 62
7
  6
CONTINUOUS
 10
-3.8525054609
 20
-3.2728534408
 11
-4.0312288439
 21
-3.3055201697
  0
LINE
  5
439
100
AcDbEntity
  8
0
100
AcDbLine
 62
7
  6
CONTINUOUS
 10
-4.418462882
 20
-2.4888535342
 11
-4.2397394573
 21
-2.4561868052
  0
LINE
  5
43A
100
AcDbEntity
  8
0
100
AcDbLine
 62
7
  6
CONTINUOUS
 10
6.9833523981
 20
-2.932712176
 11
7.0133546687
 21
-2.932712176
  0
LINE
  5
43B
100
AcDbEntity
  8
DRAFT
100
AcDbLine
 62
7
  6
CONTINUOUS
 10
3.2750003555
 20
-2.8895203905
 11
3.2500000135
 21
-2.8895203905
  0
LINE
  5
43C
100
AcDbEntity
  8
DRAFT
100
AcDbLine
 62
7
  6
CONTINUOUS
 10
-3.2499999865
 20
-2.8895203905
 11
-3.2750003555
 21
-2.8895203905
  0
LINE
  5
43D
100
AcDbEntity
  8
0
100
AcDbLine
 62
7
  6
CONTINUOUS
 10
-6.9792241002
 20
-2.615831407
 11
-7.0092269337
 21
-2.615831407
  0
LINE
  5
43E
100
AcDbEntity
  8
0
100
AcDbLine
 62
7
  6
CONTINUOUS
 10
-4.2397394573
 20
-2.4561868052
 11
-4.0312288439
 21
-2.4561868052
  0
LINE
  5
43F
100
AcDbEntity
  8
0
100
AcDbLine
 62
7
  6
CONTINUOUS
 10
-4.0014416134
 20
-2.2928534875
 11
-4.2695266878
 21
-2.2928534875
  0
LINE
  5
440
100
AcDbEntity
  8
0
100
AcDbLine
 62
7
  6
CONTINUOUS
 10
6.9720526461
 20
-2.132642176
 11
7.0020564577
 21
-2.132642176
  0
LINE
  5
441
100
AcDbEntity
  8
0
100
AcDbLine
 62
7
  6
CONTINUOUS
 10
-4.56
 20
-2.0315201697
 11
-3.4354841506
 21
-2.0315201697
  0
LINE
  5
442
100
AcDbEntity
  8
0
100
AcDbLine
 62
7
  6
CONTINUOUS
 10
-8.9293852621
 20
-1.9088628296
 11
-8.8793801344
 21
-1.9088628296
  0
LINE
  5
443
100
AcDbEntity
  8
0
100
AcDbLine
 62
7
  6
CONTINUOUS
 10
-3.6737819945
 20
-1.8355201697
 11
-4.56
 21
-1.8355201697
  0
LINE
  5
444
100
AcDbEntity
  8
0
100
AcDbLine
 62
7
  6
CONTINUOUS
 10
-6.9667727902
 20
-1.815831407
 11
-6.9967773218
 21
-1.815831407
  0
LINE
  5
445
100
AcDbEntity
  8
0
100
AcDbLine
 62
7
  6
CONTINUOUS
 10
-3.6439947641
 20
-1.6395201697
 11
-3.8822926914
 21
-1.6395201697
  0
LINE
  5
446
100
AcDbEntity
  8
0
100
AcDbLine
 62
7
  6
CONTINUOUS
 10
-6.9514104304
 20
-1.015801407
 11
-6.9814170574
 21
-1.015801407
  0
LINE
  5
447
100
AcDbEntity
  8
0
100
AcDbLine
 62
7
  6
CONTINUOUS
 10
6.9478268557
 20
-0.8483124805
 11
6.9778339717
 21
-0.8483124805
  0
LINE
  5
448
100
AcDbEntity
  8
0
100
AcDbLine
 62
7
  6
CONTINUOUS
 10
-6.9395516182
 20
-0.482451407
 11
-6.9695598628
 21
-0.482451407
  0
LINE
  5
449
100
AcDbEntity
  8
0
100
AcDbLine
 62
7
  6
CONTINUOUS
 10
6.9355615026
 20
-0.314962176
 11
6.9655702917
 21
-0.314962176
  0
LINE
  5
44A
100
AcDbEntity
  8
0
100
AcDbLine
 62
7
  6
CONTINUOUS
 10
-6.9193365247
 20
0.317588593
 11
-6.9493475274
 21
0.317588593
  0
LINE
  5
44B
100
AcDbEntity
  8
0
100
AcDbLine
 62
7
  6
CONTINUOUS
 10
-4.0312288439
 20
-2.4561868052
 11
-3.8525054609
 21
-2.4888535342
  0
LINE
  5
44C
100
AcDbEntity
  8
0
100
AcDbLine
 62
7
  6
CONTINUOUS
 10
-3.8525054609
 20
-2.3255201697
 11
-4.0014416134
 21
-2.2928534875
  0
LWPOLYLINE
  5
44D
100
AcDbEntity
  8
IGES
100
AcDbPolyline
 62
250
  6
CONTINUOUS
 90
8
 70
0
 10
-8.8432342443
 20
3.7054816841
 10
-8.8577582206
 20
3.7153666259
 10
-8.9174048041
 20
3.7545048036
 10
-8.9799432297
 20
3.7943716903
 10
-9.0453318678
 20
3.835077036
 10
-9.1136169127
 20
3.8766565577
 10
-9.184731853
 20
3.9190697118
 10
-9.2586609338
 20
3.9623135221
  0
LWPOLYLINE
  5
44E
100
AcDbEntity
  8
IGES
100
AcDbPolyline
 62
250
  6
CONTINUOUS
 90
10
 70
0
 10
-8.5700945128
 20
6.4302851579
 10
-8.5734857223
 20
6.4329719897
 10
-8.5768995342
 20
6.4359969959
 10
-8.5803471251
 20
6.4392077743
 10
-8.5838306057
 20
6.4423875221
 10
-8.587359033
 20
6.4454545533
 10
-8.5909517576
 20
6.4485146036
 10
-8.5946174249
 20
6.4515665707
 10
-8.5983505776
 20
6.4544509328
 10
-8.6021506143
 20
6.4570830989
  0
LWPOLYLINE
  5
44F
100
AcDbEntity
  8
0
100
AcDbPolyline
 62
250
  6
CONTINUOUS
 90
8
 70
0
 10
8.7236032099
 20
-11.980973536
 10
8.7826342436
 20
-12.0335739607
 10
8.8316327129
 20
-12.0881976558
 10
8.8703401859
 20
-12.1443445952
 10
8.8985658224
 20
-12.2016836195
 10
8.91590455
 20
-12.2595156332
 10
8.9220864286
 20
-12.3168062995
 10
8.9202881477
 20
-12.3523207709
  0
LWPOLYLINE
  5
450
100
AcDbEntity
  8
0
100
AcDbPolyline
 62
250
  6
CONTINUOUS
 90
9
 70
0
 10
8.0153342008
 20
-16.3098233635
 10
8.0652888199
 20
-16.3940828982
 10
8.1056005551
 20
-16.4816096088
 10
8.1360979351
 20
-16.5717015699
 10
8.1566735209
 20
-16.6639171092
 10
8.1670572533
 20
-16.7572694237
 10
8.1671114382
 20
-16.8502038962
 10
8.1569549018
 20
-16.941713607
 10
8.1350040859
 20
-17.0371327809
  0
LWPOLYLINE
  5
451
100
AcDbEntity
  8
0
100
AcDbPolyline
 62
250
  6
CONTINUOUS
 90
9
 70
0
 10
7.9772912973
 20
-16.4398339562
 10
8.0265167611
 20
-16.5249446146
 10
8.0661719374
 20
-16.6133302457
 10
8.0960875942
 20
-16.7042895005
 10
8.1161358687
 20
-16.7973765845
 10
8.126042183
 20
-16.8915963232
 10
8.125678854
 20
-16.9853905801
 10
8.115182043
 20
-17.0777561687
 10
8.0946580878
 20
-17.1682578962
  0
LINE
  5
452
100
AcDbEntity
  8
0
100
AcDbLine
 62
250
  6
CONTINUOUS
 10
7.5759541839
 20
-17.9994293385
 11
7.5732271477
 21
-17.9946750922
  0
LINE
  5
453
100
AcDbEntity
  8
0
100
AcDbLine
 62
250
  6
CONTINUOUS
 10
7.7228250943
 20
-16.9947963967
 11
7.7574012129
 21
-17.0552138134
  0
LWPOLYLINE
  5
454
100
AcDbEntity
  8
0
100
AcDbPolyline
 62
250
  6
CONTINUOUS
 90
10
 70
0
 10
7.5759541839
 20
-17.9994293385
 10
7.5823808474
 20
-18.0120204145
 10
7.5884354485
 20
-18.022886839
 10
7.5942725932
 20
-18.0322605273
 10
7.5995170254
 20
-18.0400616764
 10
7.6042922279
 20
-18.0465073267
 10
7.6094969138
 20
-18.0521887509
 10
7.6153026137
 20
-18.0572720929
 10
7.6210725844
 20
-18.0614921625
 10
7.6265657814
 20
-18.0647928521
  0
LINE
  5
455
100
AcDbEntity
  8
0
100
AcDbLine
 62
250
  6
CONTINUOUS
 10
5.15105
 20
-21.270951761
 11
5.2030700225
 21
-21.7682317991
  0
LINE
  5
456
100
AcDbEntity
  8
DRAFT
100
AcDbLine
 62
7
  6
CONTINUOUS
 10
1.0000094964
 20
-20.2191479979
 11
1.0000094898
 21
-20.1763704561
  0
LINE
  5
457
100
AcDbEntity
  8
DRAFT
100
AcDbLine
 62
7
  6
CONTINUOUS
 10
1.0000050626
 20
8.8973301812
 11
1.0000050531
 21
8.9601040328
  0
LINE
  5
458
100
AcDbEntity
  8
RACCORDO
100
AcDbLine
 62
250
  6
CONTINUOUS
 10
3.1
 20
-15.139520992
 11
3.1
 21
3.860479008
  0
LINE
  5
459
100
AcDbEntity
  8
RACCORDO
100
AcDbLine
 62
7
  6
CONTINUOUS
 10
3.2500000135
 20
-15.1395210149
 11
3.2500000135
 21
3.8604789851
  0
LINE
  5
45A
100
AcDbEntity
  8
RACCORDO
100
AcDbLine
 62
7
  6
CONTINUOUS
 10
3.285483912
 20
3.8604797924
 11
3.285483912
 21
-15.1395202076
  0
LINE
  5
45B
100
AcDbEntity
  8
RACCORDO
100
AcDbLine
 62
250
  6
CONTINUOUS
 10
3.4354778316
 20
3.860479815
 11
3.4354778316
 21
-15.139520185
  0
LINE
  5
45C
100
AcDbEntity
  8
0
100
AcDbLine
 62
250
  6
CONTINUOUS
 10
5.15105
 20
9.991908239
 11
5.2030600225
 21
10.4891882009
  0
LWPOLYLINE
  5
45D
100
AcDbEntity
  8
IGES
100
AcDbPolyline
 62
250
  6
CONTINUOUS
 90
10
 70
0
 10
-7.5759515533
 20
-17.9994285695
 10
-7.5823782042
 20
-18.0120196456
 10
-7.5884327941
 20
-18.02288607
 10
-7.5942699291
 20
-18.0322597584
 10
-7.5995143533
 20
-18.0400609074
 10
-7.6042895491
 20
-18.0465065578
 10
-7.6094942287
 20
-18.0521879819
 10
-7.6152999219
 20
-18.0572713239
 10
-7.6210698863
 20
-18.0614913935
 10
-7.6265630771
 20
-18.0647920831
  0
LINE
  5
45E
100
AcDbEntity
  8
0
100
AcDbLine
 62
7
  6
CONTINUOUS
 10
-3.5546330726
 20
-8.3361870856
 11
-3.4652713811
 21
-8.1728532538
  0
LINE
  5
45F
100
AcDbEntity
  8
IGES
100
AcDbLine
 62
250
  6
CONTINUOUS
 10
-7.7228222162
 20
-16.9947956277
 11
-7.7573983326
 21
-17.0552130444
  0
LINE
  5
460
100
AcDbEntity
  8
IGES
100
AcDbLine
 62
250
  6
CONTINUOUS
 10
-7.5759515533
 20
-17.9994285695
 11
-7.5732249083
 21
-17.9946750066
  0
LWPOLYLINE
  5
461
100
AcDbEntity
  8
IGES
100
AcDbPolyline
 62
250
  6
CONTINUOUS
 90
9
 70
0
 10
-7.9772882482
 20
-16.4398331872
 10
-8.0265137094
 20
-16.5249438457
 10
-8.0661688829
 20
-16.6133294767
 10
-8.0960845367
 20
-16.7042887315
 10
-8.116132808
 20
-16.7973758155
 10
-8.1260391189
 20
-16.8915955543
 10
-8.1256757864
 20
-16.9853898111
 10
-8.1151789718
 20
-17.0777553997
 10
-8.094655013
 20
-17.1682571272
  0
LWPOLYLINE
  5
462
100
AcDbEntity
  8
IGES
100
AcDbPolyline
 62
250
  6
CONTINUOUS
 90
9
 70
0
 10
-8.015331125
 20
-16.3098225945
 10
-8.0652857413
 20
-16.3940821292
 10
-8.1055974734
 20
-16.4816088398
 10
-8.1360948501
 20
-16.5717008009
 10
-8.1566704325
 20
-16.6639163402
 10
-8.1670541612
 20
-16.7572686547
 10
-8.1671083423
 20
-16.8502031272
 10
-8.1569518021
 20
-16.941712838
 10
-8.135001034
 20
-17.0371318351
  0
LINE
  5
463
100
AcDbEntity
  8
0
100
AcDbLine
 62
7
  6
CONTINUOUS
 10
-3.6142075336
 20
-8.1401870856
 11
-3.6737819945
 21
-8.2381870856
  0
LINE
  5
464
100
AcDbEntity
  8
0
100
AcDbLine
 62
7
  6
CONTINUOUS
 10
-3.6439947641
 20
-5.6575201697
 11
-3.5248458421
 21
-5.5268536277
  0
LINE
  5
465
100
AcDbEntity
  8
0
100
AcDbLine
 62
7
  6
CONTINUOUS
 10
-3.6439947641
 20
-8.4341870856
 11
-3.5546330726
 21
-8.3361870856
  0
LWPOLYLINE
  5
466
100
AcDbEntity
  8
IGES
100
AcDbPolyline
 62
250
  6
CONTINUOUS
 90
8
 70
0
 10
-8.7235996884
 20
-11.980972767
 10
-8.7826307157
 20
-12.0335731917
 10
-8.831629178
 20
-12.0881968868
 10
-8.8703366439
 20
-12.1443438262
 10
-8.8985622727
 20
-12.2016828505
 10
-8.9159009924
 20
-12.2595148642
 10
-8.9220828631
 20
-12.3168055306
 10
-8.9202845835
 20
-12.3523199457
  0
LINE
  5
467
100
AcDbEntity
  8
0
100
AcDbLine
 62
7
  6
CONTINUOUS
 10
-4.1801649963
 20
-7.0621867118
 11
-4.0610160744
 21
-6.9641867118
  0
LINE
  5
468
100
AcDbEntity
  8
0
100
AcDbLine
 62
7
  6
CONTINUOUS
 10
-3.6737819945
 20
-5.4288536277
 11
-3.763143686
 21
-5.4941867118
  0
LINE
  5
469
100
AcDbEntity
  8
0
100
AcDbLine
 62
7
  6
CONTINUOUS
 10
-4.1801649963
 20
-6.8661867118
 11
-4.2695266878
 21
-6.9315201697
  0
LINE
  5
46A
100
AcDbEntity
  8
0
100
AcDbLine
 62
7
  6
CONTINUOUS
 10
-4.56
 20
-7.6883328889
 11
-4.418462882
 21
-7.5848536277
  0
LWPOLYLINE
  5
46B
100
AcDbEntity
  8
0
100
AcDbPolyline
 62
250
  6
CONTINUOUS
 90
9
 70
0
 10
8.7998371887
 20
3.6758918119
 10
8.8012779964
 20
3.6769235537
 10
8.857761405
 20
3.7153658569
 10
8.9174079995
 20
3.7545040347
 10
8.9799464363
 20
3.7943709213
 10
9.0453350856
 20
3.835076267
 10
9.1136201419
 20
3.8766557887
 10
9.1847350935
 20
3.9190689428
 10
9.2586641859
 20
3.9623127531
  0
LINE
  5
46C
100
AcDbEntity
  8
0
100
AcDbLine
 62
7
  6
CONTINUOUS
 10
-3.763143686
 20
-3.4035201697
 11
-3.6439947641
 21
-3.3381868987
  0
LINE
  5
46D
100
AcDbEntity
  8
0
100
AcDbLine
 62
7
  6
CONTINUOUS
 10
-4.478037343
 20
-5.9515201697
 11
-4.56
 21
-5.9964631099
  0
LINE
  5
46E
100
AcDbEntity
  8
0
100
AcDbLine
 62
7
  6
CONTINUOUS
 10
-4.56
 20
-6.1924631099
 11
-4.478037343
 21
-6.1475201697
  0
LINE
  5
46F
100
AcDbEntity
  8
0
100
AcDbLine
 62
7
  6
CONTINUOUS
 10
-4.418462882
 20
-2.3255201697
 11
-4.5078245735
 21
-2.358186852
  0
LINE
  5
470
100
AcDbEntity
  8
0
100
AcDbLine
 62
7
  6
CONTINUOUS
 10
-3.8525054609
 20
-3.4361868987
 11
-3.763143686
 21
-3.4035201697
  0
LINE
  5
471
100
AcDbEntity
  8
0
100
AcDbLine
 62
7
  6
CONTINUOUS
 10
-8.8703001872
 20
0.895129231
 11
-8.8904069826
 21
0.895129231
  0
LINE
  5
472
100
AcDbEntity
  8
0
100
AcDbLine
 62
7
  6
CONTINUOUS
 10
-6.8936030332
 20
1.2018983833
 11
-6.9236175475
 21
1.2018983833
  0
LINE
  5
473
100
AcDbEntity
  8
DRAFT
100
AcDbLine
 62
7
  6
CONTINUOUS
 10
-3.2750003555
 20
1.5104796095
 11
-3.2499999865
 21
1.5104796095
  0
LINE
  5
474
100
AcDbEntity
  8
DRAFT
100
AcDbLine
 62
7
  6
CONTINUOUS
 10
3.2500000135
 20
1.5104796095
 11
3.2750003555
 21
1.5104796095
  0
LINE
  5
475
100
AcDbEntity
  8
0
100
AcDbLine
 62
7
  6
CONTINUOUS
 10
6.8822219382
 20
1.558437824
 11
6.9122380059
 21
1.558437824
  0
LINE
  5
476
100
AcDbEntity
  8
0
100
AcDbLine
 62
7
  6
CONTINUOUS
 10
-6.864309697
 20
2.086218593
 11
-6.8943282097
 21
2.086218593
  0
LINE
  5
477
100
AcDbEntity
  8
0
100
AcDbLine
 62
7
  6
CONTINUOUS
 10
-8.8622092387
 20
2.4257859774
 11
-8.8121325361
 21
2.4257859774
  0
LINE
  5
478
100
AcDbEntity
  8
ASSI
100
AcDbLine
 62
7
  6
CONTINUOUS
 10
6.868659475
 20
2.7851829376
 11
6.8386374572
 21
2.7851829376
  0
LINE
  5
479
100
AcDbEntity
  8
0
100
AcDbLine
 62
7
  6
CONTINUOUS
 10
6.8347409013
 20
2.8862575195
 11
6.8647634511
 21
2.8862575195
  0
LINE
  5
47A
100
AcDbEntity
  8
0
100
AcDbLine
 62
7
  6
CONTINUOUS
 10
-6.8347397764
 20
2.886258593
 11
-6.8647623262
 21
2.886258593
  0
LINE
  5
47B
100
AcDbEntity
  8
RACCORDO
100
AcDbLine
 62
250
  6
CONTINUOUS
 10
-3.4354784301
 20
3.860479815
 11
-3.2854841282
 21
3.8604797924
  0
LINE
  5
47C
100
AcDbEntity
  8
RACCORDO
100
AcDbLine
 62
250
  6
CONTINUOUS
 10
3.4354778316
 20
3.860479815
 11
3.285483912
 21
3.8604797924
  0
LINE
  5
47D
100
AcDbEntity
  8
RACCORDO
100
AcDbLine
 62
250
  6
CONTINUOUS
 10
-3.1
 20
3.860479008
 11
-3.2499999865
 21
3.8604789851
  0
LINE
  5
47E
100
AcDbEntity
  8
RACCORDO
100
AcDbLine
 62
250
  6
CONTINUOUS
 10
3.1
 20
3.860479008
 11
3.2500000135
 21
3.8604789847
  0
LWPOLYLINE
  5
47F
100
AcDbEntity
  8
IGES
100
AcDbPolyline
 62
250
  6
CONTINUOUS
 90
10
 70
0
 10
-8.7029006978
 20
6.7324141326
 10
-8.715706657
 20
6.7373862261
 10
-8.7286712226
 20
6.7407957282
 10
-8.7417891599
 20
6.7426057101
 10
-8.7550562393
 20
6.7427552201
 10
-8.7684648662
 20
6.7412312421
 10
-8.7820043059
 20
6.7380677197
 10
-8.7956664038
 20
6.7332500622
 10
-8.809446118
 20
6.7267166333
 10
-8.8233384208
 20
6.7184307371
  0
LWPOLYLINE
  5
480
100
AcDbEntity
  8
IGES
100
AcDbPolyline
 62
250
  6
CONTINUOUS
 90
10
 70
0
 10
-8.7029006978
 20
6.7324141326
 10
-8.6852762312
 20
6.7229817512
 10
-8.6683150446
 20
6.7105552873
 10
-8.6520296267
 20
6.6953438247
 10
-8.6366132269
 20
6.67799917
 10
-8.6218907082
 20
6.65831841
 10
-8.6073182199
 20
6.6350096432
 10
-8.5927165345
 20
6.6075364612
 10
-8.5782715076
 20
6.5763522187
 10
-8.5639842076
 20
6.5414405645
  0
LWPOLYLINE
  5
481
100
AcDbEntity
  8
0
100
AcDbPolyline
 62
250
  6
CONTINUOUS
 90
6
 70
0
 10
7.8895263205
 20
-15.9697973021
 10
7.9036485493
 20
-16.0100507681
 10
7.930468089
 20
-16.0845975179
 10
7.9580286809
 20
-16.1594063645
 10
7.9863141713
 20
-16.2344809802
 10
8.015307091
 20
-16.3098227481
  0
LINE
  5
482
100
AcDbEntity
  8
0
100
AcDbLine
 62
250
  6
CONTINUOUS
 10
7.6589948016
 20
-17.4547707388
 11
7.6786661062
 21
-17.5205087967
  0
LINE
  5
483
100
AcDbEntity
  8
0
100
AcDbLine
 62
250
  6
CONTINUOUS
 10
7.6445838554
 20
-17.5600951078
 11
7.6487606708
 21
-17.5779054357
  0
LINE
  5
484
100
AcDbEntity
  8
0
100
AcDbLine
 62
250
  6
CONTINUOUS
 10
7.6786661062
 20
-17.5205087967
 11
7.6936795524
 21
-17.5877545449
  0
LINE
  5
485
100
AcDbEntity
  8
0
100
AcDbLine
 62
7
  6
CONTINUOUS
 10
5.7771508197
 20
-21.564733148
 11
5.7928547358
 21
-21.6999182999
  0
LWPOLYLINE
  5
486
100
AcDbEntity
  8
0
100
AcDbPolyline
 62
250
  6
CONTINUOUS
 90
10
 70
0
 10
6.0612402256
 20
14.0583458246
 10
6.0618336155
 20
14.0529450471
 10
6.0622786872
 20
14.0476397276
 10
6.0625754409
 20
14.0424298735
 10
6.0626266685
 20
14.0373519255
 10
6.0625295781
 20
14.0323694577
 10
6.0625757947
 20
14.0273731711
 10
6.0628625264
 20
14.0223266305
 10
6.063292565
 20
14.0172662704
 10
6.0638659103
 20
14.0121920906
  0
LWPOLYLINE
  5
487
100
AcDbEntity
  8
0
100
AcDbPolyline
 62
250
  6
CONTINUOUS
 90
3
 70
0
 10
7.3214264997
 20
7.3618528948
 10
7.3888052406
 20
6.6985811575
 10
7.4171305336
 20
6.4181223665
  0
LWPOLYLINE
  5
488
100
AcDbEntity
  8
0
100
AcDbPolyline
 62
250
  6
CONTINUOUS
 90
9
 70
0
 10
6.0591858927
 20
14.098437957
 10
6.0594703564
 20
14.0953569367
 10
6.0596600247
 20
14.0921900267
 10
6.0596932537
 20
14.0889062089
 10
6.0596316875
 20
14.0855364896
 10
6.0596602584
 20
14.0821739066
 10
6.0598406105
 20
14.0788494764
 10
6.0601110998
 20
14.0755321861
 10
6.0604717261
 20
14.0722220364
  0
LWPOLYLINE
  5
489
100
AcDbEntity
  8
0
100
AcDbPolyline
 62
250
  6
CONTINUOUS
 90
10
 70
0
 10
7.4171305336
 20
6.4181223665
 10
7.5349841748
 20
5.0973016378
 10
7.6389585497
 20
3.7767675705
 10
7.7290536583
 20
2.4565201646
 10
7.8052308703
 20
1.1432328702
 10
7.8675288161
 20
-0.1697677627
 10
7.9160633866
 20
-1.502502084
 10
7.9508732121
 20
-2.8616435435
 10
7.9719196623
 20
-4.2405186914
 10
7.9792027372
 20
-5.6391275277
  0
LWPOLYLINE
  5
48A
100
AcDbEntity
  8
0
100
AcDbPolyline
 62
250
  6
CONTINUOUS
 90
8
 70
0
 10
6.2025645435
 20
5.7840790162
 10
6.1778180349
 20
6.2070158309
 10
6.1495714762
 20
6.6221072989
 10
6.1178248674
 20
7.0293534199
 10
6.0823585501
 20
7.4287133478
 10
6.0433921827
 20
7.8202279288
 10
6.0015847398
 20
8.2040197021
 10
5.9571558795
 20
8.5801295141
  0
LINE
  5
48B
100
AcDbEntity
  8
0
100
AcDbLine
 62
250
  6
CONTINUOUS
 10
6.0612402256
 20
14.0583458246
 11
6.0604717261
 21
14.0722220364
  0
LWPOLYLINE
  5
48C
100
AcDbEntity
  8
0
100
AcDbPolyline
 62
250
  6
CONTINUOUS
 90
10
 70
0
 10
6.2336943109
 20
10.6099669681
 10
6.2167649183
 20
10.9911138733
 10
6.1993517199
 20
11.3715019198
 10
6.1814547005
 20
11.7511236848
 10
6.1630755314
 20
12.1299776094
 10
6.1442125102
 20
12.5080504242
 10
6.1248605605
 20
12.8853172682
 10
6.1050179786
 20
13.2617650675
 10
6.0846864343
 20
13.6373924174
 10
6.0638659103
 20
14.0121920906
  0
LINE
  5
48D
100
AcDbEntity
  8
0
100
AcDbLine
 62
250
  6
CONTINUOUS
 10
7.7094407793
 20
-17.7258138689
 11
7.710017112
 21
-17.7960577523
  0
LINE
  5
48E
100
AcDbEntity
  8
0
100
AcDbLine
 62
7
  6
CONTINUOUS
 10
5.05
 20
-19.964520185
 11
5.05
 21
8.685479815
  0
LINE
  5
48F
100
AcDbEntity
  8
0
100
AcDbLine
 62
7
  6
CONTINUOUS
 10
5.0516782519
 20
-19.9645209918
 11
5.0516782519
 21
8.6854790082
  0
LINE
  5
490
100
AcDbEntity
  8
0
100
AcDbLine
 62
7
  6
CONTINUOUS
 10
5.1000015668
 20
19.9465365488
 11
5.1000018922
 21
20.1275610655
  0
LINE
  5
491
100
AcDbEntity
  8
0
100
AcDbLine
 62
250
  6
CONTINUOUS
 10
5.3000059526
 20
10.7522504256
 11
5.299999229
 21
10.5594699034
  0
LINE
  5
492
100
AcDbEntity
  8
0
100
AcDbLine
 62
250
  6
CONTINUOUS
 10
7.7576096427
 20
-16.936122022
 11
7.7574054097
 21
-17.0552124611
  0
LINE
  5
493
100
AcDbEntity
  8
0
100
AcDbLine
 62
250
  6
CONTINUOUS
 10
7.7584186257
 20
-16.7965470852
 11
7.7576096427
 21
-16.936122022
  0
LINE
  5
494
100
AcDbEntity
  8
0
100
AcDbLine
 62
250
  6
CONTINUOUS
 10
7.6685733201
 20
-17.7613695594
 11
7.6676433819
 21
-17.8229895487
  0
LWPOLYLINE
  5
495
100
AcDbEntity
  8
0
100
AcDbPolyline
 62
250
  6
CONTINUOUS
 90
10
 70
0
 10
6.2025706097
 20
-17.0631188914
 10
6.3193598849
 20
-14.5826882912
 10
6.406918403
 20
-12.0719420988
 10
6.4652461641
 20
-9.5308803144
 10
6.4942988083
 20
-6.9384644633
 10
6.4941206955
 20
-4.3157330201
 10
6.4648449047
 20
-1.7258014082
 10
6.4065157956
 20
0.8102918979
 10
6.3190890085
 20
3.3135853727
 10
6.2025645435
 20
5.7840790162
  0
LINE
  5
496
100
AcDbEntity
  8
0
100
AcDbLine
 62
250
  6
CONTINUOUS
 10
6.3585908126
 20
10.3953768639
 11
6.3901708143
 21
10.5834968611
  0
LINE
  5
497
100
AcDbEntity
  8
0
100
AcDbLine
 62
250
  6
CONTINUOUS
 10
6.2017708126
 20
10.4218068639
 11
6.2336608143
 21
10.6099968611
  0
LWPOLYLINE
  5
498
100
AcDbEntity
  8
0
100
AcDbPolyline
 62
250
  6
CONTINUOUS
 90
10
 70
0
 10
8.6895965678
 20
6.4342115756
 10
8.695464935
 20
6.4670114576
 10
8.7002358468
 20
6.4999327294
 10
8.7039167571
 20
6.5329935354
 10
8.7065062689
 20
6.5661676579
 10
8.7079986588
 20
6.5994073866
 10
8.7083915383
 20
6.6326791926
 10
8.7076858212
 20
6.6659628566
 10
8.7058822707
 20
6.6992350529
 10
8.702981082
 20
6.7324664082
  0
LWPOLYLINE
  5
499
100
AcDbEntity
  8
0
100
AcDbPolyline
 62
250
  6
CONTINUOUS
 90
5
 70
0
 10
8.8101110534
 20
6.4373397798
 10
8.8058287949
 20
6.4183116928
 10
8.7958569583
 20
6.3752108486
 10
8.7857244097
 20
6.3334266898
 10
8.7742721795
 20
6.2940184444
  0
LWPOLYLINE
  5
49A
100
AcDbEntity
  8
0
100
AcDbPolyline
 62
250
  6
CONTINUOUS
 90
7
 70
0
 10
8.8547953609
 20
6.3071391304
 10
8.8674313205
 20
6.3558955044
 10
8.877593542
 20
6.4052237072
 10
8.8852489769
 20
6.4549924633
 10
8.8903684834
 20
6.5049966515
 10
8.8929492785
 20
6.555103484
 10
8.892994397
 20
6.6052542399
  0
LWPOLYLINE
  5
49B
100
AcDbEntity
  8
0
100
AcDbPolyline
 62
250
  6
CONTINUOUS
 90
8
 70
0
 10
8.7787946854
 20
6.3562311126
 10
8.7924138763
 20
6.4026472515
 10
8.8036320294
 20
6.4489583592
 10
8.8123645625
 20
6.4951216942
 10
8.8187522295
 20
6.5409872546
 10
8.8229471338
 20
6.5863639588
 10
8.8251137016
 20
6.6311073589
 10
8.82528635
 20
6.6751653844
  0
LWPOLYLINE
  5
49C
100
AcDbEntity
  8
0
100
AcDbPolyline
 62
250
  6
CONTINUOUS
 90
4
 70
0
 10
8.7419987262
 20
5.3028585739
 10
8.7550861546
 20
5.3444245967
 10
8.7706431776
 20
5.3857515631
 10
8.7885196999
 20
5.4263665333
  0
LWPOLYLINE
  5
49D
100
AcDbEntity
  8
0
100
AcDbPolyline
 62
7
  6
CONTINUOUS
 90
9
 70
0
 10
8.7682288177
 20
6.2767161569
 10
8.7535136917
 20
6.2309840399
 10
8.7408408446
 20
6.1845639048
 10
8.7302308016
 20
6.1375219972
 10
8.721700142
 20
6.0898886877
 10
8.7152814532
 20
6.0417726442
 10
8.7110061333
 20
5.9933792138
 10
8.7088825123
 20
5.9448561945
 10
8.7089246531
 20
5.8961463752
  0
LWPOLYLINE
  5
49E
100
AcDbEntity
  8
0
100
AcDbPolyline
 62
250
  6
CONTINUOUS
 90
10
 70
0
 10
8.7787946854
 20
6.3562311126
 10
8.7492718872
 20
6.2665757635
 10
8.736748712
 20
6.2231920814
 10
8.726080142
 20
6.1794576123
 10
8.7173952006
 20
6.1354081371
 10
8.7108192013
 20
6.0910803995
 10
8.706410817
 20
6.046536321
 10
8.7041640672
 20
6.0018622424
 10
8.7040703026
 20
5.9571450744
 10
8.7061208943
 20
5.9124712601
  0
LWPOLYLINE
  5
49F
100
AcDbEntity
  8
0
100
AcDbPolyline
 62
7
  6
CONTINUOUS
 90
10
 70
0
 10
8.5632858844
 20
6.5416096093
 10
8.5607263766
 20
6.5339478273
 10
8.5582028172
 20
6.52609401
 10
8.555715206
 20
6.5180481573
 10
8.553262288
 20
6.5098184703
 10
8.5508453184
 20
6.501396748
 10
8.5484680627
 20
6.4927583876
 10
8.5461317761
 20
6.4838951883
 10
8.5438352035
 20
6.4748153509
 10
8.5415783448
 20
6.4655188754
  0
LINE
  5
4A0
100
AcDbEntity
  8
0
100
AcDbLine
 62
250
  6
CONTINUOUS
 10
8.7742671567
 20
6.2940170739
 11
8.7682130669
 21
6.2766734203
  0
LWPOLYLINE
  5
4A1
100
AcDbEntity
  8
0
100
AcDbPolyline
 62
250
  6
CONTINUOUS
 90
3
 70
0
 10
8.8221742474
 20
6.2116141685
 10
8.8397020663
 20
6.2590137487
 10
8.8547953609
 20
6.3071391304
  0
LWPOLYLINE
  5
4A2
100
AcDbEntity
  8
0
100
AcDbPolyline
 62
250
  6
CONTINUOUS
 90
10
 70
0
 10
9.2586613988
 20
3.9623058721
 10
9.2906492112
 20
4.0067295722
 10
9.3191783055
 20
4.05255807
 10
9.3441385001
 20
4.0996096055
 10
9.3654366878
 20
4.1477049801
 10
9.3829874527
 20
4.1966469919
 10
9.3967189551
 20
4.2462200662
 10
9.4065836945
 20
4.2962204754
 10
9.4125530319
 20
4.3464582467
 10
9.4146114129
 20
4.3967358483
  0
LWPOLYLINE
  5
4A3
100
AcDbEntity
  8
0
100
AcDbPolyline
 62
250
  6
CONTINUOUS
 90
10
 70
0
 10
9.2605216452
 20
3.9387047715
 10
9.2926779157
 20
3.983173379
 10
9.3212918114
 20
4.0289620415
 10
9.3462979276
 20
4.0759296426
 10
9.3676524199
 20
4.1239887556
 10
9.3852583851
 20
4.1729429581
 10
9.3990087614
 20
4.222478818
 10
9.4088668523
 20
4.2723898829
 10
9.4148234526
 20
4.3225847173
 10
9.4168522626
 20
4.3729180909
  0
LINE
  5
4A4
100
AcDbEntity
  8
0
100
AcDbLine
 62
7
  6
CONTINUOUS
 10
-3.6737819945
 20
-8.2381870856
 11
-3.8525054609
 21
-8.3688532538
  0
LWPOLYLINE
  5
4A5
100
AcDbEntity
  8
0
100
AcDbPolyline
 62
250
  6
CONTINUOUS
 90
9
 70
0
 10
9.3533915053
 20
-0.3150317426
 10
9.4045853123
 20
-0.2829180965
 10
9.4490481584
 20
-0.248975068
 10
9.4865503279
 20
-0.213412777
 10
9.5169004246
 20
-0.1763799143
 10
9.5397447527
 20
-0.1382016552
 10
9.554813767
 20
-0.0993776757
 10
9.5621284463
 20
-0.0602332221
 10
9.5629048522
 20
-0.044246009
  0
LINE
  5
4A6
100
AcDbEntity
  8
0
100
AcDbLine
 62
7
  6
CONTINUOUS
 10
-4.5078245735
 20
-7.4541867118
 11
-4.56
 21
-7.4827962903
  0
LINE
  5
4A7
100
AcDbEntity
  8
0
100
AcDbLine
 62
7
  6
CONTINUOUS
 10
-3.763143686
 20
-8.4995201697
 11
-3.6439947641
 21
-8.4341870856
  0
LINE
  5
4A8
100
AcDbEntity
  8
0
100
AcDbLine
 62
7
  6
CONTINUOUS
 10
-4.1801649963
 20
-9.3815201697
 11
-4.1205905354
 21
-9.3488532538
  0
LINE
  5
4A9
100
AcDbEntity
  8
0
100
AcDbLine
 62
7
  6
CONTINUOUS
 10
-4.1205905354
 20
-8.8261870856
 11
-4.1801649963
 21
-8.8588532538
  0
LWPOLYLINE
  5
4AA
100
AcDbEntity
  8
IGES
100
AcDbPolyline
 62
250
  6
CONTINUOUS
 90
8
 70
0
 10
-8.9873679515
 20
-8.9862136892
 10
-9.0489563354
 20
-9.0136232931
 10
-9.1009772193
 20
-9.0419098145
 10
-9.1431561928
 20
-9.0708397717
 10
-9.1752963847
 20
-9.1002640876
 10
-9.1969701088
 20
-9.1298503013
 10
-9.2078400071
 20
-9.1590842619
 10
-9.2090447408
 20
-9.1789199487
  0
LINE
  5
4AB
100
AcDbEntity
  8
0
100
AcDbLine
 62
7
  6
CONTINUOUS
 10
-4.3291011905
 20
-7.1275201697
 11
-4.1801649963
 21
-7.0621867118
  0
LINE
  5
4AC
100
AcDbEntity
  8
0
100
AcDbLine
 62
7
  6
CONTINUOUS
 10
-4.2695266878
 20
-6.9315201697
 11
-4.358888421
 21
-6.9641867118
  0
LINE
  5
4AD
100
AcDbEntity
  8
0
100
AcDbLine
 62
7
  6
CONTINUOUS
 10
-4.418462882
 20
-7.4215201697
 11
-4.5078245735
 21
-7.4541867118
  0
LINE
  5
4AE
100
AcDbEntity
  8
0
100
AcDbLine
 62
7
  6
CONTINUOUS
 10
-3.8525054609
 20
-8.5321870856
 11
-3.763143686
 21
-8.4995201697
  0
LWPOLYLINE
  5
4AF
100
AcDbEntity
  8
0
100
AcDbPolyline
 62
250
  6
CONTINUOUS
 90
8
 70
0
 10
9.274756197
 20
-2.8818967459
 10
9.3344741608
 20
-2.8644726422
 10
9.3859134742
 20
-2.8454716693
 10
9.4284609388
 20
-2.8251210199
 10
9.461858352
 20
-2.803528692
 10
9.4857982139
 20
-2.7809171186
 10
9.4999599169
 20
-2.7576548772
 10
9.504239447
 20
-2.7377659203
  0
LINE
  5
4B0
100
AcDbEntity
  8
0
100
AcDbLine
 62
250
  6
CONTINUOUS
 10
7.5759480364
 20
8.7138940278
 11
7.6658108311
 21
8.7247968327
  0
LINE
  5
4B1
100
AcDbEntity
  8
0
100
AcDbLine
 62
250
  6
CONTINUOUS
 10
7.177565348
 20
8.666685929
 11
7.5759480364
 21
8.7138940278
  0
LINE
  5
4B2
100
AcDbEntity
  8
0
100
AcDbLine
 62
250
  6
CONTINUOUS
 10
7.4171305336
 20
6.4181223665
 11
7.9066908311
 21
6.4646768327
  0
LINE
  5
4B3
100
AcDbEntity
  8
0
100
AcDbLine
 62
250
  6
CONTINUOUS
 10
6.20254
 20
5.783928239
 11
6.7018700225
 21
5.8099482009
  0
LINE
  5
4B4
100
AcDbEntity
  8
IGES
100
AcDbLine
 62
250
  6
CONTINUOUS
 10
-7.906693797
 20
6.4646747548
 11
-8.0625164371
 21
6.461523661
  0
LINE
  5
4B5
100
AcDbEntity
  8
IGES
100
AcDbLine
 62
250
  6
CONTINUOUS
 10
-8.0625164371
 20
6.461523661
 11
-8.2100535532
 21
6.4590357363
  0
LINE
  5
4B6
100
AcDbEntity
  8
IGES
100
AcDbLine
 62
250
  6
CONTINUOUS
 10
-8.2100535532
 20
6.4590357363
 11
-8.4155712478
 21
6.4562411547
  0
LINE
  5
4B7
100
AcDbEntity
  8
IGES
100
AcDbLine
 62
250
  6
CONTINUOUS
 10
-8.4155712478
 20
6.4562411547
 11
-8.5418885354
 21
6.4547872987
  0
LINE
  5
4B8
100
AcDbEntity
  8
0
100
AcDbLine
 62
7
  6
CONTINUOUS
 10
-8.7443830812
 20
5.229778038
 11
-8.7944369146
 21
5.229778038
  0
LINE
  5
4B9
100
AcDbEntity
  8
0
100
AcDbLine
 62
250
  6
CONTINUOUS
 10
8.2100558271
 20
6.4590349674
 11
8.5418910102
 21
6.4547865297
  0
LWPOLYLINE
  5
4BA
100
AcDbEntity
  8
0
100
AcDbPolyline
 62
250
  6
CONTINUOUS
 90
3
 70
0
 10
7.9066959136
 20
6.4646739858
 10
7.9856363693
 20
6.4630070104
 10
8.2100558271
 20
6.4590349674
  0
LINE
  5
4BB
100
AcDbEntity
  8
IGES
100
AcDbLine
 62
250
  6
CONTINUOUS
 10
-6.2025395455
 20
5.783929008
 11
-6.701869523
 21
5.8099489699
  0
LINE
  5
4BC
100
AcDbEntity
  8
IGES
100
AcDbLine
 62
250
  6
CONTINUOUS
 10
-7.4171284539
 20
6.4181231355
 11
-7.9066887145
 21
6.4646776017
  0
LINE
  5
4BD
100
AcDbEntity
  8
IGES
100
AcDbLine
 62
250
  6
CONTINUOUS
 10
-7.1775632683
 20
8.666686698
 11
-7.6072929722
 21
8.7176593879
  0
LINE
  5
4BE
100
AcDbEntity
  8
IGES
100
AcDbLine
 62
250
  6
CONTINUOUS
 10
-7.6072929722
 20
8.7176593879
 11
-7.6658087144
 21
8.7247976017
  0
LINE
  5
4BF
100
AcDbEntity
  8
IGES
100
AcDbLine
 62
250
  6
CONTINUOUS
 10
-6.8079687329
 20
9.9776376329
 11
-7.1049087269
 21
10.1422976228
  0
LWPOLYLINE
  5
4C0
100
AcDbEntity
  8
IGES
100
AcDbPolyline
 62
250
  6
CONTINUOUS
 90
15
 70
0
 10
-5.2737028712
 20
19.8938201768
 10
-5.2671297923
 20
19.8850044794
 10
-5.2637766055
 20
19.8575325888
 10
-5.2635965967
 20
19.811072501
 10
-5.2666391318
 20
19.7457724556
 10
-5.2728523176
 20
19.6617026861
 10
-5.2819493829
 20
19.5595406147
 10
-5.2938751791
 20
19.440010484
 10
-5.3086818191
 20
19.3032430168
 10
-5.3262433574
 20
19.1493444889
 10
-5.346493917
 20
18.9792539648
 10
-5.3694963205
 20
18.7933933653
 10
-5.3953173871
 20
18.5907818987
 10
-5.4239777244
 20
18.3711902698
 10
-5.4554517748
 20
18.135778389
  0
LWPOLYLINE
  5
4C1
100
AcDbEntity
  8
0
100
AcDbPolyline
 62
250
  6
CONTINUOUS
 90
4
 70
0
 10
7.6487606708
 20
-17.5779054357
 10
7.6591186301
 20
-17.6386507053
 10
7.6657256352
 20
-17.6998428495
 10
7.6685733201
 20
-17.7613695594
  0
LWPOLYLINE
  5
4C2
100
AcDbEntity
  8
0
100
AcDbPolyline
 62
250
  6
CONTINUOUS
 90
3
 70
0
 10
7.6936795524
 20
-17.5877545449
 10
7.7039606577
 20
-17.6562342631
 10
7.7094407793
 20
-17.7258138689
  0
LWPOLYLINE
  5
4C3
100
AcDbEntity
  8
0
100
AcDbPolyline
 62
250
  6
CONTINUOUS
 90
11
 70
0
 10
5.1000018922
 20
20.1275641191
 10
5.0857384179
 20
20.2261898972
 10
5.0430313078
 20
20.3242671379
 10
4.9721225875
 20
20.4212472891
 10
4.8734151848
 20
20.5165876449
 10
4.7474624833
 20
20.6097558059
 10
4.5949574182
 20
20.7002319543
 10
4.4167378185
 20
20.787512433
 10
4.2138048731
 20
20.871105513
 10
3.9873111254
 20
20.9505362256
 10
3.7385405386
 20
21.0253567828
  0
LINE
  5
4C4
100
AcDbEntity
  8
0
100
AcDbLine
 62
250
  6
CONTINUOUS
 10
5.5848813282
 20
17.1971356329
 11
5.4897387473
 21
17.8855738002
  0
LWPOLYLINE
  5
4C5
100
AcDbEntity
  8
0
100
AcDbPolyline
 62
250
  6
CONTINUOUS
 90
3
 70
0
 10
5.9571558795
 20
8.5801295141
 10
5.9098859436
 20
8.9485165185
 10
5.8597749321
 20
9.3091807151
  0
LWPOLYLINE
  5
4C6
100
AcDbEntity
  8
0
100
AcDbPolyline
 62
250
  6
CONTINUOUS
 90
13
 70
0
 10
6.0676506829
 20
14.012123372
 10
6.1054717113
 20
13.7008979635
 10
6.1399891771
 20
13.4044656062
 10
6.1712988046
 20
13.1229065353
 10
6.1987710324
 20
12.8626893625
 10
6.2232259368
 20
12.6175103383
 10
6.246845721
 20
12.3682068924
 10
6.2697097208
 20
12.1143348827
 10
6.2917333146
 20
11.8563132452
 10
6.3147017733
 20
11.5761225537
 10
6.3391229612
 20
11.2676596874
 10
6.3643080456
 20
10.9368200793
 10
6.390167421
 20
10.5834998689
  0
LWPOLYLINE
  5
4C7
100
AcDbEntity
  8
0
100
AcDbPolyline
 62
250
  6
CONTINUOUS
 90
8
 70
0
 10
9.4146163964
 20
4.3967272446
 10
9.3695547894
 20
4.8109921242
 10
9.3183032247
 20
5.1809102047
 10
9.2631327409
 20
5.507929659
 10
9.2055642527
 20
5.7933781112
 10
9.1461136058
 20
6.0396464753
 10
9.0845254343
 20
6.2484790867
 10
9.0209693706
 20
6.4202197332
  0
LINE
  5
4C8
100
AcDbEntity
  8
0
100
AcDbLine
 62
250
  6
CONTINUOUS
 10
7.2576075306
 20
7.9687544324
 11
7.2810092058
 21
7.7528048823
  0
LINE
  5
4C9
100
AcDbEntity
  8
0
100
AcDbLine
 62
250
  6
CONTINUOUS
 10
7.2810092058
 20
7.7528048823
 11
7.3214264997
 21
7.3618528948
  0
LWPOLYLINE
  5
4CA
100
AcDbEntity
  8
0
100
AcDbPolyline
 62
250
  6
CONTINUOUS
 90
10
 70
0
 10
8.6055910361
 20
6.2941864859
 10
8.6038864459
 20
6.3122247544
 10
8.6025120948
 20
6.3302900423
 10
8.6014681659
 20
6.3483779125
 10
8.6007547933
 20
6.3664855573
 10
8.6003722693
 20
6.3846069041
 10
8.6003207466
 20
6.4027326072
 10
8.6006001
 20
6.4208565839
 10
8.6012102251
 20
6.4389760228
 10
8.6021510369
 20
6.4570864845
  0
LINE
  5
4CB
100
AcDbEntity
  8
0
100
AcDbLine
 62
250
  6
CONTINUOUS
 10
9.4146114129
 20
4.3967358483
 11
9.4168514144
 21
4.3729758457
  0
LWPOLYLINE
  5
4CC
100
AcDbEntity
  8
0
100
AcDbPolyline
 62
7
  6
CONTINUOUS
 90
19
 70
0
 10
9.3133257185
 20
6.4410533403
 10
9.2488488644
 20
7.1852031653
 10
9.1723676669
 20
7.916717512
 10
9.0837607702
 20
8.6365479504
 10
8.9834475301
 20
9.343860237
 10
8.8724854927
 20
10.0355295248
 10
8.7514612609
 20
10.7124820844
 10
8.6210654486
 20
11.3748522243
 10
8.483082759
 20
12.0180187082
 10
8.337998475
 20
12.6440376025
 10
8.1868923838
 20
13.2522483646
 10
8.0332904237
 20
13.8336157568
 10
7.8791748923
 20
14.3868716242
 10
7.7253945422
 20
14.9149553999
 10
7.5744255788
 20
15.4149852327
 10
7.4290228062
 20
15.8833387858
 10
7.2890140094
 20
16.3253899441
 10
7.1522591527
 20
16.751666405
 10
6.8930703764
 20
17.5546695445
  0
LINE
  5
4CD
100
AcDbEntity
  8
0
100
AcDbLine
 62
250
  6
CONTINUOUS
 10
8.7080221068
 20
5.8899235017
 11
8.7061202052
 21
5.9124560293
  0
LWPOLYLINE
  5
4CE
100
AcDbEntity
  8
0
100
AcDbPolyline
 62
250
  6
CONTINUOUS
 90
10
 70
0
 10
8.5496210102
 20
6.3604765297
 10
8.6488494627
 20
5.1144778246
 10
8.7220836581
 20
3.8766159532
 10
8.7829162019
 20
2.485918684
 10
8.8304565685
 20
1.0916478224
 10
8.8606484143
 20
-0.1994432037
 10
8.8713982654
 20
-1.4187108535
 10
8.8632074578
 20
-2.6724347122
 10
8.8372247925
 20
-4.0370175584
 10
8.8269022016
 20
-4.4421904126
  0
LINE
  5
4CF
100
AcDbEntity
  8
0
100
AcDbLine
 62
250
  6
CONTINUOUS
 10
9.2586613988
 20
3.9623058721
 11
9.2605214002
 21
3.9387058697
  0
LINE
  5
4D0
100
AcDbEntity
  8
0
100
AcDbLine
 62
7
  6
CONTINUOUS
 10
8.7089864926
 20
5.8775289483
 11
8.7080221068
 21
5.8899235017
  0
LINE
  5
4D1
100
AcDbEntity
  8
0
100
AcDbLine
 62
7
  6
CONTINUOUS
 10
9.3133257185
 20
6.4410533403
 11
9.3298777471
 21
6.2218880765
  0
LWPOLYLINE
  5
4D2
100
AcDbEntity
  8
0
100
AcDbPolyline
 62
250
  6
CONTINUOUS
 90
3
 70
0
 10
9.2605218901
 20
3.9387036733
 10
9.2891030985
 20
3.5457949289
 10
9.3133441232
 20
3.1313223072
  0
LINE
  5
4D3
100
AcDbEntity
  8
0
100
AcDbLine
 62
7
  6
CONTINUOUS
 10
8.7100575988
 20
5.8629077986
 11
8.7089864926
 21
5.8775289483
  0
LINE
  5
4D4
100
AcDbEntity
  8
0
100
AcDbLine
 62
7
  6
CONTINUOUS
 10
8.7110836965
 20
5.8479230432
 11
8.7100575988
 21
5.8629077986
  0
LWPOLYLINE
  5
4D5
100
AcDbEntity
  8
0
100
AcDbPolyline
 62
250
  6
CONTINUOUS
 90
3
 70
0
 10
9.3298777471
 20
6.2218880765
 10
9.3579849789
 20
5.8025017146
 10
9.4168531109
 20
4.3729103361
  0
LINE
  5
4D6
100
AcDbEntity
  8
0
100
AcDbLine
 62
7
  6
CONTINUOUS
 10
8.5415783448
 20
6.4655188754
 11
8.5484022678
 21
6.3603956642
  0
LINE
  5
4D7
100
AcDbEntity
  8
0
100
AcDbLine
 62
250
  6
CONTINUOUS
 10
8.5632858844
 20
6.5416096093
 11
8.57049239
 21
6.4303469033
  0
LWPOLYLINE
  5
4D8
100
AcDbEntity
  8
0
100
AcDbPolyline
 62
250
  6
CONTINUOUS
 90
3
 70
0
 10
8.8263625669
 20
6.7164048372
 10
8.8297330539
 20
6.6622867671
 10
8.8305418514
 20
6.6235090193
  0
LWPOLYLINE
  5
4D9
100
AcDbEntity
  8
0
100
AcDbPolyline
 62
250
  6
CONTINUOUS
 90
4
 70
0
 10
9.5069763651
 20
3.1246019436
 10
9.4810057132
 20
3.5646387542
 10
9.4507213242
 20
3.9810895016
 10
9.4168531109
 20
4.3729103361
  0
LINE
  5
4DA
100
AcDbEntity
  8
0
100
AcDbLine
 62
250
  6
CONTINUOUS
 10
7.620736935
 20
9.6068050699
 11
7.6043379449
 21
9.8801143345
  0
LINE
  5
4DB
100
AcDbEntity
  8
0
100
AcDbLine
 62
250
  6
CONTINUOUS
 10
7.6350000959
 20
9.3531624729
 11
7.620736935
 21
9.6068050699
  0
LINE
  5
4DC
100
AcDbEntity
  8
0
100
AcDbLine
 62
250
  6
CONTINUOUS
 10
7.6476948131
 20
9.1123194726
 11
7.6350000959
 21
9.3531624729
  0
LWPOLYLINE
  5
4DD
100
AcDbEntity
  8
0
100
AcDbPolyline
 62
7
  6
CONTINUOUS
 90
7
 70
0
 10
9.4862580592
 20
3.5636572419
 10
9.4604393143
 20
4.0759653319
 10
9.4348743723
 20
4.5563230056
 10
9.4094264587
 20
5.0056378527
 10
9.3837510054
 20
5.4283323696
 10
9.3576648638
 20
5.8271748328
 10
9.3298777471
 20
6.2218880765
  0
LINE
  5
4DE
100
AcDbEntity
  8
0
100
AcDbLine
 62
250
  6
CONTINUOUS
 10
8.892994397
 20
6.6052542399
 11
8.8905023074
 21
6.65535463
  0
LINE
  5
4DF
100
AcDbEntity
  8
0
100
AcDbLine
 62
250
  6
CONTINUOUS
 10
9.5140417413
 20
2.9753643797
 11
9.5069763651
 21
3.1246019436
  0
LINE
  5
4E0
100
AcDbEntity
  8
0
100
AcDbLine
 62
7
  6
CONTINUOUS
 10
9.5165087881
 20
2.9319851692
 11
9.4862580592
 21
3.5636572419
  0
LWPOLYLINE
  5
4E1
100
AcDbEntity
  8
0
100
AcDbPolyline
 62
250
  6
CONTINUOUS
 90
3
 70
0
 10
7.6665003461
 20
8.723166647
 10
7.6603318179
 20
8.8556679547
 10
7.6476948131
 20
9.1123194726
  0
LWPOLYLINE
  5
4E2
100
AcDbEntity
  8
0
100
AcDbPolyline
 62
250
  6
CONTINUOUS
 90
8
 70
0
 10
9.3133441232
 20
3.1313223072
 10
9.3331084977
 20
2.696761699
 10
9.3481177712
 20
2.2457423051
 10
9.3584183506
 20
1.777793222
 10
9.3642670691
 20
1.287543558
 10
9.3655683402
 20
0.7735214381
 10
9.3619985748
 20
0.2389535676
 10
9.3533915053
 20
-0.3150317426
  0
LINE
  5
4E3
100
AcDbEntity
  8
0
100
AcDbLine
 62
7
  6
CONTINUOUS
 10
9.5238184417
 20
2.759796901
 11
9.5140417413
 21
2.9753643797
  0
LINE
  5
4E4
100
AcDbEntity
  8
0
100
AcDbLine
 62
7
  6
CONTINUOUS
 10
8.7089246531
 20
5.8961463752
 11
8.7111079518
 21
5.8476751841
  0
LINE
  5
4E5
100
AcDbEntity
  8
0
100
AcDbLine
 62
250
  6
CONTINUOUS
 10
8.82528635
 20
6.6751653844
 11
8.8233311326
 21
6.7185263224
  0
LWPOLYLINE
  5
4E6
100
AcDbEntity
  8
0
100
AcDbPolyline
 62
250
  6
CONTINUOUS
 90
10
 70
0
 10
8.5760475285
 20
6.3256371799
 10
8.5755645539
 20
6.3373298243
 10
8.5750135053
 20
6.3490052945
 10
8.5743943828
 20
6.3606635905
 10
8.5736611756
 20
6.3723012236
 10
8.5728598944
 20
6.3839216826
 10
8.5721285721
 20
6.3955354334
 10
8.5715132193
 20
6.4071459649
 10
8.5709678253
 20
6.4187497881
 10
8.57049239
 20
6.4303469033
  0
LWPOLYLINE
  5
4E7
100
AcDbEntity
  8
0
100
AcDbPolyline
 62
250
  6
CONTINUOUS
 90
5
 70
0
 10
8.7894565982
 20
5.9771683052
 10
8.7859049019
 20
6.0655076419
 10
8.7812605562
 20
6.1442428822
 10
8.7753667985
 20
6.2145105649
 10
8.7682130669
 20
6.2766734203
  0
LWPOLYLINE
  5
4E8
100
AcDbEntity
  8
0
100
AcDbPolyline
 62
7
  6
CONTINUOUS
 90
8
 70
0
 10
8.8006095387
 20
3.6493517788
 10
8.7881863055
 20
4.0762476727
 10
8.7755665937
 20
4.4718717516
 10
8.7628948938
 20
4.823746322
 10
8.7496598405
 20
5.1432883065
 10
8.7364606697
 20
5.4182085235
 10
8.723639868
 20
5.6496493853
 10
8.7105707288
 20
5.8555425495
  0
LINE
  5
4E9
100
AcDbEntity
  8
0
100
AcDbLine
 62
7
  6
CONTINUOUS
 10
8.841464021
 20
2.1376451086
 11
8.8006095387
 21
3.6493517788
  0
LINE
  5
4EA
100
AcDbEntity
  8
0
100
AcDbLine
 62
7
  6
CONTINUOUS
 10
8.8527921206
 20
1.6924458604
 11
8.841464021
 21
2.1376451086
  0
LINE
  5
4EB
100
AcDbEntity
  8
0
100
AcDbLine
 62
7
  6
CONTINUOUS
 10
8.8622547392
 20
1.2877054102
 11
8.8527921206
 21
1.6924458604
  0
LWPOLYLINE
  5
4EC
100
AcDbEntity
  8
0
100
AcDbPolyline
 62
7
  6
CONTINUOUS
 90
4
 70
0
 10
8.8436064698
 20
-3.8663602044
 10
8.8468938547
 20
-4.0194737909
 10
8.8490795182
 20
-4.180454498
 10
8.8501291684
 20
-4.3494046943
  0
LINE
  5
4ED
100
AcDbEntity
  8
0
100
AcDbLine
 62
7
  6
CONTINUOUS
 10
8.8699536763
 20
0.9142867555
 11
8.8622547392
 21
1.2877054102
  0
LINE
  5
4EE
100
AcDbEntity
  8
0
100
AcDbLine
 62
7
  6
CONTINUOUS
 10
8.8759851767
 20
0.5674511474
 11
8.8699536763
 21
0.9142867555
  0
LINE
  5
4EF
100
AcDbEntity
  8
0
100
AcDbLine
 62
7
  6
CONTINUOUS
 10
8.8804762605
 20
0.2457024524
 11
8.8759851767
 21
0.5674511474
  0
LINE
  5
4F0
100
AcDbEntity
  8
0
100
AcDbLine
 62
7
  6
CONTINUOUS
 10
8.8036193783
 20
-7.0012978518
 11
8.8055539655
 21
-7.1477803099
  0
LINE
  5
4F1
100
AcDbEntity
  8
0
100
AcDbLine
 62
7
  6
CONTINUOUS
 10
8.8835973408
 20
-0.0492800078
 11
8.8804762605
 21
0.2457024524
  0
LINE
  5
4F2
100
AcDbEntity
  8
0
100
AcDbLine
 62
7
  6
CONTINUOUS
 10
8.8855966979
 20
-0.3212471763
 11
8.8835973408
 21
-0.0492800078
  0
LWPOLYLINE
  5
4F3
100
AcDbEntity
  8
0
100
AcDbPolyline
 62
250
  6
CONTINUOUS
 90
10
 70
0
 10
8.471892472
 20
-5.6395231676
 10
8.4661341946
 20
-4.2859908885
 10
8.4460282779
 20
-2.9367440393
 10
8.4116434157
 20
-1.5912596176
 10
8.3630037836
 20
-0.2477502796
 10
8.3001585498
 20
1.0964487624
 10
8.2232193026
 20
2.4423645324
 10
8.1323008133
 20
3.7870812463
 10
8.0272643448
 20
5.1262650475
 10
7.9071897091
 20
6.4646631055
  0
LINE
  5
4F4
100
AcDbEntity
  8
0
100
AcDbLine
 62
7
  6
CONTINUOUS
 10
8.8867195623
 20
-0.5824669469
 11
8.8855966979
 21
-0.3212471763
  0
LINE
  5
4F5
100
AcDbEntity
  8
0
100
AcDbLine
 62
7
  6
CONTINUOUS
 10
8.8028123921
 20
-6.8452980575
 11
8.8036193783
 21
-7.0012978518
  0
LINE
  5
4F6
100
AcDbEntity
  8
0
100
AcDbLine
 62
7
  6
CONTINUOUS
 10
8.8870785215
 20
-0.8340631885
 11
8.8867195623
 21
-0.5824669469
  0
LWPOLYLINE
  5
4F7
100
AcDbEntity
  8
0
100
AcDbPolyline
 62
7
  6
CONTINUOUS
 90
6
 70
0
 10
9.5651917845
 20
0.2972995013
 10
9.565395099
 20
0.8259253108
 10
9.5614033815
 20
1.3370067922
 10
9.5531830226
 20
1.8304359837
 10
9.540661352
 20
2.3052748739
 10
9.5238184417
 20
2.759796901
  0
LINE
  5
4F8
100
AcDbEntity
  8
0
100
AcDbLine
 62
7
  6
CONTINUOUS
 10
8.8501291684
 20
-4.3494046943
 11
8.8500039308
 21
-4.5264580258
  0
LINE
  5
4F9
100
AcDbEntity
  8
0
100
AcDbLine
 62
7
  6
CONTINUOUS
 10
8.886405323
 20
-1.1951096399
 11
8.8870785215
 21
-0.8340631885
  0
LINE
  5
4FA
100
AcDbEntity
  8
0
100
AcDbLine
 62
7
  6
CONTINUOUS
 10
8.8031256927
 20
-6.6798942723
 11
8.8028123921
 21
-6.8452980575
  0
LINE
  5
4FB
100
AcDbEntity
  8
0
100
AcDbLine
 62
7
  6
CONTINUOUS
 10
8.8845501672
 20
-1.5362906411
 11
8.886405323
 21
-1.1951096399
  0
LINE
  5
4FC
100
AcDbEntity
  8
0
100
AcDbLine
 62
7
  6
CONTINUOUS
 10
8.8500039308
 20
-4.5264580258
 11
8.8486610296
 21
-4.7117807893
  0
LINE
  5
4FD
100
AcDbEntity
  8
0
100
AcDbLine
 62
7
  6
CONTINUOUS
 10
8.8041909728
 20
-6.5407794945
 11
8.8031256927
 21
-6.6798942723
  0
LINE
  5
4FE
100
AcDbEntity
  8
0
100
AcDbLine
 62
7
  6
CONTINUOUS
 10
8.8806848522
 20
-1.963606524
 11
8.8845501672
 21
-1.5362906411
  0
LWPOLYLINE
  5
4FF
100
AcDbEntity
  8
0
100
AcDbPolyline
 62
7
  6
CONTINUOUS
 90
6
 70
0
 10
8.8486610296
 20
-4.7117807893
 10
8.8474499282
 20
-4.8133018046
 10
8.845888103
 20
-4.9161085169
 10
8.8439946318
 20
-5.0189265146
 10
8.8417691685
 20
-5.1214423941
 10
8.8392059175
 20
-5.2241259635
  0
LWPOLYLINE
  5
500
100
AcDbEntity
  8
0
100
AcDbPolyline
 62
250
  6
CONTINUOUS
 90
5
 70
0
 10
8.7907507815
 20
5.5485516791
 10
8.7922052799
 20
5.6648430547
 10
8.7926637507
 20
5.7749702398
 10
8.7917906897
 20
5.8795103259
 10
8.7894565982
 20
5.9771683052
  0
LINE
  5
501
100
AcDbEntity
  8
0
100
AcDbLine
 62
7
  6
CONTINUOUS
 10
8.8755712895
 20
-2.3644134751
 11
8.8806848522
 21
-1.963606524
  0
LWPOLYLINE
  5
502
100
AcDbEntity
  8
0
100
AcDbPolyline
 62
250
  6
CONTINUOUS
 90
10
 70
0
 10
7.9792027372
 20
-5.6391275277
 10
7.957908655
 20
-7.1261259679
 10
7.9180707083
 20
-8.5728097551
 10
7.8596888969
 20
-9.9791788892
 10
7.7823128613
 20
-11.3441010326
 10
7.6863929611
 20
-12.6687085229
 10
7.5732802754
 20
-13.9563983733
 10
7.4434251641
 20
-15.2083029215
 10
7.2963772674
 20
-16.4232898299
 10
7.1321365853
 20
-17.6013590984
  0
LINE
  5
503
100
AcDbEntity
  8
0
100
AcDbLine
 62
250
  6
CONTINUOUS
 10
8.7885181693
 20
5.4263569098
 11
8.7907507815
 21
5.5485516791
  0
LINE
  5
504
100
AcDbEntity
  8
0
100
AcDbLine
 62
7
  6
CONTINUOUS
 10
8.8678460641
 20
-2.831496581
 11
8.8755712895
 21
-2.3644134751
  0
LWPOLYLINE
  5
505
100
AcDbEntity
  8
0
100
AcDbPolyline
 62
250
  6
CONTINUOUS
 90
9
 70
0
 10
9.3533915053
 20
-0.3150317426
 10
9.3478290871
 20
-0.5946932258
 10
9.341448665
 20
-0.874570152
 10
9.3342889912
 20
-1.1544225801
 10
9.3264263839
 20
-1.4318181824
 10
9.3178708873
 20
-1.7087096124
 10
9.30850736
 20
-1.9915768295
 10
9.2982629068
 20
-2.2825675487
 10
9.2871658367
 20
-2.5793539552
  0
LINE
  5
506
100
AcDbEntity
  8
0
100
AcDbLine
 62
7
  6
CONTINUOUS
 10
8.8571820116
 20
-3.3412810955
 11
8.8678460641
 21
-2.831496581
  0
LWPOLYLINE
  5
507
100
AcDbEntity
  8
0
100
AcDbPolyline
 62
7
  6
CONTINUOUS
 90
6
 70
0
 10
8.8305418514
 20
6.6235090193
 10
8.8302067948
 20
6.6095641698
 10
8.8280091411
 20
6.5583111356
 10
8.8229154925
 20
6.5092941506
 10
8.8152120335
 20
6.4627949535
 10
8.8101110534
 20
6.4373397798
  0
LWPOLYLINE
  5
508
100
AcDbEntity
  8
0
100
AcDbPolyline
 62
7
  6
CONTINUOUS
 90
5
 70
0
 10
8.8151557296
 20
-5.9512726075
 10
8.8114155503
 20
-6.1033015953
 10
8.8083390013
 20
-6.2523349004
 10
8.8059297163
 20
-6.3982117025
 10
8.8041909728
 20
-6.5407794945
  0
LWPOLYLINE
  5
509
100
AcDbEntity
  8
0
100
AcDbPolyline
 62
250
  6
CONTINUOUS
 90
3
 70
0
 10
8.7885181693
 20
5.4263569098
 10
8.7841897158
 20
5.2634609226
 10
8.7780802493
 20
5.0903450047
  0
LINE
  5
50A
100
AcDbEntity
  8
0
100
AcDbLine
 62
7
  6
CONTINUOUS
 10
8.8424229952
 20
-3.916133811
 11
8.8571820116
 21
-3.3412810955
  0
LWPOLYLINE
  5
50B
100
AcDbEntity
  8
0
100
AcDbPolyline
 62
7
  6
CONTINUOUS
 90
8
 70
0
 10
9.5198291072
 20
-2.2355794651
 10
9.5298175633
 20
-1.8780101846
 10
9.5386983456
 20
-1.5241653736
 10
9.54641095
 20
-1.1743161513
 10
9.5528939351
 20
-0.8289522556
 10
9.5580953066
 20
-0.4883171977
 10
9.5619680381
 20
-0.1524421672
 10
9.5651917845
 20
0.2972995013
  0
LINE
  5
50C
100
AcDbEntity
  8
0
100
AcDbLine
 62
7
  6
CONTINUOUS
 10
8.8195555502
 20
-5.7964168214
 11
8.8151557296
 21
-5.9512726075
  0
LINE
  5
50D
100
AcDbEntity
  8
0
100
AcDbLine
 62
7
  6
CONTINUOUS
 10
8.8242384029
 20
-4.530839525
 11
8.8424229952
 21
-3.916133811
  0
LINE
  5
50E
100
AcDbEntity
  8
0
100
AcDbLine
 62
7
  6
CONTINUOUS
 10
8.8392059175
 20
-5.2241259635
 11
8.8330716
 21
-5.4321188237
  0
LINE
  5
50F
100
AcDbEntity
  8
0
100
AcDbLine
 62
7
  6
CONTINUOUS
 10
8.8246225978
 20
-4.5172577573
 11
8.7924250216
 21
-5.5395216635
  0
LINE
  5
510
100
AcDbEntity
  8
0
100
AcDbLine
 62
7
  6
CONTINUOUS
 10
9.5042533405
 20
-2.7373842192
 11
9.5198291072
 21
-2.2355794651
  0
LINE
  5
511
100
AcDbEntity
  8
0
100
AcDbLine
 62
7
  6
CONTINUOUS
 10
9.4909136396
 20
-3.1167679745
 11
9.5039450338
 21
-2.7377248441
  0
LINE
  5
512
100
AcDbEntity
  8
0
100
AcDbLine
 62
250
  6
CONTINUOUS
 10
9.1354968188
 20
-6.0114956848
 11
9.1483937926
 21
-5.6394588209
  0
LINE
  5
513
100
AcDbEntity
  8
0
100
AcDbLine
 62
7
  6
CONTINUOUS
 10
8.8330716
 20
-5.4321188237
 11
8.8257259341
 21
-5.6420359546
  0
LINE
  5
514
100
AcDbEntity
  8
0
100
AcDbLine
 62
7
  6
CONTINUOUS
 10
9.504239447
 20
-2.7377659203
 11
9.5042533405
 21
-2.7373842192
  0
LINE
  5
515
100
AcDbEntity
  8
0
100
AcDbLine
 62
7
  6
CONTINUOUS
 10
9.4756131478
 20
-3.5368128438
 11
9.4909136396
 21
-3.1167679745
  0
LINE
  5
516
100
AcDbEntity
  8
0
100
AcDbLine
 62
250
  6
CONTINUOUS
 10
9.1211023693
 20
-6.3916245983
 11
9.1354968188
 21
-6.0114956848
  0
LINE
  5
517
100
AcDbEntity
  8
0
100
AcDbLine
 62
7
  6
CONTINUOUS
 10
8.7926626418
 20
-5.539532547
 11
8.7887797842
 21
-5.6395153558
  0
LINE
  5
518
100
AcDbEntity
  8
0
100
AcDbLine
 62
7
  6
CONTINUOUS
 10
8.7647466525
 20
-6.2673431735
 11
8.7885377268
 21
-5.6405820866
  0
LINE
  5
519
100
AcDbEntity
  8
0
100
AcDbLine
 62
7
  6
CONTINUOUS
 10
9.4514584684
 20
-4.1639260319
 11
9.4756131478
 21
-3.5368128438
  0
LINE
  5
51A
100
AcDbEntity
  8
0
100
AcDbLine
 62
7
  6
CONTINUOUS
 10
8.8247253128
 20
-5.6644212585
 11
8.8195555502
 21
-5.7964168214
  0
LINE
  5
51B
100
AcDbEntity
  8
0
100
AcDbLine
 62
250
  6
CONTINUOUS
 10
9.2691506718
 20
-3.029865236
 11
9.2871658367
 21
-2.5793539552
  0
LINE
  5
51C
100
AcDbEntity
  8
0
100
AcDbLine
 62
7
  6
CONTINUOUS
 10
9.3932968529
 20
-5.591610435
 11
9.404152979
 21
-5.3210371365
  0
LINE
  5
51D
100
AcDbEntity
  8
0
100
AcDbLine
 62
7
  6
CONTINUOUS
 10
9.3139199608
 20
-7.4453525426
 11
9.3139149618
 21
-7.4454732569
  0
LINE
  5
51E
100
AcDbEntity
  8
0
100
AcDbLine
 62
7
  6
CONTINUOUS
 10
9.435954198
 20
-4.5585509719
 11
9.4514262001
 21
-4.1645178352
  0
LWPOLYLINE
  5
51F
100
AcDbEntity
  8
0
100
AcDbPolyline
 62
250
  6
CONTINUOUS
 90
3
 70
0
 10
8.7780802493
 20
5.0903450047
 10
8.7704221724
 20
4.9073058238
 10
8.7645114916
 20
4.7788557664
  0
LINE
  5
520
100
AcDbEntity
  8
0
100
AcDbLine
 62
7
  6
CONTINUOUS
 10
9.404152979
 20
-5.3210371365
 11
9.435954198
 21
-4.5585509719
  0
LINE
  5
521
100
AcDbEntity
  8
0
100
AcDbLine
 62
7
  6
CONTINUOUS
 10
8.7411613623
 20
-6.8416544907
 11
8.7647466525
 21
-6.2673431735
  0
LINE
  5
522
100
AcDbEntity
  8
0
100
AcDbLine
 62
250
  6
CONTINUOUS
 10
9.2500907501
 20
-3.4782979575
 11
9.2691506718
 21
-3.029865236
  0
LINE
  5
523
100
AcDbEntity
  8
0
100
AcDbLine
 62
7
  6
CONTINUOUS
 10
8.8257260567
 20
-5.6420359596
 11
8.8247254774
 21
-5.6644214203
  0
LINE
  5
524
100
AcDbEntity
  8
0
100
AcDbLine
 62
7
  6
CONTINUOUS
 10
8.7192307398
 20
-7.337813791
 11
8.7411613623
 21
-6.8416544907
  0
LINE
  5
525
100
AcDbEntity
  8
0
100
AcDbLine
 62
250
  6
CONTINUOUS
 10
9.222689036
 20
-4.0856790403
 11
9.2500907501
 21
-3.4782979575
  0
LWPOLYLINE
  5
526
100
AcDbEntity
  8
0
100
AcDbPolyline
 62
250
  6
CONTINUOUS
 90
5
 70
0
 10
9.0794548412
 20
-7.3461053231
 10
9.0883705241
 20
-7.1564475775
 10
9.097005447
 20
-6.965729136
 10
9.1053469058
 20
-6.7743647552
 10
9.1211023693
 20
-6.3916245983
  0
LINE
  5
527
100
AcDbEntity
  8
0
100
AcDbLine
 62
7
  6
CONTINUOUS
 10
8.7008480156
 20
-7.7294182415
 11
8.7192307398
 21
-7.337813791
  0
LWPOLYLINE
  5
528
100
AcDbEntity
  8
0
100
AcDbPolyline
 62
250
  6
CONTINUOUS
 90
3
 70
0
 10
9.1484806785
 20
-5.6394461993
 10
9.1789639593
 20
-5.00143402
 10
9.222689036
 20
-4.0856790403
  0
LWPOLYLINE
  5
529
100
AcDbEntity
  8
0
100
AcDbPolyline
 62
7
  6
CONTINUOUS
 90
8
 70
0
 10
9.3139149618
 20
-7.4454732569
 10
9.3250185647
 20
-7.2226914765
 10
9.3363062371
 20
-6.9854020991
 10
9.3474607405
 20
-6.7394506096
 10
9.3584656004
 20
-6.4850278773
 10
9.3692828015
 20
-6.2227757533
 10
9.3798861916
 20
-5.9526889849
 10
9.3932968529
 20
-5.591610435
  0
LINE
  5
52A
100
AcDbEntity
  8
0
100
AcDbLine
 62
7
  6
CONTINUOUS
 10
8.6806995664
 20
-8.1355624709
 11
8.7008480156
 21
-7.7294182415
  0
LINE
  5
52B
100
AcDbEntity
  8
0
100
AcDbLine
 62
7
  6
CONTINUOUS
 10
8.6586860077
 20
-8.5543070802
 11
8.6806995664
 21
-8.1355624709
  0
LINE
  5
52C
100
AcDbEntity
  8
0
100
AcDbLine
 62
250
  6
CONTINUOUS
 10
7.6049026781
 20
-17.8055200678
 11
7.6035319709
 21
-17.8304890779
  0
LINE
  5
52D
100
AcDbEntity
  8
0
100
AcDbLine
 62
7
  6
CONTINUOUS
 10
8.6429205162
 20
-8.8396075802
 11
8.6586860077
 21
-8.5543070802
  0
LINE
  5
52E
100
AcDbEntity
  8
0
100
AcDbLine
 62
7
  6
CONTINUOUS
 10
9.4514251069
 20
-4.1645165307
 11
9.4514584684
 21
-4.1639260319
  0
LINE
  5
52F
100
AcDbEntity
  8
0
100
AcDbLine
 62
7
  6
CONTINUOUS
 10
8.6262105032
 20
-9.1295323705
 11
8.6429205162
 21
-8.8396075802
  0
LINE
  5
530
100
AcDbEntity
  8
0
100
AcDbLine
 62
7
  6
CONTINUOUS
 10
8.6084689541
 20
-9.4239406244
 11
8.6262105032
 21
-9.1295323705
  0
LWPOLYLINE
  5
531
100
AcDbEntity
  8
0
100
AcDbPolyline
 62
250
  6
CONTINUOUS
 90
4
 70
0
 10
7.710017112
 20
-17.7960577523
 10
7.7056564638
 20
-17.8662243126
 10
7.6964007485
 20
-17.935867423
 10
7.6822632059
 20
-18.0048407706
  0
LINE
  5
532
100
AcDbEntity
  8
0
100
AcDbLine
 62
7
  6
CONTINUOUS
 10
8.5896060197
 20
-9.7226603464
 11
8.6084689541
 21
-9.4239406244
  0
LWPOLYLINE
  5
533
100
AcDbEntity
  8
0
100
AcDbPolyline
 62
250
  6
CONTINUOUS
 90
10
 70
0
 10
8.9871192047
 20
-8.9862395096
 10
8.9984839324
 20
-8.8103784656
 10
9.0095803283
 20
-8.6327190014
 10
9.0203999461
 20
-8.4533907271
 10
9.0309187463
 20
-8.2727670213
 10
9.0411452659
 20
-8.0908094578
 10
9.0511177519
 20
-7.9070210166
 10
9.0608412414
 20
-7.7213727519
 10
9.0702902722
 20
-7.5343236548
 10
9.0794548412
 20
-7.3461053231
  0
LINE
  5
534
100
AcDbEntity
  8
0
100
AcDbLine
 62
7
  6
CONTINUOUS
 10
8.5695287608
 20
-10.0255071595
 11
8.5896060197
 21
-9.7226603464
  0
LWPOLYLINE
  5
535
100
AcDbEntity
  8
0
100
AcDbPolyline
 62
250
  6
CONTINUOUS
 90
10
 70
0
 10
8.9871192047
 20
-8.9862395096
 10
8.9635915705
 20
-9.3323886197
 10
8.9385514164
 20
-9.6759773145
 10
8.9120359749
 20
-10.0163729378
 10
8.8841275131
 20
-10.3525864059
 10
8.8548439601
 20
-10.6846398161
 10
8.8241312825
 20
-11.0134292844
 10
8.791990199
 20
-11.3391475727
 10
8.7584746691
 20
-11.6615440705
 10
8.7236032099
 20
-11.980973536
  0
LWPOLYLINE
  5
536
100
AcDbEntity
  8
0
100
AcDbPolyline
 62
7
  6
CONTINUOUS
 90
8
 70
0
 10
9.2090441963
 20
-9.1789815771
 10
9.2272651653
 20
-8.9130772258
 10
9.2432357615
 20
-8.6698219489
 10
9.2586024432
 20
-8.4256613278
 10
9.2733585448
 20
-8.1806955502
 10
9.2874942173
 20
-7.9350880935
 10
9.3010038556
 20
-7.688942954
 10
9.3137297979
 20
-7.4453588156
  0
LINE
  5
537
100
AcDbEntity
  8
0
100
AcDbLine
 62
7
  6
CONTINUOUS
 10
8.548136079
 20
-10.3323592563
 11
8.5695287608
 21
-10.0255071595
  0
LWPOLYLINE
  5
538
100
AcDbEntity
  8
0
100
AcDbPolyline
 62
250
  6
CONTINUOUS
 90
4
 70
0
 10
7.6676433819
 20
-17.8229895487
 10
7.6629468689
 20
-17.8843322275
 10
7.6545203547
 20
-17.9451587434
 10
7.642386644
 20
-18.0053622714
  0
LWPOLYLINE
  5
539
100
AcDbEntity
  8
0
100
AcDbPolyline
 62
250
  6
CONTINUOUS
 90
4
 70
0
 10
7.6035319709
 20
-17.8304890779
 10
7.5993532166
 20
-17.8731426531
 10
7.5933584378
 20
-17.9155485732
 10
7.5855556961
 20
-17.957664325
  0
LWPOLYLINE
  5
53A
100
AcDbEntity
  8
0
100
AcDbPolyline
 62
7
  6
CONTINUOUS
 90
10
 70
0
 10
8.9202598992
 20
-12.352569929
 10
8.9417167109
 20
-12.1611313137
 10
8.9835586916
 20
-11.7724620274
 10
9.0236911735
 20
-11.37857051
 10
9.0620780206
 20
-10.9797956174
 10
9.0986589252
 20
-10.5767316491
 10
9.1333508863
 20
-10.170296428
 10
9.1661023724
 20
-9.7611438275
 10
9.1968913725
 20
-9.3495965242
 10
9.2090346645
 20
-9.1789272823
  0
LWPOLYLINE
  5
53B
100
AcDbEntity
  8
0
100
AcDbPolyline
 62
250
  6
CONTINUOUS
 90
25
 70
0
 10
8.7236032099
 20
-11.980973536
 10
8.697798015
 20
-12.208292955
 10
8.6717392285
 20
-12.4316375293
 10
8.645409289
 20
-12.6512922581
 10
8.6187085455
 20
-12.8681122469
 10
8.5916802589
 20
-13.0817155367
 10
8.5645181072
 20
-13.2905780518
 10
8.5372831281
 20
-13.4943645425
 10
8.5098798627
 20
-13.6939556951
 10
8.4822745913
 20
-13.8895175319
 10
8.4545814056
 20
-14.0803343658
 10
8.4266562265
 20
-14.2669791709
 10
8.3980711371
 20
-14.451400475
 10
8.36859855
 20
-14.6346571248
 10
8.3384396539
 20
-14.8151497337
 10
8.3078454301
 20
-14.9906763545
 10
8.2771578523
 20
-15.1597776646
 10
8.2461769735
 20
-15.3231218549
 10
8.2144054838
 20
-15.4815835261
 10
8.1819950502
 20
-15.6338804622
 10
8.1491815065
 20
-15.7799206808
 10
8.1156880632
 20
-15.9216959205
 10
8.0817035243
 20
-16.0587482524
 10
8.0479963368
 20
-16.1886412217
 10
8.015307091
 20
-16.3098227481
  0
LWPOLYLINE
  5
53C
100
AcDbEntity
  8
0
100
AcDbPolyline
 62
250
  6
CONTINUOUS
 90
8
 70
0
 10
5.9572914061
 20
-19.8582552075
 10
6.0017372653
 20
-19.4819928674
 10
6.0435175217
 20
-19.0983929168
 10
6.082426672
 20
-18.7073051449
 10
6.117848207
 20
-18.3082789197
 10
6.1495766233
 20
-17.9011640303
 10
6.1778174242
 20
-17.4861106876
 10
6.2025706097
 20
-17.0631188914
  0
LINE
  5
53D
100
AcDbEntity
  8
0
100
AcDbLine
 62
250
  6
CONTINUOUS
 10
5.9099744409
 20
-20.2270297265
 11
5.9572914061
 21
-19.8582552075
  0
LWPOLYLINE
  5
53E
100
AcDbEntity
  8
0
100
AcDbPolyline
 62
250
  6
CONTINUOUS
 90
29
 70
0
 10
7.7347402475
 20
-16.9595701932
 10
7.7791240654
 20
-16.6334376069
 10
7.8241965219
 20
-16.2864137277
 10
7.8669568524
 20
-15.9391511662
 10
7.9091709637
 20
-15.5780826008
 10
7.9516395878
 20
-15.1952974678
 10
7.9932893615
 20
-14.7994283678
 10
8.0330006214
 20
-14.4015911913
 10
8.0699575689
 20
-14.0119248433
 10
8.1050443378
 20
-13.6230328986
 10
8.1396193859
 20
-13.2199816168
 10
8.1741538805
 20
-12.7954835548
 10
8.2077040911
 20
-12.3592236433
 10
8.2394346175
 20
-11.9216391104
 10
8.2690185606
 20
-11.4879461435
 10
8.2966875097
 20
-11.0554448249
 10
8.3225536098
 20
-10.6222819574
 10
8.3465635547
 20
-10.18871943
 10
8.3686216236
 20
-9.7559484946
 10
8.3887337161
 20
-9.3233275378
 10
8.4069860138
 20
-8.8871631694
 10
8.4231052437
 20
-8.4516720354
 10
8.4367288779
 20
-8.0272425477
 10
8.4477625707
 20
-7.6224447773
 10
8.4566198006
 20
-7.2286416522
 10
8.4636302043
 20
-6.8310390487
 10
8.4687392586
 20
-6.4272069301
 10
8.4718282846
 20
-6.0277965187
 10
8.4729127661
 20
-5.6395236992
  0
LINE
  5
53F
100
AcDbEntity
  8
0
100
AcDbLine
 62
250
  6
CONTINUOUS
 10
5.8597863697
 20
-20.5883164242
 11
5.9099744409
 21
-20.2270297265
  0
LINE
  5
540
100
AcDbEntity
  8
0
100
AcDbLine
 62
7
  6
CONTINUOUS
 10
8.8055539655
 20
-7.1477803099
 11
8.7750122776
 21
-7.3651110268
  0
LINE
  5
541
100
AcDbEntity
  8
0
100
AcDbLine
 62
7
  6
CONTINUOUS
 10
7.7260105951
 20
-17.0185961706
 11
7.7310221539
 21
-16.9834682409
  0
LINE
  5
542
100
AcDbEntity
  8
0
100
AcDbLine
 62
7
  6
CONTINUOUS
 10
7.7264197352
 20
-17.0179783666
 11
7.7459353226
 21
-16.8805363184
  0
LINE
  5
543
100
AcDbEntity
  8
0
100
AcDbLine
 62
7
  6
CONTINUOUS
 10
7.7459353226
 20
-16.8805363184
 11
7.7622076589
 21
-16.7712773377
  0
LINE
  5
544
100
AcDbEntity
  8
0
100
AcDbLine
 62
7
  6
CONTINUOUS
 10
7.7622076589
 20
-16.7712773377
 11
7.7818357336
 21
-16.6431725073
  0
LWPOLYLINE
  5
545
100
AcDbEntity
  8
0
100
AcDbPolyline
 62
7
  6
CONTINUOUS
 90
30
 70
0
 10
7.9872292012
 20
-15.3537643186
 10
8.0137351303
 20
-15.1818858242
 10
8.0402621658
 20
-15.007043812
 10
8.0663423003
 20
-14.8319649311
 10
8.0918350487
 20
-14.6573483057
 10
8.1168273709
 20
-14.4824147502
 10
8.1412278108
 20
-14.3077197987
 10
8.165018209
 20
-14.1333584687
 10
8.1882141243
 20
-13.9591878025
 10
8.210783001
 20
-13.785439452
 10
8.232730894
 20
-13.6120741264
 10
8.2540576831
 20
-13.4391076536
 10
8.2747262448
 20
-13.2668753721
 10
8.2947392894
 20
-13.0954110084
 10
8.3141142016
 20
-12.9246718839
 10
8.3328428978
 20
-12.7548887888
 10
8.3509432922
 20
-12.5860737685
 10
8.3684361698
 20
-12.4182097506
 10
8.3853210608
 20
-12.2514875408
 10
8.4016108773
 20
-12.0859788841
 10
8.4173326448
 20
-11.9216096793
 10
8.4325077755
 20
-11.7583534095
 10
8.4471477482
 20
-11.5962879707
 10
8.4612794319
 20
-11.4353340994
 10
8.4749450796
 20
-11.2752300116
 10
8.4881711563
 20
-11.1158714611
 10
8.5009662944
 20
-10.9573616758
 10
8.5133438176
 20
-10.7997504708
 10
8.525321003
 20
-10.6430355792
 10
8.548136079
 20
-10.3323592563
  0
LWPOLYLINE
  5
546
100
AcDbEntity
  8
0
100
AcDbPolyline
 62
7
  6
CONTINUOUS
 90
3
 70
0
 10
7.6258289866
 20
-17.6805401528
 10
7.6798967964
 20
-17.333312996
 10
7.7264197352
 20
-17.0179783666
  0
LINE
  5
547
100
AcDbEntity
  8
0
100
AcDbLine
 62
7
  6
CONTINUOUS
 10
7.7818357336
 20
-16.6431725073
 11
7.807860664
 21
-16.4777286958
  0
LINE
  5
548
100
AcDbEntity
  8
0
100
AcDbLine
 62
7
  6
CONTINUOUS
 10
7.9342115201
 20
-15.6907677044
 11
7.9872292012
 21
-15.3537643186
  0
LINE
  5
549
100
AcDbEntity
  8
0
100
AcDbLine
 62
7
  6
CONTINUOUS
 10
7.807860664
 20
-16.4777286958
 11
7.9342115201
 21
-15.6907677044
  0
LWPOLYLINE
  5
54A
100
AcDbEntity
  8
0
100
AcDbPolyline
 62
7
  6
CONTINUOUS
 90
10
 70
0
 10
7.6258344134
 20
-17.6805231743
 10
7.5625268448
 20
-18.0585735027
 10
7.495910503
 20
-18.4227812236
 10
7.4253925263
 20
-18.7757191584
 10
7.3497574094
 20
-19.1222935367
 10
7.2682135801
 20
-19.4648313634
 10
7.1810363955
 20
-19.8020980837
 10
7.0876316315
 20
-20.1364847562
 10
6.9865666007
 20
-20.4734035974
 10
6.8769948012
 20
-20.8159363451
  0
LWPOLYLINE
  5
54B
100
AcDbEntity
  8
0
100
AcDbPolyline
 62
250
  6
CONTINUOUS
 90
9
 70
0
 10
7.1321365853
 20
-17.6013590984
 10
7.0638231421
 20
-18.0038561238
 10
6.9940281455
 20
-18.3825267846
 10
6.9227515957
 20
-18.7373710809
 10
6.8522883633
 20
-19.0575336356
 10
6.7803435777
 20
-19.3538698257
 10
6.7000326265
 20
-19.6589457825
 10
6.6090606391
 20
-19.9836168831
 10
6.5097224863
 20
-20.3170277505
  0
LWPOLYLINE
  5
54C
100
AcDbEntity
  8
0
100
AcDbPolyline
 62
250
  6
CONTINUOUS
 90
10
 70
0
 10
5.8597863697
 20
-20.5883164242
 10
5.8498583624
 20
-20.6450771665
 10
5.8358804145
 20
-20.7006304161
 10
5.8178525257
 20
-20.7549761729
 10
5.7954529054
 20
-20.8086568925
 10
5.7690033443
 20
-20.8611301194
 10
5.739469215
 20
-20.9107684868
 10
5.7071723083
 20
-20.957029539
 10
5.6717908332
 20
-21.0004557318
 10
5.63332479
 20
-21.0410470649
  0
LWPOLYLINE
  5
54D
100
AcDbEntity
  8
0
100
AcDbPolyline
 62
250
  6
CONTINUOUS
 90
3
 70
0
 10
7.7576635108
 20
-17.0543807901
 10
7.746681846
 20
-17.104943704
 10
7.7357624762
 20
-17.1541655252
  0
LINE
  5
54E
100
AcDbEntity
  8
0
100
AcDbLine
 62
250
  6
CONTINUOUS
 10
7.7357624762
 20
-17.1541655252
 11
7.7248748035
 21
-17.2019632132
  0
LINE
  5
54F
100
AcDbEntity
  8
0
100
AcDbLine
 62
250
  6
CONTINUOUS
 10
7.5855556961
 20
-17.957664325
 11
7.575952636
 21
-17.9994364703
  0
LWPOLYLINE
  5
550
100
AcDbEntity
  8
0
100
AcDbPolyline
 62
250
  6
CONTINUOUS
 90
4
 70
0
 10
7.7248748035
 20
-17.2019632132
 10
7.7139346366
 20
-17.2481609335
 10
7.7029591875
 20
-17.2927331899
 10
7.6920397892
 20
-17.3358040679
  0
LINE
  5
551
100
AcDbEntity
  8
IGES
100
AcDbLine
 62
250
  6
CONTINUOUS
 10
-5.6333195455
 20
-21.041170992
 11
-5.986759523
 21
-21.3948410301
  0
LWPOLYLINE
  5
552
100
AcDbEntity
  8
IGES
100
AcDbPolyline
 62
250
  6
CONTINUOUS
 90
10
 70
0
 10
-7.1049076572
 20
10.1422964469
 10
-7.1877978952
 20
10.1221183652
 10
-7.2645798634
 20
10.099326864
 10
-7.3349249154
 20
10.0740749428
 10
-7.3985782019
 20
10.0464826664
 10
-7.4551601295
 20
10.0167204651
 10
-7.5042370084
 20
9.9850322234
 10
-7.5455587193
 20
9.9516113341
 10
-7.5789874855
 20
9.9165777654
 10
-7.6043486937
 20
9.8800775665
  0
LINE
  5
553
100
AcDbEntity
  8
IGES
100
AcDbLine
 62
250
  6
CONTINUOUS
 10
-6.2336515787
 20
10.6102995469
 11
-6.2855254653
 21
10.6011838925
  0
LINE
  5
554
100
AcDbEntity
  8
IGES
100
AcDbLine
 62
250
  6
CONTINUOUS
 10
-6.3586057985
 20
10.3953278589
 11
-6.2017765432
 21
10.4219324114
  0
LINE
  5
555
100
AcDbEntity
  8
IGES
100
AcDbLine
 62
250
  6
CONTINUOUS
 10
-6.2855254653
 20
10.6011838925
 11
-6.3901653379
 21
10.5835006379
  0
LWPOLYLINE
  5
556
100
AcDbEntity
  8
IGES
100
AcDbPolyline
 62
250
  6
CONTINUOUS
 90
13
 70
0
 10
-5.1510809851
 20
9.9917629763
 10
-5.2425175054
 20
9.9768323492
 10
-5.3300902913
 20
9.9521289513
 10
-5.413799343
 20
9.9176527826
 10
-5.4953197475
 20
9.8720958669
 10
-5.5729764177
 20
9.8167661804
 10
-5.641744092
 20
9.7555876517
 10
-5.6998682841
 20
9.6885481524
 10
-5.7491034804
 20
9.6156598108
 10
-5.7896878782
 20
9.5408829418
 10
-5.8217008765
 20
9.4655376501
 10
-5.8450630764
 20
9.3883038308
 10
-5.8597744777
 20
9.3091814841
  0
LINE
  5
557
100
AcDbEntity
  8
IGES
100
AcDbLine
 62
250
  6
CONTINUOUS
 10
-6.0286013658
 20
10.6432668924
 11
-6.2336922278
 21
10.609967737
  0
LINE
  5
558
100
AcDbEntity
  8
IGES
100
AcDbLine
 62
250
  6
CONTINUOUS
 10
-6.2017765432
 20
10.4219324114
 11
-5.9995163686
 21
10.4546758475
  0
LINE
  5
559
100
AcDbEntity
  8
IGES
100
AcDbLine
 62
250
  6
CONTINUOUS
 10
-5.9995163686
 20
10.4546758475
 11
-5.7983089141
 21
10.4861904655
  0
LINE
  5
55A
100
AcDbEntity
  8
IGES
100
AcDbLine
 62
250
  6
CONTINUOUS
 10
-5.8221504444
 20
10.6756116975
 11
-6.0286013658
 21
10.6432668924
  0
LINE
  5
55B
100
AcDbEntity
  8
IGES
100
AcDbLine
 62
250
  6
CONTINUOUS
 10
-5.7983089141
 20
10.4861904655
 11
-5.5981645878
 21
10.5164627084
  0
LINE
  5
55C
100
AcDbEntity
  8
IGES
100
AcDbLine
 62
250
  6
CONTINUOUS
 10
-5.6143330115
 20
10.7069968556
 11
-5.8221504444
 21
10.6756116975
  0
LWPOLYLINE
  5
55D
100
AcDbEntity
  8
IGES
100
AcDbPolyline
 62
250
  6
CONTINUOUS
 90
10
 70
0
 10
-6.3901838096
 20
10.5835483602
 10
-6.4718115331
 20
10.5716786469
 10
-6.553748713
 20
10.5504581716
 10
-6.6357400217
 20
10.5198217134
 10
-6.7178347728
 20
10.4794832511
 10
-6.7994004469
 20
10.4295932128
 10
-6.8792121707
 20
10.3708201142
 10
-6.9567392216
 20
10.3034373131
 10
-7.0320537533
 20
10.2272466069
 10
-7.1049076572
 20
10.1422964469
  0
LWPOLYLINE
  5
55E
100
AcDbEntity
  8
IGES
100
AcDbPolyline
 62
250
  6
CONTINUOUS
 90
3
 70
0
 10
-5.5981645878
 20
10.5164627084
 10
-5.3991250221
 20
10.5454383489
 10
-5.3000169224
 20
10.5594433324
  0
LINE
  5
55F
100
AcDbEntity
  8
0
100
AcDbLine
 62
250
  6
CONTINUOUS
 10
5.8598
 20
9.309278239
 11
6.3547900225
 21
9.3799282009
  0
LWPOLYLINE
  5
560
100
AcDbEntity
  8
IGES
100
AcDbPolyline
 62
250
  6
CONTINUOUS
 90
3
 70
0
 10
-5.2999959653
 20
10.7522542652
 10
-5.4051221149
 20
10.737411525
 10
-5.6143330115
 20
10.7069968556
  0
LWPOLYLINE
  5
561
100
AcDbEntity
  8
IGES
100
AcDbPolyline
 62
250
  6
CONTINUOUS
 90
10
 70
0
 10
-5.3000255719
 20
10.5594794525
 10
-4.7143596759
 20
10.6370737745
 10
-4.1279643858
 20
10.7055405632
 10
-3.5408397018
 20
10.7648798184
 10
-2.9530889809
 20
10.8150900305
 10
-2.364608866
 20
10.8561727092
 10
-1.7750892852
 20
10.8881323837
 10
-1.1844268813
 20
10.9109705637
 10
-0.5927250115
 20
10.9246857396
 10
0.0000163241
 20
10.9292779112
  0
LWPOLYLINE
  5
562
100
AcDbEntity
  8
0
100
AcDbPolyline
 62
7
  6
CONTINUOUS
 90
10
 70
0
 10
-5.2338133269
 20
8.685479805
 10
-4.6541071857
 20
8.7452566658
 10
-4.0738768621
 20
8.7980097976
 10
-3.4931223558
 20
8.8437392005
 10
-2.9117541359
 20
8.8824499962
 10
-2.3298617335
 20
8.9141370629
 10
-1.7477137417
 20
8.938785035
 10
-1.1653996917
 20
8.9563887906
 10
-0.5828300524
 20
8.9669534514
 10
-0.0000048237
 20
8.9704790177
  0
LWPOLYLINE
  5
563
100
AcDbEntity
  8
IGES
100
AcDbPolyline
 62
250
  6
CONTINUOUS
 90
10
 70
0
 10
-5.1510809851
 20
9.9917629763
 10
-4.5797768865
 20
10.0482260575
 10
-4.0082551361
 20
10.0980377944
 10
-3.436515734
 20
10.141198187
 10
-2.8646133942
 20
10.1777031919
 10
-2.2924934027
 20
10.2075568524
 10
-1.7199916174
 20
10.2307712989
 10
-1.1470533243
 20
10.247350575
 10
-0.5737332374
 20
10.2572906371
 10
-0.0000313567
 20
10.2605914852
  0
LWPOLYLINE
  5
564
100
AcDbEntity
  8
IGES
100
AcDbPolyline
 62
250
  6
CONTINUOUS
 90
10
 70
0
 10
0.0000012689
 20
11.1203825594
 10
-0.5920928379
 20
11.1158317921
 10
-1.1834750227
 20
11.1021728704
 10
-1.7741248107
 20
11.0794119324
 10
-2.364078199
 20
11.0475533528
 10
-2.9532586619
 20
11.0066075785
 10
-3.541477239
 20
10.9565923794
 10
-4.1286578557
 20
10.8975217873
 10
-4.7148372352
 20
10.8294048331
 10
-5.2999959653
 20
10.7522542652
  0
LINE
  5
565
100
AcDbEntity
  8
0
100
AcDbLine
 62
7
  6
CONTINUOUS
 10
5.2338137813
 20
8.685479036
 11
5.0516782519
 21
8.6854790082
  0
LINE
  5
566
100
AcDbEntity
  8
0
100
AcDbLine
 62
7
  6
CONTINUOUS
 10
-5.2338133269
 20
8.685479805
 11
-5.0516777974
 21
8.6854797772
  0
LINE
  5
567
100
AcDbEntity
  8
0
100
AcDbLine
 62
7
  6
CONTINUOUS
 10
4.6518136853
 20
8.685479815
 11
5.05
 21
8.685479815
  0
LINE
  5
568
100
AcDbEntity
  8
0
100
AcDbLine
 62
7
  6
CONTINUOUS
 10
-4.6518146392
 20
8.685479815
 11
-5.05
 21
8.685479815
  0
LWPOLYLINE
  5
569
100
AcDbEntity
  8
0
100
AcDbPolyline
 62
250
  6
CONTINUOUS
 90
10
 70
0
 10
0.0000008142
 20
11.1203817904
 10
0.5920949211
 20
11.1158310231
 10
1.1834771059
 20
11.1021721014
 10
1.7741268938
 20
11.0794111634
 10
2.3640802821
 20
11.0475525838
 10
2.953260745
 20
11.0066068095
 10
3.5414793222
 20
10.9565916104
 10
4.1286599389
 20
10.8975210183
 10
4.7148393183
 20
10.8294040641
 10
5.2999980484
 20
10.7522534962
  0
LWPOLYLINE
  5
56A
100
AcDbEntity
  8
0
100
AcDbPolyline
 62
250
  6
CONTINUOUS
 90
10
 70
0
 10
5.1510814396
 20
9.9917622073
 10
4.5797773409
 20
10.0482252885
 10
4.0082555905
 20
10.0980370254
 10
3.4365161885
 20
10.141197418
 10
2.8646138487
 20
10.1777024229
 10
2.2924938572
 20
10.2075560834
 10
1.7199920719
 20
10.2307705299
 10
1.1470537788
 20
10.247349806
 10
0.5737336919
 20
10.2572898681
 10
0.0000318111
 20
10.2605907162
  0
LWPOLYLINE
  5
56B
100
AcDbEntity
  8
0
100
AcDbPolyline
 62
7
  6
CONTINUOUS
 90
10
 70
0
 10
5.2338137813
 20
8.685479036
 10
4.6541076402
 20
8.7452558968
 10
4.0738773165
 20
8.7980090286
 10
3.4931228103
 20
8.8437384315
 10
2.9117545904
 20
8.8824492272
 10
2.3298621879
 20
8.9141362939
 10
1.7477141962
 20
8.938784266
 10
1.1654001462
 20
8.9563880216
 10
0.5828305068
 20
8.9669526825
 10
0.0000052782
 20
8.9704782487
  0
LWPOLYLINE
  5
56C
100
AcDbEntity
  8
0
100
AcDbPolyline
 62
250
  6
CONTINUOUS
 90
10
 70
0
 10
5.3000233269
 20
10.5594606235
 10
4.714359353
 20
10.6370629722
 10
4.1279655045
 20
10.7055357808
 10
3.5408417815
 20
10.7648790494
 10
2.953091381
 20
10.8150905993
 10
2.3646111059
 20
10.8561726091
 10
1.775091365
 20
10.8881316147
 10
1.1844289611
 20
10.9109697948
 10
0.5927270913
 20
10.9246849706
 10
-0.0000142444
 20
10.9292771422
  0
LINE
  5
56D
100
AcDbEntity
  8
IGES
100
AcDbLine
 62
250
  6
CONTINUOUS
 10
-5.8597995455
 20
9.309279008
 11
-6.354789523
 21
9.3799289699
  0
LINE
  5
56E
100
AcDbEntity
  8
0
100
AcDbLine
 62
250
  6
CONTINUOUS
 10
5.2999980484
 20
10.7522534962
 11
5.5099032323
 21
10.7223248035
  0
LINE
  5
56F
100
AcDbEntity
  8
0
100
AcDbLine
 62
250
  6
CONTINUOUS
 10
5.498510618
 20
10.5311147186
 11
5.3000233269
 21
10.5594606235
  0
LWPOLYLINE
  5
570
100
AcDbEntity
  8
0
100
AcDbPolyline
 62
250
  6
CONTINUOUS
 90
10
 70
0
 10
6.3901858927
 20
10.5835475913
 10
6.4718136166
 20
10.5716778779
 10
6.5537507969
 20
10.5504574026
 10
6.6357421063
 20
10.5198209444
 10
6.7178368581
 20
10.4794824822
 10
6.7994025332
 20
10.4295924438
 10
6.8792142582
 20
10.3708193452
 10
6.9567413104
 20
10.3034365441
 10
7.0320558434
 20
10.2272458379
 10
7.1049097489
 20
10.1422956779
  0
LINE
  5
571
100
AcDbEntity
  8
0
100
AcDbLine
 62
250
  6
CONTINUOUS
 10
5.5099032323
 20
10.7223248035
 11
5.7184174503
 21
10.691424443
  0
LINE
  5
572
100
AcDbEntity
  8
0
100
AcDbLine
 62
250
  6
CONTINUOUS
 10
5.6981012826
 20
10.5014854258
 11
5.498510618
 21
10.5311147186
  0
LINE
  5
573
100
AcDbEntity
  8
0
100
AcDbLine
 62
250
  6
CONTINUOUS
 10
5.898784432
 20
10.4705842952
 11
5.6981012826
 21
10.5014854258
  0
LINE
  5
574
100
AcDbEntity
  8
0
100
AcDbLine
 62
250
  6
CONTINUOUS
 10
5.7184174503
 20
10.691424443
 11
5.925547117
 21
10.6595578083
  0
LWPOLYLINE
  5
575
100
AcDbEntity
  8
0
100
AcDbPolyline
 62
250
  6
CONTINUOUS
 90
3
 70
0
 10
5.925547117
 20
10.6595578083
 10
6.1313191955
 20
10.6267356992
 10
6.2336943109
 20
10.6099669681
  0
LWPOLYLINE
  5
576
100
AcDbEntity
  8
0
100
AcDbPolyline
 62
250
  6
CONTINUOUS
 90
3
 70
0
 10
6.201778623
 20
10.4219316424
 10
6.1005165119
 20
10.4384575276
 10
5.898784432
 20
10.4705842952
  0
LWPOLYLINE
  5
577
100
AcDbEntity
  8
0
100
AcDbPolyline
 62
250
  6
CONTINUOUS
 90
13
 70
0
 10
5.1510814396
 20
9.9917622073
 10
5.2425179599
 20
9.9768315802
 10
5.3300907458
 20
9.9521281823
 10
5.4137997974
 20
9.9176520136
 10
5.4953202019
 20
9.8720950979
 10
5.5729768721
 20
9.8167654114
 10
5.6417445464
 20
9.7555868828
 10
5.6998687386
 20
9.6885473834
 10
5.7491039349
 20
9.6156590419
 10
5.7896883326
 20
9.5408821728
 10
5.821701331
 20
9.4655368811
 10
5.8450635308
 20
9.3883030619
 10
5.8597749321
 20
9.3091807151
  0
LINE
  5
578
100
AcDbEntity
  8
0
100
AcDbLine
 62
250
  6
CONTINUOUS
 10
6.3586078782
 20
10.3953270899
 11
6.201778623
 21
10.4219316424
  0
LINE
  5
579
100
AcDbEntity
  8
0
100
AcDbLine
 62
250
  6
CONTINUOUS
 10
6.2855275485
 20
10.6011831235
 11
6.390167421
 21
10.5834998689
  0
LINE
  5
57A
100
AcDbEntity
  8
0
100
AcDbLine
 62
250
  6
CONTINUOUS
 10
6.2336536619
 20
10.6102987779
 11
6.2855275485
 21
10.6011831235
  0
LWPOLYLINE
  5
57B
100
AcDbEntity
  8
0
100
AcDbPolyline
 62
250
  6
CONTINUOUS
 90
10
 70
0
 10
7.1049097489
 20
10.1422956779
 10
7.1877999927
 20
10.1221175962
 10
7.2645819671
 20
10.099326095
 10
7.3349270259
 20
10.0740741738
 10
7.3985803195
 20
10.0464818974
 10
7.4551622547
 20
10.0167196961
 10
7.5042391414
 20
9.9850314544
 10
7.5455608605
 20
9.9516105651
 10
7.5789896351
 20
9.9165769964
 10
7.6043508519
 20
9.8800767975
  0
LINE
  5
57C
100
AcDbEntity
  8
0
100
AcDbLine
 62
250
  6
CONTINUOUS
 10
8.8233411406
 20
6.7184299681
 11
8.8263299984
 21
6.7164804511
  0
LWPOLYLINE
  5
57D
100
AcDbEntity
  8
0
100
AcDbPolyline
 62
250
  6
CONTINUOUS
 90
9
 70
0
 10
8.8263299984
 20
6.7164804511
 10
8.8333570576
 20
6.7115107427
 10
8.8404115146
 20
6.7060906189
 10
8.8474926874
 20
6.7002151522
 10
8.8546005359
 20
6.6938709145
 10
8.8617336713
 20
6.687061501
 10
8.8688894194
 20
6.6798074506
 10
8.8760664476
 20
6.6721122525
 10
8.8832647004
 20
6.6639624253
  0
LWPOLYLINE
  5
57E
100
AcDbEntity
  8
0
100
AcDbPolyline
 62
7
  6
CONTINUOUS
 90
10
 70
0
 10
8.5760475285
 20
6.3256371799
 10
8.5729327045
 20
6.3285625574
 10
8.5698288729
 20
6.3317143093
 10
8.566736034
 20
6.3350924355
 10
8.5636544681
 20
6.3386865431
 10
8.5605838949
 20
6.3425070252
 10
8.5575234724
 20
6.3465850604
 10
8.5544729201
 20
6.3509310418
 10
8.5514325186
 20
6.3555345764
 10
8.5484022678
 20
6.3603956642
  0
LWPOLYLINE
  5
57F
100
AcDbEntity
  8
0
100
AcDbPolyline
 62
250
  6
CONTINUOUS
 90
3
 70
0
 10
8.5827928588
 20
6.3182156133
 10
8.5792343169
 20
6.3218045071
 10
8.5755840797
 20
6.3256049054
  0
LWPOLYLINE
  5
580
100
AcDbEntity
  8
0
100
AcDbPolyline
 62
250
  6
CONTINUOUS
 90
10
 70
0
 10
8.6895962115
 20
6.4342112441
 10
8.680687255
 20
6.4441469588
 10
8.6714582731
 20
6.4524511241
 10
8.6619693686
 20
6.4590397025
 10
8.6522942328
 20
6.4641236448
 10
8.6424442331
 20
6.4673614785
 10
8.6324349688
 20
6.4680537262
 10
8.6223478048
 20
6.4662070502
 10
8.6122533477
 20
6.4623808003
 10
8.6021531425
 20
6.4570823299
  0
LWPOLYLINE
  5
581
100
AcDbEntity
  8
0
100
AcDbPolyline
 62
250
  6
CONTINUOUS
 90
7
 70
0
 10
8.6055962898
 20
6.2941817814
 10
8.6024956915
 20
6.2978243318
 10
8.599347369
 20
6.3013320937
 10
8.5961504941
 20
6.3047418392
 10
8.5929156062
 20
6.3080918757
 10
8.5896311681
 20
6.3114194327
 10
8.5827928588
 20
6.3182156133
  0
LINE
  5
582
100
AcDbEntity
  8
0
100
AcDbLine
 62
250
  6
CONTINUOUS
 10
8.6985145615
 20
6.4235838435
 11
8.6895965678
 21
6.4342115756
  0
LINE
  5
583
100
AcDbEntity
  8
0
100
AcDbLine
 62
250
  6
CONTINUOUS
 10
8.8832647004
 20
6.6639624253
 11
8.8904834538
 21
6.6553529856
  0
LWPOLYLINE
  5
584
100
AcDbEntity
  8
0
100
AcDbPolyline
 62
250
  6
CONTINUOUS
 90
10
 70
0
 10
7.1049131779
 20
10.1423030171
 10
7.1930578987
 20
10.02256892
 10
7.275382558
 20
9.89294038
 10
7.351557618
 20
9.7536143096
 10
7.4211344849
 20
9.6047518225
 10
7.4840331613
 20
9.4465571155
 10
7.540367429
 20
9.2792331719
 10
7.5898426549
 20
9.1029245722
 10
7.6319113941
 20
8.9177816895
 10
7.6661534202
 20
8.7239843068
  0
LINE
  5
585
100
AcDbEntity
  8
0
100
AcDbLine
 62
250
  6
CONTINUOUS
 10
8.9561428053
 20
6.5555329994
 11
8.8904834538
 21
6.6553529856
  0
LWPOLYLINE
  5
586
100
AcDbEntity
  8
0
100
AcDbPolyline
 62
250
  6
CONTINUOUS
 90
10
 70
0
 10
8.6055962898
 20
6.2941817814
 10
8.6239229851
 20
6.2659921221
 10
8.6399484295
 20
6.2349335216
 10
8.6538988154
 20
6.2002399866
 10
8.6658963833
 20
6.1612663342
 10
8.6762939799
 20
6.1180075545
 10
8.6854824212
 20
6.0712457954
 10
8.6935374982
 20
6.0214134036
 10
8.7004087172
 20
5.9684175766
 10
8.7061202052
 20
5.9124560293
  0
LWPOLYLINE
  5
587
100
AcDbEntity
  8
0
100
AcDbPolyline
 62
250
  6
CONTINUOUS
 90
13
 70
0
 10
6.8079727336
 20
9.977719742
 10
6.7768115968
 20
10.0321065333
 10
6.7444466074
 20
10.0834344859
 10
6.7108777654
 20
10.1317035999
 10
6.6761103621
 20
10.1771998136
 10
6.6401391063
 20
10.2196371887
 10
6.6029481234
 20
10.25815791
 10
6.5643672453
 20
10.292846031
 10
6.5245666403
 20
10.3236174982
 10
6.484040938
 20
10.3493623353
 10
6.4429550152
 20
10.3697105502
 10
6.4011439953
 20
10.3850321351
 10
6.3586078782
 20
10.3953270899
  0
LWPOLYLINE
  5
588
100
AcDbEntity
  8
0
100
AcDbPolyline
 62
250
  6
CONTINUOUS
 90
10
 70
0
 10
8.8221573358
 20
6.2116020591
 10
8.8168791104
 20
6.2217009187
 10
8.8115874634
 20
6.2315689412
 10
8.8062837166
 20
6.2412033885
 10
8.8009694392
 20
6.2505988499
 10
8.7956456196
 20
6.2597553945
 10
8.7903125456
 20
6.268678001
 10
8.7849709592
 20
6.2773659473
 10
8.7796221727
 20
6.2858133812
 10
8.7742671567
 20
6.2940170739
  0
LWPOLYLINE
  5
589
100
AcDbEntity
  8
0
100
AcDbPolyline
 62
250
  6
CONTINUOUS
 90
10
 70
0
 10
6.8079727336
 20
9.977719742
 10
6.8684548442
 20
9.8565991612
 10
6.9235958838
 20
9.7308730071
 10
6.9733958523
 20
9.6005412798
 10
7.0172054097
 20
9.4676464957
 10
7.0556738961
 20
9.3301461383
 10
7.0907493311
 20
9.1819126579
 10
7.1230810547
 20
9.0209035379
 10
7.152019727
 20
8.849161295
 10
7.177565348
 20
8.666685929
  0
LINE
  5
58A
100
AcDbEntity
  8
0
100
AcDbLine
 62
250
  6
CONTINUOUS
 10
9.0209693706
 20
6.4202197332
 11
8.9561428053
 21
6.5555329994
  0
LWPOLYLINE
  5
58B
100
AcDbEntity
  8
0
100
AcDbPolyline
 62
250
  6
CONTINUOUS
 90
4
 70
0
 10
8.8221573358
 20
6.2116020591
 10
8.8806695491
 20
6.0780436872
 10
8.9391452244
 20
5.9122083976
 10
8.9963915489
 20
5.7149250739
  0
LWPOLYLINE
  5
58C
100
AcDbEntity
  8
0
100
AcDbPolyline
 62
250
  6
CONTINUOUS
 90
9
 70
0
 10
8.7635199278
 20
6.3095726911
 10
8.757067837
 20
6.3252116403
 10
8.7497905023
 20
6.3410904586
 10
8.7419189116
 20
6.3566192192
 10
8.7336508566
 20
6.371506011
 10
8.7251119534
 20
6.3856754771
 10
8.7163548784
 20
6.3991475635
 10
8.7074543729
 20
6.4118430076
 10
8.6985145615
 20
6.4235838435
  0
LWPOLYLINE
  5
58D
100
AcDbEntity
  8
0
100
AcDbPolyline
 62
250
  6
CONTINUOUS
 90
7
 70
0
 10
8.9963915489
 20
5.7149250739
 10
9.0504362716
 20
5.4865735118
 10
9.1001925043
 20
5.2289502748
 10
9.1463829083
 20
4.9456169917
 10
9.1890378103
 20
4.6391271347
 10
9.2267203423
 20
4.3107168265
 10
9.2586641859
 20
3.9623127531
  0
LWPOLYLINE
  5
58E
100
AcDbEntity
  8
0
100
AcDbPolyline
 62
250
  6
CONTINUOUS
 90
10
 70
0
 10
6.6775217313
 20
17.4378236479
 10
6.9691303269
 20
16.1379685143
 10
7.2395854466
 20
14.85990371
 10
7.4886321343
 20
13.6041653347
 10
7.7154177358
 20
12.3746143576
 10
7.92049835
 20
11.1681972472
 10
8.1054507768
 20
9.9749017576
 10
8.2705653653
 20
8.7914964904
 10
8.4154637061
 20
7.6216166658
 10
8.5408134966
 20
6.4654769876
  0
LWPOLYLINE
  5
58F
100
AcDbEntity
  8
0
100
AcDbPolyline
 62
250
  6
CONTINUOUS
 90
9
 70
0
 10
6.6775217313
 20
17.4378236479
 10
6.6352375829
 20
17.6571955323
 10
6.5966063629
 20
17.8597320565
 10
6.5616534635
 20
18.0456237687
 10
6.5302663063
 20
18.2156911062
 10
6.502542054
 20
18.3695043562
 10
6.478807491
 20
18.5054348895
 10
6.4590667885
 20
18.6237505514
 10
6.4432517885
 20
18.7246006279
  0
LINE
  5
590
100
AcDbEntity
  8
0
100
AcDbLine
 62
250
  6
CONTINUOUS
 10
6.6777867412
 20
17.4366746808
 11
6.7212716519
 21
17.2091526055
  0
LWPOLYLINE
  5
591
100
AcDbEntity
  8
0
100
AcDbPolyline
 62
250
  6
CONTINUOUS
 90
3
 70
0
 10
6.7212716519
 20
17.2091526055
 10
6.7678476316
 20
16.9624708804
 10
6.7799889172
 20
16.8976916899
  0
LWPOLYLINE
  5
592
100
AcDbEntity
  8
0
100
AcDbPolyline
 62
250
  6
CONTINUOUS
 90
10
 70
0
 10
5.5870455
 20
17.1969155797
 10
5.6470798023
 20
16.8691662177
 10
5.7051638911
 20
16.537397922
 10
5.7612979509
 20
16.2015964931
 10
5.8154212303
 20
15.8617429605
 10
5.8675948455
 20
15.5178279602
 10
5.9180017612
 20
15.1698518713
 10
5.9667030615
 20
14.8178056287
 10
6.0136379688
 20
14.4616706081
 10
6.0591858927
 20
14.098437957
  0
LWPOLYLINE
  5
593
100
AcDbEntity
  8
0
100
AcDbPolyline
 62
250
  6
CONTINUOUS
 90
9
 70
0
 10
6.7799889172
 20
16.8976916899
 10
6.8393003336
 20
16.5721913549
 10
6.8967536067
 20
16.2417789115
 10
6.9523516546
 20
15.9066311139
 10
7.0060695955
 20
15.5671355002
 10
7.0579677227
 20
15.2233280612
 10
7.1081678258
 20
14.8748806176
 10
7.1566930092
 20
14.5218234037
 10
7.2034852884
 20
14.1645356285
  0
LINE
  5
594
100
AcDbEntity
  8
0
100
AcDbLine
 62
250
  6
CONTINUOUS
 10
6.4432517885
 20
18.7246006279
 11
6.4316274347
 21
18.8062591144
  0
LINE
  5
595
100
AcDbEntity
  8
0
100
AcDbLine
 62
250
  6
CONTINUOUS
 10
7.2034852884
 20
14.1645356285
 11
7.2568191169
 21
13.7346053735
  0
LWPOLYLINE
  5
596
100
AcDbEntity
  8
0
100
AcDbPolyline
 62
250
  6
CONTINUOUS
 90
10
 70
0
 10
7.2568191169
 20
13.7346053735
 10
7.3044472045
 20
13.3277957245
 10
7.3498985753
 20
12.9158414895
 10
7.3931359771
 20
12.4986904331
 10
7.4341576863
 20
12.0760318565
 10
7.4729114534
 20
11.6478330294
 10
7.509302892
 20
11.2143648882
 10
7.5433098179
 20
10.7755247541
 10
7.5749832546
 20
10.3308601149
 10
7.6043379449
 20
9.8801143345
  0
LWPOLYLINE
  5
597
100
AcDbEntity
  8
0
100
AcDbPolyline
 62
250
  6
CONTINUOUS
 90
6
 70
0
 10
6.4316274347
 20
18.8062591144
 10
6.4243370382
 20
18.8685828118
 10
6.4212781353
 20
18.9120761163
 10
6.4224703938
 20
18.936059836
 10
6.4280409765
 20
18.9404385639
 10
6.4381470755
 20
18.9256505391
  0
LINE
  5
598
100
AcDbEntity
  8
0
100
AcDbLine
 62
250
  6
CONTINUOUS
 10
7.177565348
 20
8.666685929
 11
7.2201963023
 21
8.2992310325
  0
LWPOLYLINE
  5
599
100
AcDbEntity
  8
0
100
AcDbPolyline
 62
250
  6
CONTINUOUS
 90
10
 70
0
 10
7.6665003461
 20
8.723166647
 10
7.6959771839
 20
8.4685234837
 10
7.7247571482
 20
8.2148035645
 10
7.752840724
 20
7.9620063492
 10
7.7802266408
 20
7.71012702
 10
7.8069154477
 20
7.4591690378
 10
7.8329091604
 20
7.2091443102
 10
7.8582061959
 20
6.9600562743
 10
7.8828027336
 20
6.7118998266
 10
7.9066959136
 20
6.4646739858
  0
LWPOLYLINE
  5
59A
100
AcDbEntity
  8
0
100
AcDbPolyline
 62
250
  6
CONTINUOUS
 90
3
 70
0
 10
7.2201963023
 20
8.2992310325
 10
7.2487374438
 20
8.0489527063
 10
7.2576075306
 20
7.9687544324
  0
LWPOLYLINE
  5
59B
100
AcDbEntity
  8
0
100
AcDbPolyline
 62
250
  6
CONTINUOUS
 90
4
 70
0
 10
7.6920397892
 20
-17.3358040679
 10
7.6811468048
 20
-17.3773168041
 10
7.6701579244
 20
-17.4170320626
 10
7.6631955774
 20
-17.4405693616
  0
LINE
  5
59C
100
AcDbEntity
  8
0
100
AcDbLine
 62
250
  6
CONTINUOUS
 10
7.642386644
 20
-18.0053622714
 11
7.6265715461
 21
-18.0647747418
  0
LWPOLYLINE
  5
59D
100
AcDbEntity
  8
0
100
AcDbPolyline
 62
7
  6
CONTINUOUS
 90
10
 70
0
 10
8.1336419514
 20
-17.0417160718
 10
8.2162469665
 20
-16.7431587387
 10
8.3228857775
 20
-16.2948557701
 10
8.4233116955
 20
-15.8048831651
 10
8.5188319039
 20
-15.2759390197
 10
8.6104039746
 20
-14.7101768052
 10
8.6985419758
 20
-14.1108428343
 10
8.7834642132
 20
-13.4816642246
 10
8.8652110838
 20
-12.8253353271
 10
8.9202974468
 20
-12.3523245753
  0
LINE
  5
59E
100
AcDbEntity
  8
0
100
AcDbLine
 62
250
  6
CONTINUOUS
 10
7.6822632059
 20
-18.0048407706
 11
7.6632611455
 21
-18.0728536993
  0
LINE
  5
59F
100
AcDbEntity
  8
0
100
AcDbLine
 62
250
  6
CONTINUOUS
 10
8.0027443757
 20
-16.3538183225
 11
8.0153584049
 21
-16.3098223178
  0
LINE
  5
5A0
100
AcDbEntity
  8
0
100
AcDbLine
 62
250
  6
CONTINUOUS
 10
7.9900477368
 20
-16.3971559687
 11
8.0027443757
 21
-16.3538183225
  0
LINE
  5
5A1
100
AcDbEntity
  8
0
100
AcDbLine
 62
250
  6
CONTINUOUS
 10
8.0946580878
 20
-17.1682578962
 11
8.0876142291
 21
-17.1916406352
  0
LINE
  5
5A2
100
AcDbEntity
  8
0
100
AcDbLine
 62
250
  6
CONTINUOUS
 10
7.9772712385
 20
-16.439821648
 11
7.9900477368
 21
-16.3971559687
  0
LINE
  5
5A3
100
AcDbEntity
  8
0
100
AcDbLine
 62
250
  6
CONTINUOUS
 10
7.6265773108
 20
-18.0647566315
 11
7.5466614657
 21
-18.3274655438
  0
LINE
  5
5A4
100
AcDbEntity
  8
0
100
AcDbLine
 62
250
  6
CONTINUOUS
 10
7.5466614657
 20
-18.3274655438
 11
7.4569477001
 21
-18.6177875443
  0
LINE
  5
5A5
100
AcDbEntity
  8
0
100
AcDbLine
 62
250
  6
CONTINUOUS
 10
6.5097224863
 20
-20.3170277505
 11
6.4020181679
 21
-20.6591783847
  0
LWPOLYLINE
  5
5A6
100
AcDbEntity
  8
0
100
AcDbPolyline
 62
7
  6
CONTINUOUS
 90
5
 70
0
 10
8.0874653665
 20
-17.1921095714
 10
8.0953549083
 20
-17.1671185347
 10
8.1081327658
 20
-17.1259564901
 10
8.1206399125
 20
-17.0848357766
 10
8.1348567581
 20
-17.0370840952
  0
LWPOLYLINE
  5
5A7
100
AcDbEntity
  8
0
100
AcDbPolyline
 62
250
  6
CONTINUOUS
 90
5
 70
0
 10
7.8790032571
 20
-16.7421377009
 10
7.9035472663
 20
-16.6708578729
 10
7.9282128988
 20
-16.5965669764
 10
7.9528165084
 20
-16.5195077016
 10
7.9772712385
 20
-16.439821648
  0
LINE
  5
5A8
100
AcDbEntity
  8
0
100
AcDbLine
 62
250
  6
CONTINUOUS
 10
7.8545593022
 20
-16.8104104791
 11
7.8790032571
 21
-16.7421377009
  0
LINE
  5
5A9
100
AcDbEntity
  8
0
100
AcDbLine
 62
250
  6
CONTINUOUS
 10
7.8300472191
 20
-16.8759044817
 11
7.8545593022
 21
-16.8104104791
  0
LWPOLYLINE
  5
5AA
100
AcDbEntity
  8
0
100
AcDbPolyline
 62
7
  6
CONTINUOUS
 90
9
 70
0
 10
6.8768748419
 20
-20.8159687278
 10
6.8325256406
 20
-20.9315453704
 10
6.7776371191
 20
-21.0419523034
 10
6.7126084958
 20
-21.1465310104
 10
6.6375899366
 20
-21.2449270717
 10
6.5532542961
 20
-21.3360451808
 10
6.461088992
 20
-21.4183357126
 10
6.3620154083
 20
-21.4912052069
 10
6.2566030729
 20
-21.5543451239
  0
LWPOLYLINE
  5
5AB
100
AcDbEntity
  8
0
100
AcDbPolyline
 62
7
  6
CONTINUOUS
 90
7
 70
0
 10
7.9283109067
 20
-17.6446985964
 10
7.9401669176
 20
-17.6144213303
 10
7.9710946826
 20
-17.5327943226
 10
8.0015055312
 20
-17.4488304279
 10
8.0316675916
 20
-17.3619751595
 10
8.0616743987
 20
-17.2720888045
 10
8.0876142291
 20
-17.1916406352
  0
LWPOLYLINE
  5
5AC
100
AcDbEntity
  8
0
100
AcDbPolyline
 62
7
  6
CONTINUOUS
 90
9
 70
0
 10
5.3343908324
 20
-21.7476731696
 10
5.3344752943
 20
-21.7474576169
 10
5.3347579409
 20
-21.7474533007
 10
5.3354449679
 20
-21.7478797097
 10
5.3364689476
 20
-21.7486644873
 10
5.3376372434
 20
-21.7496021094
 10
5.3386784079
 20
-21.7504035098
 10
5.3393799307
 20
-21.750842531
 10
5.3395517793
 20
-21.7508926807
  0
LWPOLYLINE
  5
5AD
100
AcDbEntity
  8
0
100
AcDbPolyline
 62
250
  6
CONTINUOUS
 90
8
 70
0
 10
6.4020181679
 20
-20.6591783847
 10
6.389614035
 20
-20.6905457009
 10
6.3786005624
 20
-20.7178273789
 10
6.3689777502
 20
-20.7410234186
 10
6.3616793853
 20
-20.7584000771
 10
6.3557716807
 20
-20.7716910974
 10
6.3484532761
 20
-20.786097708
 10
6.3387903846
 20
-20.8033536518
  0
LINE
  5
5AE
100
AcDbEntity
  8
0
100
AcDbLine
 62
7
  6
CONTINUOUS
 10
7.8316444827
 20
-17.8850588062
 11
7.8737803167
 21
-17.7797443494
  0
LWPOLYLINE
  5
5AF
100
AcDbEntity
  8
0
100
AcDbPolyline
 62
7
  6
CONTINUOUS
 90
4
 70
0
 10
7.633550628
 20
-18.3699067708
 10
7.6960647889
 20
-18.2184550202
 10
7.762210938
 20
-18.0566790041
 10
7.8316444827
 20
-17.8850588062
  0
LWPOLYLINE
  5
5B0
100
AcDbEntity
  8
0
100
AcDbPolyline
 62
250
  6
CONTINUOUS
 90
3
 70
0
 10
7.9282090248
 20
-17.6449563645
 10
7.9091072188
 20
-17.6905178876
 10
7.8619242875
 20
-17.798719958
  0
LWPOLYLINE
  5
5B1
100
AcDbEntity
  8
0
100
AcDbPolyline
 62
7
  6
CONTINUOUS
 90
3
 70
0
 10
7.3832662656
 20
-18.9687496345
 10
7.5185984875
 20
-18.6455041376
 10
7.633550628
 20
-18.3699067708
  0
LWPOLYLINE
  5
5B2
100
AcDbEntity
  8
0
100
AcDbPolyline
 62
250
  6
CONTINUOUS
 90
4
 70
0
 10
7.7574054097
 20
-17.0552124611
 10
7.7812647989
 20
-16.9984111128
 10
7.8055319362
 20
-16.9386257701
 10
7.8300472191
 20
-16.8759044817
  0
LWPOLYLINE
  5
5B3
100
AcDbEntity
  8
0
100
AcDbPolyline
 62
250
  6
CONTINUOUS
 90
4
 70
0
 10
7.8619242875
 20
-17.798719958
 10
7.8171011528
 20
-17.889364828
 10
7.7748937198
 20
-17.961726295
 10
7.7353243755
 20
-18.0156876731
  0
LWPOLYLINE
  5
5B4
100
AcDbEntity
  8
IGES
100
AcDbPolyline
 62
250
  6
CONTINUOUS
 90
10
 70
0
 10
-7.6265746065
 20
-18.0647558625
 10
-7.6308700775
 20
-18.0669876977
 10
-7.6350434765
 20
-18.0688447064
 10
-7.639094432
 20
-18.0703448535
 10
-7.6429280438
 20
-18.0715020597
 10
-7.6466374491
 20
-18.0723483564
 10
-7.6505070328
 20
-18.0728922205
 10
-7.6546345183
 20
-18.0731065156
 10
-7.6589277821
 20
-18.0729699052
 10
-7.6633896255
 20
-18.0724605347
  0
LWPOLYLINE
  5
5B5
100
AcDbEntity
  8
0
100
AcDbPolyline
 62
250
  6
CONTINUOUS
 90
16
 70
0
 10
6.0663008818
 20
14.1020567469
 10
6.1792863985
 20
14.1097353944
 10
6.2905729048
 20
14.1131613991
 10
6.3995704504
 20
14.1123001902
 10
6.5060461526
 20
14.1070962749
 10
6.6089076394
 20
14.0975246553
 10
6.7063926685
 20
14.083749687
 10
6.7978176554
 20
14.0659352176
 10
6.8828193138
 20
14.0441914051
 10
6.9604095133
 20
14.0188157994
 10
7.0301492248
 20
13.9900259958
 10
7.0917224965
 20
13.9579958474
 10
7.144572758
 20
13.9230614478
 10
7.1884141751
 20
13.8854950424
 10
7.2231224481
 20
13.8454598172
 10
7.248520928
 20
13.8031566688
  0
LWPOLYLINE
  5
5B6
100
AcDbEntity
  8
0
100
AcDbPolyline
 62
250
  6
CONTINUOUS
 90
16
 70
0
 10
6.0679008812
 20
14.071976748
 10
6.1813826599
 20
14.0754505035
 10
6.2931339261
 20
14.0753053311
 10
6.4025602383
 20
14.0715253299
 10
6.5094228161
 20
14.0640669915
 10
6.6126226534
 20
14.0529371602
 10
6.7103925054
 20
14.0383242565
 10
6.8020468153
 20
14.0203856912
 10
6.8872092855
 20
13.9992257136
 10
6.9648747079
 20
13.9751302054
 10
7.0346012791
 20
13.9482977956
 10
7.0960629448
 20
13.918888333
 10
7.1486853658
 20
13.8872157244
 10
7.1921801312
 20
13.8535277727
 10
7.226427468
 20
13.8179680787
 10
7.2512509275
 20
13.7807166696
  0
LWPOLYLINE
  5
5B7
100
AcDbEntity
  8
0
100
AcDbPolyline
 62
250
  6
CONTINUOUS
 90
16
 70
0
 10
6.0686008809
 20
14.0572767485
 10
6.1824042765
 20
14.0582972109
 10
6.2944451014
 20
14.0560604158
 10
6.4041269628
 20
14.050562932
 10
6.5112082692
 20
14.0417697587
 10
6.6145879038
 20
14.0297077942
 10
6.7124984064
 20
14.0145810813
 10
6.8042505135
 20
13.9965458063
 10
6.889467574
 20
13.9757035059
 10
6.9671487846
 20
13.9523306746
 10
7.0368506813
 20
13.9266144938
 10
7.0982390103
 20
13.8987068216
 10
7.1507335697
 20
13.86890422
 10
7.1940413535
 20
13.8374375357
 10
7.2280377735
 20
13.8044393322
 10
7.2525409273
 20
13.77007667
  0
LWPOLYLINE
  5
5B8
100
AcDbEntity
  8
IGES
100
AcDbPolyline
 62
250
  6
CONTINUOUS
 90
16
 70
0
 10
-6.0685986647
 20
14.0572775175
 10
-6.1824020591
 20
14.0582979799
 10
-6.2944428818
 20
14.0560611848
 10
-6.4041247403
 20
14.050563701
 10
-6.5112060429
 20
14.0417705277
 10
-6.6145856729
 20
14.0297085631
 10
-6.7124961701
 20
14.0145818503
 10
-6.8042482712
 20
13.9965465753
 10
-6.8894653249
 20
13.9757042749
 10
-6.9671465282
 20
13.9523314436
 10
-7.036848417
 20
13.9266152628
 10
-7.0982367378
 20
13.8987075906
 10
-7.1507312885
 20
13.868904989
 10
-7.1940390633
 20
13.8374383047
 10
-7.228035474
 20
13.8044401012
 10
-7.2525386183
 20
13.770077439
  0
LWPOLYLINE
  5
5B9
100
AcDbEntity
  8
IGES
100
AcDbPolyline
 62
250
  6
CONTINUOUS
 90
16
 70
0
 10
-6.0678986644
 20
14.071977517
 10
-6.1813804417
 20
14.0754512725
 10
-6.2931317058
 20
14.0753061001
 10
-6.4025580149
 20
14.0715260989
 10
-6.5094205888
 20
14.0640677605
 10
-6.6126204214
 20
14.0529379292
 10
-6.7103902681
 20
14.0383250254
 10
-6.8020445719
 20
14.0203864602
 10
-6.8872070354
 20
13.9992264826
 10
-6.9648724505
 20
13.9751309744
 10
-7.0345990139
 20
13.9482985646
 10
-7.0960606714
 20
13.918889102
 10
-7.1486830838
 20
13.8872164934
 10
-7.1921778403
 20
13.8535285417
 10
-7.226425168
 20
13.8179688477
 10
-7.251248618
 20
13.7807174386
  0
LWPOLYLINE
  5
5BA
100
AcDbEntity
  8
IGES
100
AcDbPolyline
 62
250
  6
CONTINUOUS
 90
16
 70
0
 10
-6.0662986638
 20
14.1020575159
 10
-6.1792841789
 20
14.1097361633
 10
-6.2905706829
 20
14.1131621681
 10
-6.3995682253
 20
14.1123009592
 10
-6.5060439236
 20
14.1070970439
 10
-6.6089054056
 20
14.0975254243
 10
-6.7063904293
 20
14.0837504559
 10
-6.7978154101
 20
14.0659359866
 10
-6.8828170618
 20
14.044192174
 10
-6.9604072541
 20
14.0188165684
 10
-7.0301469579
 20
13.9900267648
 10
-7.0917202215
 20
13.9579966164
 10
-7.1445704745
 20
13.9230622168
 10
-7.1884118829
 20
13.8854958114
 10
-7.2231201469
 20
13.8454605862
 10
-7.2485186176
 20
13.8031574378
  0
LWPOLYLINE
  5
5BB
100
AcDbEntity
  8
0
100
AcDbPolyline
 62
250
  6
CONTINUOUS
 90
16
 70
0
 10
7.2568189069
 20
13.7345991281
 10
7.2324418019
 20
13.7639911253
 10
7.1981762036
 20
13.7927122094
 10
7.1541970451
 20
13.8205465475
 10
7.1004852667
 20
13.8473323633
 10
7.0374316857
 20
13.8727445558
 10
6.9661602147
 20
13.8964237037
 10
6.8873961871
 20
13.9182536973
 10
6.8015478956
 20
13.9381060397
 10
6.7096514778
 20
13.9557775201
 10
6.6123976133
 20
13.9712212041
 10
6.5103315321
 20
13.9843578988
 10
6.4043909071
 20
13.9950370269
 10
6.2952971272
 20
14.0032147249
 10
6.183502925
 20
14.0089107999
 10
6.0695448787
 20
14.0121139685
  0
LWPOLYLINE
  5
5BC
100
AcDbEntity
  8
0
100
AcDbPolyline
 62
250
  6
CONTINUOUS
 90
16
 70
0
 10
6.7800009956
 20
16.8977165543
 10
6.7566897845
 20
16.9451391351
 10
6.723257641
 20
16.9897575253
 10
6.6798467818
 20
17.0313147776
 10
6.6264047864
 20
17.0696861593
 10
6.5633028112
 20
17.1044158094
 10
6.4916783443
 20
17.1348798246
 10
6.4122381797
 20
17.1608900234
 10
6.3254244048
 20
17.1823570003
 10
6.2324225173
 20
17.1990412118
 10
6.1339852462
 20
17.2108831709
 10
6.0306964886
 20
17.2178500051
 10
5.9236597206
 20
17.2199006396
 10
5.8137031954
 20
17.2170689211
 10
5.7013056924
 20
17.2093943078
 10
5.5870632237
 20
17.1969161078
  0
LINE
  5
5BD
100
AcDbEntity
  8
0
100
AcDbLine
 62
250
  6
CONTINUOUS
 10
6.4381470755
 20
18.9256505391
 11
6.4529386657
 21
18.8918505612
  0
LWPOLYLINE
  5
5BE
100
AcDbEntity
  8
0
100
AcDbPolyline
 62
250
  6
CONTINUOUS
 90
16
 70
0
 10
6.6775163707
 20
17.4378550888
 10
6.6529830879
 20
17.4984641349
 10
6.6185993345
 20
17.5561706885
 10
6.5745101853
 20
17.6106524751
 10
6.5206682479
 20
17.6617605108
 10
6.4574435505
 20
17.708916967
 10
6.3859490172
 20
17.7512931115
 10
6.3068700334
 20
17.7886169904
 10
6.220632085
 20
17.8207540376
 10
6.1283809121
 20
17.8473420023
 10
6.0308414559
 20
17.8682634572
 10
5.9285791694
 20
17.8834426028
 10
5.8226634987
 20
17.892761713
 10
5.7138937385
 20
17.8962113862
 10
5.6027293281
 20
17.8938105155
 10
5.4897448563
 20
17.8855702029
  0
LWPOLYLINE
  5
5BF
100
AcDbEntity
  8
0
100
AcDbPolyline
 62
7
  6
CONTINUOUS
 90
21
 70
0
 10
6.4146860105
 20
19.0076800032
 10
6.4003587296
 20
19.0438484433
 10
6.3844852539
 20
19.0816938067
 10
6.3667867786
 20
19.1212017097
 10
6.345657467
 20
19.1649395764
 10
6.3198548881
 20
19.2138994574
 10
6.2890721342
 20
19.2668978105
 10
6.2529378753
 20
19.3229300142
 10
6.2104919839
 20
19.3818324649
 10
6.1611764601
 20
19.4426851616
 10
6.1056090208
 20
19.5033301248
 10
6.0433741394
 20
19.5630868356
 10
5.9740984111
 20
19.6211760297
 10
5.8990744372
 20
19.675631722
 10
5.8184067968
 20
19.7257611392
 10
5.7319851416
 20
19.7709962907
 10
5.641277301
 20
19.8100802525
 10
5.5465225578
 20
19.8425812717
 10
5.4479782391
 20
19.8680529992
 10
5.3474690284
 20
19.8858235478
 10
5.2737251931
 20
19.8938179286
  0
LWPOLYLINE
  5
5C0
100
AcDbEntity
  8
0
100
AcDbPolyline
 62
250
  6
CONTINUOUS
 90
3
 70
0
 10
6.4529386657
 20
18.8918505612
 10
6.5307860957
 20
18.6840665432
 10
6.591069616
 20
18.5031424742
  0
LINE
  5
5C1
100
AcDbEntity
  8
0
100
AcDbLine
 62
250
  6
CONTINUOUS
 10
6.4529386657
 20
18.8918505612
 11
6.4146860105
 21
19.0076800032
  0
LWPOLYLINE
  5
5C2
100
AcDbEntity
  8
0
100
AcDbPolyline
 62
7
  6
CONTINUOUS
 90
6
 70
0
 10
6.591069616
 20
18.5031424742
 10
6.5521559161
 20
18.6239152945
 10
6.511868681
 20
18.7427196915
 10
6.4716460586
 20
18.8558161079
 10
6.4316170627
 20
18.9634886784
 10
6.4142424006
 20
19.0088235835
  0
LWPOLYLINE
  5
5C3
100
AcDbEntity
  8
0
100
AcDbPolyline
 62
7
  6
CONTINUOUS
 90
4
 70
0
 10
6.8930703764
 20
17.5546695445
 10
6.7654224459
 20
17.9523962729
 10
6.6359353597
 20
18.3602858296
 10
6.5937033106
 20
18.4946172028
  0
LINE
  5
5C4
100
AcDbEntity
  8
0
100
AcDbLine
 62
7
  6
CONTINUOUS
 10
6.591069616
 20
18.5031424742
 11
6.5935406336
 21
18.4952474032
  0
LWPOLYLINE
  5
5C5
100
AcDbEntity
  8
0
100
AcDbPolyline
 62
250
  6
CONTINUOUS
 90
3
 70
0
 10
6.3387903846
 20
-20.8033536518
 10
6.3277167932
 20
-20.821725186
 10
6.3152325017
 20
-20.8412123105
  0
LWPOLYLINE
  5
5C6
100
AcDbEntity
  8
0
100
AcDbPolyline
 62
250
  6
CONTINUOUS
 90
3
 70
0
 10
7.7353243755
 20
-18.0156876731
 10
7.6982208832
 20
-18.0522880216
 10
7.663392371
 20
-18.0724613037
  0
LINE
  5
5C7
100
AcDbEntity
  8
IGES
100
AcDbLine
 62
250
  6
CONTINUOUS
 10
-6.4020287329
 20
-20.6593223671
 11
-6.8769287103
 21
-20.8159624054
  0
LWPOLYLINE
  5
5C8
100
AcDbEntity
  8
IGES
100
AcDbPolyline
 62
250
  6
CONTINUOUS
 90
10
 70
0
 10
-5.5870431508
 20
17.1969163487
 10
-4.9681376103
 20
17.2554721788
 10
-4.3486970218
 20
17.307158474
 10
-3.7287447892
 20
17.351965688
 10
-3.1082899496
 20
17.3898811152
 10
-2.4873705252
 20
17.4209009158
 10
-1.8660535473
 20
17.4450305231
 10
-1.2443772307
 20
17.4622684236
 10
-0.6223509483
 20
17.4726057531
 10
0.0000014004
 20
17.4760386072
  0
LWPOLYLINE
  5
5C9
100
AcDbEntity
  8
0
100
AcDbPolyline
 62
250
  6
CONTINUOUS
 90
10
 70
0
 10
5.5870455
 20
17.1969155797
 10
4.9681399589
 20
17.2554714098
 10
4.3486993698
 20
17.307157705
 10
3.7287471367
 20
17.351964919
 10
3.1082922968
 20
17.3898803463
 10
2.487372872
 20
17.4209001469
 10
1.8660558939
 20
17.4450297541
 10
1.2443795771
 20
17.4622676546
 10
0.6223532946
 20
17.4726049841
 10
0.0000009458
 20
17.4760378382
  0
LWPOLYLINE
  5
5CA
100
AcDbEntity
  8
0
100
AcDbPolyline
 62
7
  6
CONTINUOUS
 90
4
 70
0
 10
6.2566030729
 20
-21.5543451239
 10
6.1461531898
 20
-21.6070564211
 10
6.0316477446
 20
-21.6489980121
 10
5.9136422337
 20
-21.68001845
  0
LWPOLYLINE
  5
5CB
100
AcDbEntity
  8
IGES
100
AcDbPolyline
 62
250
  6
CONTINUOUS
 90
12
 70
0
 10
-3.7385371762
 20
21.0253575518
 10
-3.4688714602
 20
21.0951546667
 10
-3.1797972282
 20
21.1595435411
 10
-2.8729109176
 20
21.2181665894
 10
-2.5499428009
 20
21.2706914081
 10
-2.2127288393
 20
21.316819554
 10
-1.8631774153
 20
21.3562927247
 10
-1.5032260007
 20
21.3888932899
 10
-1.1348585936
 20
21.414439525
 10
-0.7601241428
 20
21.4327875747
 10
-0.3811275755
 20
21.4438341378
 10
0.0000118375
 20
21.4475167422
  0
LWPOLYLINE
  5
5CC
100
AcDbEntity
  8
IGES
100
AcDbPolyline
 62
250
  6
CONTINUOUS
 90
9
 70
0
 10
-2.8950460782
 20
20.0380250589
 10
-2.6536623997
 20
20.0714174091
 10
-2.2960285069
 20
20.1133557533
 10
-1.9285742131
 20
20.1491496922
 10
-1.552868933
 20
20.1786469837
 10
-1.1705116279
 20
20.2017225344
 10
-0.7831359265
 20
20.2182776134
 10
-0.3924037704
 20
20.2282408351
 10
0.000011781
 20
20.2315693822
  0
LWPOLYLINE
  5
5CD
100
AcDbEntity
  8
IGES
100
AcDbPolyline
 62
7
  6
CONTINUOUS
 90
10
 70
0
 10
-5.2737001298
 20
19.893495275
 10
-5.1342223465
 20
19.9043465553
 10
-4.4678568163
 20
19.952177077
 10
-3.7995194971
 20
19.9934897148
 10
-3.1293434858
 20
20.0282241548
 10
-2.4574033444
 20
20.0563321093
 10
-1.7837160501
 20
20.0777809145
 10
-1.108359475
 20
20.0925353158
 10
-0.4314726842
 20
20.100558988
 10
0.0000002867
 20
20.1021446676
  0
LWPOLYLINE
  5
5CE
100
AcDbEntity
  8
IGES
100
AcDbPolyline
 62
7
  6
CONTINUOUS
 90
25
 70
0
 10
0.00000142
 20
22.0404511021
 10
-0.3735203769
 20
22.0364391425
 10
-0.7459938557
 20
22.0243676119
 10
-1.1151891954
 20
22.004206813
 10
-1.4791385629
 20
21.9759317234
 10
-1.8352229522
 20
21.9395924521
 10
-2.1805160671
 20
21.8953481743
 10
-2.5169387815
 20
21.8426362686
 10
-2.8382257085
 20
21.7820686178
 10
-3.1318145303
 20
21.7163603113
 10
-3.3948238989
 20
21.6472990001
 10
-3.6323691884
 20
21.5746721264
 10
-3.846884778
 20
21.4985403102
 10
-4.0394671533
 20
21.4192327823
 10
-4.2121728785
 20
21.3365659344
 10
-4.3690098603
 20
21.2488776028
 10
-4.5117761141
 20
21.1548185395
 10
-4.6403061659
 20
21.0538843526
 10
-4.7550261493
 20
20.9449247454
 10
-4.8563198986
 20
20.8261126872
 10
-4.9424689738
 20
20.6974332339
 10
-5.0106972044
 20
20.5616609032
 10
-5.0599011863
 20
20.420900718
 10
-5.0898829041
 20
20.2756146925
 10
-5.0999977591
 20
20.1275812725
  0
LWPOLYLINE
  5
5CF
100
AcDbEntity
  8
IGES
100
AcDbPolyline
 62
7
  6
CONTINUOUS
 90
14
 70
0
 10
0.0000010651
 20
20.8245224875
 10
-0.4332464453
 20
20.820023779
 10
-0.8650660849
 20
20.8065013989
 10
-1.2929778739
 20
20.7839454089
 10
-1.7139420693
 20
20.7524296512
 10
-2.1260012092
 20
20.7119975934
 10
-2.5283586451
 20
20.6625235383
 10
-2.9232367194
 20
20.6032357183
 10
-3.3028953726
 20
20.5347384517
 10
-3.6538658692
 20
20.4596244556
 10
-3.9738692646
 20
20.3792332347
 10
-4.2657990853
 20
20.2936750657
 10
-4.5278609421
 20
20.2043431871
 10
-4.7601987887
 20
20.1123742515
  0
LWPOLYLINE
  5
5D0
100
AcDbEntity
  8
0
100
AcDbPolyline
 62
7
  6
CONTINUOUS
 90
15
 70
0
 10
0.0000021118
 20
20.8245217185
 10
0.4329937409
 20
20.8200283313
 10
0.8645419841
 20
20.8065227308
 10
1.292171931
 20
20.7839961387
 10
1.7131900515
 20
20.7524940555
 10
2.1252877463
 20
20.7120758485
 10
2.5267059799
 20
20.6627480755
 10
2.9194715601
 20
20.6038555017
 10
3.2963554401
 20
20.5360240413
 10
3.6440641808
 20
20.4618955475
 10
3.9601724113
 20
20.3829401848
 10
4.2481018133
 20
20.2992466149
 10
4.5069498642
 20
20.2119823639
 10
4.7370390623
 20
20.1221809956
 10
4.9420220612
 20
20.0295358874
  0
LWPOLYLINE
  5
5D1
100
AcDbEntity
  8
0
100
AcDbPolyline
 62
7
  6
CONTINUOUS
 90
26
 70
0
 10
0.0000018701
 20
22.0404503331
 10
0.3730617163
 20
22.0364483083
 10
0.745073366
 20
22.0244069183
 10
1.1138153143
 20
22.0042968731
 10
1.4778030068
 20
21.9760509469
 10
1.8339270616
 20
21.9397408239
 10
2.1779206728
 20
21.8957160677
 10
2.5111840008
 20
21.8436250195
 10
2.8284437072
 20
21.7840769641
 10
3.1180546659
 20
21.7196901024
 10
3.3772286678
 20
21.6522636885
 10
3.611142606
 20
21.5816200036
 10
3.8227329277
 20
21.5076963281
 10
4.0132009216
 20
21.4307700968
 10
4.1843218904
 20
21.3507753648
 10
4.3398862411
 20
21.266251047
 10
4.4814585791
 20
21.176171473
 10
4.6092457498
 20
21.0800163413
 10
4.7243351073
 20
20.9762710964
 10
4.827155575
 20
20.8631546376
 10
4.9161406161
 20
20.7404795166
 10
4.9889284058
 20
20.6098914785
 10
5.0442078613
 20
20.4726713121
 10
5.0811855343
 20
20.3292612905
 10
5.0986556108
 20
20.1816777916
 10
5.1000008919
 20
20.1269730529
  0
LWPOLYLINE
  5
5D2
100
AcDbEntity
  8
0
100
AcDbPolyline
 62
7
  6
CONTINUOUS
 90
10
 70
0
 10
5.273702856
 20
19.893494506
 10
5.1342250762
 20
19.904345786
 10
4.4678595505
 20
19.9521763075
 10
3.7995222347
 20
19.9934889453
 10
3.1293462255
 20
20.0282233853
 10
2.4574060849
 20
20.0563313399
 10
1.7837187902
 20
20.0777801453
 10
1.1083622134
 20
20.0925345467
 10
0.4314754197
 20
20.100558219
 10
0.0000024447
 20
20.1021438987
  0
LWPOLYLINE
  5
5D3
100
AcDbEntity
  8
0
100
AcDbPolyline
 62
250
  6
CONTINUOUS
 90
9
 70
0
 10
2.8950494426
 20
20.0380242633
 10
2.6536655608
 20
20.0714166401
 10
2.2960316541
 20
20.1133549844
 10
1.9285773482
 20
20.1491489232
 10
1.5528720582
 20
20.1786462148
 10
1.1705147453
 20
20.2017217654
 10
0.7831390384
 20
20.2182768444
 10
0.3924068789
 20
20.2282400661
 10
-0.0000086736
 20
20.2315686133
  0
LWPOLYLINE
  5
5D4
100
AcDbEntity
  8
0
100
AcDbPolyline
 62
250
  6
CONTINUOUS
 90
12
 70
0
 10
3.7385405386
 20
21.0253567828
 10
3.4688747991
 20
21.0951538977
 10
3.1798005455
 20
21.1595427722
 10
2.8729142152
 20
21.2181658204
 10
2.5499460809
 20
21.2706906391
 10
2.2127321038
 20
21.316818785
 10
1.8631806666
 20
21.3562919557
 10
1.503229241
 20
21.3888925209
 10
1.1348618253
 20
21.4144387561
 10
0.7601273684
 20
21.4327868057
 10
0.3811307973
 20
21.4438333688
 10
-0.0000086169
 20
21.4475159732
  0
LINE
  5
5D5
100
AcDbEntity
  8
0
100
AcDbLine
 62
7
  6
CONTINUOUS
 10
4.9420220612
 20
20.0295358874
 11
5.1267871536
 21
19.932463926
  0
LINE
  5
5D6
100
AcDbEntity
  8
0
100
AcDbLine
 62
7
  6
CONTINUOUS
 10
5.1267871536
 20
19.932463926
 11
5.1780310377
 21
19.9009377108
  0
ARC
  5
5D7
100
AcDbEntity
  8
0
100
AcDbCircle
 62
7
  6
CONTINUOUS
 10
-212.9999997548
 20
-5.639522176
 40
220.0300046472
100
AcDbArc
 50
357.7793322618
 51
358.6569767796
  0
ARC
  5
5D8
100
AcDbEntity
  8
0
100
AcDbCircle
 62
7
  6
CONTINUOUS
 10
-212.9999997548
 20
-5.639522176
 40
220.0300046472
100
AcDbArc
 50
358.7958953889
 51
359.0042615871
  0
ARC
  5
5D9
100
AcDbEntity
  8
0
100
AcDbCircle
 62
7
  6
CONTINUOUS
 10
-212.9999997548
 20
-5.639522176
 40
220.0300046472
100
AcDbArc
 50
359.2126068029
 51
0.231535154
  0
ARC
  5
5DA
100
AcDbEntity
  8
0
100
AcDbCircle
 62
7
  6
CONTINUOUS
 10
-212.9999996648
 20
-5.6395223282
 40
220.0300046472
100
AcDbArc
 50
0.3704214024
 51
1.2477290079
  0
ARC
  5
5DB
100
AcDbEntity
  8
0
100
AcDbCircle
 62
7
  6
CONTINUOUS
 10
-212.9999997548
 20
-5.639522176
 40
220.0300046472
100
AcDbArc
 50
1.3866499689
 51
2.2206677216
  0
ARC
  5
5DC
100
AcDbEntity
  8
0
100
AcDbCircle
 62
7
  6
CONTINUOUS
 10
-212.9999999775
 20
-5.6395217991
 40
220.0000046472
100
AcDbArc
 50
357.0167876602
 51
2.9831944824
  0
ARC
  5
5DD
100
AcDbEntity
  8
IGES
100
AcDbCircle
 62
7
  6
CONTINUOUS
 10
-0.001629523
 20
-39.2395210301
 40
50.0000000266
100
AcDbArc
 50
89.9981321576
 51
95.9712046864
  0
ARC
  5
5DE
100
AcDbEntity
  8
0
100
AcDbCircle
 62
7
  6
CONTINUOUS
 10
-0.000000477
 20
-39.289520185
 40
48.2
100
AcDbArc
 50
84.4617257555
 51
95.5382742438
  0
ARC
  5
5DF
100
AcDbEntity
  8
0
100
AcDbCircle
 62
7
  6
CONTINUOUS
 10
-33.2439299775
 20
-15.0072717991
 40
40.0000061975
100
AcDbArc
 50
351.8773484382
 51
357.016808525
  0
ARC
  5
5E0
100
AcDbEntity
  8
RACCORDO
100
AcDbCircle
 62
250
  6
CONTINUOUS
 10
-0.000000477
 20
-15.139520185
 40
3.435460193
100
AcDbArc
 50
180.0
 51
360.0
  0
ARC
  5
5E1
100
AcDbEntity
  8
RACCORDO
100
AcDbCircle
 62
7
  6
CONTINUOUS
 10
-0.0000004636
 20
-15.1395202076
 40
3.2854836633
100
AcDbArc
 50
180.0
 51
360.0
  0
ARC
  5
5E2
100
AcDbEntity
  8
DRAFT
100
AcDbCircle
 62
7
  6
CONTINUOUS
 10
-0.0000003555
 20
-15.1395203905
 40
3.275
100
AcDbArc
 50
180.0
 51
360.0
  0
ARC
  5
5E3
100
AcDbEntity
  8
RACCORDO
100
AcDbCircle
 62
7
  6
CONTINUOUS
 10
0.0000000135
 20
-15.1395210149
 40
3.25
100
AcDbArc
 50
180.0
 51
360.0
  0
ARC
  5
5E4
100
AcDbEntity
  8
RACCORDO
100
AcDbCircle
 62
250
  6
CONTINUOUS
 10
0.0
 20
-15.139520992
 40
3.0999967126
100
AcDbArc
 50
180.0
 51
360.0
  0
CIRCLE
  5
5E5
100
AcDbEntity
  8
0
100
AcDbCircle
 62
7
  6
CONTINUOUS
 10
-0.0000015944
 20
-15.1395182942
 40
2.0
  0
ARC
  5
5E6
100
AcDbEntity
  8
IGES
100
AcDbCircle
 62
7
  6
CONTINUOUS
 10
-5.067829523
 20
-20.4752910301
 40
1.3000016862
100
AcDbArc
 50
188.1226228129
 51
264.028796519
  0
ARC
  5
5E7
100
AcDbEntity
  8
IGES
100
AcDbCircle
 62
7
  6
CONTINUOUS
 10
-0.001629523
 20
27.9604789699
 40
49.9999957634
100
AcDbArc
 50
264.0287850241
 51
270.001857553
  0
ARC
  5
5E8
100
AcDbEntity
  8
0
100
AcDbCircle
 62
7
  6
CONTINUOUS
 10
-0.000000477
 20
28.010479815
 40
48.2
100
AcDbArc
 50
264.4617257562
 51
275.5382742443
  0
ARC
  5
5E9
100
AcDbEntity
  8
0
100
AcDbCircle
 62
7
  6
CONTINUOUS
 10
-33.2439299775
 20
3.7282282009
 40
40.0000042316
100
AcDbArc
 50
2.9831835976
 51
8.1226436844
  0
ARC
  5
5EA
100
AcDbEntity
  8
RACCORDO
100
AcDbCircle
 62
250
  6
CONTINUOUS
 10
-0.000000477
 20
3.860479815
 40
3.435460193
100
AcDbArc
 50
0.0
 51
180.0
  0
ARC
  5
5EB
100
AcDbEntity
  8
RACCORDO
100
AcDbCircle
 62
7
  6
CONTINUOUS
 10
-0.0000004636
 20
3.8604797924
 40
3.2854836633
100
AcDbArc
 50
0.0
 51
180.0
  0
ARC
  5
5EC
100
AcDbEntity
  8
DRAFT
100
AcDbCircle
 62
7
  6
CONTINUOUS
 10
-0.0000003555
 20
3.8604796095
 40
3.275
100
AcDbArc
 50
0.0
 51
180.0
  0
ARC
  5
5ED
100
AcDbEntity
  8
RACCORDO
100
AcDbCircle
 62
7
  6
CONTINUOUS
 10
0.0000000135
 20
3.8604789851
 40
3.25
100
AcDbArc
 50
0.0
 51
180.0
  0
ARC
  5
5EE
100
AcDbEntity
  8
RACCORDO
100
AcDbCircle
 62
250
  6
CONTINUOUS
 10
0.0
 20
3.860479008
 40
3.0999967126
100
AcDbArc
 50
0.0
 51
180.0
  0
CIRCLE
  5
5EF
100
AcDbEntity
  8
0
100
AcDbCircle
 62
7
  6
CONTINUOUS
 10
-0.0000015944
 20
3.8604817058
 40
2.0
  0
CIRCLE
  5
5F0
100
AcDbEntity
  8
0
100
AcDbCircle
 62
7
  6
CONTINUOUS
 10
-0.0000016304
 20
-5.6395182333
 40
2.0
  0
ARC
  5
5F1
100
AcDbEntity
  8
IGES
100
AcDbCircle
 62
7
  6
CONTINUOUS
 10
-5.067829523
 20
9.1962489699
 40
1.2999937312
100
AcDbArc
 50
95.9713568116
 51
171.8775076295
  0
ARC
  5
5F2
100
AcDbEntity
  8
0
100
AcDbCircle
 62
7
  6
CONTINUOUS
 10
213.0000008427
 20
-5.639521649
 40
220.0300046472
100
AcDbArc
 50
181.3866499689
 51
182.2206677549
  0
ARC
  5
5F3
100
AcDbEntity
  8
0
100
AcDbCircle
 62
7
  6
CONTINUOUS
 10
213.0000007897
 20
-5.6395215593
 40
220.0300046472
100
AcDbArc
 50
180.3704214024
 51
181.2477290079
  0
ARC
  5
5F4
100
AcDbEntity
  8
0
100
AcDbCircle
 62
7
  6
CONTINUOUS
 10
213.0000006997
 20
-5.639521407
 40
220.0300046472
100
AcDbArc
 50
179.2126068029
 51
180.231535154
  0
ARC
  5
5F5
100
AcDbEntity
  8
0
100
AcDbCircle
 62
7
  6
CONTINUOUS
 10
213.0000006997
 20
-5.639521407
 40
220.0300046472
100
AcDbArc
 50
178.7958953889
 51
179.0042615871
  0
ARC
  5
5F6
100
AcDbEntity
  8
0
100
AcDbCircle
 62
7
  6
CONTINUOUS
 10
213.0000007617
 20
-5.6395215118
 40
220.0300046472
100
AcDbArc
 50
177.7793322618
 51
178.6569767796
  0
ARC
  5
5F7
100
AcDbEntity
  8
IGES
100
AcDbCircle
 62
7
  6
CONTINUOUS
 10
213.000000477
 20
-5.6395210301
 40
220.0000046472
100
AcDbArc
 50
177.0168055176
 51
182.9832123398
  0
ARC
  5
5F8
100
AcDbEntity
  8
0
100
AcDbCircle
 62
7
  6
CONTINUOUS
 10
0.0016300225
 20
-39.2395217991
 40
50.0000000266
100
AcDbArc
 50
84.0287953136
 51
90.0018678424
  0
ARC
  5
5F9
100
AcDbEntity
  8
IGES
100
AcDbCircle
 62
7
  6
CONTINUOUS
 10
33.243930477
 20
-15.0072710301
 40
40.0000061975
100
AcDbArc
 50
182.983191475
 51
188.1226515618
  0
ARC
  5
5FA
100
AcDbEntity
  8
0
100
AcDbCircle
 62
7
  6
CONTINUOUS
 10
5.0678300225
 20
-20.4752917991
 40
1.3000016862
100
AcDbArc
 50
275.971203481
 51
351.8773771871
  0
ARC
  5
5FB
100
AcDbEntity
  8
0
100
AcDbCircle
 62
7
  6
CONTINUOUS
 10
0.0016300225
 20
27.9604782009
 40
49.9999957634
100
AcDbArc
 50
269.998142447
 51
275.9712149759
  0
ARC
  5
5FC
100
AcDbEntity
  8
IGES
100
AcDbCircle
 62
7
  6
CONTINUOUS
 10
33.243930477
 20
3.7282289699
 40
40.0000042316
100
AcDbArc
 50
171.8773563156
 51
177.0168164024
  0
ARC
  5
5FD
100
AcDbEntity
  8
0
100
AcDbCircle
 62
7
  6
CONTINUOUS
 10
5.0678300225
 20
9.1962482009
 40
1.2999937312
100
AcDbArc
 50
8.1224923705
 51
84.0286431884
  0
ENDSEC
  0
SECTION
  2
OBJECTS
  0
DICTIONARY
  5
C
100
AcDbDictionary
280
0
281
1
  3
ACAD_GROUP
350
D
  3
ACAD_MLINESTYLE
350
17
  3
ACAD_LAYOUT
350
1A
  3
ACAD_PLOTSETTINGS
350
19
  3
ACAD_PLOTSTYLENAME
350
E
  0
DICTIONARY
  5
D
102
{ACAD_REACTORS
330
C
102
}
100
AcDbDictionary
280
0
281
1
  0
ACDBDICTIONARYWDFLT
  5
E
102
{ACAD_REACTORS
330
C
102
}
100
AcDbDictionary
281
1
  3
Normal
350
F
100
AcDbDictionaryWithDefault
340
F
  0
DICTIONARY
  5
17
102
{ACAD_REACTORS
330
C
102
}
100
AcDbDictionary
280
0
281
1
  3
Standard
350
18
  0
DICTIONARY
  5
19
102
{ACAD_REACTORS
330
C
102
}
100
AcDbDictionary
281
1
  0
DICTIONARY
  5
1A
102
{ACAD_REACTORS
330
C
102
}
100
AcDbDictionary
281
1
  3
Model
350
5FE
  3
Layout1
350
5FF
  0
ACDBPLACEHOLDER
  5
F
102
{ACAD_REACTORS
330
E
102
}
  0
MLINESTYLE
  5
18
102
{ACAD_REACTORS
330
17
102
}
100
AcDbMlineStyle
  2
STANDARD
 70
0
  3

 62
256
 51
90.0
 52
90.0
 71
2
 49
0.5
 62
256
  6
BYLAYER
 49
-0.5
 62
256
  6
BYLAYER
  0
LAYOUT
  5
5FE
102
{ACAD_REACTORS
330
1A
102
}
100
AcDbPlotSettings
  1

  2
none_device
  4
ISO_A4_(297.00_x_210.00_MM)
  6

 40
0.0
 41
0.0
 42
0.0
 43
0.0
 44
297.0
 45
210.0
 46
0.0
 47
0.0
 48
0.0
 49
0.0
140
0.0
141
0.0
142
1.0
143
1.0
 70
1024
 72
1
 73
0
 74
0
  7

 75
0
147
1.0
148
0.0
149
0.0
100
AcDbLayout
  1
Model
 70
0
 71
0
 10
0.0
 20
0.0
 11
297.0
 21
210.0
 12
0.0
 22
0.0
 32
0.0
 14
0.0
 24
0.0
 34
0.0
 15
0.0
 25
0.0
 35
0.0
146
0.0
 13
0.0
 23
0.0
 33
0.0
 16
1.0
 26
0.0
 36
0.0
 17
0.0
 27
1.0
 37
0.0
 76
0
330
219
345
0
346
0
  0
LAYOUT
  5
5FF
102
{ACAD_REACTORS
330
1A
102
}
100
AcDbPlotSettings
  1

  2
none_device
  4
ISO_A4_(297.00_x_210.00_MM)
  6

 40
0.0
 41
0.0
 42
0.0
 43
0.0
 44
297.0
 45
210.0
 46
0.0
 47
0.0
 48
0.0
 49
0.0
140
0.0
141
0.0
142
1.0
143
1.0
 70
0
 72
1
 73
0
 74
0
  7

 75
0
147
1.0
148
0.0
149
0.0
100
AcDbLayout
  1
Layout1
 70
0
 71
1
 10
0.0
 20
0.0
 11
297.0
 21
210.0
 12
0.0
 22
0.0
 32
0.0
 14
0.0
 24
0.0
 34
0.0
 15
0.0
 25
0.0
 35
0.0
146
0.0
 13
0.0
 23
0.0
 33
0.0
 16
1.0
 26
0.0
 36
0.0
 17
0.0
 27
1.0
 37
0.0
 76
0
330
21A
345
0
346
0
  0
ENDSEC
  0
EOF
